999
DXF file: E:\BT Custom\CADOUTPUT\_FRONT.dxf
999
Pro/ENGINEER 2018400 by Parametric Technology Corporation
  0
SECTION
  2
HEADER
  9
$ACADVER
  1
AC1018
  9
$DWGCODEPAGE
  3
ANSI_1252
  9
$EXTMAX
 10
22.0
 20
17.0
 30
0.0
  9
$EXTMIN
 10
0.0
 20
0.0
 30
0.0
  9
$LIMMIN
 10
0.0
 20
0.0
  9
$LIMMAX
 10
22.0
 20
17.0
  9
$VIEWCTR
 10
11.0
 20
8.5
  9
$VIEWSIZE
 40
17.0
  9
$CLAYER
  8
0
  9
$LTSCALE
 40
1.21
  9
$CELTYPE
  6
BYLAYER
  9
$DIMSCALE
 40
1.0
  9
$DIMASZ
 40
0.1
  9
$DIMEXO
 40
0.0625
  9
$DIMDLI
 40
0.836
  9
$DIMEXE
 40
0.125
  9
$DIMCEN
 40
0.198
  9
$DIMLFAC
 40
1.0
  9
$DIMBLK
  1
_FILLED
  9
$DIMALT
 70
1
  9
$DIMALTD
 70
2
  9
$DIMALTTD
 70
2
  9
$DIMALTF
 40
25.4
  9
$DIMTXT
 40
0.08
  9
$DIMTOL
 70
1
  9
$DIMLIM
 70
0
  9
$DIMTFAC
 40
1.0
  9
$DIMTP
 40
0.001
  9
$DIMTM
 40
0.001
  9
$DIMGAP
 40
0.09
  9
$DIMDSEP
 70
46
  9
$AUNITS
 70
0
  9
$PDMODE
 70
3
  9
$PDSIZE
 40
0.06
  9
$HANDSEED
  5
245
  9
$TILEMODE
 70
1
  9
$MEASUREMENT
 70
0
  9
$INSUNITS
 70
1
  0
ENDSEC
  0
SECTION
  2
CLASSES
  0
CLASS
  1
ACDBDICTIONARYWDFLT
  2
AcDbDictionaryWithDefault
  3
AutoCAD 2000
 90
0
 91
1
280
0
281
0
  0
CLASS
  1
ACDBPLACEHOLDER
  2
AcDbPlaceHolder
  3
AutoCAD 2000
 90
0
 91
1
280
0
281
0
  0
CLASS
  1
LAYOUT
  2
AcDbLayout
  3
AutoCAD 2000
 90
0
 91
0
280
0
281
0
  0
ENDSEC
  0
SECTION
  2
TABLES
  0
TABLE
  2
VPORT
  5
8
100
AcDbSymbolTable
 70
2
  0
VPORT
  5
1F4
100
AcDbSymbolTableRecord
100
AcDbViewportTableRecord
  2
*ACTIVE
 70
0
 10
0.0
 20
0.0
 11
1.0
 21
1.0
 12
11.0
 22
8.5
 13
0.0
 23
0.0
 14
1.0
 24
1.0
 15
0.0
 25
0.0
 16
0.0
 26
0.0
 36
1.0
 17
0.0
 27
0.0
 37
0.0
 40
17.0
 41
1.2941176471
 42
50.0
 43
0.0
 44
0.0
 50
0.0
 51
0.0
 71
0
 72
100
 73
1
 74
1
 75
0
 76
0
 77
0
 78
0
  0
ENDTAB
  0
TABLE
  2
LTYPE
  5
5
100
AcDbSymbolTable
 70
6
  0
LTYPE
  5
14
100
AcDbSymbolTableRecord
100
AcDbLinetypeTableRecord
  2
BYBLOCK
 70
0
  3

 72
65
 73
0
 40
0.0
  0
LTYPE
  5
15
100
AcDbSymbolTableRecord
100
AcDbLinetypeTableRecord
  2
BYLAYER
 70
0
  3

 72
65
 73
0
 40
0.0
  0
LTYPE
  5
16
100
AcDbSymbolTableRecord
100
AcDbLinetypeTableRecord
  2
CONTINUOUS
 70
64
  3
Solid line
 72
65
 73
0
 40
0.0
  0
LTYPE
  5
1F5
100
AcDbSymbolTableRecord
100
AcDbLinetypeTableRecord
  2
CENTER
 70
64
  3
____ _ ____ _ ____ _ ____ _ ____ _ ____ _ ____
 72
65
 73
4
 40
0.6
 49
0.375
 74
0
 49
-0.075
 74
0
 49
0.075
 74
0
 49
-0.075
 74
0
  0
LTYPE
  5
1F6
100
AcDbSymbolTableRecord
100
AcDbLinetypeTableRecord
  2
HIDDEN
 70
64
  3
- - - - - - - - - - - - - - - - - - - -
 72
65
 73
2
 40
0.2
 49
0.1
 74
0
 49
-0.1
 74
0
  0
LTYPE
  5
1F7
100
AcDbSymbolTableRecord
100
AcDbLinetypeTableRecord
  2
PHANTOM
 70
64
  3
_____ _ _ _____ _ _ _____ _ _ _____
 72
65
 73
6
 40
0.8
 49
0.45
 74
0
 49
-0.05
 74
0
 49
0.1
 74
0
 49
-0.05
 74
0
 49
0.1
 74
0
 49
-0.05
 74
0
  0
LTYPE
  5
1F8
100
AcDbSymbolTableRecord
100
AcDbLinetypeTableRecord
  2
DOT
 70
64
  3
. . . . . . . . . . . . . . . . . . . .
 72
65
 73
2
 40
0.2
 49
0.1
 74
0
 49
-0.1
 74
0
  0
LTYPE
  5
1F9
100
AcDbSymbolTableRecord
100
AcDbLinetypeTableRecord
  2
DASHED
 70
64
  3
- - - - - - - - - - - - - - - - - - - -
 72
65
 73
2
 40
0.2
 49
0.1
 74
0
 49
-0.1
 74
0
  0
ENDTAB
  0
TABLE
  2
LAYER
  5
2
100
AcDbSymbolTable
 70
36
  0
LAYER
  5
10
100
AcDbSymbolTableRecord
100
AcDbLayerTableRecord
  2
0
 70
0
 62
7
  6
CONTINUOUS
370
-3
390
F
  0
LAYER
  5
1FA
100
AcDbSymbolTableRecord
100
AcDbLayerTableRecord
  2
DEFAULT_1
 70
0
 62
7
  6
CENTER
370
-3
390
F
  0
LAYER
  5
1FB
100
AcDbSymbolTableRecord
100
AcDbLayerTableRecord
  2
DEFAULT_2
 70
0
 62
8
  6
HIDDEN
370
-3
390
F
  0
LAYER
  5
1FC
100
AcDbSymbolTableRecord
100
AcDbLayerTableRecord
  2
DEFAULT_3
 70
0
 62
7
  6
PHANTOM
370
-3
390
F
  0
LAYER
  5
1FD
100
AcDbSymbolTableRecord
100
AcDbLayerTableRecord
  2
ALL_FEATURES
 70
0
 62
7
  6
CONTINUOUS
370
-3
390
F
  0
LAYER
  5
1FE
100
AcDbSymbolTableRecord
100
AcDbLayerTableRecord
  2
AXES_FEATURES
 70
0
 62
7
  6
CONTINUOUS
370
-3
390
F
  0
LAYER
  5
1FF
100
AcDbSymbolTableRecord
100
AcDbLayerTableRecord
  2
DIMENSIONS
 70
0
 62
7
  6
CONTINUOUS
370
-3
390
F
  0
ENDTAB
  0
TABLE
  2
STYLE
  5
3
100
AcDbSymbolTable
 70
1
  0
STYLE
  5
11
100
AcDbSymbolTableRecord
100
AcDbTextStyleTableRecord
  2
STANDARD
 70
0
 40
0.0
 41
0.8
 50
0.0
 71
0
 42
0.2
  3
txt
  4

  0
STYLE
  5
200
100
AcDbSymbolTableRecord
100
AcDbTextStyleTableRecord
  2
TEXTSTYLE_1
 70
0
 40
0.0
 41
0.8
 50
0.0
 71
0
 42
0.2
  3
gdt
  4

  0
ENDTAB
  0
TABLE
  2
VIEW
  5
6
100
AcDbSymbolTable
 70
0
  0
ENDTAB
  0
TABLE
  2
UCS
  5
7
100
AcDbSymbolTable
 70
0
  0
ENDTAB
  0
TABLE
  2
APPID
  5
9
100
AcDbSymbolTable
 70
1
  0
APPID
  5
201
100
AcDbSymbolTableRecord
100
AcDbRegAppTableRecord
  2
ACAD
 70
0
  0
ENDTAB
  0
TABLE
  2
BLOCK_RECORD
  5
1
100
AcDbSymbolTable
 70
0
  0
BLOCK_RECORD
  5
202
100
AcDbSymbolTableRecord
100
AcDbBlockTableRecord
  2
*Model_Space
  0
BLOCK_RECORD
  5
203
100
AcDbSymbolTableRecord
100
AcDbBlockTableRecord
  2
*Paper_Space
  0
BLOCK_RECORD
  5
204
100
AcDbSymbolTableRecord
100
AcDbBlockTableRecord
  2
_FILLED
  0
ENDTAB
  0
TABLE
  2
DIMSTYLE
  5
A
100
AcDbSymbolTable
 70
1
100
AcDbDimStyleTable
 71
0
  0
DIMSTYLE
105
205
100
AcDbSymbolTableRecord
100
AcDbDimStyleTableRecord
  2
STANDARD
 70
0
  3

  4

 40
1.0
 41
0.1
 42
0.0625
 43
0.38
 44
0.125
 45
0.0
 46
0.0
 47
0.001
 48
0.001
140
0.08
141
0.09
142
0.0
143
25.4
144
1.0
145
0.0
146
1.0
147
0.09
 71
1.0
 72
0.0
 73
1
 74
1
 75
0
 76
0
 77
0
 78
4
 79
1
170
1
171
2
172
0
173
0
174
0
175
0
176
0
177
0
178
0
270
2
179
3
271
3
272
3
273
2
274
2
275
0
280
0
281
0
282
0
283
1
284
4
285
0
286
0
287
3
288
0
340
11
278
46
341
204
342
204
343
204
344
204
  0
ENDTAB
  0
ENDSEC
  0
SECTION
  2
BLOCKS
  0
BLOCK
  5
20
100
AcDbEntity
  8
0
100
AcDbBlockBegin
  2
*Model_Space
 70
0
 10
0.0
 20
0.0
 30
0.0
  3
*Model_Space
  1

  0
ENDBLK
  5
21
100
AcDbEntity
  8
0
100
AcDbBlockEnd
  0
BLOCK
  5
1C
100
AcDbEntity
  8
0
100
AcDbBlockBegin
  2
*Paper_Space
 70
0
 10
0.0
 20
0.0
 30
0.0
  3
*Paper_Space
  1

  0
ENDBLK
  5
1D
100
AcDbEntity
  8
0
100
AcDbBlockEnd
  0
BLOCK
  5
206
100
AcDbEntity
  8
0
100
AcDbBlockBegin
  2
_FILLED
 70
64
 10
0.0
 20
0.0
  3
_FILLED
  1

  0
SOLID
  5
207
100
AcDbEntity
  8
0
  6
BYBLOCK
 62
0
100
AcDbTrace
 10
0.0
 20
0.0
 11
-1.0
 21
0.2
 12
-1.0
 22
-0.2
 13
-1.0
 23
-0.2
  0
ENDBLK
  5
208
100
AcDbEntity
  8
0
  6
BYBLOCK
 62
0
100
AcDbBlockEnd
  0
ENDSEC
  0
SECTION
  2
ENTITIES
  0
LINE
  5
209
100
AcDbEntity
  8
0
100
AcDbLine
 62
7
  6
CONTINUOUS
 10
9.0576923427
 20
7.5126695021
 11
9.0576923427
 21
7.7826695021
  0
LINE
  5
20A
100
AcDbEntity
  8
0
100
AcDbLine
 62
9
  6
CONTINUOUS
 10
9.0976923427
 20
7.8226695021
 11
9.0976923427
 21
7.5126695021
  0
LINE
  5
20B
100
AcDbEntity
  8
0
100
AcDbLine
 62
9
  6
CONTINUOUS
 10
9.9577001069
 20
10.8182302805
 11
9.9294158356
 21
10.7899460093
  0
LINE
  5
20C
100
AcDbEntity
  8
0
100
AcDbLine
 62
7
  6
CONTINUOUS
 10
9.0576923427
 20
7.5126695021
 11
12.7176923427
 21
7.5126695021
  0
LINE
  5
20D
100
AcDbEntity
  8
0
100
AcDbLine
 62
9
  6
CONTINUOUS
 10
12.7176923427
 20
7.7826695021
 11
9.0576923427
 21
7.7826695021
  0
LINE
  5
20E
100
AcDbEntity
  8
0
100
AcDbLine
 62
7
  6
CONTINUOUS
 10
9.0976923427
 20
7.8226695021
 11
12.6776923427
 21
7.8226695021
  0
LINE
  5
20F
100
AcDbEntity
  8
0
100
AcDbLine
 62
7
  6
CONTINUOUS
 10
9.6306923427
 20
10.0786695021
 11
9.6306923427
 21
10.9826695021
  0
LINE
  5
210
100
AcDbEntity
  8
0
100
AcDbLine
 62
9
  6
CONTINUOUS
 10
9.6706923427
 20
11.0226695021
 11
9.6706923427
 21
10.0386695021
  0
LINE
  5
211
100
AcDbEntity
  8
0
100
AcDbLine
 62
9
  6
CONTINUOUS
 10
9.8150457569
 20
10.0786695021
 11
9.8150466738
 21
10.7723641098
  0
LINE
  5
212
100
AcDbEntity
  8
0
100
AcDbLine
 62
7
  6
CONTINUOUS
 10
9.8276923427
 20
9.9986695021
 11
9.8276923427
 21
8.2486695021
  0
LINE
  5
213
100
AcDbEntity
  8
0
100
AcDbLine
 62
7
  6
CONTINUOUS
 10
9.8276923427
 20
7.8226695021
 11
9.8276923427
 21
8.1986695021
  0
LINE
  5
214
100
AcDbEntity
  8
0
100
AcDbLine
 62
9
  6
CONTINUOUS
 10
9.8527174803
 20
10.0786621718
 11
9.8527174803
 21
10.7724024891
  0
LINE
  5
215
100
AcDbEntity
  8
0
100
AcDbLine
 62
7
  6
CONTINUOUS
 10
9.9176923427
 20
8.1986695021
 11
9.9176923427
 21
8.2486695021
  0
LINE
  5
216
100
AcDbEntity
  8
0
100
AcDbLine
 62
7
  6
CONTINUOUS
 10
10.6876915246
 20
8.1986695021
 11
9.8276931609
 21
8.1986695021
  0
LINE
  5
217
100
AcDbEntity
  8
0
100
AcDbLine
 62
7
  6
CONTINUOUS
 10
9.8276923427
 20
8.2486695021
 11
10.6876923427
 21
8.2486695021
  0
LINE
  5
218
100
AcDbEntity
  8
0
100
AcDbLine
 62
9
  6
CONTINUOUS
 10
10.6901862119
 20
10.0786695477
 11
10.6550928677
 21
10.0607315092
  0
LINE
  5
219
100
AcDbEntity
  8
0
100
AcDbLine
 62
9
  6
CONTINUOUS
 10
10.6425376336
 20
10.0768242113
 11
10.6708219049
 21
10.1051084825
  0
LINE
  5
21A
100
AcDbEntity
  8
0
100
AcDbLine
 62
7
  6
CONTINUOUS
 10
10.5976923427
 20
8.1986695021
 11
10.5976923427
 21
8.2486695021
  0
LINE
  5
21B
100
AcDbEntity
  8
0
100
AcDbLine
 62
7
  6
CONTINUOUS
 10
10.6876923427
 20
9.9986695021
 11
10.6876923427
 21
8.2486695021
  0
LINE
  5
21C
100
AcDbEntity
  8
0
100
AcDbLine
 62
7
  6
CONTINUOUS
 10
10.6876923427
 20
7.8226695021
 11
10.6876923427
 21
8.1986695021
  0
LINE
  5
21D
100
AcDbEntity
  8
0
100
AcDbLine
 62
7
  6
CONTINUOUS
 10
10.6425376512
 20
10.0768241937
 11
9.9294158395
 21
10.7899460054
  0
LINE
  5
21E
100
AcDbEntity
  8
0
100
AcDbLine
 62
9
  6
CONTINUOUS
 10
10.6708219252
 20
10.1051084622
 11
9.9577001069
 21
10.8182302805
  0
LINE
  5
21F
100
AcDbEntity
  8
0
100
AcDbLine
 62
9
  6
CONTINUOUS
 10
10.6876923427
 20
9.9986695021
 11
10.6817294961
 21
9.9986695021
  0
LINE
  5
220
100
AcDbEntity
  8
0
100
AcDbLine
 62
9
  6
CONTINUOUS
 10
9.8336551893
 20
9.9986695021
 11
9.8277954911
 21
9.9986695021
  0
LINE
  5
221
100
AcDbEntity
  8
0
100
AcDbLine
 62
7
  6
CONTINUOUS
 10
12.7776923427
 20
10.0386695021
 11
10.7211748127
 21
10.0386695021
  0
LINE
  5
222
100
AcDbEntity
  8
0
100
AcDbLine
 62
7
  6
CONTINUOUS
 10
9.7942098727
 20
10.0386695021
 11
9.6706923427
 21
10.0386695021
  0
LINE
  5
223
100
AcDbEntity
  8
0
100
AcDbLine
 62
9
  6
CONTINUOUS
 10
10.6901862348
 20
10.0786695022
 11
12.8176923427
 21
10.0786695021
  0
LINE
  5
224
100
AcDbEntity
  8
0
100
AcDbLine
 62
9
  6
CONTINUOUS
 10
9.8527174803
 20
10.078669773
 11
9.6306923427
 21
10.0786695021
  0
LINE
  5
225
100
AcDbEntity
  8
0
100
AcDbLine
 62
9
  6
CONTINUOUS
 10
12.8176923427
 20
10.9826695021
 11
9.6306923427
 21
10.9826695021
  0
LINE
  5
226
100
AcDbEntity
  8
0
100
AcDbLine
 62
9
  6
CONTINUOUS
 10
12.6776923427
 20
7.5126695021
 11
12.6776923427
 21
7.8226695021
  0
LINE
  5
227
100
AcDbEntity
  8
0
100
AcDbLine
 62
7
  6
CONTINUOUS
 10
12.7176923427
 20
7.7826695021
 11
12.7176923427
 21
7.5126695021
  0
LINE
  5
228
100
AcDbEntity
  8
0
100
AcDbLine
 62
9
  6
CONTINUOUS
 10
12.7776923427
 20
10.0386695021
 11
12.7776923427
 21
11.0226695021
  0
LINE
  5
229
100
AcDbEntity
  8
0
100
AcDbLine
 62
7
  6
CONTINUOUS
 10
12.8176923427
 20
10.9826695021
 11
12.8176923427
 21
10.0786695021
  0
LINE
  5
22A
100
AcDbEntity
  8
0
100
AcDbLine
 62
7
  6
CONTINUOUS
 10
9.6706923427
 20
11.0226695021
 11
12.7776923427
 21
11.0226695021
  0
ARC
  5
22B
100
AcDbEntity
  8
0
100
AcDbCircle
 62
7
  6
CONTINUOUS
 10
9.7876923427
 20
9.9986695021
 40
0.04
100
AcDbArc
 50
0.0
 51
80.7412353995
  0
ARC
  5
22C
100
AcDbEntity
  8
0
100
AcDbCircle
 62
7
  6
CONTINUOUS
 10
10.7276923427
 20
9.9986695021
 40
0.04
100
AcDbArc
 50
99.2587646005
 51
180.0
  0
ARC
  5
22D
100
AcDbEntity
  8
0
100
AcDbCircle
 62
7
  6
CONTINUOUS
 10
9.6706923427
 20
10.9826695021
 40
0.04
100
AcDbArc
 50
90.0
 51
180.0
  0
ARC
  5
22E
100
AcDbEntity
  8
0
100
AcDbCircle
 62
7
  6
CONTINUOUS
 10
12.7776923427
 20
10.9826695021
 40
0.04
100
AcDbArc
 50
0.0
 51
90.0
  0
ARC
  5
22F
100
AcDbEntity
  8
0
100
AcDbCircle
 62
7
  6
CONTINUOUS
 10
12.6776923427
 20
7.7826695021
 40
0.04
100
AcDbArc
 50
0.0
 51
90.0
  0
ARC
  5
230
100
AcDbEntity
  8
0
100
AcDbCircle
 62
7
  6
CONTINUOUS
 10
9.0976923427
 20
7.7826695021
 40
0.04
100
AcDbArc
 50
90.0
 51
180.0
  0
ARC
  5
231
100
AcDbEntity
  8
0
100
AcDbCircle
 62
7
  6
CONTINUOUS
 10
12.7776923427
 20
10.0786695021
 40
0.04
100
AcDbArc
 50
270.0
 51
360.0
  0
ARC
  5
232
100
AcDbEntity
  8
0
100
AcDbCircle
 62
7
  6
CONTINUOUS
 10
9.6706923427
 20
10.0786695021
 40
0.04
100
AcDbArc
 50
180.0
 51
270.0
  0
SPLINE
  5
233
100
AcDbEntity
  8
0
100
AcDbSpline
 62
9
  6
CONTINUOUS
 70
0
 71
3
 72
14
 73
10
 74
0
 42
0.0000001
 43
0.0000001
 44
0.0000000001
 40
0.0
 40
0.0
 40
0.0
 40
0.0
 40
0.0726096876
 40
0.1591054829
 40
0.2614277723
 40
0.3798153499
 40
0.5138547886
 40
0.6628096105
 40
1.0
 40
1.0
 40
1.0
 40
1.0
 10
10.7211748127
 20
10.0386695021
 30
0.0
 10
10.7205697802
 20
10.0386694927
 30
0.0
 10
10.7192441768
 20
10.0389397749
 30
0.0
 10
10.7172800455
 20
10.0399109744
 30
0.0
 10
10.7152067003
 20
10.0414291576
 30
0.0
 10
10.7130646313
 20
10.0434753798
 30
0.0
 10
10.7109000602
 20
10.0460323738
 30
0.0
 10
10.707930299
 20
10.0502674709
 30
0.0
 10
10.7060395813
 20
10.0538776703
 30
0.0
 10
10.7049252859
 20
10.0564569604
 30
0.0
  0
SPLINE
  5
234
100
AcDbEntity
  8
0
100
AcDbSpline
 62
9
  6
CONTINUOUS
 70
0
 71
3
 72
12
 73
8
 74
0
 42
0.0000001
 43
0.0000001
 44
0.0000000001
 40
0.0
 40
0.0
 40
0.0
 40
0.0
 40
0.2330219562
 40
0.4818654564
 40
0.6099376936
 40
0.739402393
 40
1.0
 40
1.0
 40
1.0
 40
1.0
 10
10.7049252859
 20
10.0564569604
 30
0.0
 10
10.704091574
 20
10.0583665505
 30
0.0
 10
10.7022643289
 20
10.0622721761
 30
0.0
 10
10.6995596756
 20
10.0670182151
 30
0.0
 10
10.6970218396
 20
10.070770937
 30
0.0
 10
10.6942049222
 20
10.0744518512
 30
0.0
 10
10.6918475075
 20
10.0770354431
 30
0.0
 10
10.6901862348
 20
10.0786695021
 30
0.0
  0
SPLINE
  5
235
100
AcDbEntity
  8
0
100
AcDbSpline
 62
9
  6
CONTINUOUS
 70
0
 71
3
 72
19
 73
15
 74
0
 42
0.0000001
 43
0.0000001
 44
0.0000000001
 40
0.0
 40
0.0
 40
0.0
 40
0.0
 40
0.1963579645
 40
0.3769915484
 40
0.5387776901
 40
0.6792289766
 40
0.7407826075
 40
0.7962298065
 40
0.8453807632
 40
0.8881067424
 40
0.9244000429
 40
0.9545398914
 40
0.9792438758
 40
1.0
 40
1.0
 40
1.0
 40
1.0
 10
10.6669225055
 20
10.033932316
 30
0.0
 10
10.667424578
 20
10.0314113978
 30
0.0
 10
10.6684837221
 20
10.0265896991
 30
0.0
 10
10.6702918499
 20
10.019769989
 30
0.0
 10
10.6722099881
 20
10.0137442623
 30
0.0
 10
10.6739140812
 20
10.0092930802
 30
0.0
 10
10.6753020271
 20
10.006220964
 30
0.0
 10
10.6762872326
 20
10.0042808543
 30
0.0
 10
10.6772558035
 20
10.0026117195
 30
0.0
 10
10.6782010388
 20
10.0012232231
 30
0.0
 10
10.679117651
 20
10.0001230535
 30
0.0
 10
10.6800038207
 20
9.9993163019
 30
0.0
 10
10.6808615091
 20
9.9988044442
 30
0.0
 10
10.6814577876
 20
9.998669494
 30
0.0
 10
10.6817294961
 20
9.9986695021
 30
0.0
  0
SPLINE
  5
236
100
AcDbEntity
  8
0
100
AcDbSpline
 62
9
  6
CONTINUOUS
 70
0
 71
3
 72
9
 73
5
 74
0
 42
0.0000001
 43
0.0000001
 44
0.0000000001
 40
0.0
 40
0.0
 40
0.0
 40
0.0
 40
0.4999700978
 40
1.0
 40
1.0
 40
1.0
 40
1.0
 10
10.6901862348
 20
10.0786695022
 30
0.0
 10
10.6876934682
 20
10.083547891
 30
0.0
 10
10.681884102
 20
10.0929027401
 30
0.0
 10
10.6746963461
 20
10.1012343681
 30
0.0
 10
10.6708219252
 20
10.1051084622
 30
0.0
  0
SPLINE
  5
237
100
AcDbEntity
  8
0
100
AcDbSpline
 62
9
  6
CONTINUOUS
 70
0
 71
3
 72
27
 73
23
 74
0
 42
0.0000001
 43
0.0000001
 44
0.0000000001
 40
0.0
 40
0.0
 40
0.0
 40
0.0
 40
0.124772521
 40
0.1873090677
 40
0.2497857495
 40
0.3122450136
 40
0.3747289016
 40
0.4372340822
 40
0.4997678252
 40
0.5310487266
 40
0.5623313713
 40
0.624842686
 40
0.6561179716
 40
0.6873953025
 40
0.7186747894
 40
0.7499501498
 40
0.7812150961
 40
0.8124762378
 40
0.8437462119
 40
0.8750291155
 40
0.9375702354
 40
1.0
 40
1.0
 40
1.0
 40
1.0
 10
9.9577001069
 20
10.8182302805
 30
0.0
 10
9.951992291
 20
10.8239385375
 30
0.0
 10
9.9424341258
 20
10.831610337
 30
0.0
 10
9.9282195292
 20
10.83935933
 30
0.0
 10
9.9168988127
 20
10.8438100992
 30
0.0
 10
9.9050935778
 20
10.8467332321
 30
0.0
 10
9.8929910618
 20
10.8480003264
 30
0.0
 10
9.8808253002
 20
10.8474914035
 30
0.0
 10
9.8708593313
 20
10.8455268673
 30
0.0
 10
9.863151556
 20
10.8430327857
 30
0.0
 10
9.8556744332
 20
10.8399204778
 30
0.0
 10
9.8486023557
 20
10.8358994944
 30
0.0
 10
9.8421149228
 20
10.8310517839
 30
0.0
 10
9.8375710462
 20
10.8270145992
 30
0.0
 10
9.8333810875
 20
10.8226122455
 30
0.0
 10
9.8295721727
 20
10.8178771407
 30
0.0
 10
9.8261736839
 20
10.8128407159
 30
0.0
 10
9.8232078591
 20
10.8075386615
 30
0.0
 10
9.820684843
 20
10.8020108969
 30
0.0
 10
9.8179266215
 20
10.7943940224
 30
0.0
 10
9.8156455179
 20
10.7845007829
 30
0.0
 10
9.8150453198
 20
10.7764031154
 30
0.0
 10
9.8150466738
 20
10.7723641098
 30
0.0
  0
SPLINE
  5
238
100
AcDbEntity
  8
0
100
AcDbSpline
 62
9
  6
CONTINUOUS
 70
0
 71
3
 72
11
 73
7
 74
0
 42
0.0000001
 43
0.0000001
 44
0.0000000001
 40
0.0
 40
0.0
 40
0.0
 40
0.0
 40
0.2805374843
 40
0.5424955094
 40
0.782658882
 40
1.0
 40
1.0
 40
1.0
 40
1.0
 10
10.6550929619
 20
10.0607315792
 30
0.0
 10
10.6564730385
 20
10.0583614709
 30
0.0
 10
10.6589302635
 20
10.0536538259
 30
0.0
 10
10.6620389883
 20
10.0466594301
 30
0.0
 10
10.6646302674
 20
10.040119122
 30
0.0
 10
10.6661864349
 20
10.0359257792
 30
0.0
 10
10.6669218849
 20
10.0339323161
 30
0.0
  0
LINE
  5
239
100
AcDbEntity
  8
0
100
AcDbLine
 62
9
  6
CONTINUOUS
 10
10.6669225055
 20
10.033932316
 11
10.6324803682
 21
10.0651760503
  0
LINE
  5
23A
100
AcDbEntity
  8
0
100
AcDbLine
 62
9
  6
CONTINUOUS
 10
10.6324803682
 20
10.0651760503
 11
9.8527174803
 21
10.7724024891
  0
SPLINE
  5
23B
100
AcDbEntity
  8
0
100
AcDbSpline
 62
9
  6
CONTINUOUS
 70
0
 71
3
 72
21
 73
17
 74
0
 42
0.0000001
 43
0.0000001
 44
0.0000000001
 40
0.0
 40
0.0
 40
0.0
 40
0.0
 40
0.0617491824
 40
0.1221554573
 40
0.1813309232
 40
0.2396130837
 40
0.2976129045
 40
0.3557825801
 40
0.4144551095
 40
0.4739339528
 40
0.5344714952
 40
0.5965053815
 40
0.6602047769
 40
0.7254582034
 40
0.8599532584
 40
1.0
 40
1.0
 40
1.0
 40
1.0
 10
9.8527189196
 20
10.7724029575
 30
0.0
 10
9.8525473944
 20
10.7745770232
 30
0.0
 10
9.8525456841
 20
10.7789130285
 30
0.0
 10
9.8535866127
 20
10.7852607652
 30
0.0
 10
9.8556569254
 20
10.7912265529
 30
0.0
 10
9.8587491415
 20
10.7966415497
 30
0.0
 10
9.8628318889
 20
10.801309753
 30
0.0
 10
9.8677491495
 20
10.8051087065
 30
0.0
 10
9.8733502434
 20
10.8079137168
 30
0.0
 10
9.8794456913
 20
10.8096759904
 30
0.0
 10
9.8858707059
 20
10.8103495405
 30
0.0
 10
9.8924640178
 20
10.809992724
 30
0.0
 10
9.8991002718
 20
10.8086741628
 30
0.0
 10
9.9079365258
 20
10.8056867858
 30
0.0
 10
9.9184982666
 20
10.7997682674
 30
0.0
 10
9.9259188267
 20
10.7934433093
 30
0.0
 10
9.9294161432
 20
10.7899457998
 30
0.0
  0
SPLINE
  5
23C
100
AcDbEntity
  8
0
100
AcDbSpline
 62
9
  6
CONTINUOUS
 70
0
 71
3
 72
9
 73
5
 74
0
 42
0.0000001
 43
0.0000001
 44
0.0000000001
 40
0.0
 40
0.0
 40
0.0
 40
0.0
 40
0.2549359267
 40
1.0
 40
1.0
 40
1.0
 40
1.0
 10
10.642537238
 20
10.0768244655
 30
0.0
 10
10.6437656119
 20
10.0755961519
 30
0.0
 10
10.6484447832
 20
10.0706433104
 30
0.0
 10
10.6525413805
 20
10.0651207517
 30
0.0
 10
10.6550928593
 20
10.0607315904
 30
0.0
  0
LINE
  5
23D
100
AcDbEntity
  8
0
100
AcDbLine
 62
9
  6
CONTINUOUS
 10
9.8527174803
 20
10.772404475
 11
9.8150457568
 21
10.7723641092
  0
SPLINE
  5
23E
100
AcDbEntity
  8
0
100
AcDbSpline
 62
9
  6
CONTINUOUS
 70
0
 71
3
 72
23
 73
19
 74
0
 42
0.0000001
 43
0.0000001
 44
0.0000000001
 40
0.0
 40
0.0
 40
0.0
 40
0.0
 40
0.0078002761
 40
0.0167122022
 40
0.0271831052
 40
0.0394639072
 40
0.053687034
 40
0.069911386
 40
0.1083190626
 40
0.1544293903
 40
0.207784499
 40
0.2678020155
 40
0.3338504072
 40
0.4052772977
 40
0.4814126643
 40
0.6451356014
 40
0.8199055749
 40
1.0
 40
1.0
 40
1.0
 40
1.0
 10
9.8336551893
 20
9.9986695021
 30
0.0
 10
9.8338742994
 20
9.9986694516
 30
0.0
 10
9.8343451712
 20
9.9987547094
 30
0.0
 10
9.8350365298
 20
9.9990932154
 30
0.0
 10
9.8357480297
 20
9.9996336005
 30
0.0
 10
9.8364811995
 20
10.0003725999
 30
0.0
 10
9.8372359402
 20
10.0013078718
 30
0.0
 10
9.8383296586
 20
10.002904868
 30
0.0
 10
9.8397047717
 20
10.0053844057
 30
0.0
 10
9.8413122841
 20
10.0089104388
 30
0.0
 10
9.8429239015
 20
10.0130928706
 30
0.0
 10
9.8445079899
 20
10.017879059
 30
0.0
 10
9.846031171
 20
10.0232149276
 30
0.0
 10
9.8474620044
 20
10.0290435161
 30
0.0
 10
9.8492521052
 20
10.0376038038
 30
0.0
 10
9.8510559624
 20
10.0491193814
 30
0.0
 10
9.8524067666
 20
10.0636322762
 30
0.0
 10
9.8527183163
 20
10.0736033118
 30
0.0
 10
9.8527174803
 20
10.0786621718
 30
0.0
  0
SPLINE
  5
23F
100
AcDbEntity
  8
0
100
AcDbSpline
 62
9
  6
CONTINUOUS
 70
0
 71
3
 72
15
 73
11
 74
0
 42
0.0000001
 43
0.0000001
 44
0.0000000001
 40
0.0
 40
0.0
 40
0.0
 40
0.0
 40
0.1174413055
 40
0.2415544035
 40
0.3707726022
 40
0.5022364382
 40
0.6333198649
 40
0.7615061922
 40
0.8841595319
 40
1.0
 40
1.0
 40
1.0
 40
1.0
 10
9.8336551832
 20
9.9986695021
 30
0.0
 10
9.8336551836
 20
10.0011079972
 30
0.0
 10
9.8331952382
 20
10.0061336841
 30
0.0
 10
9.8310940905
 20
10.0135886818
 30
0.0
 10
9.8274114828
 20
10.0207385512
 30
0.0
 10
9.8223165686
 20
10.0271540853
 30
0.0
 10
9.8159905102
 20
10.0323265881
 30
0.0
 10
9.8089364203
 20
10.036066932
 30
0.0
 10
9.8015777084
 20
10.0382021065
 30
0.0
 10
9.7966151289
 20
10.0386695052
 30
0.0
 10
9.7942098729
 20
10.0386695051
 30
0.0
  0
SPLINE
  5
240
100
AcDbEntity
  8
0
100
AcDbSpline
 62
9
  6
CONTINUOUS
 70
0
 71
3
 72
18
 73
14
 74
0
 42
0.0000001
 43
0.0000001
 44
0.0000000001
 40
0.0
 40
0.0
 40
0.0
 40
0.0
 40
0.1638950968
 40
0.3240337724
 40
0.4766401453
 40
0.6179697141
 40
0.7438979294
 40
0.7999402373
 40
0.8507560885
 40
0.8960176605
 40
0.9357058686
 40
0.9701095413
 40
1.0
 40
1.0
 40
1.0
 40
1.0
 10
9.815044214
 20
10.0786695016
 30
0.0
 10
9.8150447063
 20
10.0760566636
 30
0.0
 10
9.8146715723
 20
10.0708846124
 30
0.0
 10
9.8131126479
 20
10.0634253063
 30
0.0
 10
9.8106824409
 20
10.0565835115
 30
0.0
 10
9.8076542393
 20
10.0505954697
 30
0.0
 10
9.8047444107
 20
10.0463188836
 30
0.0
 10
9.8023170175
 20
10.0435071158
 30
0.0
 10
9.8005807918
 20
10.0418090985
 30
0.0
 10
9.7988868249
 20
10.040454945
 30
0.0
 10
9.7972575396
 20
10.0394592306
 30
0.0
 10
9.7957128651
 20
10.0388340195
 30
0.0
 10
9.7946866016
 20
10.0386694345
 30
0.0
 10
9.7942100838
 20
10.0386695051
 30
0.0
  0
SPLINE
  5
241
100
AcDbEntity
  8
0
100
AcDbSpline
 62
9
  6
CONTINUOUS
 70
0
 71
3
 72
15
 73
11
 74
0
 42
0.0000001
 43
0.0000001
 44
0.0000000001
 40
0.0
 40
0.0
 40
0.0
 40
0.0
 40
0.1158405014
 40
0.2384938673
 40
0.3666802095
 40
0.4977636387
 40
0.6292274647
 40
0.758445644
 40
0.8825587183
 40
1.0
 40
1.0
 40
1.0
 40
1.0
 10
10.7211748122
 20
10.0386694939
 30
0.0
 10
10.7187695551
 20
10.0386694942
 30
0.0
 10
10.7138069736
 20
10.0382020962
 30
0.0
 10
10.7064482586
 20
10.0360669227
 30
0.0
 10
10.6993941656
 20
10.0323265804
 30
0.0
 10
10.6930681039
 20
10.0271540794
 30
0.0
 10
10.6879731861
 20
10.0207385474
 30
0.0
 10
10.6842905746
 20
10.0135886798
 30
0.0
 10
10.6821894228
 20
10.0061336834
 30
0.0
 10
10.6817294746
 20
10.0011079971
 30
0.0
 10
10.6817294736
 20
9.9986695021
 30
0.0
  0
SPLINE
  5
242
100
AcDbEntity
  8
0
100
AcDbSpline
 62
9
  6
CONTINUOUS
 70
0
 71
3
 72
15
 73
11
 74
0
 42
0.0000001
 43
0.0000001
 44
0.0000000001
 40
0.0
 40
0.0
 40
0.0
 40
0.0
 40
0.0949539758
 40
0.2002710128
 40
0.3157512965
 40
0.4411518997
 40
0.5750302987
 40
0.7145005368
 40
0.8570477258
 40
1.0
 40
1.0
 40
1.0
 40
1.0
 10
10.666923153
 20
10.0339323159
 30
0.0
 10
10.6674991953
 20
10.0352622236
 30
0.0
 10
10.6690482106
 20
10.0379267623
 30
0.0
 10
10.672201769
 20
10.0415992261
 30
0.0
 10
10.6762464223
 20
10.045026836
 30
0.0
 10
10.681014326
 20
10.0482016939
 30
0.0
 10
10.6863584265
 20
10.0511305976
 30
0.0
 10
10.692217507
 20
10.0536098588
 30
0.0
 10
10.69846395
 20
10.0554084314
 30
0.0
 10
10.7027614619
 20
10.0561769271
 30
0.0
 10
10.7049252858
 20
10.0564572899
 30
0.0
  0
ENDSEC
  0
SECTION
  2
OBJECTS
  0
DICTIONARY
  5
C
100
AcDbDictionary
280
0
281
1
  3
ACAD_GROUP
350
D
  3
ACAD_MLINESTYLE
350
17
  3
ACAD_LAYOUT
350
1A
  3
ACAD_PLOTSETTINGS
350
19
  3
ACAD_PLOTSTYLENAME
350
E
  0
DICTIONARY
  5
D
102
{ACAD_REACTORS
330
C
102
}
100
AcDbDictionary
280
0
281
1
  0
ACDBDICTIONARYWDFLT
  5
E
102
{ACAD_REACTORS
330
C
102
}
100
AcDbDictionary
281
1
  3
Normal
350
F
100
AcDbDictionaryWithDefault
340
F
  0
DICTIONARY
  5
17
102
{ACAD_REACTORS
330
C
102
}
100
AcDbDictionary
280
0
281
1
  3
Standard
350
18
  0
DICTIONARY
  5
19
102
{ACAD_REACTORS
330
C
102
}
100
AcDbDictionary
281
1
  0
DICTIONARY
  5
1A
102
{ACAD_REACTORS
330
C
102
}
100
AcDbDictionary
281
1
  3
Model
350
243
  3
Layout1
350
244
  0
ACDBPLACEHOLDER
  5
F
102
{ACAD_REACTORS
330
E
102
}
  0
MLINESTYLE
  5
18
102
{ACAD_REACTORS
330
17
102
}
100
AcDbMlineStyle
  2
STANDARD
 70
0
  3

 62
256
 51
90.0
 52
90.0
 71
2
 49
0.5
 62
256
  6
BYLAYER
 49
-0.5
 62
256
  6
BYLAYER
  0
LAYOUT
  5
243
102
{ACAD_REACTORS
330
1A
102
}
100
AcDbPlotSettings
  1

  2
none_device
  4
ANSI_C_(22.00_x_17.00_Inches)
  6

 40
0.0
 41
0.0
 42
0.0
 43
0.0
 44
558.8
 45
431.8
 46
0.0
 47
0.0
 48
0.0
 49
0.0
140
0.0
141
0.0
142
1.0
143
1.0
 70
1024
 72
0
 73
0
 74
0
  7

 75
0
147
1.0
148
0.0
149
0.0
100
AcDbLayout
  1
Model
 70
0
 71
0
 10
0.0
 20
0.0
 11
22.0
 21
17.0
 12
0.0
 22
0.0
 32
0.0
 14
0.0
 24
0.0
 34
0.0
 15
0.0
 25
0.0
 35
0.0
146
0.0
 13
0.0
 23
0.0
 33
0.0
 16
1.0
 26
0.0
 36
0.0
 17
0.0
 27
1.0
 37
0.0
 76
0
330
202
345
0
346
0
  0
LAYOUT
  5
244
102
{ACAD_REACTORS
330
1A
102
}
100
AcDbPlotSettings
  1

  2
none_device
  4
ANSI_C_(22.00_x_17.00_Inches)
  6

 40
0.0
 41
0.0
 42
0.0
 43
0.0
 44
558.8
 45
431.8
 46
0.0
 47
0.0
 48
0.0
 49
0.0
140
0.0
141
0.0
142
1.0
143
1.0
 70
0
 72
0
 73
0
 74
0
  7

 75
0
147
1.0
148
0.0
149
0.0
100
AcDbLayout
  1
Layout1
 70
0
 71
1
 10
0.0
 20
0.0
 11
22.0
 21
17.0
 12
0.0
 22
0.0
 32
0.0
 14
0.0
 24
0.0
 34
0.0
 15
0.0
 25
0.0
 35
0.0
146
0.0
 13
0.0
 23
0.0
 33
0.0
 16
1.0
 26
0.0
 36
0.0
 17
0.0
 27
1.0
 37
0.0
 76
0
330
203
345
0
346
0
  0
ENDSEC
  0
EOF
