999
DXF file: 3-671_front.dxf
999
Pro/ENGINEER 2023134 by Parametric Technology Corporation
  0
SECTION
  2
HEADER
  9
$ACADVER
  1
AC1032
  9
$DWGCODEPAGE
  3
ANSI_1252
  9
$EXTMAX
 10
11.0
 20
8.5
 30
0.0
  9
$EXTMIN
 10
0.0
 20
0.0
 30
0.0
  9
$LIMMIN
 10
0.0
 20
0.0
  9
$LIMMAX
 10
11.0
 20
8.5
  9
$VIEWCTR
 10
5.5
 20
4.25
  9
$VIEWSIZE
 40
8.5
  9
$CLAYER
  8
0
  9
$LTSCALE
 40
0.605
  9
$CELTYPE
  6
BYLAYER
  9
$DIMSCALE
 40
1.0
  9
$DIMASZ
 40
0.1
  9
$DIMEXO
 40
0.03125
  9
$DIMDLI
 40
0.418
  9
$DIMEXE
 40
0.0625
  9
$DIMCEN
 40
0.099
  9
$DIMLFAC
 40
1.0
  9
$DIMBLK
  1
_FILLED
  9
$DIMALT
 70
1
  9
$DIMALTD
 70
2
  9
$DIMALTTD
 70
2
  9
$DIMALTF
 40
25.4
  9
$DIMTXT
 40
0.08
  9
$DIMTOL
 70
1
  9
$DIMLIM
 70
0
  9
$DIMTFAC
 40
1.0
  9
$DIMTP
 40
0.001
  9
$DIMTM
 40
0.001
  9
$DIMGAP
 40
0.09
  9
$DIMDSEP
 70
46
  9
$AUNITS
 70
0
  9
$PDMODE
 70
3
  9
$PDSIZE
 40
0.06
  9
$HANDSEED
  5
28D
  9
$TILEMODE
 70
1
  9
$MEASUREMENT
 70
0
  9
$INSUNITS
 70
1
  0
ENDSEC
  0
SECTION
  2
CLASSES
  0
CLASS
  1
ACDBDICTIONARYWDFLT
  2
AcDbDictionaryWithDefault
  3
AutoCAD 2000
 90
0
 91
1
280
0
281
0
  0
CLASS
  1
ACDBPLACEHOLDER
  2
AcDbPlaceHolder
  3
AutoCAD 2000
 90
0
 91
1
280
0
281
0
  0
CLASS
  1
LAYOUT
  2
AcDbLayout
  3
AutoCAD 2000
 90
0
 91
0
280
0
281
0
  0
ENDSEC
  0
SECTION
  2
TABLES
  0
TABLE
  2
VPORT
  5
8
100
AcDbSymbolTable
 70
2
  0
VPORT
  5
1F4
100
AcDbSymbolTableRecord
100
AcDbViewportTableRecord
  2
*ACTIVE
 70
0
 10
0.0
 20
0.0
 11
1.0
 21
1.0
 12
5.5
 22
4.25
 13
0.0
 23
0.0
 14
1.0
 24
1.0
 15
0.0
 25
0.0
 16
0.0
 26
0.0
 36
1.0
 17
0.0
 27
0.0
 37
0.0
 40
8.5
 41
1.2941176471
 42
50.0
 43
0.0
 44
0.0
 50
0.0
 51
0.0
 71
0
 72
100
 73
1
 74
1
 75
0
 76
0
 77
0
 78
0
  0
ENDTAB
  0
TABLE
  2
LTYPE
  5
5
100
AcDbSymbolTable
 70
6
  0
LTYPE
  5
14
100
AcDbSymbolTableRecord
100
AcDbLinetypeTableRecord
  2
BYBLOCK
 70
0
  3

 72
65
 73
0
 40
0.0
  0
LTYPE
  5
15
100
AcDbSymbolTableRecord
100
AcDbLinetypeTableRecord
  2
BYLAYER
 70
0
  3

 72
65
 73
0
 40
0.0
  0
LTYPE
  5
16
100
AcDbSymbolTableRecord
100
AcDbLinetypeTableRecord
  2
CONTINUOUS
 70
64
  3
Solid line
 72
65
 73
0
 40
0.0
  0
LTYPE
  5
1F5
100
AcDbSymbolTableRecord
100
AcDbLinetypeTableRecord
  2
CENTER
 70
64
  3
____ _ ____ _ ____ _ ____ _ ____ _ ____ _ ____
 72
65
 73
4
 40
0.6
 49
0.375
 74
0
 49
-0.075
 74
0
 49
0.075
 74
0
 49
-0.075
 74
0
  0
LTYPE
  5
1F6
100
AcDbSymbolTableRecord
100
AcDbLinetypeTableRecord
  2
HIDDEN
 70
64
  3
- - - - - - - - - - - - - - - - - - - -
 72
65
 73
2
 40
0.2
 49
0.1
 74
0
 49
-0.1
 74
0
  0
LTYPE
  5
1F7
100
AcDbSymbolTableRecord
100
AcDbLinetypeTableRecord
  2
PHANTOM
 70
64
  3
_____ _ _ _____ _ _ _____ _ _ _____
 72
65
 73
6
 40
0.8
 49
0.45
 74
0
 49
-0.05
 74
0
 49
0.1
 74
0
 49
-0.05
 74
0
 49
0.1
 74
0
 49
-0.05
 74
0
  0
LTYPE
  5
1F8
100
AcDbSymbolTableRecord
100
AcDbLinetypeTableRecord
  2
DOT
 70
64
  3
. . . . . . . . . . . . . . . . . . . .
 72
65
 73
2
 40
0.2
 49
0.1
 74
0
 49
-0.1
 74
0
  0
LTYPE
  5
1F9
100
AcDbSymbolTableRecord
100
AcDbLinetypeTableRecord
  2
DASHED
 70
64
  3
- - - - - - - - - - - - - - - - - - - -
 72
65
 73
2
 40
0.2
 49
0.1
 74
0
 49
-0.1
 74
0
  0
ENDTAB
  0
TABLE
  2
LAYER
  5
2
100
AcDbSymbolTable
 70
36
  0
LAYER
  5
10
100
AcDbSymbolTableRecord
100
AcDbLayerTableRecord
  2
0
 70
0
 62
7
  6
CONTINUOUS
370
-3
390
F
  0
LAYER
  5
1FA
100
AcDbSymbolTableRecord
100
AcDbLayerTableRecord
  2
DEFAULT_1
 70
0
 62
7
  6
CENTER
370
-3
390
F
  0
LAYER
  5
1FB
100
AcDbSymbolTableRecord
100
AcDbLayerTableRecord
  2
DEFAULT_2
 70
0
 62
8
  6
HIDDEN
370
-3
390
F
  0
LAYER
  5
1FC
100
AcDbSymbolTableRecord
100
AcDbLayerTableRecord
  2
DEFAULT_3
 70
0
 62
7
  6
PHANTOM
370
-3
390
F
  0
LAYER
  5
1FD
100
AcDbSymbolTableRecord
100
AcDbLayerTableRecord
  2
DEFAULT_COORDINATE_SYSTEM
 70
0
 62
7
  6
CONTINUOUS
370
-3
390
F
  0
LAYER
  5
1FE
100
AcDbSymbolTableRecord
100
AcDbLayerTableRecord
  2
DEFAULT_DATUM_AXES
 70
0
 62
7
  6
CONTINUOUS
370
-3
390
F
  0
LAYER
  5
1FF
100
AcDbSymbolTableRecord
100
AcDbLayerTableRecord
  2
DEFAULT_DATUM_CURVES
 70
0
 62
7
  6
CONTINUOUS
370
-3
390
F
  0
LAYER
  5
200
100
AcDbSymbolTableRecord
100
AcDbLayerTableRecord
  2
DEFAULT_DATUM_PLANES
 70
0
 62
7
  6
CONTINUOUS
370
-3
390
F
  0
ENDTAB
  0
TABLE
  2
STYLE
  5
3
100
AcDbSymbolTable
 70
1
  0
STYLE
  5
11
100
AcDbSymbolTableRecord
100
AcDbTextStyleTableRecord
  2
STANDARD
 70
0
 40
0.0
 41
0.8
 50
0.0
 71
0
 42
0.2
  3
txt
  4

  0
STYLE
  5
201
100
AcDbSymbolTableRecord
100
AcDbTextStyleTableRecord
  2
TEXTSTYLE_1
 70
0
 40
0.0
 41
0.8
 50
0.0
 71
0
 42
0.2
  3
gdt
  4

  0
ENDTAB
  0
TABLE
  2
VIEW
  5
6
100
AcDbSymbolTable
 70
0
  0
ENDTAB
  0
TABLE
  2
UCS
  5
7
100
AcDbSymbolTable
 70
0
  0
ENDTAB
  0
TABLE
  2
APPID
  5
9
100
AcDbSymbolTable
 70
1
  0
APPID
  5
202
100
AcDbSymbolTableRecord
100
AcDbRegAppTableRecord
  2
ACAD
 70
0
  0
ENDTAB
  0
TABLE
  2
BLOCK_RECORD
  5
1
100
AcDbSymbolTable
 70
0
  0
BLOCK_RECORD
  5
203
100
AcDbSymbolTableRecord
100
AcDbBlockTableRecord
  2
*Model_Space
  0
BLOCK_RECORD
  5
204
100
AcDbSymbolTableRecord
100
AcDbBlockTableRecord
  2
*Paper_Space
  0
BLOCK_RECORD
  5
205
100
AcDbSymbolTableRecord
100
AcDbBlockTableRecord
  2
_FILLED
  0
ENDTAB
  0
TABLE
  2
DIMSTYLE
  5
A
100
AcDbSymbolTable
 70
1
100
AcDbDimStyleTable
 71
0
  0
DIMSTYLE
105
206
100
AcDbSymbolTableRecord
100
AcDbDimStyleTableRecord
  2
STANDARD
 70
0
  3

  4

 40
1.0
 41
0.1
 42
0.03125
 43
0.38
 44
0.0625
 45
0.0
 46
0.0
 47
0.001
 48
0.001
140
0.08
141
0.09
142
0.0
143
25.4
144
1.0
145
0.0
146
1.0
147
0.09
 71
1
 72
0
 73
1
 74
1
 75
0
 76
0
 77
0
 78
4
 79
1
170
1
171
2
172
0
173
0
174
0
175
0
176
0
177
0
178
0
270
2
179
3
271
3
272
3
273
2
274
2
275
0
280
0
281
0
282
0
283
1
284
4
285
0
286
0
287
3
288
0
340
11
278
46
341
205
342
205
343
205
344
205
  0
ENDTAB
  0
ENDSEC
  0
SECTION
  2
BLOCKS
  0
BLOCK
  5
20
100
AcDbEntity
  8
0
100
AcDbBlockBegin
  2
*Model_Space
 70
0
 10
0.0
 20
0.0
 30
0.0
  3
*Model_Space
  1

  0
ENDBLK
  5
21
100
AcDbEntity
  8
0
100
AcDbBlockEnd
  0
BLOCK
  5
1C
100
AcDbEntity
  8
0
100
AcDbBlockBegin
  2
*Paper_Space
 70
0
 10
0.0
 20
0.0
 30
0.0
  3
*Paper_Space
  1

  0
ENDBLK
  5
1D
100
AcDbEntity
  8
0
100
AcDbBlockEnd
  0
BLOCK
  5
207
100
AcDbEntity
  8
0
100
AcDbBlockBegin
  2
_FILLED
 70
64
 10
0.0
 20
0.0
  3
_FILLED
  1

  0
SOLID
  5
208
100
AcDbEntity
  8
0
  6
BYBLOCK
 62
0
100
AcDbTrace
 10
0.0
 20
0.0
 11
-1.0
 21
0.2
 12
-1.0
 22
-0.2
 13
-1.0
 23
-0.2
  0
ENDBLK
  5
209
100
AcDbEntity
  8
0
  6
BYBLOCK
 62
0
100
AcDbBlockEnd
  0
ENDSEC
  0
SECTION
  2
ENTITIES
  0
MTEXT
  5
20A
100
AcDbEntity
  8
0
100
AcDbMText
 62
2
  6
CONTINUOUS
  7
STANDARD
 71
3
 72
1
 10
5.5
 20
2.6022174658
 30
0.0
 11
1.0
 21
0.0
 31
0.0
 73
2
 44
0.9
  1
SCALE 1.000
 40
0.08
 41
0.704
  0
LINE
  5
20B
100
AcDbEntity
  8
0
100
AcDbLine
 62
7
  6
CONTINUOUS
 10
0.0
 20
0.0
 11
0.0
 21
8.5
  0
LINE
  5
20C
100
AcDbEntity
  8
0
100
AcDbLine
 62
7
  6
CONTINUOUS
 10
0.0
 20
0.0
 11
11.0
 21
0.0
  0
LINE
  5
20D
100
AcDbEntity
  8
0
100
AcDbLine
 62
7
  6
CONTINUOUS
 10
0.0
 20
8.5
 11
11.0
 21
8.5
  0
LINE
  5
20E
100
AcDbEntity
  8
0
100
AcDbLine
 62
7
  6
CONTINUOUS
 10
11.0
 20
0.0
 11
11.0
 21
8.5
  0
LINE
  5
20F
100
AcDbEntity
  8
0
100
AcDbLine
 62
7
  6
CONTINUOUS
 10
4.0801369863
 20
5.6587585616
 11
4.0801369863
 21
3.6387585616
  0
LINE
  5
210
100
AcDbEntity
  8
0
100
AcDbLine
 62
7
  6
CONTINUOUS
 10
4.1201369863
 20
3.5987585616
 11
4.1201369863
 21
5.6987585616
  0
LINE
  5
211
100
AcDbEntity
  8
0
100
AcDbLine
 62
7
  6
CONTINUOUS
 10
4.1201369863
 20
3.5987585616
 11
6.1401369863
 21
3.5987585616
  0
LINE
  5
212
100
AcDbEntity
  8
0
100
AcDbLine
 62
7
  6
CONTINUOUS
 10
4.0801369863
 20
3.6387585616
 11
6.1801369863
 21
3.6387585616
  0
LINE
  5
213
100
AcDbEntity
  8
0
100
AcDbLine
 62
7
  6
CONTINUOUS
 10
5.4991369863
 20
3.6712585616
 11
4.7611369863
 21
3.6712585616
  0
LINE
  5
214
100
AcDbEntity
  8
0
100
AcDbLine
 62
7
  6
CONTINUOUS
 10
4.7597969863
 20
3.6984963254
 11
4.7216101542
 21
3.720571667
  0
LINE
  5
215
100
AcDbEntity
  8
0
100
AcDbLine
 62
7
  6
CONTINUOUS
 10
4.7597969863
 20
3.7699263254
 11
4.7216101542
 21
3.792001667
  0
LINE
  5
216
100
AcDbEntity
  8
0
100
AcDbLine
 62
7
  6
CONTINUOUS
 10
4.7597969863
 20
3.8413563254
 11
4.7216101542
 21
3.863431667
  0
LINE
  5
217
100
AcDbEntity
  8
0
100
AcDbLine
 62
7
  6
CONTINUOUS
 10
4.7611369863
 20
3.6712585616
 11
4.7545098673
 21
3.6778856807
  0
LINE
  5
218
100
AcDbEntity
  8
0
100
AcDbLine
 62
7
  6
CONTINUOUS
 10
4.7597969863
 20
3.9127863254
 11
4.7365786768
 21
3.9262091974
  0
LINE
  5
219
100
AcDbEntity
  8
0
100
AcDbLine
 62
7
  6
CONTINUOUS
 10
5.4991369863
 20
3.9512585616
 11
4.7611369863
 21
3.9512585616
  0
LINE
  5
21A
100
AcDbEntity
  8
0
100
AcDbLine
 62
7
  6
CONTINUOUS
 10
4.4526369863
 20
5.2862585616
 11
4.4526369863
 21
4.0112585616
  0
LINE
  5
21B
100
AcDbEntity
  8
0
100
AcDbLine
 62
7
  6
CONTINUOUS
 10
4.4926369863
 20
3.9712585616
 11
4.4926369863
 21
5.3262585616
  0
LINE
  5
21C
100
AcDbEntity
  8
0
100
AcDbLine
 62
7
  6
CONTINUOUS
 10
4.8391809449
 20
4.0126545415
 11
4.7992053118
 21
4.0112585616
  0
LINE
  5
21D
100
AcDbEntity
  8
0
100
AcDbLine
 62
7
  6
CONTINUOUS
 10
5.7676369863
 20
3.9712585616
 11
4.4926369863
 21
3.9712585616
  0
LINE
  5
21E
100
AcDbEntity
  8
0
100
AcDbLine
 62
7
  6
CONTINUOUS
 10
5.8076369863
 20
4.0112585616
 11
5.4610686608
 21
4.0112585616
  0
LINE
  5
21F
100
AcDbEntity
  8
0
100
AcDbLine
 62
7
  6
CONTINUOUS
 10
4.7992053118
 20
4.0112585616
 11
4.4526369863
 21
4.0112585616
  0
LINE
  5
220
100
AcDbEntity
  8
0
100
AcDbLine
 62
7
  6
CONTINUOUS
 10
5.4210930277
 20
4.0126545415
 11
4.8391809449
 21
4.0126545415
  0
LINE
  5
221
100
AcDbEntity
  8
0
100
AcDbLine
 62
7
  6
CONTINUOUS
 10
5.4610686608
 20
4.0112585616
 11
5.4210930277
 21
4.0126545415
  0
LINE
  5
222
100
AcDbEntity
  8
0
100
AcDbLine
 62
7
  6
CONTINUOUS
 10
5.5004769863
 20
3.7169550751
 11
5.5282767963
 21
3.7008838099
  0
LINE
  5
223
100
AcDbEntity
  8
0
100
AcDbLine
 62
7
  6
CONTINUOUS
 10
5.5004769863
 20
3.7883850751
 11
5.5386638184
 21
3.7663097335
  0
LINE
  5
224
100
AcDbEntity
  8
0
100
AcDbLine
 62
7
  6
CONTINUOUS
 10
5.5004769863
 20
3.8598150751
 11
5.5386638184
 21
3.8377397335
  0
LINE
  5
225
100
AcDbEntity
  8
0
100
AcDbLine
 62
7
  6
CONTINUOUS
 10
4.7211369863
 20
3.7211185616
 11
4.7211369863
 21
3.7300478388
  0
LINE
  5
226
100
AcDbEntity
  8
0
100
AcDbLine
 62
7
  6
CONTINUOUS
 10
4.7211369863
 20
3.7925485616
 11
4.7211369863
 21
3.8014778388
  0
LINE
  5
227
100
AcDbEntity
  8
0
100
AcDbLine
 62
7
  6
CONTINUOUS
 10
4.7211369863
 20
3.8639785616
 11
4.7211369863
 21
3.8729078388
  0
LINE
  5
228
100
AcDbEntity
  8
0
100
AcDbLine
 62
7
  6
CONTINUOUS
 10
5.5004769863
 20
3.9312450751
 11
5.5386638184
 21
3.9091697335
  0
LINE
  5
229
100
AcDbEntity
  8
0
100
AcDbLine
 62
7
  6
CONTINUOUS
 10
4.7992053118
 20
4.0112585616
 11
4.7546813307
 21
5.2862585616
  0
LINE
  5
22A
100
AcDbEntity
  8
0
100
AcDbLine
 62
7
  6
CONTINUOUS
 10
4.8391809449
 20
4.0126545415
 11
4.7946569638
 21
5.2876545415
  0
LINE
  5
22B
100
AcDbEntity
  8
0
100
AcDbLine
 62
7
  6
CONTINUOUS
 10
4.7546813307
 20
5.2862585616
 11
4.7546813307
 21
5.3262585616
  0
LINE
  5
22C
100
AcDbEntity
  8
0
100
AcDbLine
 62
7
  6
CONTINUOUS
 10
4.7597969863
 20
3.6812400751
 11
4.7597969863
 21
3.6987982002
  0
LINE
  5
22D
100
AcDbEntity
  8
0
100
AcDbLine
 62
7
  6
CONTINUOUS
 10
4.7597969863
 20
3.7526700751
 11
4.7597969863
 21
3.7702282002
  0
LINE
  5
22E
100
AcDbEntity
  8
0
100
AcDbLine
 62
7
  6
CONTINUOUS
 10
4.7597969863
 20
3.8241000751
 11
4.7597969863
 21
3.8416582002
  0
LINE
  5
22F
100
AcDbEntity
  8
0
100
AcDbLine
 62
7
  6
CONTINUOUS
 10
4.7597969863
 20
3.8955300751
 11
4.7597969863
 21
3.9130882002
  0
LINE
  5
230
100
AcDbEntity
  8
0
100
AcDbLine
 62
7
  6
CONTINUOUS
 10
4.7676369863
 20
3.9512585616
 11
4.7676369863
 21
3.9712585616
  0
LINE
  5
231
100
AcDbEntity
  8
0
100
AcDbLine
 62
7
  6
CONTINUOUS
 10
4.7992053118
 20
3.9712585616
 11
4.7992053118
 21
4.0112585616
  0
LINE
  5
232
100
AcDbEntity
  8
0
100
AcDbLine
 62
7
  6
CONTINUOUS
 10
5.4991369863
 20
3.9512585616
 11
5.5011840971
 21
3.9492114508
  0
LINE
  5
233
100
AcDbEntity
  8
0
100
AcDbLine
 62
7
  6
CONTINUOUS
 10
4.7611369863
 20
3.9512585616
 11
4.7364474728
 21
3.9265690481
  0
LINE
  5
234
100
AcDbEntity
  8
0
100
AcDbLine
 62
7
  6
CONTINUOUS
 10
5.4610686608
 20
3.9712585616
 11
5.4610686611
 21
4.0112585616
  0
LINE
  5
235
100
AcDbEntity
  8
0
100
AcDbLine
 62
7
  6
CONTINUOUS
 10
5.4926369863
 20
3.9512585616
 11
5.4926369863
 21
3.9712585616
  0
LINE
  5
236
100
AcDbEntity
  8
0
100
AcDbLine
 62
7
  6
CONTINUOUS
 10
5.5004769863
 20
3.9485013285
 11
5.5004769863
 21
3.9309432002
  0
LINE
  5
237
100
AcDbEntity
  8
0
100
AcDbLine
 62
7
  6
CONTINUOUS
 10
5.5004769863
 20
3.8770713254
 11
5.5004769863
 21
3.8595132002
  0
LINE
  5
238
100
AcDbEntity
  8
0
100
AcDbLine
 62
7
  6
CONTINUOUS
 10
5.5004769863
 20
3.8056413254
 11
5.5004769863
 21
3.7880832002
  0
LINE
  5
239
100
AcDbEntity
  8
0
100
AcDbLine
 62
7
  6
CONTINUOUS
 10
5.5004769863
 20
3.7342113254
 11
5.5004769863
 21
3.7166532002
  0
LINE
  5
23A
100
AcDbEntity
  8
0
100
AcDbLine
 62
7
  6
CONTINUOUS
 10
5.5055926419
 20
5.2862585616
 11
5.5055926419
 21
5.3262585616
  0
LINE
  5
23B
100
AcDbEntity
  8
0
100
AcDbLine
 62
7
  6
CONTINUOUS
 10
5.5391369863
 20
3.7568335616
 11
5.5391369863
 21
3.7657628388
  0
LINE
  5
23C
100
AcDbEntity
  8
0
100
AcDbLine
 62
7
  6
CONTINUOUS
 10
5.5391369863
 20
3.8282635616
 11
5.5391369863
 21
3.8371928388
  0
LINE
  5
23D
100
AcDbEntity
  8
0
100
AcDbLine
 62
7
  6
CONTINUOUS
 10
5.5391369863
 20
3.8996935616
 11
5.5391369863
 21
3.9086228388
  0
LINE
  5
23E
100
AcDbEntity
  8
0
100
AcDbLine
 62
7
  6
CONTINUOUS
 10
5.4656170088
 20
5.2876545415
 11
5.4210930277
 21
4.0126545415
  0
LINE
  5
23F
100
AcDbEntity
  8
0
100
AcDbLine
 62
7
  6
CONTINUOUS
 10
5.5055926419
 20
5.2862585616
 11
5.4610686608
 21
4.0112585616
  0
LINE
  5
240
100
AcDbEntity
  8
0
100
AcDbLine
 62
7
  6
CONTINUOUS
 10
4.7216101542
 20
3.8734547335
 11
4.7603193495
 21
3.8958320832
  0
LINE
  5
241
100
AcDbEntity
  8
0
100
AcDbLine
 62
7
  6
CONTINUOUS
 10
4.7216101542
 20
3.8020247335
 11
4.7603193495
 21
3.8244020832
  0
LINE
  5
242
100
AcDbEntity
  8
0
100
AcDbLine
 62
7
  6
CONTINUOUS
 10
4.7216101542
 20
3.7305947335
 11
4.7603193495
 21
3.7529720832
  0
LINE
  5
243
100
AcDbEntity
  8
0
100
AcDbLine
 62
7
  6
CONTINUOUS
 10
5.7676369863
 20
3.9712585616
 11
5.7676369863
 21
5.3262585616
  0
LINE
  5
244
100
AcDbEntity
  8
0
100
AcDbLine
 62
7
  6
CONTINUOUS
 10
5.8076369863
 20
4.0112585616
 11
5.8076369863
 21
5.2862585616
  0
LINE
  5
245
100
AcDbEntity
  8
0
100
AcDbLine
 62
7
  6
CONTINUOUS
 10
4.7546473041
 20
3.6782627704
 11
4.7603193495
 21
3.6815420832
  0
LINE
  5
246
100
AcDbEntity
  8
0
100
AcDbLine
 62
7
  6
CONTINUOUS
 10
4.7946569638
 20
5.2876545415
 11
4.7546813307
 21
5.2862585616
  0
LINE
  5
247
100
AcDbEntity
  8
0
100
AcDbLine
 62
7
  6
CONTINUOUS
 10
5.8076369863
 20
5.2862585616
 11
5.5055926419
 21
5.2862585616
  0
LINE
  5
248
100
AcDbEntity
  8
0
100
AcDbLine
 62
7
  6
CONTINUOUS
 10
4.7546813307
 20
5.2862585616
 11
4.4526369863
 21
5.2862585616
  0
LINE
  5
249
100
AcDbEntity
  8
0
100
AcDbLine
 62
7
  6
CONTINUOUS
 10
5.4656170088
 20
5.2876545415
 11
4.7946569638
 21
5.2876545415
  0
LINE
  5
24A
100
AcDbEntity
  8
0
100
AcDbLine
 62
7
  6
CONTINUOUS
 10
4.4926369863
 20
5.3262585616
 11
5.7676369863
 21
5.3262585616
  0
LINE
  5
24B
100
AcDbEntity
  8
0
100
AcDbLine
 62
7
  6
CONTINUOUS
 10
5.5055926419
 20
5.2862585616
 11
5.4656170088
 21
5.2876545415
  0
LINE
  5
24C
100
AcDbEntity
  8
0
100
AcDbLine
 62
7
  6
CONTINUOUS
 10
5.5010449851
 20
3.9488297246
 11
5.4999546231
 21
3.9481993172
  0
LINE
  5
24D
100
AcDbEntity
  8
0
100
AcDbLine
 62
7
  6
CONTINUOUS
 10
5.5386638184
 20
3.899146667
 11
5.4999546231
 21
3.8767693172
  0
LINE
  5
24E
100
AcDbEntity
  8
0
100
AcDbLine
 62
7
  6
CONTINUOUS
 10
5.4991369863
 20
3.6712585616
 11
5.528406508
 21
3.7005280834
  0
LINE
  5
24F
100
AcDbEntity
  8
0
100
AcDbLine
 62
7
  6
CONTINUOUS
 10
5.5386638184
 20
3.827716667
 11
5.4999546231
 21
3.8053393172
  0
LINE
  5
250
100
AcDbEntity
  8
0
100
AcDbLine
 62
7
  6
CONTINUOUS
 10
5.5386638184
 20
3.756286667
 11
5.4999546231
 21
3.7339093172
  0
LINE
  5
251
100
AcDbEntity
  8
0
100
AcDbLine
 62
7
  6
CONTINUOUS
 10
6.1401369863
 20
3.5987585616
 11
6.1401369863
 21
5.6987585616
  0
LINE
  5
252
100
AcDbEntity
  8
0
100
AcDbLine
 62
7
  6
CONTINUOUS
 10
6.1801369863
 20
3.6387585616
 11
6.1801369863
 21
5.6587585616
  0
LINE
  5
253
100
AcDbEntity
  8
0
100
AcDbLine
 62
7
  6
CONTINUOUS
 10
4.0801369863
 20
5.6587585616
 11
6.1801369863
 21
5.6587585616
  0
LINE
  5
254
100
AcDbEntity
  8
0
100
AcDbLine
 62
7
  6
CONTINUOUS
 10
6.1401369863
 20
5.6987585616
 11
4.1201369863
 21
5.6987585616
  0
ARC
  5
255
100
AcDbEntity
  8
0
100
AcDbCircle
 62
7
  6
CONTINUOUS
 10
5.7676369863
 20
5.2862585616
 40
0.04
100
AcDbArc
 50
0.0
 51
90.0
  0
ARC
  5
256
100
AcDbEntity
  8
0
100
AcDbCircle
 62
7
  6
CONTINUOUS
 10
4.7546813307
 20
5.2862585616
 40
0.04
100
AcDbArc
 50
2.0
 51
90.0
  0
ARC
  5
257
100
AcDbEntity
  8
0
100
AcDbCircle
 62
7
  6
CONTINUOUS
 10
4.4926369863
 20
5.2862585616
 40
0.04
100
AcDbArc
 50
90.0
 51
180.0
  0
ARC
  5
258
100
AcDbEntity
  8
0
100
AcDbCircle
 62
7
  6
CONTINUOUS
 10
5.7676369863
 20
4.0112585616
 40
0.04
100
AcDbArc
 50
270.0
 51
360.0
  0
ARC
  5
259
100
AcDbEntity
  8
0
100
AcDbCircle
 62
7
  6
CONTINUOUS
 10
4.7992053118
 20
4.0112585616
 40
0.04
100
AcDbArc
 50
270.0
 51
2.0000000081
  0
ARC
  5
25A
100
AcDbEntity
  8
0
100
AcDbCircle
 62
7
  6
CONTINUOUS
 10
4.4926369863
 20
4.0112585616
 40
0.04
100
AcDbArc
 50
180.0
 51
270.0
  0
ARC
  5
25B
100
AcDbEntity
  8
0
100
AcDbCircle
 62
7
  6
CONTINUOUS
 10
5.5055926419
 20
5.2862585616
 40
0.04
100
AcDbArc
 50
90.0000002198
 51
177.9999999844
  0
ARC
  5
25C
100
AcDbEntity
  8
0
100
AcDbCircle
 62
7
  6
CONTINUOUS
 10
5.4610686608
 20
4.0112585616
 40
0.04
100
AcDbArc
 50
178.0000000538
 51
269.9999998635
  0
ARC
  5
25D
100
AcDbEntity
  8
0
100
AcDbCircle
 62
7
  6
CONTINUOUS
 10
4.1201369863
 20
3.6387585616
 40
0.04
100
AcDbArc
 50
180.0
 51
270.0
  0
ARC
  5
25E
100
AcDbEntity
  8
0
100
AcDbCircle
 62
7
  6
CONTINUOUS
 10
4.1201369863
 20
5.6587585616
 40
0.04
100
AcDbArc
 50
90.0
 51
180.0
  0
ARC
  5
25F
100
AcDbEntity
  8
0
100
AcDbCircle
 62
7
  6
CONTINUOUS
 10
6.1401369863
 20
3.6387585616
 40
0.04
100
AcDbArc
 50
270.0
 51
360.0
  0
ARC
  5
260
100
AcDbEntity
  8
0
100
AcDbCircle
 62
7
  6
CONTINUOUS
 10
6.1401369863
 20
5.6587585616
 40
0.04
100
AcDbArc
 50
0.0
 51
90.0
  0
LINE
  5
261
100
AcDbEntity
  8
0
100
AcDbLine
 62
7
  6
CONTINUOUS
 10
5.5391369862
 20
3.9086228388
 11
5.5386638182
 21
3.9091697335
  0
LINE
  5
262
100
AcDbEntity
  8
0
100
AcDbLine
 62
7
  6
CONTINUOUS
 10
5.5391369848
 20
3.8996935616
 11
5.5386638174
 21
3.899146667
  0
LINE
  5
263
100
AcDbEntity
  8
0
100
AcDbLine
 62
7
  6
CONTINUOUS
 10
4.7211369902
 20
3.8729078388
 11
4.7216101577
 21
3.8734547335
  0
LINE
  5
264
100
AcDbEntity
  8
0
100
AcDbLine
 62
7
  6
CONTINUOUS
 10
4.7211369896
 20
3.8639785616
 11
4.721610158
 21
3.863431667
  0
SPLINE
  5
265
100
AcDbEntity
  8
0
100
AcDbSpline
 62
7
  6
CONTINUOUS
 70
0
 71
3
 72
15
 73
11
 74
0
 42
0.0000001
 43
0.0000001
 44
0.0000000001
 40
0.0
 40
0.0
 40
0.0
 40
0.0
 40
0.1257784629
 40
0.2335033558
 40
0.3313339
 40
0.4299166443
 40
0.5396785696
 40
0.6683526487
 40
0.8208137456
 40
1.0
 40
1.0
 40
1.0
 40
1.0
 10
4.7364474775
 20
3.9265690481
 30
0.0
 10
4.7364336974
 20
3.9265552678
 30
0.0
 10
4.7364099496
 20
3.9265276223
 30
0.0
 10
4.7363862243
 20
3.9264813713
 30
0.0
 10
4.7363787985
 20
3.9264338769
 30
0.0
 10
4.7363885523
 20
3.9263865122
 30
0.0
 10
4.7364144118
 20
3.9263404459
 30
0.0
 10
4.7364553131
 20
3.9262953084
 30
0.0
 10
4.7365111033
 20
3.9262505503
 30
0.0
 10
4.7365546456
 20
3.926223092
 30
0.0
 10
4.7365786817
 20
3.9262091974
 30
0.0
  0
SPLINE
  5
266
100
AcDbEntity
  8
0
100
AcDbSpline
 62
7
  6
CONTINUOUS
 70
0
 71
3
 72
17
 73
13
 74
0
 42
0.0000001
 43
0.0000001
 44
0.0000000001
 40
0.0
 40
0.0
 40
0.0
 40
0.0
 40
0.1790508844
 40
0.3313957618
 40
0.4599722203
 40
0.5696573685
 40
0.6198658414
 40
0.6685120065
 40
0.7169693973
 40
0.7666274412
 40
0.8742922378
 40
1.0
 40
1.0
 40
1.0
 40
1.0
 10
5.5010449833
 20
3.9488297246
 30
0.0
 10
5.5010704756
 20
3.948844463
 30
0.0
 10
5.501116656
 20
3.9488735852
 30
0.0
 10
5.5011758214
 20
3.9489210763
 30
0.0
 10
5.5012192004
 20
3.9489689188
 30
0.0
 10
5.5012426713
 20
3.9490108762
 30
0.0
 10
5.5012520487
 20
3.9490440125
 30
0.0
 10
5.5012547174
 20
3.9490682101
 30
0.0
 10
5.5012531941
 20
3.9490924174
 30
0.0
 10
5.501245398
 20
3.9491255005
 30
0.0
 10
5.5012239133
 20
3.9491675346
 30
0.0
 10
5.5011987134
 20
3.9491968321
 30
0.0
 10
5.5011840955
 20
3.9492114508
 30
0.0
  0
LINE
  5
267
100
AcDbEntity
  8
0
100
AcDbLine
 62
7
  6
CONTINUOUS
 10
5.5386638182
 20
3.827716667
 11
5.5391369863
 21
3.8282635616
  0
LINE
  5
268
100
AcDbEntity
  8
0
100
AcDbLine
 62
7
  6
CONTINUOUS
 10
5.5386638182
 20
3.8377397335
 11
5.5391369863
 21
3.8371928388
  0
LINE
  5
269
100
AcDbEntity
  8
0
100
AcDbLine
 62
7
  6
CONTINUOUS
 10
5.5386638182
 20
3.7663097335
 11
5.5391369863
 21
3.7657628388
  0
LINE
  5
26A
100
AcDbEntity
  8
0
100
AcDbLine
 62
7
  6
CONTINUOUS
 10
4.7216101544
 20
3.8020247335
 11
4.7211369863
 21
3.8014778388
  0
LINE
  5
26B
100
AcDbEntity
  8
0
100
AcDbLine
 62
7
  6
CONTINUOUS
 10
5.5386638182
 20
3.756286667
 11
5.5391369863
 21
3.7568335616
  0
LINE
  5
26C
100
AcDbEntity
  8
0
100
AcDbLine
 62
7
  6
CONTINUOUS
 10
4.7216101544
 20
3.792001667
 11
4.7211369869
 21
3.7925485616
  0
LINE
  5
26D
100
AcDbEntity
  8
0
100
AcDbLine
 62
7
  6
CONTINUOUS
 10
4.7216101561
 20
3.720571667
 11
4.7211369875
 21
3.7211185616
  0
SPLINE
  5
26E
100
AcDbEntity
  8
0
100
AcDbSpline
 62
7
  6
CONTINUOUS
 70
0
 71
3
 72
15
 73
11
 74
0
 42
0.0000001
 43
0.0000001
 44
0.0000000001
 40
0.0
 40
0.0
 40
0.0
 40
0.0
 40
0.1791864237
 40
0.3316462655
 40
0.4603203481
 40
0.5700845882
 40
0.6686689462
 40
0.7664976084
 40
0.8742204517
 40
1.0
 40
1.0
 40
1.0
 40
1.0
 10
5.5282767949
 20
3.7008838099
 30
0.0
 10
5.5283005556
 20
3.7008700746
 30
0.0
 10
5.5283435987
 20
3.7008429308
 30
0.0
 10
5.528398749
 20
3.700798685
 30
0.0
 10
5.5284391811
 20
3.7007540643
 30
0.0
 10
5.5284647459
 20
3.7007085264
 30
0.0
 10
5.5284743933
 20
3.7006617055
 30
0.0
 10
5.5284670577
 20
3.7006147546
 30
0.0
 10
5.5284436048
 20
3.7005690333
 30
0.0
 10
5.5284201283
 20
3.7005417055
 30
0.0
 10
5.5284065056
 20
3.7005280834
 30
0.0
  0
SPLINE
  5
26F
100
AcDbEntity
  8
0
100
AcDbSpline
 62
7
  6
CONTINUOUS
 70
0
 71
3
 72
17
 73
13
 74
0
 42
0.0000001
 43
0.0000001
 44
0.0000000001
 40
0.0
 40
0.0
 40
0.0
 40
0.0
 40
0.1790480061
 40
0.3313941306
 40
0.4599753104
 40
0.5696632864
 40
0.6198714276
 40
0.6685162699
 40
0.7169720109
 40
0.7666286693
 40
0.8742923224
 40
1.0
 40
1.0
 40
1.0
 40
1.0
 10
4.7546473081
 20
3.6782627704
 30
0.0
 10
4.7546221251
 20
3.6782482108
 30
0.0
 10
4.7545765046
 20
3.6782194415
 30
0.0
 10
4.754518055
 20
3.6781725266
 30
0.0
 10
4.7544751974
 20
3.6781252661
 30
0.0
 10
4.7544520056
 20
3.6780838187
 30
0.0
 10
4.7544427387
 20
3.6780510845
 30
0.0
 10
4.7544401011
 20
3.6780271807
 30
0.0
 10
4.7544416059
 20
3.6780032674
 30
0.0
 10
4.7544493083
 20
3.6779705861
 30
0.0
 10
4.7544705351
 20
3.677929063
 30
0.0
 10
4.7544954307
 20
3.6779001218
 30
0.0
 10
4.754509872
 20
3.6778856807
 30
0.0
  0
LINE
  5
270
100
AcDbEntity
  8
0
100
AcDbLine
 62
7
  6
CONTINUOUS
 10
4.7211369864
 20
3.7300478388
 11
4.7216101548
 21
3.7305947335
  0
SPLINE
  5
271
100
AcDbEntity
  8
0
100
AcDbSpline
 62
7
  6
CONTINUOUS
 70
0
 71
3
 72
100
 73
96
 74
0
 42
0.0000001
 43
0.0000001
 44
0.0000000001
 40
0.0
 40
0.0
 40
0.0
 40
0.0
 40
0.0000929014
 40
0.0001892902
 40
0.0002922991
 40
0.0004045073
 40
0.0005279177
 40
0.0006640393
 40
0.0008139963
 40
0.0009786262
 40
0.0011585594
 40
0.0013542766
 40
0.0015661495
 40
0.0017944693
 40
0.0023012855
 40
0.0028761371
 40
0.0035198963
 40
0.0042331507
 40
0.0050163056
 40
0.0058696331
 40
0.0067932924
 40
0.0077873761
 40
0.0088519312
 40
0.0099869593
 40
0.0124681848
 40
0.0152304153
 40
0.0182725896
 40
0.0215933598
 40
0.0251911019
 40
0.0290639805
 40
0.0332099307
 40
0.0376267124
 40
0.0423118781
 40
0.0472628256
 40
0.0524767558
 40
0.0579507276
 40
0.0696661347
 40
0.0823822491
 40
0.0960698287
 40
0.1106972914
 40
0.1262308172
 40
0.1426344407
 40
0.1598701339
 40
0.1778979109
 40
0.1966759277
 40
0.2161605721
 40
0.2363065762
 40
0.2570671285
 40
0.3002375227
 40
0.3452705286
 40
0.3917474989
 40
0.4392363098
 40
0.4872953834
 40
0.5354778139
 40
0.5833355563
 40
0.630423586
 40
0.6763040648
 40
0.7205504407
 40
0.7419316074
 40
0.7627514221
 40
0.7829614881
 40
0.8025148389
 40
0.8213660511
 40
0.8394713411
 40
0.8567886772
 40
0.8732778857
 40
0.8889007386
 40
0.9036210531
 40
0.9174047921
 40
0.9302201461
 40
0.9420376279
 40
0.9475636194
 40
0.9528301925
 40
0.9578343576
 40
0.9625732968
 40
0.9670443563
 40
0.9712450677
 40
0.9751731376
 40
0.9788264771
 40
0.982203191
 40
0.9853016231
 40
0.9881203536
 40
0.9906582717
 40
0.9918216849
 40
0.9929146381
 40
0.993937121
 40
0.994889157
 40
0.9957708103
 40
0.9965822139
 40
0.9973236004
 40
0.9979953113
 40
0.9985978437
 40
0.9991319435
 40
0.9995987472
 40
1.0
 40
1.0
 40
1.0
 40
1.0
 10
4.7597969893
 20
3.9130882002
 30
0.0
 10
4.7597969899
 20
3.9131111692
 30
0.0
 10
4.7598016878
 20
3.9131580895
 30
0.0
 10
4.7598225803
 20
3.9132276687
 30
0.0
 10
4.7598571256
 20
3.9132968966
 30
0.0
 10
4.7599051304
 20
3.9133657856
 30
0.0
 10
4.7599664993
 20
3.9134344489
 30
0.0
 10
4.7600412077
 20
3.9135029756
 30
0.0
 10
4.7601292632
 20
3.9135714302
 30
0.0
 10
4.7602306821
 20
3.9136398521
 30
0.0
 10
4.7603454808
 20
3.9137082639
 30
0.0
 10
4.7604736724
 20
3.9137766766
 30
0.0
 10
4.760615265
 20
3.9138450999
 30
0.0
 10
4.7608294983
 20
3.9139396652
 30
0.0
 10
4.7611316213
 20
3.9140568368
 30
0.0
 10
4.7615359603
 20
3.914193137
 30
0.0
 10
4.7619937823
 20
3.914329566
 30
0.0
 10
4.7625050558
 20
3.9144661095
 30
0.0
 10
4.7630697548
 20
3.914602742
 30
0.0
 10
4.7636878206
 20
3.914739446
 30
0.0
 10
4.7643591781
 20
3.9148762103
 30
0.0
 10
4.7650837392
 20
3.9150130231
 30
0.0
 10
4.7658614084
 20
3.9151498803
 30
0.0
 10
4.7670033119
 20
3.9153380364
 30
0.0
 10
4.7685630302
 20
3.9155715567
 30
0.0
 10
4.7705933708
 20
3.9158444255
 30
0.0
 10
4.7728329359
 20
3.9161175231
 30
0.0
 10
4.7752804389
 20
3.9163908115
 30
0.0
 10
4.7779344802
 20
3.9166642458
 30
0.0
 10
4.7807935245
 20
3.9169377958
 30
0.0
 10
4.7838559189
 20
3.9172114409
 30
0.0
 10
4.7871198842
 20
3.9174851618
 30
0.0
 10
4.7905835277
 20
3.9177589481
 30
0.0
 10
4.7942448338
 20
3.9180327856
 30
0.0
 10
4.7981016764
 20
3.9183066738
 30
0.0
 10
4.8036280524
 20
3.9186804199
 30
0.0
 10
4.8110072962
 20
3.9191452848
 30
0.0
 10
4.8204160365
 20
3.9196916452
 30
0.0
 10
4.8305458591
 20
3.9202382948
 30
0.0
 10
4.8413731877
 20
3.9207851896
 30
0.0
 10
4.8528728238
 20
3.9213322753
 30
0.0
 10
4.8650179988
 20
3.9218795173
 30
0.0
 10
4.8777804398
 20
3.922426887
 30
0.0
 10
4.8911304352
 20
3.9229743624
 30
0.0
 10
4.9050369048
 20
3.9235219264
 30
0.0
 10
4.9194674717
 20
3.9240695632
 30
0.0
 10
4.9343885384
 20
3.924617267
 30
0.0
 10
4.9551625398
 20
3.9253572591
 30
0.0
 10
4.9820870507
 20
3.9262779028
 30
0.0
 10
5.0153675224
 20
3.9273693191
 30
0.0
 10
5.0497162214
 20
3.928461071
 30
0.0
 10
5.0848134448
 20
3.9295530544
 30
0.0
 10
5.1203325227
 20
3.9306451587
 30
0.0
 10
5.155942857
 20
3.9317372888
 30
0.0
 10
5.1913129998
 20
3.9328293515
 30
0.0
 10
5.2261137399
 20
3.933921243
 30
0.0
 10
5.2600211663
 20
3.9350128668
 30
0.0
 10
5.2875750667
 20
3.9359323537
 30
0.0
 10
5.3089355277
 20
3.9366711932
 30
0.0
 10
5.3243563036
 20
3.937218954
 30
0.0
 10
5.3393248796
 20
3.9377666591
 30
0.0
 10
5.3538064051
 20
3.9383143039
 30
0.0
 10
5.3677671642
 20
3.9388618756
 30
0.0
 10
5.3811746536
 20
3.9394093607
 30
0.0
 10
5.393997659
 20
3.939956742
 30
0.0
 10
5.4062063277
 20
3.940503998
 30
0.0
 10
5.417772239
 20
3.9410511009
 30
0.0
 10
5.4286684695
 20
3.941598017
 30
0.0
 10
5.4388696602
 20
3.9421446935
 30
0.0
 10
5.4483520679
 20
3.9426910879
 30
0.0
 10
5.4557940724
 20
3.9431558806
 30
0.0
 10
5.4613716836
 20
3.9435295354
 30
0.0
 10
5.4652676569
 20
3.9438034312
 30
0.0
 10
5.4689685389
 20
3.9440772792
 30
0.0
 10
5.4724721761
 20
3.9443510762
 30
0.0
 10
5.475776533
 20
3.9446248118
 30
0.0
 10
5.4788796891
 20
3.9448984727
 30
0.0
 10
5.4817798453
 20
3.9451720442
 30
0.0
 10
5.4844753206
 20
3.9454455031
 30
0.0
 10
5.4869645582
 20
3.9457188248
 30
0.0
 10
5.4892461288
 20
3.9459919632
 30
0.0
 10
5.4913187228
 20
3.9462648871
 30
0.0
 10
5.4929138322
 20
3.9464983253
 30
0.0
 10
5.4940841789
 20
3.9466863594
 30
0.0
 10
5.4948832197
 20
3.946823231
 30
0.0
 10
5.4956291958
 20
3.9469600608
 30
0.0
 10
5.4963220063
 20
3.9470968455
 30
0.0
 10
5.4969615574
 20
3.9472335752
 30
0.0
 10
5.4975477694
 20
3.9473702395
 30
0.0
 10
5.4980805796
 20
3.9475068204
 30
0.0
 10
5.4985599454
 20
3.9476432987
 30
0.0
 10
5.4989858385
 20
3.9477796502
 30
0.0
 10
5.4993582973
 20
3.9479158568
 30
0.0
 10
5.4996773493
 20
3.9480518808
 30
0.0
 10
5.4998687377
 20
3.9481496623
 30
0.0
 10
5.4999546222
 20
3.9481993172
 30
0.0
  0
SPLINE
  5
272
100
AcDbEntity
  8
0
100
AcDbSpline
 62
7
  6
CONTINUOUS
 70
0
 71
3
 72
51
 73
47
 74
0
 42
0.0000001
 43
0.0000001
 44
0.0000000001
 40
0.0
 40
0.0
 40
0.0
 40
0.0
 40
0.0950359366
 40
0.1892124786
 40
0.2816779712
 40
0.3715963202
 40
0.4581545407
 40
0.4999277002
 40
0.5405701741
 40
0.579990092
 40
0.618098367
 40
0.6548088826
 40
0.6900387179
 40
0.7237083291
 40
0.7557417223
 40
0.7860666566
 40
0.8146148082
 40
0.8413219301
 40
0.8661280382
 40
0.8889775696
 40
0.8996525192
 40
0.9098195751
 40
0.9194731263
 40
0.9286078599
 40
0.9372187912
 40
0.9453012681
 40
0.9528509754
 40
0.959863977
 40
0.9663366986
 40
0.9722660148
 40
0.9776492254
 40
0.9824842158
 40
0.9846956507
 40
0.9867695297
 40
0.9887058226
 40
0.9905045576
 40
0.992165841
 40
0.9936899222
 40
0.9950772245
 40
0.9963283757
 40
0.997444312
 40
0.9984264813
 40
0.9988681066
 40
0.9992772203
 40
0.9996543093
 40
1.0
 40
1.0
 40
1.0
 40
1.0
 10
5.1301369863
 20
3.7389760616
 30
0.0
 10
5.1430920103
 20
3.7393361555
 30
0.0
 10
5.1688849082
 20
3.7400530817
 30
0.0
 10
5.2072821659
 20
3.7411300158
 30
0.0
 10
5.2449812671
 20
3.7422067619
 30
0.0
 10
5.2816410345
 20
3.7432832282
 30
0.0
 10
5.311389881
 20
3.7441903087
 30
0.0
 10
5.3344212767
 20
3.7449191695
 30
0.0
 10
5.351027182
 20
3.745459292
 30
0.0
 10
5.3671330379
 20
3.7459993584
 30
0.0
 10
5.3827023847
 20
3.7465393639
 30
0.0
 10
5.397699978
 20
3.7470792958
 30
0.0
 10
5.4120918677
 20
3.7476191406
 30
0.0
 10
5.4258454758
 20
3.7481588809
 30
0.0
 10
5.4389296698
 20
3.7486984952
 30
0.0
 10
5.451314834
 20
3.7492379551
 30
0.0
 10
5.4629729364
 20
3.7497772268
 30
0.0
 10
5.4738775953
 20
3.7503162566
 30
0.0
 10
5.4840041325
 20
3.7508550011
 30
0.0
 10
5.4919454793
 20
3.7513134037
 30
0.0
 10
5.497892282
 20
3.7516819531
 30
0.0
 10
5.5020421827
 20
3.7519520202
 30
0.0
 10
5.5059815812
 20
3.7522220381
 30
0.0
 10
5.5097082505
 20
3.7524920043
 30
0.0
 10
5.5132200843
 20
3.7527619072
 30
0.0
 10
5.5165150983
 20
3.7530317338
 30
0.0
 10
5.5195914338
 20
3.7533014678
 30
0.0
 10
5.5224473566
 20
3.7535710854
 30
0.0
 10
5.525081263
 20
3.7538405606
 30
0.0
 10
5.5274916811
 20
3.7541098436
 30
0.0
 10
5.5296772662
 20
3.7543789023
 30
0.0
 10
5.5313566593
 20
3.7546091637
 30
0.0
 10
5.5325864932
 20
3.754794702
 30
0.0
 10
5.5334241482
 20
3.7549296474
 30
0.0
 10
5.5342047565
 20
3.7550645474
 30
0.0
 10
5.5349282142
 20
3.755199398
 30
0.0
 10
5.5355944267
 20
3.7553341886
 30
0.0
 10
5.536203316
 20
3.7554689046
 30
0.0
 10
5.536754819
 20
3.7556035272
 30
0.0
 10
5.5372489002
 20
3.7557380277
 30
0.0
 10
5.5376855213
 20
3.7558723918
 30
0.0
 10
5.5380121855
 20
3.7559879358
 30
0.0
 10
5.5382441133
 20
3.7560812277
 30
0.0
 10
5.5383974019
 20
3.7561486807
 30
0.0
 10
5.5385362909
 20
3.7562161155
 30
0.0
 10
5.538623004
 20
3.7562630758
 30
0.0
 10
5.5386638182
 20
3.756286667
 30
0.0
  0
SPLINE
  5
273
100
AcDbEntity
  8
0
100
AcDbSpline
 62
7
  6
CONTINUOUS
 70
0
 71
3
 72
39
 73
35
 74
0
 42
0.0000001
 43
0.0000001
 44
0.0000000001
 40
0.0
 40
0.0
 40
0.0
 40
0.0
 40
0.0019368724
 40
0.0039945147
 40
0.0062745772
 40
0.0088525214
 40
0.0117807835
 40
0.0150951028
 40
0.0188200465
 40
0.0229728319
 40
0.0275658059
 40
0.0326080207
 40
0.0381061666
 40
0.0440652515
 40
0.0504891179
 40
0.0573807508
 40
0.0725756837
 40
0.0896637034
 40
0.1086519152
 40
0.1295441655
 40
0.1523417706
 40
0.1770437021
 40
0.203647777
 40
0.2321506574
 40
0.2625475394
 40
0.2948330584
 40
0.3290011437
 40
0.4029553831
 40
0.4843471247
 40
0.5731030853
 40
0.6691403898
 40
0.7723686297
 40
0.8826932574
 40
1.0
 40
1.0
 40
1.0
 40
1.0
 10
4.7597969912
 20
3.7702282002
 30
0.0
 10
4.7597969914
 20
3.7702581818
 30
0.0
 10
4.7598051845
 20
3.7703202637
 30
0.0
 10
4.7598411613
 20
3.7704113165
 30
0.0
 10
4.7599000879
 20
3.7705013907
 30
0.0
 10
4.759981522
 20
3.7705907671
 30
0.0
 10
4.7600853786
 20
3.7706798063
 30
0.0
 10
4.760211707
 20
3.770768703
 30
0.0
 10
4.7603605783
 20
3.7708575612
 30
0.0
 10
4.7605320505
 20
3.7709464258
 30
0.0
 10
4.7607261636
 20
3.7710353156
 30
0.0
 10
4.7609429418
 20
3.7711242356
 30
0.0
 10
4.7611823953
 20
3.7712131864
 30
0.0
 10
4.7614445247
 20
3.7713021654
 30
0.0
 10
4.7617293238
 20
3.7713911735
 30
0.0
 10
4.7621532635
 20
3.7715139133
 30
0.0
 10
4.7627403813
 20
3.7716660908
 30
0.0
 10
4.7635140233
 20
3.7718434891
 30
0.0
 10
4.7643778613
 20
3.7720210565
 30
0.0
 10
4.7653317098
 20
3.772198766
 30
0.0
 10
4.7663753672
 20
3.772376581
 30
0.0
 10
4.7675085921
 20
3.772554485
 30
0.0
 10
4.7687311183
 20
3.7727324588
 30
0.0
 10
4.7700426534
 20
3.7729104884
 30
0.0
 10
4.7714428799
 20
3.7730885658
 30
0.0
 10
4.7729314572
 20
3.7732666868
 30
0.0
 10
4.7750911519
 20
3.7735107118
 30
0.0
 10
4.7780090573
 20
3.773813943
 30
0.0
 10
4.781770904
 20
3.7741692095
 30
0.0
 10
4.7858759497
 20
3.774524712
 30
0.0
 10
4.7903201539
 20
3.774880415
 30
0.0
 10
4.7950992037
 20
3.7752362738
 30
0.0
 10
4.80020833
 20
3.7755922541
 30
0.0
 10
4.8037243889
 20
3.7758226486
 30
0.0
 10
4.8055365425
 20
3.7759382002
 30
0.0
  0
SPLINE
  5
274
100
AcDbEntity
  8
0
100
AcDbSpline
 62
7
  6
CONTINUOUS
 70
0
 71
3
 72
58
 73
54
 74
0
 42
0.0000001
 43
0.0000001
 44
0.0000000001
 40
0.0
 40
0.0
 40
0.0
 40
0.0
 40
0.0001712269
 40
0.0003505088
 40
0.0005448993
 40
0.0007599676
 40
0.0009998444
 40
0.0012675123
 40
0.0015651174
 40
0.0018942185
 40
0.0022559617
 40
0.0026512014
 40
0.0030805877
 40
0.0035446233
 40
0.0045780658
 40
0.0057539207
 40
0.0070736467
 40
0.0085381801
 40
0.010148144
 40
0.0119039476
 40
0.0138058058
 40
0.0158538004
 40
0.0180479367
 40
0.020388151
 40
0.0255060748
 40
0.0312058135
 40
0.0374848359
 40
0.0443400624
 40
0.0517678612
 40
0.0597642033
 40
0.068324563
 40
0.0774440932
 40
0.087117479
 40
0.0973391216
 40
0.1081029822
 40
0.119402749
 40
0.1435828169
 40
0.1698218579
 40
0.1980572635
 40
0.2282214902
 40
0.2602422567
 40
0.2940427585
 40
0.3295418425
 40
0.3666542235
 40
0.4052907136
 40
0.4453584144
 40
0.4867609634
 40
0.5293987785
 40
0.6179671197
 40
0.7102114842
 40
0.8052443826
 40
0.902151415
 40
1.0
 40
1.0
 40
1.0
 40
1.0
 10
5.5391369863
 20
3.8371928388
 30
0.0
 10
5.5391369863
 20
3.8371694456
 30
0.0
 10
5.5391315562
 20
3.8371214074
 30
0.0
 10
5.5391075126
 20
3.8370504511
 30
0.0
 10
5.5390678946
 20
3.8369800048
 30
0.0
 10
5.5390129679
 20
3.8369099931
 30
0.0
 10
5.53894283
 20
3.8368402359
 30
0.0
 10
5.5388574851
 20
3.8367706133
 30
0.0
 10
5.5387569048
 20
3.8367010492
 30
0.0
 10
5.5386410575
 20
3.836631504
 30
0.0
 10
5.5385099185
 20
3.836561957
 30
0.0
 10
5.5383634711
 20
3.8364923993
 30
0.0
 10
5.5382017061
 20
3.8364228231
 30
0.0
 10
5.5379566547
 20
3.8363265446
 30
0.0
 10
5.5376112565
 20
3.8362073333
 30
0.0
 10
5.5371493678
 20
3.8360687474
 30
0.0
 10
5.5366263422
 20
3.835930014
 30
0.0
 10
5.5360422252
 20
3.8357911498
 30
0.0
 10
5.5353970592
 20
3.8356521863
 30
0.0
 10
5.5346909178
 20
3.8355131445
 30
0.0
 10
5.533923892
 20
3.8353740386
 30
0.0
 10
5.533096089
 20
3.8352348805
 30
0.0
 10
5.532207625
 20
3.8350956751
 30
0.0
 10
5.5309028698
 20
3.8349042613
 30
0.0
 10
5.5291209103
 20
3.834666719
 30
0.0
 10
5.5268016394
 20
3.8343891734
 30
0.0
 10
5.5242435144
 20
3.8341113905
 30
0.0
 10
5.5214480614
 20
3.8338334106
 30
0.0
 10
5.5184169394
 20
3.8335552796
 30
0.0
 10
5.515151967
 20
3.8332770303
 30
0.0
 10
5.5116550979
 20
3.8329986823
 30
0.0
 10
5.5079284378
 20
3.8327202574
 30
0.0
 10
5.5039742224
 20
3.8324417647
 30
0.0
 10
5.4997948356
 20
3.8321632202
 30
0.0
 10
5.4953927875
 20
3.8318846233
 30
0.0
 10
5.4890863644
 20
3.8315044722
 30
0.0
 10
5.4806674957
 20
3.8310316459
 30
0.0
 10
5.4699359867
 20
3.830475901
 30
0.0
 10
5.4583859163
 20
3.829919861
 30
0.0
 10
5.4460451012
 20
3.8293635711
 30
0.0
 10
5.4329432612
 20
3.8288070868
 30
0.0
 10
5.4191119541
 20
3.8282504434
 30
0.0
 10
5.4045844961
 20
3.8276936701
 30
0.0
 10
5.389395882
 20
3.8271367894
 30
0.0
 10
5.3735827002
 20
3.826579819
 30
0.0
 10
5.3571830442
 20
3.8260227746
 30
0.0
 10
5.3402364208
 20
3.8254656626
 30
0.0
 10
5.3166664405
 20
3.824713234
 30
0.0
 10
5.2861527364
 20
3.8237771593
 30
0.0
 10
5.2484827643
 20
3.8226670857
 30
0.0
 10
5.2096730833
 20
3.8215566837
 30
0.0
 10
5.170097449
 20
3.8204460615
 30
0.0
 10
5.1435000025
 20
3.8197067731
 30
0.0
 10
5.1301369863
 20
3.8193353388
 30
0.0
  0
SPLINE
  5
275
100
AcDbEntity
  8
0
100
AcDbSpline
 62
7
  6
CONTINUOUS
 70
0
 71
3
 72
100
 73
96
 74
0
 42
0.0000001
 43
0.0000001
 44
0.0000000001
 40
0.0
 40
0.0
 40
0.0
 40
0.0
 40
0.0000929012
 40
0.0001892894
 40
0.0002922977
 40
0.0004045059
 40
0.0005279178
 40
0.0006640417
 40
0.0008139995
 40
0.0009786286
 40
0.00115856
 40
0.0013542753
 40
0.0015661468
 40
0.0017944668
 40
0.0023012884
 40
0.0028761395
 40
0.0035198946
 40
0.0042331482
 40
0.0050163088
 40
0.0058696356
 40
0.0067932905
 40
0.0077873737
 40
0.0088519346
 40
0.0099869616
 40
0.0124681824
 40
0.0152304172
 40
0.0182725873
 40
0.0215933618
 40
0.0251911
 40
0.0290639822
 40
0.0332099288
 40
0.0376267136
 40
0.0423118765
 40
0.0472628269
 40
0.0524767548
 40
0.0579507288
 40
0.069666135
 40
0.0823822498
 40
0.0960698292
 40
0.1106972909
 40
0.126230817
 40
0.1426344406
 40
0.1598701326
 40
0.17789791
 40
0.1966759271
 40
0.2161605703
 40
0.2363065748
 40
0.2570671278
 40
0.3002375208
 40
0.3452705269
 40
0.3917474985
 40
0.4392363081
 40
0.4872953829
 40
0.5354778149
 40
0.583335556
 40
0.6304235876
 40
0.6763040673
 40
0.7205504422
 40
0.7419316105
 40
0.7627514256
 40
0.7829614903
 40
0.8025148422
 40
0.821366055
 40
0.8394713437
 40
0.8567886803
 40
0.8732778896
 40
0.8889007412
 40
0.9036210558
 40
0.9174047956
 40
0.9302201483
 40
0.94203763
 40
0.9475636209
 40
0.9528301951
 40
0.9578343595
 40
0.9625732984
 40
0.9670443579
 40
0.971245069
 40
0.9751731406
 40
0.9788264788
 40
0.9822031946
 40
0.9853016241
 40
0.9881203572
 40
0.9906582723
 40
0.9918216814
 40
0.9929146428
 40
0.99393713
 40
0.9948891577
 40
0.9957708073
 40
0.9965822193
 40
0.9973236094
 40
0.9979953118
 40
0.9985978409
 40
0.9991319485
 40
0.999598755
 40
1.0
 40
1.0
 40
1.0
 40
1.0
 10
4.759796991
 20
3.6987982002
 30
0.0
 10
4.7597969913
 20
3.6988211691
 30
0.0
 10
4.7598016881
 20
3.6988680893
 30
0.0
 10
4.7598225789
 20
3.6989376687
 30
0.0
 10
4.7598571231
 20
3.6990068968
 30
0.0
 10
4.7599051281
 20
3.699075786
 30
0.0
 10
4.7599664989
 20
3.6991444491
 30
0.0
 10
4.7600412094
 20
3.6992129751
 30
0.0
 10
4.7601292654
 20
3.6992814299
 30
0.0
 10
4.7602306837
 20
3.6993498519
 30
0.0
 10
4.7603454809
 20
3.6994182639
 30
0.0
 10
4.760473671
 20
3.6994866767
 30
0.0
 10
4.7606152628
 20
3.6995551001
 30
0.0
 10
4.760829497
 20
3.6996496658
 30
0.0
 10
4.7611316221
 20
3.6997668357
 30
0.0
 10
4.7615359609
 20
3.6999031367
 30
0.0
 10
4.7619937814
 20
3.7000395664
 30
0.0
 10
4.762505055
 20
3.7001761102
 30
0.0
 10
4.7630697554
 20
3.7003127413
 30
0.0
 10
4.7636878212
 20
3.7004494457
 30
0.0
 10
4.7643591772
 20
3.7005862106
 30
0.0
 10
4.7650837386
 20
3.7007230236
 30
0.0
 10
4.765861409
 20
3.7008598797
 30
0.0
 10
4.7670033123
 20
3.7010480365
 30
0.0
 10
4.7685630302
 20
3.7012815573
 30
0.0
 10
4.7705933698
 20
3.7015544248
 30
0.0
 10
4.7728329359
 20
3.7018275237
 30
0.0
 10
4.7752804381
 20
3.7021008109
 30
0.0
 10
4.7779344802
 20
3.7023742463
 30
0.0
 10
4.7807935237
 20
3.7026477954
 30
0.0
 10
4.7838559187
 20
3.7029214412
 30
0.0
 10
4.7871198832
 20
3.7031951615
 30
0.0
 10
4.7905835275
 20
3.7034689483
 30
0.0
 10
4.7942448331
 20
3.7037427853
 30
0.0
 10
4.7981016763
 20
3.704016674
 30
0.0
 10
4.803628052
 20
3.7043904197
 30
0.0
 10
4.8110072963
 20
3.7048552848
 30
0.0
 10
4.8204160363
 20
3.7054016451
 30
0.0
 10
4.8305458587
 20
3.7059482948
 30
0.0
 10
4.8413731871
 20
3.7064951896
 30
0.0
 10
4.852872823
 20
3.7070422753
 30
0.0
 10
4.8650179978
 20
3.7075895173
 30
0.0
 10
4.8777804385
 20
3.708136887
 30
0.0
 10
4.8911304338
 20
3.7086843624
 30
0.0
 10
4.9050369032
 20
3.7092319263
 30
0.0
 10
4.91946747
 20
3.7097795632
 30
0.0
 10
4.9343885365
 20
3.710327267
 30
0.0
 10
4.9551625379
 20
3.711067259
 30
0.0
 10
4.9820870486
 20
3.7119879027
 30
0.0
 10
5.0153675203
 20
3.7130793191
 30
0.0
 10
5.0497162192
 20
3.7141710709
 30
0.0
 10
5.0848134429
 20
3.7152630544
 30
0.0
 10
5.120332521
 20
3.7163551586
 30
0.0
 10
5.1559428556
 20
3.7174472888
 30
0.0
 10
5.1913129988
 20
3.7185393514
 30
0.0
 10
5.2261137392
 20
3.7196312429
 30
0.0
 10
5.260021166
 20
3.7207228667
 30
0.0
 10
5.2875750666
 20
3.7216423536
 30
0.0
 10
5.3089355278
 20
3.7223811931
 30
0.0
 10
5.3243563038
 20
3.7229289539
 30
0.0
 10
5.3393248798
 20
3.7234766591
 30
0.0
 10
5.3538064054
 20
3.7240243038
 30
0.0
 10
5.3677671645
 20
3.7245718755
 30
0.0
 10
5.3811746539
 20
3.7251193607
 30
0.0
 10
5.3939976592
 20
3.7256667419
 30
0.0
 10
5.4062063279
 20
3.7262139979
 30
0.0
 10
5.4177722391
 20
3.7267611008
 30
0.0
 10
5.4286684695
 20
3.7273080169
 30
0.0
 10
5.43886966
 20
3.7278546935
 30
0.0
 10
5.4483520676
 20
3.7284010879
 30
0.0
 10
5.4557940715
 20
3.7288658804
 30
0.0
 10
5.4613716828
 20
3.7292395355
 30
0.0
 10
5.4652676561
 20
3.729513431
 30
0.0
 10
5.4689685381
 20
3.7297872791
 30
0.0
 10
5.4724721751
 20
3.7300610761
 30
0.0
 10
5.4757765318
 20
3.7303348116
 30
0.0
 10
5.4788796882
 20
3.7306084727
 30
0.0
 10
5.4817798444
 20
3.7308820439
 30
0.0
 10
5.4844753202
 20
3.7311555032
 30
0.0
 10
5.4869645574
 20
3.7314288244
 30
0.0
 10
5.4892461284
 20
3.7317019634
 30
0.0
 10
5.4913187217
 20
3.7319748867
 30
0.0
 10
5.4929138301
 20
3.7322083246
 30
0.0
 10
5.4940841767
 20
3.7323963602
 30
0.0
 10
5.4948832198
 20
3.7325332307
 30
0.0
 10
5.4956291972
 20
3.7326700597
 30
0.0
 10
5.4963220055
 20
3.7328068457
 30
0.0
 10
5.4969615555
 20
3.7329435763
 30
0.0
 10
5.4975477699
 20
3.7330802391
 30
0.0
 10
5.4980805813
 20
3.7332168189
 30
0.0
 10
5.4985599445
 20
3.733353299
 30
0.0
 10
5.4989858362
 20
3.7334896518
 30
0.0
 10
5.4993582975
 20
3.7336258563
 30
0.0
 10
5.499677351
 20
3.7337618788
 30
0.0
 10
5.499868737
 20
3.7338596623
 30
0.0
 10
5.4999546194
 20
3.7339093172
 30
0.0
  0
SPLINE
  5
276
100
AcDbEntity
  8
0
100
AcDbSpline
 62
7
  6
CONTINUOUS
 70
0
 71
3
 72
76
 73
72
 74
0
 42
0.0000001
 43
0.0000001
 44
0.0000000001
 40
0.0
 40
0.0
 40
0.0
 40
0.0
 40
0.0109762578
 40
0.0227255836
 40
0.0352279732
 40
0.0484625327
 40
0.0624068444
 40
0.0770373617
 40
0.0923293164
 40
0.1082568121
 40
0.1247928599
 40
0.14190942
 40
0.1777669912
 40
0.2155862699
 40
0.2551105646
 40
0.2960715424
 40
0.3381910527
 40
0.3811830522
 40
0.4247555431
 40
0.4686125622
 40
0.5124562177
 40
0.5559886961
 40
0.5989143191
 40
0.6409415329
 40
0.68178493
 40
0.721167155
 40
0.7588208508
 40
0.7944904614
 40
0.8115050415
 40
0.8279340043
 40
0.8437494996
 40
0.8589247299
 40
0.8734339959
 40
0.8872527479
 40
0.9003576315
 40
0.9127265269
 40
0.9243385947
 40
0.9351743266
 40
0.9452155941
 40
0.9544456926
 40
0.9587517518
 40
0.9628494199
 40
0.9667370642
 40
0.9704131101
 40
0.9738761263
 40
0.9771247761
 40
0.9801578419
 40
0.9829742594
 40
0.9855730693
 40
0.9879535261
 40
0.9901150287
 40
0.992057256
 40
0.992946135
 40
0.9937802125
 40
0.9945595621
 40
0.995284299
 40
0.9959545854
 40
0.9965706471
 40
0.9971328066
 40
0.9976415264
 40
0.9980974523
 40
0.9985015029
 40
0.9988550256
 40
0.9991600764
 40
0.999295442
 40
0.9994200553
 40
0.9995346496
 40
0.9996401682
 40
0.9998287011
 40
0.9999155172
 40
1.0
 40
1.0
 40
1.0
 40
1.0
 10
4.8055365425
 20
3.7580782002
 30
0.0
 10
4.8080782876
 20
3.7582402741
 30
0.0
 10
4.8133416231
 20
3.7585629223
 30
0.0
 10
4.8215024859
 20
3.7590303771
 30
0.0
 10
4.8301881569
 20
3.7594979881
 30
0.0
 10
4.8393838342
 20
3.7599657293
 30
0.0
 10
4.8490739162
 20
3.7604335769
 30
0.0
 10
4.8592419158
 20
3.7609015136
 30
0.0
 10
4.8698705504
 20
3.7613695254
 30
0.0
 10
4.8809417476
 20
3.7618375994
 30
0.0
 10
4.8924366834
 20
3.7623057318
 30
0.0
 10
4.9085532103
 20
3.7629398236
 30
0.0
 10
4.9296059506
 20
3.7637289754
 30
0.0
 10
4.9558563218
 20
3.7646623773
 30
0.0
 10
4.9832915776
 20
3.7655961198
 30
0.0
 10
5.0117251948
 20
3.7665301328
 30
0.0
 10
5.0409638645
 20
3.7674643402
 30
0.0
 10
5.0708088013
 20
3.768398685
 30
0.0
 10
5.1010570971
 20
3.7693331163
 30
0.0
 10
5.1315031013
 20
3.7702675891
 30
0.0
 10
5.1619398168
 20
3.7712020598
 30
0.0
 10
5.1921603125
 20
3.7721364854
 30
0.0
 10
5.2219591244
 20
3.77307082
 30
0.0
 10
5.2511336607
 20
3.7740050124
 30
0.0
 10
5.2794855697
 20
3.7749390047
 30
0.0
 10
5.3068220993
 20
3.7758727192
 30
0.0
 10
5.3329573982
 20
3.7768060844
 30
0.0
 10
5.3539043608
 20
3.7775953716
 30
0.0
 10
5.3699286854
 20
3.7782296093
 30
0.0
 10
5.3813490602
 20
3.7786977327
 30
0.0
 10
5.3923422674
 20
3.7791657961
 30
0.0
 10
5.4028896158
 20
3.7796337954
 30
0.0
 10
5.4129731724
 20
3.7801017173
 30
0.0
 10
5.4225757937
 20
3.7805695473
 30
0.0
 10
5.4316811549
 20
3.7810372669
 30
0.0
 10
5.4402737771
 20
3.781504852
 30
0.0
 10
5.4483390537
 20
3.7819722734
 30
0.0
 10
5.4558632807
 20
3.7824394852
 30
0.0
 10
5.462833673
 20
3.7829064505
 30
0.0
 10
5.4682901114
 20
3.7833039506
 30
0.0
 10
5.4723693362
 20
3.7836235259
 30
0.0
 10
5.475211787
 20
3.7838575922
 30
0.0
 10
5.4779075344
 20
3.7840916145
 30
0.0
 10
5.4804554385
 20
3.7843255941
 30
0.0
 10
5.4828544171
 20
3.7845595189
 30
0.0
 10
5.4851034553
 20
3.7847933785
 30
0.0
 10
5.4872016041
 20
3.7850271608
 30
0.0
 10
5.4891479778
 20
3.7852608426
 30
0.0
 10
5.4909417643
 20
3.7854944073
 30
0.0
 10
5.4925822199
 20
3.7857278092
 30
0.0
 10
5.494068669
 20
3.7859610264
 30
0.0
 10
5.4952099119
 20
3.7861605951
 30
0.0
 10
5.4960450568
 20
3.7863213718
 30
0.0
 10
5.4966138019
 20
3.7864383353
 30
0.0
 10
5.4971436163
 20
3.7865552635
 30
0.0
 10
5.4976344533
 20
3.786672154
 30
0.0
 10
5.4980862707
 20
3.7867889981
 30
0.0
 10
5.4984990334
 20
3.7869057874
 30
0.0
 10
5.498872718
 20
3.7870225126
 30
0.0
 10
5.4992073223
 20
3.7871391603
 30
0.0
 10
5.4995028595
 20
3.7872557188
 30
0.0
 10
5.4997593967
 20
3.7873721864
 30
0.0
 10
5.4999769849
 20
3.7874885824
 30
0.0
 10
5.5001317145
 20
3.7875892417
 30
0.0
 10
5.5002346797
 20
3.787670551
 30
0.0
 10
5.5002990046
 20
3.7877291154
 30
0.0
 10
5.5003535809
 20
3.787787778
 30
0.0
 10
5.5004111319
 20
3.7878632102
 30
0.0
 10
5.5004528685
 20
3.7879425635
 30
0.0
 10
5.500473594
 20
3.78802377
 30
0.0
 10
5.5004769846
 20
3.788063597
 30
0.0
 10
5.5004769841
 20
3.7880832002
 30
0.0
  0
SPLINE
  5
277
100
AcDbEntity
  8
0
100
AcDbSpline
 62
7
  6
CONTINUOUS
 70
0
 71
3
 72
68
 73
64
 74
0
 42
0.0000001
 43
0.0000001
 44
0.0000000001
 40
0.0
 40
0.0
 40
0.0
 40
0.0
 40
0.0107605209
 40
0.022264591
 40
0.0344933543
 40
0.0474272242
 40
0.0610451556
 40
0.0753250756
 40
0.090243776
 40
0.1057769985
 40
0.1218994715
 40
0.138584949
 40
0.173535339
 40
0.2104005301
 40
0.2489402726
 40
0.2889033481
 40
0.3300292007
 40
0.3720496663
 40
0.4146907068
 40
0.5007199081
 40
0.5435469871
 40
0.5858761631
 40
0.627431376
 40
0.667941651
 40
0.7071428452
 40
0.7447794025
 40
0.7806060152
 40
0.797767152
 40
0.8143892865
 40
0.8304453493
 40
0.8459092074
 40
0.8607557026
 40
0.8749606955
 40
0.8885011117
 40
0.9013549795
 40
0.9135014656
 40
0.924920919
 40
0.9355949193
 40
0.9455063157
 40
0.9546392682
 40
0.9629793025
 40
0.9668478512
 40
0.9705133986
 40
0.9739745467
 40
0.9772300243
 40
0.9802786287
 40
0.9831193232
 40
0.9857511556
 40
0.9869885025
 40
0.9881733575
 40
0.9903852869
 40
0.9923865196
 40
0.9941769123
 40
0.9949930907
 40
0.9957566609
 40
0.9964677325
 40
0.9971264588
 40
0.9977330516
 40
0.9982878084
 40
0.9987911555
 40
0.9992436848
 40
0.9996462303
 40
1.0
 40
1.0
 40
1.0
 40
1.0
 10
4.8055365425
 20
3.7759382002
 30
0.0
 10
4.8080253507
 20
3.7760968986
 30
0.0
 10
4.8131757366
 20
3.7764128835
 30
0.0
 10
4.8211568107
 20
3.7768709786
 30
0.0
 10
4.8296423513
 20
3.777329219
 30
0.0
 10
4.8386184665
 20
3.7777875807
 30
0.0
 10
4.84807054
 20
3.7782460422
 30
0.0
 10
4.8579831288
 20
3.7787045874
 30
0.0
 10
4.868340056
 20
3.7791632031
 30
0.0
 10
4.8791244124
 20
3.7796218776
 30
0.0
 10
4.8903185913
 20
3.7800806074
 30
0.0
 10
4.9060099998
 20
3.7807019365
 30
0.0
 10
4.9265064759
 20
3.7814752847
 30
0.0
 10
4.9520661198
 20
3.7823900149
 30
0.0
 10
4.9787882029
 20
3.7833050723
 30
0.0
 10
5.0064982846
 20
3.7842203915
 30
0.0
 10
5.0350154795
 20
3.7851359004
 30
0.0
 10
5.0641536278
 20
3.7860515471
 30
0.0
 10
5.10369402
 20
3.7872760916
 30
0.0
 10
5.1434217129
 20
3.7884918177
 30
0.0
 10
5.1830768765
 20
3.7897146202
 30
0.0
 10
5.2124292998
 20
3.7906303104
 30
0.0
 10
5.2412445185
 20
3.7915458864
 30
0.0
 10
5.2693344266
 20
3.7924612973
 30
0.0
 10
5.296515658
 20
3.7933764783
 30
0.0
 10
5.3226107741
 20
3.7942913697
 30
0.0
 10
5.3435996971
 20
3.7950640903
 30
0.0
 10
5.3597205724
 20
3.7956847537
 30
0.0
 10
5.3712622462
 20
3.7961435222
 30
0.0
 10
5.3824102391
 20
3.7966022423
 30
0.0
 10
5.3931463505
 20
3.7970609115
 30
0.0
 10
5.4034530535
 20
3.7975195195
 30
0.0
 10
5.4133135224
 20
3.7979780558
 30
0.0
 10
5.4227116615
 20
3.7984365068
 30
0.0
 10
5.4316321301
 20
3.7988948556
 30
0.0
 10
5.4400603667
 20
3.799353081
 30
0.0
 10
5.4479826154
 20
3.7998111546
 30
0.0
 10
5.4553859491
 20
3.8002690424
 30
0.0
 10
5.4622582961
 20
3.8007266887
 30
0.0
 10
5.4685884481
 20
3.8011840496
 30
0.0
 10
5.473519231
 20
3.8015739829
 30
0.0
 10
5.477184838
 20
3.8018876921
 30
0.0
 10
5.4797227734
 20
3.8021169948
 30
0.0
 10
5.4821180168
 20
3.8023462471
 30
0.0
 10
5.4843695907
 20
3.8025754423
 30
0.0
 10
5.4864765855
 20
3.8028045708
 30
0.0
 10
5.4884381417
 20
3.8030336171
 30
0.0
 10
5.4899810334
 20
3.8032281916
 30
0.0
 10
5.4911419008
 20
3.8033844107
 30
0.0
 10
5.4922054448
 20
3.8035340009
 30
0.0
 10
5.4934426322
 20
3.8037200123
 30
0.0
 10
5.4948152007
 20
3.803948453
 30
0.0
 10
5.4958651272
 20
3.8041441314
 30
0.0
 10
5.4966301217
 20
3.8043018653
 30
0.0
 10
5.4971485509
 20
3.804416454
 30
0.0
 10
5.4976295545
 20
3.8045310034
 30
0.0
 10
5.4980730924
 20
3.8046455113
 30
0.0
 10
5.4984791304
 20
3.8047599683
 30
0.0
 10
5.4988476462
 20
3.8048743672
 30
0.0
 10
5.4991786305
 20
3.8049886946
 30
0.0
 10
5.4994721069
 20
3.8051029434
 30
0.0
 10
5.4997280856
 20
3.8052170986
 30
0.0
 10
5.4998836427
 20
3.8052982786
 30
0.0
 10
5.4999546227
 20
3.8053393172
 30
0.0
  0
SPLINE
  5
278
100
AcDbEntity
  8
0
100
AcDbSpline
 62
7
  6
CONTINUOUS
 70
0
 71
3
 72
33
 73
29
 74
0
 42
0.0000001
 43
0.0000001
 44
0.0000000001
 40
0.0
 40
0.0
 40
0.0
 40
0.0
 40
0.0036692898
 40
0.0076939937
 40
0.0120815204
 40
0.0168375252
 40
0.0219663228
 40
0.027471277
 40
0.039619232
 40
0.0532976656
 40
0.0685164489
 40
0.0852813612
 40
0.1035957881
 40
0.1234614783
 40
0.1448784381
 40
0.1678455192
 40
0.192360954
 40
0.2184221241
 40
0.2460254654
 40
0.3058424339
 40
0.3717745879
 40
0.4437771432
 40
0.5217986712
 40
0.6057823034
 40
0.6956640766
 40
0.7913771905
 40
0.8928514727
 40
1.0
 40
1.0
 40
1.0
 40
1.0
 10
4.7603193542
 20
3.7529720832
 30
0.0
 10
4.7603676444
 20
3.7530000031
 30
0.0
 10
4.7604706521
 20
3.7530555437
 30
0.0
 10
4.7606362548
 20
3.7531350809
 30
0.0
 10
4.7608199977
 20
3.7532146401
 30
0.0
 10
4.7610218808
 20
3.7532942171
 30
0.0
 10
4.7612419069
 20
3.7533738169
 30
0.0
 10
4.7615703989
 20
3.7534836122
 30
0.0
 10
4.7620269644
 20
3.7536197388
 30
0.0
 10
4.762630511
 20
3.7537783774
 30
0.0
 10
4.7633063301
 20
3.7539371592
 30
0.0
 10
4.7640543141
 20
3.7540960685
 30
0.0
 10
4.7648743504
 20
3.754255075
 30
0.0
 10
4.7657662968
 20
3.754414158
 30
0.0
 10
4.76672999
 20
3.754573304
 30
0.0
 10
4.7677652474
 20
3.7547325033
 30
0.0
 10
4.7688718731
 20
3.754891744
 30
0.0
 10
4.7700496539
 20
3.7550510231
 30
0.0
 10
4.7717609413
 20
3.75526933
 30
0.0
 10
4.7740764322
 20
3.7555405755
 30
0.0
 10
4.7770658583
 20
3.755858263
 30
0.0
 10
4.7803334282
 20
3.7561761635
 30
0.0
 10
4.7838765852
 20
3.756494248
 30
0.0
 10
4.7876925397
 20
3.756812469
 30
0.0
 10
4.7917782996
 20
3.7571308058
 30
0.0
 10
4.7961306984
 20
3.7574492372
 30
0.0
 10
4.8007462394
 20
3.7577677412
 30
0.0
 10
4.803910975
 20
3.7579745462
 30
0.0
 10
4.8055365425
 20
3.7580782002
 30
0.0
  0
SPLINE
  5
279
100
AcDbEntity
  8
0
100
AcDbSpline
 62
7
  6
CONTINUOUS
 70
0
 71
3
 72
50
 73
46
 74
0
 42
0.0000001
 43
0.0000001
 44
0.0000000001
 40
0.0
 40
0.0
 40
0.0
 40
0.0
 40
0.0961397306
 40
0.191267496
 40
0.2845440129
 40
0.3751419432
 40
0.4622533728
 40
0.5450971954
 40
0.5846837643
 40
0.6229263275
 40
0.6597379641
 40
0.6950347539
 40
0.7287359814
 40
0.7607643131
 40
0.7910460137
 40
0.8195111345
 40
0.8460936774
 40
0.8707317932
 40
0.8933679582
 40
0.9139491348
 40
0.9234538095
 40
0.9324269902
 40
0.9408633879
 40
0.9487580518
 40
0.9561063469
 40
0.9629039907
 40
0.9691470541
 40
0.9748319888
 40
0.9799556642
 40
0.9845154019
 40
0.9865831201
 40
0.9885091236
 40
0.990293246
 40
0.9919353842
 40
0.9934355419
 40
0.9947938094
 40
0.9960103944
 40
0.9970857108
 40
0.9980205063
 40
0.9984355983
 40
0.9988160892
 40
0.9991622794
 40
0.9994745758
 40
0.9997535467
 40
1.0
 40
1.0
 40
1.0
 40
1.0
 10
5.1301369864
 20
3.689206882
 30
0.0
 10
5.1180970472
 20
3.6889826261
 30
0.0
 10
5.0941439152
 20
3.6885357066
 30
0.0
 10
5.0585095751
 20
3.6878626586
 30
0.0
 10
5.0235695212
 20
3.6871885714
 30
0.0
 10
4.9896337675
 20
3.6865135123
 30
0.0
 10
4.957005052
 20
3.6858375457
 30
0.0
 10
4.9307650235
 20
3.6852652772
 30
0.0
 10
4.91064513
 20
3.6848045072
 30
0.0
 10
4.8962897841
 20
3.6844639158
 30
0.0
 10
4.8824719194
 20
3.684123074
 30
0.0
 10
4.869223068
 20
3.6837819859
 30
0.0
 10
4.8565735652
 20
3.683440664
 30
0.0
 10
4.8445524756
 20
3.6830991222
 30
0.0
 10
4.8331875217
 20
3.682757379
 30
0.0
 10
4.8225050145
 20
3.6824154596
 30
0.0
 10
4.8125297876
 20
3.6820733948
 30
0.0
 10
4.8032851318
 20
3.6817312366
 30
0.0
 10
4.7947927395
 20
3.6813890266
 30
0.0
 10
4.7881954667
 20
3.6810966847
 30
0.0
 10
4.7833087778
 20
3.6808611249
 30
0.0
 10
4.7799420049
 20
3.6806891383
 30
0.0
 10
4.7767771749
 20
3.6805171236
 30
0.0
 10
4.7738161916
 20
3.6803450864
 30
0.0
 10
4.7710608416
 20
3.6801730406
 30
0.0
 10
4.7685127956
 20
3.6800010047
 30
0.0
 10
4.7661736055
 20
3.6798290013
 30
0.0
 10
4.7640446982
 20
3.6796570706
 30
0.0
 10
4.7621273852
 20
3.6794852433
 30
0.0
 10
4.7606628486
 20
3.6793378182
 30
0.0
 10
4.7595981003
 20
3.6792188191
 30
0.0
 10
4.7588795482
 20
3.6791325188
 30
0.0
 10
4.7582147111
 20
3.6790462397
 30
0.0
 10
4.7576036931
 20
3.678959986
 30
0.0
 10
4.7570465841
 20
3.6788737735
 30
0.0
 10
4.7565434642
 20
3.6787876184
 30
0.0
 10
4.756094395
 20
3.6787015506
 30
0.0
 10
4.7556994338
 20
3.6786155885
 30
0.0
 10
4.7554047592
 20
3.6785414634
 30
0.0
 10
4.7551964733
 20
3.6784814504
 30
0.0
 10
4.7550601177
 20
3.6784382581
 30
0.0
 10
4.7549373227
 20
3.6783950878
 30
0.0
 10
4.7548280776
 20
3.6783519375
 30
0.0
 10
4.7547323739
 20
3.678308813
 30
0.0
 10
4.7546740327
 20
3.6782782213
 30
0.0
 10
4.7546473081
 20
3.6782627704
 30
0.0
  0
SPLINE
  5
27A
100
AcDbEntity
  8
0
100
AcDbSpline
 62
7
  6
CONTINUOUS
 70
0
 71
3
 72
35
 73
31
 74
0
 42
0.0000001
 43
0.0000001
 44
0.0000000001
 40
0.0
 40
0.0
 40
0.0
 40
0.0
 40
0.003376218
 40
0.0071166434
 40
0.0112293187
 40
0.0157202341
 40
0.0205939372
 40
0.0258539377
 40
0.0375425104
 40
0.0439752911
 40
0.0508020403
 40
0.0580237719
 40
0.06564129
 40
0.0820657969
 40
0.1000786064
 40
0.1196807251
 40
0.1408720574
 40
0.1636511783
 40
0.188015677
 40
0.2139626965
 40
0.2414886377
 40
0.3012591365
 40
0.3672879433
 40
0.439527701
 40
0.5179250411
 40
0.6024207805
 40
0.6929487227
 40
0.7894390547
 40
0.8918190514
 40
1.0
 40
1.0
 40
1.0
 40
1.0
 10
4.7216101548
 20
3.7305947335
 30
0.0
 10
4.7216592706
 20
3.730623123
 30
0.0
 10
4.7217648042
 20
3.7306795239
 30
0.0
 10
4.7219355835
 20
3.7307598916
 30
0.0
 10
4.7221268398
 20
3.7308402904
 30
0.0
 10
4.7223385759
 20
3.7309207155
 30
0.0
 10
4.722570801
 20
3.7310011714
 30
0.0
 10
4.7229202262
 20
3.7311124251
 30
0.0
 10
4.7232984703
 20
3.7312190725
 30
0.0
 10
4.7237045415
 20
3.7313231914
 30
0.0
 10
4.7240391435
 20
3.7314037323
 30
0.0
 10
4.7243941795
 20
3.7314842922
 30
0.0
 10
4.7249078216
 20
3.7315945045
 30
0.0
 10
4.7256010954
 20
3.7317315708
 30
0.0
 10
4.7264948126
 20
3.7318923041
 30
0.0
 10
4.7274697858
 20
3.7320531235
 30
0.0
 10
4.7285258284
 20
3.732214015
 30
0.0
 10
4.7296627385
 20
3.7323749644
 30
0.0
 10
4.7308802924
 20
3.7325359622
 30
0.0
 10
4.7321782505
 20
3.7326970031
 30
0.0
 10
4.734068223
 20
3.7329178822
 30
0.0
 10
4.7366299488
 20
3.7331922471
 30
0.0
 10
4.7399420933
 20
3.7335134152
 30
0.0
 10
4.7435685373
 20
3.7338348156
 30
0.0
 10
4.7475063749
 20
3.7341564115
 30
0.0
 10
4.7517524402
 20
3.7344781542
 30
0.0
 10
4.7563033211
 20
3.7348000193
 30
0.0
 10
4.7611554044
 20
3.7351219839
 30
0.0
 10
4.766304717
 20
3.735444026
 30
0.0
 10
4.7698365853
 20
3.7356530605
 30
0.0
 10
4.7716513204
 20
3.7357578388
 30
0.0
  0
SPLINE
  5
27B
100
AcDbEntity
  8
0
100
AcDbSpline
 62
7
  6
CONTINUOUS
 70
0
 71
3
 72
52
 73
48
 74
0
 42
0.0000001
 43
0.0000001
 44
0.0000000001
 40
0.0
 40
0.0
 40
0.0
 40
0.0
 40
0.0001681197
 40
0.0003654555
 40
0.0005941299
 40
0.0008555021
 40
0.0011504783
 40
0.0014796866
 40
0.0018435749
 40
0.0022424662
 40
0.0031461208
 40
0.0041920382
 40
0.0053810233
 40
0.0067135632
 40
0.0081899143
 40
0.0098102095
 40
0.0115745024
 40
0.0134827577
 40
0.0177306216
 40
0.0225525011
 40
0.0279463647
 40
0.0339097469
 40
0.0404396475
 40
0.047532741
 40
0.055185219
 40
0.0633929902
 40
0.07215151
 40
0.081455965
 40
0.0913011177
 40
0.1016814584
 40
0.1240237885
 40
0.1484319837
 40
0.1748499057
 40
0.2032163979
 40
0.2334654161
 40
0.2655261919
 40
0.29932339
 40
0.3347772561
 40
0.3718038129
 40
0.4103150496
 40
0.4502190945
 40
0.5338201928
 40
0.6218034323
 40
0.7133178821
 40
0.8074732688
 40
0.9033484243
 40
1.0
 40
1.0
 40
1.0
 40
1.0
 10
5.5284065056
 20
3.7005280834
 30
0.0
 10
5.5283907113
 20
3.7005122898
 30
0.0
 10
5.5283533282
 20
3.700480999
 30
0.0
 10
5.5282872038
 20
3.7004376971
 30
0.0
 10
5.5282067025
 20
3.7003943824
 30
0.0
 10
5.528111777
 20
3.700351045
 30
0.0
 10
5.5280023693
 20
3.700307667
 30
0.0
 10
5.5278784529
 20
3.7002642534
 30
0.0
 10
5.5277400107
 20
3.7002208035
 30
0.0
 10
5.527527021
 20
3.7001602868
 30
0.0
 10
5.5272239878
 20
3.7000855957
 30
0.0
 10
5.5268160381
 20
3.6999990504
 30
0.0
 10
5.5263500335
 20
3.6999123444
 30
0.0
 10
5.5258260064
 20
3.6998255011
 30
0.0
 10
5.525243994
 20
3.6997385534
 30
0.0
 10
5.5246040576
 20
3.6996515211
 30
0.0
 10
5.5239062673
 20
3.6995644151
 30
0.0
 10
5.5228608993
 20
3.6994438404
 30
0.0
 10
5.5214099923
 20
3.6992945827
 30
0.0
 10
5.5194962305
 20
3.6991208576
 30
0.0
 10
5.5173537416
 20
3.6989468306
 30
0.0
 10
5.5149836809
 20
3.6987725445
 30
0.0
 10
5.5123873266
 20
3.698598047
 30
0.0
 10
5.5095661118
 20
3.6984233702
 30
0.0
 10
5.5065215951
 20
3.6982485328
 30
0.0
 10
5.5032554835
 20
3.6980735543
 30
0.0
 10
5.4997696075
 20
3.6978984435
 30
0.0
 10
5.4960659414
 20
3.6977232134
 30
0.0
 10
5.4921465826
 20
3.6975478647
 30
0.0
 10
5.4864962123
 20
3.6973079996
 30
0.0
 10
5.478911794
 20
3.6970096533
 30
0.0
 10
5.4691971209
 20
3.6966592359
 30
0.0
 10
5.4586816316
 20
3.6963082878
 30
0.0
 10
5.4473897612
 20
3.6959568426
 30
0.0
 10
5.4353478699
 20
3.695604942
 30
0.0
 10
5.4225841911
 20
3.6952526114
 30
0.0
 10
5.4091287711
 20
3.6948998717
 30
0.0
 10
5.3950134043
 20
3.6945467381
 30
0.0
 10
5.3802715642
 20
3.694193224
 30
0.0
 10
5.3649383301
 20
3.6938393342
 30
0.0
 10
5.3434185832
 20
3.6933595305
 30
0.0
 10
5.315327106
 20
3.6927621563
 30
0.0
 10
5.2803796203
 20
3.6920542592
 30
0.0
 10
5.2440296735
 20
3.6913447976
 30
0.0
 10
5.2066310621
 20
3.6906338447
 30
0.0
 10
5.1685498509
 20
3.6899214789
 30
0.0
 10
5.1429756475
 20
3.6894460149
 30
0.0
 10
5.1301369864
 20
3.689206882
 30
0.0
  0
SPLINE
  5
27C
100
AcDbEntity
  8
0
100
AcDbSpline
 62
7
  6
CONTINUOUS
 70
0
 71
3
 72
50
 73
46
 74
0
 42
0.0000001
 43
0.0000001
 44
0.0000000001
 40
0.0
 40
0.0
 40
0.0
 40
0.0
 40
0.0961167592
 40
0.1912208471
 40
0.2844740667
 40
0.3750501312
 40
0.4621420857
 40
0.5449696886
 40
0.5845496154
 40
0.6227866245
 40
0.6595938737
 40
0.6948875178
 40
0.7285868948
 40
0.7606147272
 40
0.7908973307
 40
0.8193647864
 40
0.8459511288
 40
0.8705945361
 40
0.8932374925
 40
0.913826972
 40
0.9233363822
 40
0.9323146495
 40
0.940756538
 40
0.9486570452
 40
0.956011585
 40
0.962815831
 40
0.9690658947
 40
0.9747581928
 40
0.9798896263
 40
0.9844574971
 40
0.9865294437
 40
0.9884597536
 40
0.9902482811
 40
0.9918949518
 40
0.9933997488
 40
0.9947627423
 40
0.9959841702
 40
0.9970644737
 40
0.9980043817
 40
0.9984220712
 40
0.9988051907
 40
0.9991540468
 40
0.9994690513
 40
0.9997507695
 40
1.0
 40
1.0
 40
1.0
 40
1.0
 10
5.1301369863
 20
3.9378902495
 30
0.0
 10
5.1420273129
 20
3.9381143715
 30
0.0
 10
5.1656826769
 20
3.9385610306
 30
0.0
 10
5.2008739651
 20
3.9392337054
 30
0.0
 10
5.2353795607
 20
3.9399074321
 30
0.0
 10
5.2688936096
 20
3.9405821439
 30
0.0
 10
5.3011174168
 20
3.9412577767
 30
0.0
 10
5.3270322927
 20
3.9418297695
 30
0.0
 10
5.34690336
 20
3.9422903227
 30
0.0
 10
5.3610816208
 20
3.9426307606
 30
0.0
 10
5.3747293791
 20
3.9429714525
 30
0.0
 10
5.3878155121
 20
3.9433123941
 30
0.0
 10
5.4003100764
 20
3.9436535731
 30
0.0
 10
5.4121843806
 20
3.9439949757
 30
0.0
 10
5.423411056
 20
3.9443365833
 30
0.0
 10
5.4339641255
 20
3.9446783711
 30
0.0
 10
5.4438190677
 20
3.945020308
 30
0.0
 10
5.4529528823
 20
3.9453623425
 30
0.0
 10
5.4613441452
 20
3.9457044329
 30
0.0
 10
5.4678633247
 20
3.9459966693
 30
0.0
 10
5.4726925738
 20
3.9462321418
 30
0.0
 10
5.4760201109
 20
3.9464040728
 30
0.0
 10
5.4791482971
 20
3.9465760312
 30
0.0
 10
5.4820752568
 20
3.9467480151
 30
0.0
 10
5.4847992185
 20
3.9469200069
 30
0.0
 10
5.4873185362
 20
3.947091992
 30
0.0
 10
5.4896316708
 20
3.9472639444
 30
0.0
 10
5.491737215
 20
3.9474358276
 30
0.0
 10
5.4936338684
 20
3.9476076078
 30
0.0
 10
5.4950828835
 20
3.9477549863
 30
0.0
 10
5.4961365741
 20
3.9478739411
 30
0.0
 10
5.4968478585
 20
3.9479602187
 30
0.0
 10
5.4975061122
 20
3.9480464763
 30
0.0
 10
5.4981112351
 20
3.9481327077
 30
0.0
 10
5.4986631356
 20
3.9482188987
 30
0.0
 10
5.4991617311
 20
3.9483050352
 30
0.0
 10
5.4996069636
 20
3.9483910866
 30
0.0
 10
5.4999987792
 20
3.9484770326
 30
0.0
 10
5.5002912625
 20
3.9485511311
 30
0.0
 10
5.5004981389
 20
3.9486111147
 30
0.0
 10
5.5006336929
 20
3.9486542987
 30
0.0
 10
5.5007558585
 20
3.9486974616
 30
0.0
 10
5.5008646476
 20
3.948740605
 30
0.0
 10
5.5009600678
 20
3.9487837236
 30
0.0
 10
5.5010182869
 20
3.9488142901
 30
0.0
 10
5.5010449833
 20
3.9488297246
 30
0.0
  0
SPLINE
  5
27D
100
AcDbEntity
  8
0
100
AcDbSpline
 62
7
  6
CONTINUOUS
 70
0
 71
3
 72
52
 73
48
 74
0
 42
0.0000001
 43
0.0000001
 44
0.0000000001
 40
0.0
 40
0.0
 40
0.0
 40
0.0
 40
0.0966352317
 40
0.1924960365
 40
0.2866389719
 40
0.3781428083
 40
0.4661172668
 40
0.5497114566
 40
0.5896127716
 40
0.6281217817
 40
0.6651466305
 40
0.7005993229
 40
0.7343959051
 40
0.7664566436
 40
0.7967062228
 40
0.8250739014
 40
0.8514936593
 40
0.8759043638
 40
0.8982499064
 40
0.90863211
 40
0.9184793439
 40
0.9277860375
 40
0.9365470226
 40
0.9447574265
 40
0.952412772
 40
0.9595089128
 40
0.9660421012
 40
0.9720089691
 40
0.9774065661
 40
0.9822324037
 40
0.9864844882
 40
0.9883949408
 40
0.9901615223
 40
0.9917841803
 40
0.9932629511
 40
0.9945979965
 40
0.9957896004
 40
0.9968382312
 40
0.9977446939
 40
0.9981450383
 40
0.9985104203
 40
0.9988411683
 40
0.9991377294
 40
0.999400729
 40
0.9996310736
 40
0.9998301251
 40
1.0
 40
1.0
 40
1.0
 40
1.0
 10
5.1301369863
 20
3.9378902495
 30
0.0
 10
5.1174479635
 20
3.9376510728
 30
0.0
 10
5.0921715898
 20
3.9371755279
 30
0.0
 10
5.0545335265
 20
3.9364630638
 30
0.0
 10
5.0175694731
 20
3.9357520283
 30
0.0
 10
4.9816413135
 20
3.9350424993
 30
0.0
 10
4.9470987865
 20
3.9343345501
 30
0.0
 10
4.9193324786
 20
3.9337371471
 30
0.0
 10
4.8980615469
 20
3.9332573287
 30
0.0
 10
4.8829053697
 20
3.93290343
 30
0.0
 10
4.868333594
 20
3.9325499109
 30
0.0
 10
4.8543808896
 20
3.9321967759
 30
0.0
 10
4.8410803383
 20
3.9318440385
 30
0.0
 10
4.8284633618
 20
3.9314917137
 30
0.0
 10
4.8165596533
 20
3.9311398225
 30
0.0
 10
4.8053971136
 20
3.9307883903
 30
0.0
 10
4.7950017918
 20
3.9304374587
 30
0.0
 10
4.7853978338
 20
3.9300870608
 30
0.0
 10
4.7778996523
 20
3.9297887378
 30
0.0
 10
4.7723133468
 20
3.9295488933
 30
0.0
 10
4.7684382748
 20
3.9293735598
 30
0.0
 10
4.7647763446
 20
3.9291983438
 30
0.0
 10
4.7613296362
 20
3.92902325
 30
0.0
 10
4.7581000923
 20
3.9288482871
 30
0.0
 10
4.7550895291
 20
3.9286734683
 30
0.0
 10
4.7522996258
 20
3.9284988083
 30
0.0
 10
4.749731929
 20
3.9283243306
 30
0.0
 10
4.7473878488
 20
3.9281500626
 30
0.0
 10
4.7452686524
 20
3.927976056
 30
0.0
 10
4.7433754771
 20
3.9278023492
 30
0.0
 10
4.7419400361
 20
3.9276531155
 30
0.0
 10
4.7409056799
 20
3.927532562
 30
0.0
 10
4.7402151203
 20
3.9274454677
 30
0.0
 10
4.7395817304
 20
3.9273584472
 30
0.0
 10
4.739005582
 20
3.9272715096
 30
0.0
 10
4.7384867325
 20
3.9271846756
 30
0.0
 10
4.738025216
 20
3.9270979798
 30
0.0
 10
4.7376210672
 20
3.9270114433
 30
0.0
 10
4.7373207781
 20
3.9269367662
 30
0.0
 10
4.7371096411
 20
3.926876268
 30
0.0
 10
4.7369723266
 20
3.9268328227
 30
0.0
 10
4.7368493639
 20
3.9267894134
 30
0.0
 10
4.7367407374
 20
3.9267460392
 30
0.0
 10
4.7366464233
 20
3.9267027043
 30
0.0
 10
4.7365663663
 20
3.9266593902
 30
0.0
 10
4.7365005205
 20
3.9266160875
 30
0.0
 10
4.7364632529
 20
3.9265848238
 30
0.0
 10
4.7364474775
 20
3.9265690481
 30
0.0
  0
SPLINE
  5
27E
100
AcDbEntity
  8
0
100
AcDbSpline
 62
7
  6
CONTINUOUS
 70
0
 71
3
 72
100
 73
96
 74
0
 42
0.0000001
 43
0.0000001
 44
0.0000000001
 40
0.0
 40
0.0
 40
0.0
 40
0.0
 40
0.000401246
 40
0.000868048
 40
0.0014021561
 40
0.0020046889
 40
0.0026763921
 40
0.0034177775
 40
0.0042291901
 40
0.0051108432
 40
0.0060628712
 40
0.0070853535
 40
0.0081783157
 40
0.0093417283
 40
0.0118796389
 40
0.0146983775
 40
0.0177968024
 40
0.0211735232
 40
0.0248268558
 40
0.0287549319
 40
0.0329556381
 40
0.0374267036
 40
0.0421656381
 40
0.0471698077
 40
0.052436376
 40
0.0579623711
 40
0.0697798539
 40
0.0825952077
 40
0.0963789452
 40
0.1110992608
 40
0.1267221139
 40
0.1432113205
 40
0.1605286576
 40
0.1786339485
 40
0.1974851585
 40
0.2170385101
 40
0.2372485774
 40
0.25806839
 40
0.2794495571
 40
0.3236959333
 40
0.3695764143
 40
0.4166644417
 40
0.464522186
 40
0.5127046182
 40
0.5607636897
 40
0.6082525031
 40
0.6547294738
 40
0.6997624782
 40
0.7429328745
 40
0.7636934251
 40
0.78383943
 40
0.8033240753
 40
0.8221020904
 40
0.8401298675
 40
0.8573655618
 40
0.8737691837
 40
0.8893027092
 40
0.9039301729
 40
0.9176177511
 40
0.9303338649
 40
0.9420492728
 40
0.9475232428
 40
0.9527371737
 40
0.9576881197
 40
0.9623732862
 40
0.9667900683
 40
0.9709360186
 40
0.9748088978
 40
0.9784066385
 40
0.9817274098
 40
0.9847695824
 40
0.9875318153
 40
0.9900130385
 40
0.9911480623
 40
0.9922126246
 40
0.9932067116
 40
0.9941303643
 40
0.9949836877
 40
0.9957668501
 40
0.9964801072
 40
0.9971238598
 40
0.9976987081
 40
0.9982055318
 40
0.9984338543
 40
0.9986457265
 40
0.9988414409
 40
0.9990213708
 40
0.9991859984
 40
0.9993359553
 40
0.9994720794
 40
0.999595493
 40
0.9997077026
 40
0.9998107111
 40
0.999907099
 40
1.0
 40
1.0
 40
1.0
 40
1.0
 10
4.7603193544
 20
3.6815420832
 30
0.0
 10
4.7604052372
 20
3.6815917379
 30
0.0
 10
4.7605966225
 20
3.6816895207
 30
0.0
 10
4.7609156744
 20
3.6818255452
 30
0.0
 10
4.761288136
 20
3.681961749
 30
0.0
 10
4.7617140291
 20
3.6820981012
 30
0.0
 10
4.7621933923
 20
3.6822345811
 30
0.0
 10
4.7627262025
 20
3.6823711622
 30
0.0
 10
4.7633124169
 20
3.6825078244
 30
0.0
 10
4.7639519681
 20
3.6826445546
 30
0.0
 10
4.7646447762
 20
3.6827813404
 30
0.0
 10
4.7653907524
 20
3.6829181703
 30
0.0
 10
4.7661897954
 20
3.6830550404
 30
0.0
 10
4.7673601422
 20
3.6832430752
 30
0.0
 10
4.7689552514
 20
3.6834765146
 30
0.0
 10
4.771027844
 20
3.6837494363
 30
0.0
 10
4.7733094163
 20
3.6840225768
 30
0.0
 10
4.7757986524
 20
3.6842958967
 30
0.0
 10
4.778494129
 20
3.6845693572
 30
0.0
 10
4.7813942838
 20
3.6848429272
 30
0.0
 10
4.7844974416
 20
3.6851165894
 30
0.0
 10
4.7878017976
 20
3.6853903239
 30
0.0
 10
4.7913054361
 20
3.6856641219
 30
0.0
 10
4.7950063169
 20
3.6859379691
 30
0.0
 10
4.798902291
 20
3.6862118655
 30
0.0
 10
4.8044799022
 20
3.6865855197
 30
0.0
 10
4.8119219077
 20
3.6870503128
 30
0.0
 10
4.8214043153
 20
3.687596707
 30
0.0
 10
4.8316055057
 20
3.6881433836
 30
0.0
 10
4.8425017362
 20
3.6886902997
 30
0.0
 10
4.8540676472
 20
3.6892374026
 30
0.0
 10
4.8662763158
 20
3.6897846586
 30
0.0
 10
4.8790993211
 20
3.6903320398
 30
0.0
 10
4.8925068104
 20
3.690879525
 30
0.0
 10
4.9064675693
 20
3.6914270967
 30
0.0
 10
4.9209490947
 20
3.6919747414
 30
0.0
 10
4.9359176707
 20
3.6925224466
 30
0.0
 10
4.9513384464
 20
3.6930702074
 30
0.0
 10
4.972698907
 20
3.6938090469
 30
0.0
 10
5.000252808
 20
3.6947285338
 30
0.0
 10
5.0341602343
 20
3.6958201575
 30
0.0
 10
5.0689609748
 20
3.6969120491
 30
0.0
 10
5.1043311177
 20
3.6980041117
 30
0.0
 10
5.1399414524
 20
3.6990962419
 30
0.0
 10
5.1754605306
 20
3.7001883461
 30
0.0
 10
5.2105577541
 20
3.7012803295
 30
0.0
 10
5.2449064534
 20
3.7023720814
 30
0.0
 10
5.2781869252
 20
3.7034634978
 30
0.0
 10
5.3051114357
 20
3.7043841415
 30
0.0
 10
5.3258854374
 20
3.7051241335
 30
0.0
 10
5.340806504
 20
3.7056718373
 30
0.0
 10
5.3552370708
 20
3.7062194741
 30
0.0
 10
5.3691435402
 20
3.7067670381
 30
0.0
 10
5.3824935355
 20
3.7073145135
 30
0.0
 10
5.3952559763
 20
3.7078618832
 30
0.0
 10
5.4074011511
 20
3.7084091252
 30
0.0
 10
5.4189007869
 20
3.7089562109
 30
0.0
 10
5.4297281152
 20
3.7095031057
 30
0.0
 10
5.4398579376
 20
3.7100497553
 30
0.0
 10
5.4492666775
 20
3.7105961157
 30
0.0
 10
5.456645921
 20
3.7110609805
 30
0.0
 10
5.4621722968
 20
3.7114347268
 30
0.0
 10
5.4660291388
 20
3.7117086148
 30
0.0
 10
5.4696904449
 20
3.7119824525
 30
0.0
 10
5.4731540883
 20
3.7122562386
 30
0.0
 10
5.4764180539
 20
3.7125299596
 30
0.0
 10
5.4794804485
 20
3.7128036048
 30
0.0
 10
5.4823394926
 20
3.7130771546
 30
0.0
 10
5.484993534
 20
3.7133505892
 30
0.0
 10
5.4874410365
 20
3.7136238771
 30
0.0
 10
5.489680602
 20
3.7138969752
 30
0.0
 10
5.4917109423
 20
3.7141698436
 30
0.0
 10
5.4932706596
 20
3.7144033634
 30
0.0
 10
5.494412563
 20
3.7145915211
 30
0.0
 10
5.4951902339
 20
3.7147283771
 30
0.0
 10
5.4959147961
 20
3.7148651894
 30
0.0
 10
5.4965861516
 20
3.7150019546
 30
0.0
 10
5.4972042163
 20
3.7151386596
 30
0.0
 10
5.4977689173
 20
3.7152752905
 30
0.0
 10
5.4982801919
 20
3.7154118333
 30
0.0
 10
5.4987380117
 20
3.7155482636
 30
0.0
 10
5.4991423495
 20
3.7156845654
 30
0.0
 10
5.499444475
 20
3.7158017352
 30
0.0
 10
5.499658711
 20
3.7158963
 30
0.0
 10
5.4998003034
 20
3.7159647235
 30
0.0
 10
5.499928493
 20
3.7160331364
 30
0.0
 10
5.5000432891
 20
3.7161015485
 30
0.0
 10
5.5001447061
 20
3.7161699707
 30
0.0
 10
5.5002327613
 20
3.7162384256
 30
0.0
 10
5.5003074719
 20
3.7163069518
 30
0.0
 10
5.5003688442
 20
3.7163756145
 30
0.0
 10
5.5004168513
 20
3.7164445032
 30
0.0
 10
5.500451396
 20
3.7165137317
 30
0.0
 10
5.500472286
 20
3.7165833112
 30
0.0
 10
5.5004769818
 20
3.7166302314
 30
0.0
 10
5.5004769815
 20
3.7166532002
 30
0.0
  0
SPLINE
  5
27F
100
AcDbEntity
  8
0
100
AcDbSpline
 62
7
  6
CONTINUOUS
 70
0
 71
3
 72
100
 73
96
 74
0
 42
0.0000001
 43
0.0000001
 44
0.0000000001
 40
0.0
 40
0.0
 40
0.0
 40
0.0
 40
0.000092901
 40
0.00018929
 40
0.0002923006
 40
0.0004045112
 40
0.0005279237
 40
0.0006640454
 40
0.0008139994
 40
0.0009786251
 40
0.0011585556
 40
0.0013542736
 40
0.0015661497
 40
0.0017944735
 40
0.0023012923
 40
0.0028761354
 40
0.0035198931
 40
0.0042331553
 40
0.0050163126
 40
0.0058696312
 40
0.0067932894
 40
0.0077873811
 40
0.008851938
 40
0.009986957
 40
0.0124681896
 40
0.0152304123
 40
0.0182725947
 40
0.0215933571
 40
0.0251911074
 40
0.0290639774
 40
0.0332099357
 40
0.0376267086
 40
0.0423118836
 40
0.0472628223
 40
0.0524767618
 40
0.0579507242
 40
0.0696661304
 40
0.0823822457
 40
0.0960698252
 40
0.110697287
 40
0.1262308137
 40
0.1426344375
 40
0.15987013
 40
0.1778979076
 40
0.1966759251
 40
0.2161605689
 40
0.2363065733
 40
0.2570671268
 40
0.3002375202
 40
0.345270527
 40
0.3917474989
 40
0.4392363085
 40
0.4872953834
 40
0.5354778153
 40
0.5833355565
 40
0.6304235873
 40
0.6763040666
 40
0.7205504418
 40
0.741931609
 40
0.7627514242
 40
0.7829614892
 40
0.8025148402
 40
0.8213660531
 40
0.839471342
 40
0.8567886781
 40
0.8732778875
 40
0.8889007392
 40
0.9036210537
 40
0.9174047935
 40
0.9302201464
 40
0.9420376282
 40
0.9475636251
 40
0.9528301933
 40
0.9578343637
 40
0.9625732969
 40
0.9670443623
 40
0.9712450677
 40
0.9751731447
 40
0.9788264774
 40
0.9822031987
 40
0.9853016231
 40
0.9881203614
 40
0.9906582716
 40
0.9918216842
 40
0.9929146466
 40
0.9939371289
 40
0.994889157
 40
0.9957708102
 40
0.996582223
 40
0.9973236085
 40
0.9979953115
 40
0.9985978439
 40
0.9991319521
 40
0.9995987542
 40
1.0
 40
1.0
 40
1.0
 40
1.0
 10
4.7597969872
 20
3.8416582002
 30
0.0
 10
4.7597969867
 20
3.8416811691
 30
0.0
 10
4.7598016827
 20
3.8417280897
 30
0.0
 10
4.7598225762
 20
3.8417976691
 30
0.0
 10
4.7598571244
 20
3.8418668968
 30
0.0
 10
4.7599051324
 20
3.8419357854
 30
0.0
 10
4.7599665035
 20
3.8420044483
 30
0.0
 10
4.7600412116
 20
3.8420729749
 30
0.0
 10
4.7601292644
 20
3.84214143
 30
0.0
 10
4.76023068
 20
3.8422098525
 30
0.0
 10
4.7603454768
 20
3.8422782646
 30
0.0
 10
4.7604736689
 20
3.8423466769
 30
0.0
 10
4.7606152639
 20
3.8424150999
 30
0.0
 10
4.7608295002
 20
3.8425096644
 30
0.0
 10
4.7611316229
 20
3.8426268351
 30
0.0
 10
4.761535959
 20
3.8427631382
 30
0.0
 10
4.7619937806
 20
3.8428995669
 30
0.0
 10
4.7625050568
 20
3.8430361088
 30
0.0
 10
4.7630697562
 20
3.843172741
 30
0.0
 10
4.7636878196
 20
3.8433094468
 30
0.0
 10
4.7643591767
 20
3.8434462109
 30
0.0
 10
4.7650837402
 20
3.8435830226
 30
0.0
 10
4.7658614096
 20
3.8437198795
 30
0.0
 10
4.7670033126
 20
3.8439080381
 30
0.0
 10
4.768563029
 20
3.8441415551
 30
0.0
 10
4.770593371
 20
3.8444144267
 30
0.0
 10
4.7728329346
 20
3.8446875219
 30
0.0
 10
4.7752804394
 20
3.8449608126
 30
0.0
 10
4.7779344789
 20
3.8452342448
 30
0.0
 10
4.780793525
 20
3.8455077968
 30
0.0
 10
4.7838559171
 20
3.8457814399
 30
0.0
 10
4.7871198844
 20
3.8460551627
 30
0.0
 10
4.790583526
 20
3.8463289472
 30
0.0
 10
4.7942448344
 20
3.8466027864
 30
0.0
 10
4.7981016748
 20
3.846876673
 30
0.0
 10
4.8036280504
 20
3.8472504206
 30
0.0
 10
4.811007292
 20
3.8477152846
 30
0.0
 10
4.8204160322
 20
3.8482616452
 30
0.0
 10
4.8305458548
 20
3.8488082948
 30
0.0
 10
4.8413731834
 20
3.8493551896
 30
0.0
 10
4.8528728195
 20
3.8499022753
 30
0.0
 10
4.8650179946
 20
3.8504495173
 30
0.0
 10
4.8777804356
 20
3.8509968869
 30
0.0
 10
4.8911304311
 20
3.8515443624
 30
0.0
 10
4.9050369008
 20
3.8520919263
 30
0.0
 10
4.9194674677
 20
3.8526395632
 30
0.0
 10
4.9343885346
 20
3.853187267
 30
0.0
 10
4.9551625361
 20
3.853927259
 30
0.0
 10
4.9820870473
 20
3.8548479027
 30
0.0
 10
5.0153675193
 20
3.8559393191
 30
0.0
 10
5.0497162185
 20
3.8570310709
 30
0.0
 10
5.0848134422
 20
3.8581230544
 30
0.0
 10
5.1203325203
 20
3.8592151586
 30
0.0
 10
5.155942855
 20
3.8603072888
 30
0.0
 10
5.1913129979
 20
3.8613993514
 30
0.0
 10
5.226113738
 20
3.8624912429
 30
0.0
 10
5.2600211646
 20
3.8635828667
 30
0.0
 10
5.2875750649
 20
3.8645023536
 30
0.0
 10
5.308935526
 20
3.8652411931
 30
0.0
 10
5.3243563018
 20
3.8657889539
 30
0.0
 10
5.3393248777
 20
3.8663366591
 30
0.0
 10
5.3538064031
 20
3.8668843038
 30
0.0
 10
5.3677671621
 20
3.8674318755
 30
0.0
 10
5.3811746514
 20
3.8679793607
 30
0.0
 10
5.3939976567
 20
3.8685267419
 30
0.0
 10
5.4062063253
 20
3.8690739979
 30
0.0
 10
5.4177722365
 20
3.8696211008
 30
0.0
 10
5.4286684669
 20
3.8701680169
 30
0.0
 10
5.4388696574
 20
3.8707146935
 30
0.0
 10
5.4483520651
 20
3.8712610877
 30
0.0
 10
5.4557940705
 20
3.8717258809
 30
0.0
 10
5.4613716819
 20
3.872099535
 30
0.0
 10
5.4652676566
 20
3.8723734315
 30
0.0
 10
5.4689685372
 20
3.8726472786
 30
0.0
 10
5.4724721757
 20
3.8729210767
 30
0.0
 10
5.4757765311
 20
3.873194811
 30
0.0
 10
5.4788796888
 20
3.8734684734
 30
0.0
 10
5.4817798437
 20
3.8737420432
 30
0.0
 10
5.4844753207
 20
3.8740155039
 30
0.0
 10
5.4869645568
 20
3.8742888237
 30
0.0
 10
5.489246129
 20
3.8745619642
 30
0.0
 10
5.4913187213
 20
3.8748348858
 30
0.0
 10
5.4929138304
 20
3.8750683253
 30
0.0
 10
5.4940841771
 20
3.8752563601
 30
0.0
 10
5.4948832202
 20
3.8753932302
 30
0.0
 10
5.4956291965
 20
3.8755300601
 30
0.0
 10
5.4963220046
 20
3.875666846
 30
0.0
 10
5.4969615559
 20
3.8758035761
 30
0.0
 10
5.4975477704
 20
3.8759402384
 30
0.0
 10
5.4980805807
 20
3.8760768195
 30
0.0
 10
5.4985599437
 20
3.8762132993
 30
0.0
 10
5.4989858367
 20
3.8763496515
 30
0.0
 10
5.4993582983
 20
3.8764858553
 30
0.0
 10
5.4996773502
 20
3.8766218797
 30
0.0
 10
5.4998687355
 20
3.8767196626
 30
0.0
 10
5.4999546182
 20
3.8767693172
 30
0.0
  0
SPLINE
  5
280
100
AcDbEntity
  8
0
100
AcDbSpline
 62
7
  6
CONTINUOUS
 70
0
 71
3
 72
58
 73
54
 74
0
 42
0.0000001
 43
0.0000001
 44
0.0000000001
 40
0.0
 40
0.0
 40
0.0
 40
0.0
 40
0.0001712269
 40
0.0003505088
 40
0.0005448993
 40
0.0007599676
 40
0.0009998444
 40
0.0012675123
 40
0.0015651173
 40
0.0018942185
 40
0.0022559617
 40
0.0026512013
 40
0.0030805876
 40
0.0035446232
 40
0.0045780657
 40
0.0057539206
 40
0.0070736466
 40
0.00853818
 40
0.0101481439
 40
0.0119039475
 40
0.0138058056
 40
0.0158538002
 40
0.0180479365
 40
0.0203881508
 40
0.0255060745
 40
0.0312058132
 40
0.0374848356
 40
0.0443400621
 40
0.0517678608
 40
0.0597642028
 40
0.0683245626
 40
0.0774440928
 40
0.0871174786
 40
0.0973391212
 40
0.1081029817
 40
0.1194027485
 40
0.1435828162
 40
0.1698218572
 40
0.1980572628
 40
0.2282214893
 40
0.2602422558
 40
0.2940427577
 40
0.3295418417
 40
0.3666542227
 40
0.4052907129
 40
0.4453584138
 40
0.4867609628
 40
0.5293987779
 40
0.6179671193
 40
0.7102114839
 40
0.8052443823
 40
0.9021514149
 40
1.0
 40
1.0
 40
1.0
 40
1.0
 10
5.5391369863
 20
3.7657628388
 30
0.0
 10
5.5391369863
 20
3.7657394456
 30
0.0
 10
5.5391315562
 20
3.7656914074
 30
0.0
 10
5.5391075126
 20
3.7656204511
 30
0.0
 10
5.5390678946
 20
3.7655500048
 30
0.0
 10
5.5390129679
 20
3.7654799931
 30
0.0
 10
5.53894283
 20
3.7654102359
 30
0.0
 10
5.5388574851
 20
3.7653406133
 30
0.0
 10
5.5387569048
 20
3.7652710492
 30
0.0
 10
5.5386410576
 20
3.765201504
 30
0.0
 10
5.5385099186
 20
3.765131957
 30
0.0
 10
5.5383634711
 20
3.7650623993
 30
0.0
 10
5.5382017061
 20
3.7649928231
 30
0.0
 10
5.5379566547
 20
3.7648965446
 30
0.0
 10
5.5376112565
 20
3.7647773333
 30
0.0
 10
5.5371493679
 20
3.7646387474
 30
0.0
 10
5.5366263423
 20
3.764500014
 30
0.0
 10
5.5360422252
 20
3.7643611498
 30
0.0
 10
5.5353970592
 20
3.7642221863
 30
0.0
 10
5.5346909179
 20
3.7640831445
 30
0.0
 10
5.5339238921
 20
3.7639440386
 30
0.0
 10
5.5330960891
 20
3.7638048805
 30
0.0
 10
5.5322076251
 20
3.7636656751
 30
0.0
 10
5.5309028699
 20
3.7634742613
 30
0.0
 10
5.5291209104
 20
3.763236719
 30
0.0
 10
5.5268016395
 20
3.7629591734
 30
0.0
 10
5.5242435145
 20
3.7626813905
 30
0.0
 10
5.5214480615
 20
3.7624034106
 30
0.0
 10
5.5184169395
 20
3.7621252796
 30
0.0
 10
5.5151519672
 20
3.7618470303
 30
0.0
 10
5.511655098
 20
3.7615686823
 30
0.0
 10
5.507928438
 20
3.7612902574
 30
0.0
 10
5.5039742226
 20
3.7610117647
 30
0.0
 10
5.4997948358
 20
3.7607332202
 30
0.0
 10
5.4953927877
 20
3.7604546233
 30
0.0
 10
5.4890863646
 20
3.7600744722
 30
0.0
 10
5.4806674959
 20
3.7596016459
 30
0.0
 10
5.469935987
 20
3.759045901
 30
0.0
 10
5.4583859166
 20
3.758489861
 30
0.0
 10
5.4460451015
 20
3.7579335711
 30
0.0
 10
5.4329432615
 20
3.7573770868
 30
0.0
 10
5.4191119544
 20
3.7568204434
 30
0.0
 10
5.4045844965
 20
3.7562636701
 30
0.0
 10
5.3893958823
 20
3.7557067895
 30
0.0
 10
5.3735827005
 20
3.755149819
 30
0.0
 10
5.3571830444
 20
3.7545927746
 30
0.0
 10
5.340236421
 20
3.7540356626
 30
0.0
 10
5.3166664407
 20
3.753283234
 30
0.0
 10
5.2861527366
 20
3.7523471593
 30
0.0
 10
5.2484827644
 20
3.7512370857
 30
0.0
 10
5.2096730834
 20
3.7501266837
 30
0.0
 10
5.1700974491
 20
3.7490160615
 30
0.0
 10
5.1435000026
 20
3.7482767731
 30
0.0
 10
5.1301369863
 20
3.7479053388
 30
0.0
  0
SPLINE
  5
281
100
AcDbEntity
  8
0
100
AcDbSpline
 62
7
  6
CONTINUOUS
 70
0
 71
3
 72
58
 73
54
 74
0
 42
0.0000001
 43
0.0000001
 44
0.0000000001
 40
0.0
 40
0.0
 40
0.0
 40
0.0
 40
0.0001712263
 40
0.0003505074
 40
0.0005448984
 40
0.0007599684
 40
0.0009998477
 40
0.0012675174
 40
0.0015651223
 40
0.00189422
 40
0.0022559592
 40
0.0026511983
 40
0.0030805864
 40
0.0035446251
 40
0.0045780717
 40
0.0057539199
 40
0.0070736441
 40
0.0085381832
 40
0.0101481493
 40
0.011903945
 40
0.0138058043
 40
0.0158538048
 40
0.0180479408
 40
0.020388148
 40
0.02550608
 40
0.0312058105
 40
0.0374848408
 40
0.04434006
 40
0.051767866
 40
0.0597642022
 40
0.0683245669
 40
0.077444093
 40
0.0871174805
 40
0.0973391226
 40
0.1081029823
 40
0.1194027513
 40
0.1435828195
 40
0.1698218611
 40
0.198057267
 40
0.2282214929
 40
0.2602422589
 40
0.29404276
 40
0.3295418427
 40
0.366654223
 40
0.4052907131
 40
0.4453584138
 40
0.4867609629
 40
0.5293987785
 40
0.6179671198
 40
0.7102114845
 40
0.805244383
 40
0.9021514163
 40
1.0
 40
1.0
 40
1.0
 40
1.0
 10
4.7211369875
 20
3.7211185616
 30
0.0
 10
4.7211369869
 20
3.7211419548
 30
0.0
 10
4.721142415
 20
3.7211899931
 30
0.0
 10
4.7211664578
 20
3.7212609497
 30
0.0
 10
4.7212060764
 20
3.7213313959
 30
0.0
 10
4.7212610043
 20
3.7214014074
 30
0.0
 10
4.7213311435
 20
3.7214711645
 30
0.0
 10
4.7214164893
 20
3.7215407869
 30
0.0
 10
4.7215170693
 20
3.7216103509
 30
0.0
 10
4.7216329151
 20
3.7216798965
 30
0.0
 10
4.7217640527
 20
3.7217494438
 30
0.0
 10
4.7219104998
 20
3.7218190014
 30
0.0
 10
4.7220722655
 20
3.7218885775
 30
0.0
 10
4.7223173183
 20
3.7219848557
 30
0.0
 10
4.7226627168
 20
3.7221040664
 30
0.0
 10
4.7231246044
 20
3.7222426536
 30
0.0
 10
4.7236476297
 20
3.7223813868
 30
0.0
 10
4.7242317477
 20
3.7225202504
 30
0.0
 10
4.7248769138
 20
3.7226592136
 30
0.0
 10
4.7255830543
 20
3.7227982564
 30
0.0
 10
4.72635008
 20
3.722937362
 30
0.0
 10
4.727177884
 20
3.7230765197
 30
0.0
 10
4.7280663479
 20
3.7232157251
 30
0.0
 10
4.7293711031
 20
3.7234071399
 30
0.0
 10
4.7311530618
 20
3.7236446807
 30
0.0
 10
4.7334723336
 20
3.7239222278
 30
0.0
 10
4.7360304577
 20
3.7242000094
 30
0.0
 10
4.7388259116
 20
3.7244779903
 30
0.0
 10
4.7418570329
 20
3.7247561205
 30
0.0
 10
4.7451220061
 20
3.7250343705
 30
0.0
 10
4.7486188746
 20
3.725312718
 30
0.0
 10
4.752345535
 20
3.7255911432
 30
0.0
 10
4.75629975
 20
3.7258696357
 30
0.0
 10
4.7604791368
 20
3.7261481803
 30
0.0
 10
4.7648811851
 20
3.7264267772
 30
0.0
 10
4.7711876084
 20
3.7268069282
 30
0.0
 10
4.7796064776
 20
3.7272797546
 30
0.0
 10
4.7903379867
 20
3.7278354994
 30
0.0
 10
4.8018880572
 20
3.7283915395
 30
0.0
 10
4.8142288722
 20
3.7289478294
 30
0.0
 10
4.8273307119
 20
3.7295043137
 30
0.0
 10
4.8411620187
 20
3.7300609571
 30
0.0
 10
4.8556894763
 20
3.7306177303
 30
0.0
 10
4.8708780902
 20
3.731174611
 30
0.0
 10
4.8866912719
 20
3.7317315815
 30
0.0
 10
4.9030909279
 20
3.7322886259
 30
0.0
 10
4.9200375514
 20
3.7328457379
 30
0.0
 10
4.9436075318
 20
3.7335981665
 30
0.0
 10
4.9741212361
 20
3.7345342412
 30
0.0
 10
5.0117912083
 20
3.7356443148
 30
0.0
 10
5.0506008894
 20
3.7367547168
 30
0.0
 10
5.0901765238
 20
3.737865339
 30
0.0
 10
5.1167739702
 20
3.7386046274
 30
0.0
 10
5.1301369863
 20
3.7389760616
 30
0.0
  0
SPLINE
  5
282
100
AcDbEntity
  8
0
100
AcDbSpline
 62
7
  6
CONTINUOUS
 70
0
 71
3
 72
100
 73
96
 74
0
 42
0.0000001
 43
0.0000001
 44
0.0000000001
 40
0.0
 40
0.0
 40
0.0
 40
0.0
 40
0.000401247
 40
0.0008680477
 40
0.001402155
 40
0.0020046889
 40
0.0026763931
 40
0.0034177769
 40
0.0042291887
 40
0.0051108431
 40
0.0060628721
 40
0.0070853527
 40
0.0081783143
 40
0.0093417284
 40
0.0118796384
 40
0.0146983779
 40
0.0177968015
 40
0.0211735231
 40
0.0248268542
 40
0.0287549323
 40
0.0329556372
 40
0.0374267046
 40
0.0421656368
 40
0.0471698076
 40
0.0524363736
 40
0.0579623715
 40
0.0697798554
 40
0.0825952079
 40
0.0963789458
 40
0.1110992626
 40
0.1267221144
 40
0.1432113212
 40
0.1605286596
 40
0.1786339493
 40
0.1974851591
 40
0.217038512
 40
0.2372485786
 40
0.2580683903
 40
0.2794495587
 40
0.3236959328
 40
0.3695764157
 40
0.4166644424
 40
0.4645221843
 40
0.512704619
 40
0.5607636892
 40
0.6082525014
 40
0.6547294742
 40
0.6997624772
 40
0.7429328743
 40
0.7636934242
 40
0.7838394311
 40
0.8033240761
 40
0.8221020902
 40
0.8401298695
 40
0.8573655637
 40
0.8737691846
 40
0.8893027121
 40
0.9039301759
 40
0.9176177533
 40
0.9303338688
 40
0.9420492769
 40
0.9475232387
 40
0.9527371773
 40
0.9576881153
 40
0.9623732908
 40
0.9667900641
 40
0.9709360236
 40
0.9748088929
 40
0.9784066431
 40
0.9817274045
 40
0.9847695875
 40
0.9875318101
 40
0.9900130439
 40
0.9911480632
 40
0.992212619
 40
0.9932067101
 40
0.9941303694
 40
0.994983688
 40
0.9957668442
 40
0.996480106
 40
0.997123865
 40
0.9976987081
 40
0.9982055262
 40
0.9984338497
 40
0.9986457258
 40
0.9988414443
 40
0.9990213756
 40
0.9991860015
 40
0.9993359553
 40
0.9994720766
 40
0.9995954888
 40
0.9997076992
 40
0.9998107098
 40
0.9999070989
 40
1.0
 40
1.0
 40
1.0
 40
1.0
 10
4.7603193545
 20
3.8958320832
 30
0.0
 10
4.7604052376
 20
3.8958817378
 30
0.0
 10
4.760596623
 20
3.8959795203
 30
0.0
 10
4.7609156743
 20
3.8961155453
 30
0.0
 10
4.7612881357
 20
3.8962517493
 30
0.0
 10
4.7617140292
 20
3.8963881011
 30
0.0
 10
4.7621933926
 20
3.8965245808
 30
0.0
 10
4.7627262023
 20
3.8966611623
 30
0.0
 10
4.7633124165
 20
3.8967978246
 30
0.0
 10
4.7639519681
 20
3.8969345545
 30
0.0
 10
4.7646447763
 20
3.8970713402
 30
0.0
 10
4.7653907522
 20
3.8972081704
 30
0.0
 10
4.766189795
 20
3.8973450405
 30
0.0
 10
4.7673601419
 20
3.8975330749
 30
0.0
 10
4.7689552515
 20
3.8977665148
 30
0.0
 10
4.7710278439
 20
3.8980394362
 30
0.0
 10
4.7733094163
 20
3.898312577
 30
0.0
 10
4.7757986519
 20
3.8985858964
 30
0.0
 10
4.7784941288
 20
3.8988593574
 30
0.0
 10
4.7813942834
 20
3.899132927
 30
0.0
 10
4.7844974418
 20
3.8994065896
 30
0.0
 10
4.7878017974
 20
3.8996803237
 30
0.0
 10
4.7913054362
 20
3.8999541221
 30
0.0
 10
4.7950063161
 20
3.9002279689
 30
0.0
 10
4.7989022907
 20
3.9005018656
 30
0.0
 10
4.8044799022
 20
3.9008755195
 30
0.0
 10
4.8119219083
 20
3.9013403128
 30
0.0
 10
4.821404316
 20
3.901886707
 30
0.0
 10
4.8316055065
 20
3.9024333836
 30
0.0
 10
4.842501737
 20
3.9029802997
 30
0.0
 10
4.8540676481
 20
3.9035274026
 30
0.0
 10
4.8662763167
 20
3.9040746586
 30
0.0
 10
4.8790993221
 20
3.9046220398
 30
0.0
 10
4.8925068114
 20
3.905169525
 30
0.0
 10
4.9064675703
 20
3.9057170967
 30
0.0
 10
4.9209490958
 20
3.9062647414
 30
0.0
 10
4.9359176717
 20
3.9068124466
 30
0.0
 10
4.9513384473
 20
3.9073602074
 30
0.0
 10
4.9726989075
 20
3.9080990469
 30
0.0
 10
5.0002528088
 20
3.9090185338
 30
0.0
 10
5.0341602349
 20
3.9101101575
 30
0.0
 10
5.0689609751
 20
3.9112020491
 30
0.0
 10
5.1043311179
 20
3.9122941117
 30
0.0
 10
5.1399414522
 20
3.9133862419
 30
0.0
 10
5.1754605305
 20
3.9144783461
 30
0.0
 10
5.2105577539
 20
3.9155703295
 30
0.0
 10
5.244906453
 20
3.9166620814
 30
0.0
 10
5.2781869252
 20
3.9177534978
 30
0.0
 10
5.3051114354
 20
3.9186741414
 30
0.0
 10
5.3258854376
 20
3.9194141335
 30
0.0
 10
5.3408065045
 20
3.9199618373
 30
0.0
 10
5.3552370715
 20
3.9205094741
 30
0.0
 10
5.3691435411
 20
3.9210570381
 30
0.0
 10
5.3824935366
 20
3.9216045135
 30
0.0
 10
5.3952559777
 20
3.9221518832
 30
0.0
 10
5.4074011527
 20
3.9226991252
 30
0.0
 10
5.4189007888
 20
3.9232462108
 30
0.0
 10
5.4297281175
 20
3.9237931057
 30
0.0
 10
5.4398579401
 20
3.9243397552
 30
0.0
 10
5.4492666803
 20
3.9248861159
 30
0.0
 10
5.4566459222
 20
3.9253509799
 30
0.0
 10
5.4621722979
 20
3.9257247275
 30
0.0
 10
5.4660291378
 20
3.9259986141
 30
0.0
 10
5.469690446
 20
3.9262724533
 30
0.0
 10
5.4731540876
 20
3.9265462377
 30
0.0
 10
5.4764180554
 20
3.9268199606
 30
0.0
 10
5.4794804478
 20
3.9270936037
 30
0.0
 10
5.4823394939
 20
3.9273671558
 30
0.0
 10
5.484993533
 20
3.9276405878
 30
0.0
 10
5.4874410377
 20
3.9279138786
 30
0.0
 10
5.4896806011
 20
3.9281869736
 30
0.0
 10
5.4917109436
 20
3.9284598454
 30
0.0
 10
5.4932706603
 20
3.9286933624
 30
0.0
 10
5.4944125634
 20
3.9288815209
 30
0.0
 10
5.4951902325
 20
3.9290183779
 30
0.0
 10
5.4959147958
 20
3.9291551897
 30
0.0
 10
5.4965861531
 20
3.9292919536
 30
0.0
 10
5.4972042165
 20
3.9294286594
 30
0.0
 10
5.4977689155
 20
3.9295652916
 30
0.0
 10
5.4982801915
 20
3.9297018337
 30
0.0
 10
5.4987380135
 20
3.9298382621
 30
0.0
 10
5.4991423497
 20
3.9299745651
 30
0.0
 10
5.4994444722
 20
3.930091736
 30
0.0
 10
5.4996587081
 20
3.9301863006
 30
0.0
 10
5.4998003032
 20
3.9302547236
 30
0.0
 10
5.4999284957
 20
3.930323136
 30
0.0
 10
5.500043293
 20
3.9303915479
 30
0.0
 10
5.5001447088
 20
3.9304599704
 30
0.0
 10
5.5002327615
 20
3.9305284256
 30
0.0
 10
5.5003074693
 20
3.9305969522
 30
0.0
 10
5.5003688399
 20
3.9306656152
 30
0.0
 10
5.5004168477
 20
3.9307345037
 30
0.0
 10
5.5004513958
 20
3.9308037314
 30
0.0
 10
5.5004722897
 20
3.9308733107
 30
0.0
 10
5.5004769863
 20
3.9309202314
 30
0.0
 10
5.5004769858
 20
3.9309432002
 30
0.0
  0
SPLINE
  5
283
100
AcDbEntity
  8
0
100
AcDbSpline
 62
7
  6
CONTINUOUS
 70
0
 71
3
 72
102
 73
98
 74
0
 42
0.0000001
 43
0.0000001
 44
0.0000000001
 40
0.0
 40
0.0
 40
0.0
 40
0.0
 40
0.0001755347
 40
0.0003672593
 40
0.0005755026
 40
0.0008005171
 40
0.0013015687
 40
0.001871605
 40
0.0025113675
 40
0.0032213494
 40
0.0040018615
 40
0.0048531028
 40
0.0057751994
 40
0.0067682152
 40
0.0078321497
 40
0.0089669695
 40
0.0114489938
 40
0.0142134903
 40
0.0172593152
 40
0.0205850169
 40
0.0241889316
 40
0.0280691425
 40
0.0322235682
 40
0.0366498959
 40
0.0413456726
 40
0.0463082261
 40
0.0515347586
 40
0.0570222632
 40
0.0687674796
 40
0.0815168328
 40
0.0952408375
 40
0.1099076775
 40
0.1254832869
 40
0.1419314436
 40
0.1592138678
 40
0.1772903081
 40
0.1961186414
 40
0.2156549823
 40
0.2358537779
 40
0.2566679176
 40
0.2780488534
 40
0.3223103731
 40
0.3682254772
 40
0.4153658081
 40
0.4632915443
 40
0.5115555091
 40
0.5597073527
 40
0.6072977851
 40
0.6538827678
 40
0.6990276694
 40
0.7423113546
 40
0.7631283
 40
0.783330127
 40
0.8028697178
 40
0.8217015154
 40
0.8397816234
 40
0.8570679093
 40
0.8735201162
 40
0.8890999521
 40
0.903771184
 40
0.9174997393
 40
0.930253788
 40
0.9420038331
 40
0.9474938071
 40
0.9527228236
 40
0.9576879023
 40
0.9623862169
 40
0.966815118
 40
0.97097213
 40
0.9748549567
 40
0.9784615003
 40
0.9817898519
 40
0.984838339
 40
0.9876055101
 40
0.9900902205
 40
0.9912263883
 40
0.9922916629
 40
0.9932860214
 40
0.9942094705
 40
0.9950620572
 40
0.9958439039
 40
0.9965552197
 40
0.9971963182
 40
0.9977676718
 40
0.9982700174
 40
0.9984956709
 40
0.9987045476
 40
0.9988968973
 40
0.9990730427
 40
0.9992334075
 40
0.9993785594
 40
0.9995092664
 40
0.9996265821
 40
0.9997319638
 40
0.9998274186
 40
0.9999156354
 40
1.0
 40
1.0
 40
1.0
 40
1.0
 10
4.7216101577
 20
3.8734547335
 30
0.0
 10
4.7216516449
 20
3.8734787142
 30
0.0
 10
4.7217398697
 20
3.8735264433
 30
0.0
 10
4.7218813036
 20
3.8735949381
 30
0.0
 10
4.7220375966
 20
3.8736634517
 30
0.0
 10
4.7222744204
 20
3.8737582527
 30
0.0
 10
4.722608373
 20
3.8738756396
 30
0.0
 10
4.7230551339
 20
3.8740121083
 30
0.0
 10
4.7235611781
 20
3.8741487218
 30
0.0
 10
4.7241264693
 20
3.8742854595
 30
0.0
 10
4.7247509676
 20
3.8744222947
 30
0.0
 10
4.7254346013
 20
3.8745592089
 30
0.0
 10
4.7261772895
 20
3.874696186
 30
0.0
 10
4.7269789351
 20
3.8748332122
 30
0.0
 10
4.7278394262
 20
3.8749702852
 30
0.0
 10
4.7291032746
 20
3.8751587759
 30
0.0
 10
4.7308296272
 20
3.8753926846
 30
0.0
 10
4.7330768555
 20
3.8756659821
 30
0.0
 10
4.7355559053
 20
3.8759395096
 30
0.0
 10
4.738265349
 20
3.8762132351
 30
0.0
 10
4.7412036219
 20
3.8764871053
 30
0.0
 10
4.7443690232
 20
3.8767610964
 30
0.0
 10
4.7477597083
 20
3.8770351803
 30
0.0
 10
4.7513737076
 20
3.8773093444
 30
0.0
 10
4.755208909
 20
3.8775835712
 30
0.0
 10
4.7592630811
 20
3.8778578529
 30
0.0
 10
4.7635338523
 20
3.8781321827
 30
0.0
 10
4.7696535905
 20
3.8785065442
 30
0.0
 10
4.7778252045
 20
3.8789721659
 30
0.0
 10
4.7882441892
 20
3.8795194075
 30
0.0
 10
4.7994617529
 20
3.8800669398
 30
0.0
 10
4.8114517009
 20
3.8806147186
 30
0.0
 10
4.8241860361
 20
3.8811626892
 30
0.0
 10
4.8376350182
 20
3.8817108168
 30
0.0
 10
4.8517672365
 20
3.8822590727
 30
0.0
 10
4.8665496828
 20
3.8828074347
 30
0.0
 10
4.8819478296
 20
3.8833558853
 30
0.0
 10
4.8979257103
 20
3.8839044103
 30
0.0
 10
4.9144460039
 20
3.8844529971
 30
0.0
 10
4.931470122
 20
3.8850016405
 30
0.0
 10
4.9550603737
 20
3.8857417604
 30
0.0
 10
4.9855006417
 20
3.8866628112
 30
0.0
 10
5.0229709657
 20
3.8877561765
 30
0.0
 10
5.061441992
 20
3.8888498152
 30
0.0
 10
5.1005544838
 20
3.8899436293
 30
0.0
 10
5.1399432139
 20
3.8910375141
 30
0.0
 10
5.1792403746
 20
3.8921313753
 30
0.0
 10
5.2180790134
 20
3.8932251172
 30
0.0
 10
5.2560964613
 20
3.8943186285
 30
0.0
 10
5.2929377176
 20
3.8954118046
 30
0.0
 10
5.3227464987
 20
3.8963339063
 30
0.0
 10
5.3457483609
 20
3.8970750743
 30
0.0
 10
5.3622711364
 20
3.8976236657
 30
0.0
 10
5.3782516792
 20
3.89817219
 30
0.0
 10
5.3936526619
 20
3.8987206412
 30
0.0
 10
5.4084381115
 20
3.8992690036
 30
0.0
 10
5.4225734932
 20
3.89981726
 30
0.0
 10
5.4360257917
 20
3.9003653883
 30
0.0
 10
5.4487635884
 20
3.9009133597
 30
0.0
 10
5.4607571352
 20
3.9014611395
 30
0.0
 10
5.4719784263
 20
3.9020086732
 30
0.0
 10
5.4824012584
 20
3.9025559163
 30
0.0
 10
5.4905761519
 20
3.9030215353
 30
0.0
 10
5.4966985659
 20
3.9033958913
 30
0.0
 10
5.5009713828
 20
3.9036702226
 30
0.0
 10
5.5050276199
 20
3.9039445036
 30
0.0
 10
5.5088649112
 20
3.9042187321
 30
0.0
 10
5.5124810179
 20
3.9044928958
 30
0.0
 10
5.5158738324
 20
3.9047669815
 30
0.0
 10
5.5190413794
 20
3.9050409727
 30
0.0
 10
5.5219818165
 20
3.9053148449
 30
0.0
 10
5.5246934389
 20
3.9055885715
 30
0.0
 10
5.5271746818
 20
3.9058621012
 30
0.0
 10
5.529424116
 20
3.9061354013
 30
0.0
 10
5.5311523169
 20
3.9063693067
 30
0.0
 10
5.5324176496
 20
3.9065577902
 30
0.0
 10
5.5332792547
 20
3.9066948648
 30
0.0
 10
5.5340820175
 20
3.9068318926
 30
0.0
 10
5.5348258272
 20
3.9069688695
 30
0.0
 10
5.5355105832
 20
3.9071057847
 30
0.0
 10
5.5361362024
 20
3.9072426225
 30
0.0
 10
5.5367026172
 20
3.9073793634
 30
0.0
 10
5.5372097881
 20
3.9075159772
 30
0.0
 10
5.5376576742
 20
3.9076524492
 30
0.0
 10
5.5379925669
 20
3.9077698322
 30
0.0
 10
5.5382301483
 20
3.9078646259
 30
0.0
 10
5.5383870049
 20
3.9079331397
 30
0.0
 10
5.5385290089
 20
3.9080016362
 30
0.0
 10
5.538656169
 20
3.9080701235
 30
0.0
 10
5.5387685018
 20
3.9081386111
 30
0.0
 10
5.5388660312
 20
3.9082071191
 30
0.0
 10
5.538948787
 20
3.908275687
 30
0.0
 10
5.5390167939
 20
3.9083443886
 30
0.0
 10
5.5390700442
 20
3.9084133384
 30
0.0
 10
5.5391084406
 20
3.9084827042
 30
0.0
 10
5.5391317305
 20
3.9085525499
 30
0.0
 10
5.5391369864
 20
3.9085998081
 30
0.0
 10
5.5391369862
 20
3.9086228388
 30
0.0
  0
SPLINE
  5
284
100
AcDbEntity
  8
0
100
AcDbSpline
 62
7
  6
CONTINUOUS
 70
0
 71
3
 72
41
 73
37
 74
0
 42
0.0000001
 43
0.0000001
 44
0.0000000001
 40
0.0
 40
0.0
 40
0.0
 40
0.0
 40
0.0008740851
 40
0.0017653386
 40
0.0036591172
 40
0.0057935558
 40
0.0082450134
 40
0.0110641682
 40
0.0142843437
 40
0.0160523249
 40
0.017928227
 40
0.0220100521
 40
0.0265409923
 40
0.0315287824
 40
0.0369791456
 40
0.0428963842
 40
0.0492836869
 40
0.05614346
 40
0.0712870036
 40
0.0883379076
 40
0.1073016276
 40
0.128180287
 40
0.1509741769
 40
0.175681673
 40
0.2022996601
 40
0.2308243166
 40
0.2612506002
 40
0.2935725475
 40
0.327783831
 40
0.4018441206
 40
0.4833663491
 40
0.572275883
 40
0.6684890994
 40
0.7719142688
 40
0.8824558849
 40
1.0
 40
1.0
 40
1.0
 40
1.0
 10
4.7211369869
 20
3.7925485616
 30
0.0
 10
4.7211369872
 20
3.7925634685
 30
0.0
 10
4.7211391386
 20
3.7925936178
 30
0.0
 10
4.7211522142
 20
3.7926548119
 30
0.0
 10
4.7211862247
 20
3.792732504
 30
0.0
 10
4.7212514707
 20
3.7928224335
 30
0.0
 10
4.7213414157
 20
3.7929116716
 30
0.0
 10
4.7214560558
 20
3.7930005614
 30
0.0
 10
4.721568492
 20
3.7930721645
 30
0.0
 10
4.7216703944
 20
3.7931298045
 30
0.0
 10
4.7217871297
 20
3.7931909448
 30
0.0
 10
4.7219491541
 20
3.7932669451
 30
0.0
 10
4.7221634729
 20
3.7933557973
 30
0.0
 10
4.7224028359
 20
3.7934446901
 30
0.0
 10
4.7226672461
 20
3.7935336218
 30
0.0
 10
4.7229567085
 20
3.7936225857
 30
0.0
 10
4.7232712147
 20
3.7937115823
 30
0.0
 10
4.7237395928
 20
3.793834364
 30
0.0
 10
4.7243881245
 20
3.7939865562
 30
0.0
 10
4.7252424361
 20
3.7941639278
 30
0.0
 10
4.7261963817
 20
3.7943414734
 30
0.0
 10
4.7272497506
 20
3.7945191702
 30
0.0
 10
4.7284023149
 20
3.7946969767
 30
0.0
 10
4.7296538056
 20
3.7948748724
 30
0.0
 10
4.7310039261
 20
3.7950528415
 30
0.0
 10
4.7324523516
 20
3.7952308679
 30
0.0
 10
4.733998731
 20
3.7954089413
 30
0.0
 10
4.7356426872
 20
3.7955870602
 30
0.0
 10
4.7380279567
 20
3.7958310975
 30
0.0
 10
4.7412505574
 20
3.7961343337
 30
0.0
 10
4.7454050482
 20
3.7964895931
 30
0.0
 10
4.7499385784
 20
3.796845091
 30
0.0
 10
4.7548466818
 20
3.7972007899
 30
0.0
 10
4.7601245876
 20
3.7975566459
 30
0.0
 10
4.7657670349
 20
3.7979126244
 30
0.0
 10
4.7696500334
 20
3.7981430122
 30
0.0
 10
4.7716513204
 20
3.7982585616
 30
0.0
  0
SPLINE
  5
285
100
AcDbEntity
  8
0
100
AcDbSpline
 62
7
  6
CONTINUOUS
 70
0
 71
3
 72
100
 73
96
 74
0
 42
0.0000001
 43
0.0000001
 44
0.0000000001
 40
0.0
 40
0.0
 40
0.0
 40
0.0
 40
0.0004012531
 40
0.0008680595
 40
0.0014021599
 40
0.0020046881
 40
0.0026763992
 40
0.0034177886
 40
0.004229193
 40
0.0051108423
 40
0.0060628788
 40
0.0070853648
 40
0.0081783187
 40
0.009341728
 40
0.0118796502
 40
0.014698377
 40
0.0177968123
 40
0.0211735223
 40
0.0248268657
 40
0.0287549325
 40
0.0329556484
 40
0.0374267041
 40
0.0421656465
 40
0.0471698071
 40
0.0524363841
 40
0.0579623726
 40
0.0697798557
 40
0.0825952078
 40
0.0963789478
 40
0.111099264
 40
0.1267221147
 40
0.143211324
 40
0.1605286622
 40
0.17863395
 40
0.1974851624
 40
0.2170385157
 40
0.2372485798
 40
0.2580683939
 40
0.2794495633
 40
0.3236959365
 40
0.369576418
 40
0.416664448
 40
0.4645221872
 40
0.5127046215
 40
0.560763694
 40
0.6082525023
 40
0.654729476
 40
0.6997624796
 40
0.7429328729
 40
0.7636934252
 40
0.7838394315
 40
0.8033240738
 40
0.8221020896
 40
0.8401298689
 40
0.8573655606
 40
0.8737691826
 40
0.8893027106
 40
0.9039301722
 40
0.9176177501
 40
0.9303338663
 40
0.9420492727
 40
0.9475232458
 40
0.9527371732
 40
0.9576881237
 40
0.9623732876
 40
0.9667900724
 40
0.9709360193
 40
0.9748088999
 40
0.9784066387
 40
0.9817274122
 40
0.9847695839
 40
0.9875318178
 40
0.9900130398
 40
0.9911480678
 40
0.9922126258
 40
0.9932067084
 40
0.9941303653
 40
0.994983693
 40
0.995766851
 40
0.9964801044
 40
0.9971238615
 40
0.9976987136
 40
0.9982055327
 40
0.9984338522
 40
0.9986457242
 40
0.9988414402
 40
0.9990213725
 40
0.9991860021
 40
0.9993359598
 40
0.9994720829
 40
0.9995954938
 40
0.9997077018
 40
0.9998107103
 40
0.9999070987
 40
1.0
 40
1.0
 40
1.0
 40
1.0
 10
4.7603193496
 20
3.8244020832
 30
0.0
 10
4.7604052341
 20
3.8244517384
 30
0.0
 10
4.7605966234
 20
3.8245495199
 30
0.0
 10
4.7609156766
 20
3.8246855433
 30
0.0
 10
4.7612881351
 20
3.8248217497
 30
0.0
 10
4.7617140269
 20
3.8249581026
 30
0.0
 10
4.7621933926
 20
3.8250945804
 30
0.0
 10
4.7627262039
 20
3.8252311609
 30
0.0
 10
4.7633124159
 20
3.8253678249
 30
0.0
 10
4.7639519661
 20
3.8255045555
 30
0.0
 10
4.7646447766
 20
3.8256413399
 30
0.0
 10
4.7653907539
 20
3.8257781694
 30
0.0
 10
4.7661897947
 20
3.8259150409
 30
0.0
 10
4.7673601414
 20
3.826103076
 30
0.0
 10
4.7689552501
 20
3.8263365128
 30
0.0
 10
4.7710278448
 20
3.826609438
 30
0.0
 10
4.7733094145
 20
3.8268825752
 30
0.0
 10
4.7757986528
 20
3.827155898
 30
0.0
 10
4.7784941274
 20
3.8274293559
 30
0.0
 10
4.7813942848
 20
3.8277029283
 30
0.0
 10
4.7844974405
 20
3.8279765884
 30
0.0
 10
4.7878017982
 20
3.8282503248
 30
0.0
 10
4.7913054343
 20
3.828524121
 30
0.0
 10
4.7950063168
 20
3.8287979697
 30
0.0
 10
4.7989022893
 20
3.8290718648
 30
0.0
 10
4.804479901
 20
3.8294455203
 30
0.0
 10
4.8119219046
 20
3.8299103125
 30
0.0
 10
4.8214043125
 20
3.830456707
 30
0.0
 10
4.8316055033
 20
3.8310033836
 30
0.0
 10
4.842501734
 20
3.8315502997
 30
0.0
 10
4.8540676453
 20
3.8320974026
 30
0.0
 10
4.8662763143
 20
3.8326446586
 30
0.0
 10
4.8790993198
 20
3.8331920398
 30
0.0
 10
4.8925068093
 20
3.8337395249
 30
0.0
 10
4.9064675686
 20
3.8342870967
 30
0.0
 10
4.9209490943
 20
3.8348347414
 30
0.0
 10
4.9359176703
 20
3.8353824466
 30
0.0
 10
4.9513384462
 20
3.8359302074
 30
0.0
 10
4.9726989071
 20
3.8366690469
 30
0.0
 10
5.0002528082
 20
3.8375885338
 30
0.0
 10
5.0341602347
 20
3.8386801575
 30
0.0
 10
5.0689609748
 20
3.8397720491
 30
0.0
 10
5.1043311178
 20
3.8408641117
 30
0.0
 10
5.1399414521
 20
3.8419562419
 30
0.0
 10
5.17546053
 20
3.8430483461
 30
0.0
 10
5.2105577534
 20
3.8441403296
 30
0.0
 10
5.2449064521
 20
3.8452320814
 30
0.0
 10
5.2781869239
 20
3.8463234978
 30
0.0
 10
5.3051114339
 20
3.8472441415
 30
0.0
 10
5.3258854357
 20
3.8479841335
 30
0.0
 10
5.3408065024
 20
3.8485318373
 30
0.0
 10
5.3552370692
 20
3.8490794742
 30
0.0
 10
5.3691435386
 20
3.8496270381
 30
0.0
 10
5.3824935339
 20
3.8501745135
 30
0.0
 10
5.3952559748
 20
3.8507218832
 30
0.0
 10
5.4074011496
 20
3.8512691252
 30
0.0
 10
5.4189007855
 20
3.8518162109
 30
0.0
 10
5.429728114
 20
3.8523631057
 30
0.0
 10
5.4398579364
 20
3.8529097553
 30
0.0
 10
5.4492666765
 20
3.8534561157
 30
0.0
 10
5.456645921
 20
3.8539209808
 30
0.0
 10
5.4621722965
 20
3.8542947265
 30
0.0
 10
5.4660291394
 20
3.8545686151
 30
0.0
 10
5.4696904452
 20
3.8548424522
 30
0.0
 10
5.4731540897
 20
3.855116239
 30
0.0
 10
5.4764180545
 20
3.8553899594
 30
0.0
 10
5.4794804493
 20
3.8556636051
 30
0.0
 10
5.4823394925
 20
3.8559371543
 30
0.0
 10
5.4849935343
 20
3.8562105894
 30
0.0
 10
5.4874410367
 20
3.8564838769
 30
0.0
 10
5.4896806027
 20
3.8567569756
 30
0.0
 10
5.4917109428
 20
3.8570298433
 30
0.0
 10
5.4932706609
 20
3.8572633642
 30
0.0
 10
5.4944125642
 20
3.8574515204
 30
0.0
 10
5.4951902339
 20
3.8575883771
 30
0.0
 10
5.4959147949
 20
3.8577251901
 30
0.0
 10
5.4965861515
 20
3.8578619547
 30
0.0
 10
5.4972042175
 20
3.8579986588
 30
0.0
 10
5.4977689173
 20
3.8581352905
 30
0.0
 10
5.4982801907
 20
3.8582718343
 30
0.0
 10
5.4987380119
 20
3.8584082637
 30
0.0
 10
5.4991423511
 20
3.8585445643
 30
0.0
 10
5.4994444753
 20
3.858661735
 30
0.0
 10
5.4996587089
 20
3.8587563006
 30
0.0
 10
5.4998003009
 20
3.8588247239
 30
0.0
 10
5.4999284916
 20
3.8588931367
 30
0.0
 10
5.5000432895
 20
3.8589615486
 30
0.0
 10
5.5001447082
 20
3.8590299706
 30
0.0
 10
5.5002327643
 20
3.8590984252
 30
0.0
 10
5.500307474
 20
3.8591669513
 30
0.0
 10
5.5003688436
 20
3.8592356147
 30
0.0
 10
5.5004168483
 20
3.8593045038
 30
0.0
 10
5.5004513929
 20
3.8593737319
 30
0.0
 10
5.5004722843
 20
3.8594433111
 30
0.0
 10
5.5004769817
 20
3.8594902313
 30
0.0
 10
5.5004769821
 20
3.8595132002
 30
0.0
  0
SPLINE
  5
286
100
AcDbEntity
  8
0
100
AcDbSpline
 62
7
  6
CONTINUOUS
 70
0
 71
3
 72
51
 73
47
 74
0
 42
0.0000001
 43
0.0000001
 44
0.0000000001
 40
0.0
 40
0.0
 40
0.0
 40
0.0
 40
0.0950359368
 40
0.1892124788
 40
0.2816779715
 40
0.3715963201
 40
0.4581545407
 40
0.4999277001
 40
0.5405701737
 40
0.579990092
 40
0.618098367
 40
0.6548088824
 40
0.6900387178
 40
0.723708329
 40
0.7557417219
 40
0.7860666564
 40
0.814614808
 40
0.8413219295
 40
0.8661280379
 40
0.8889775694
 40
0.8996525188
 40
0.9098195745
 40
0.9194731258
 40
0.9286078597
 40
0.9372187911
 40
0.945301268
 40
0.9528509752
 40
0.9598639767
 40
0.9663366983
 40
0.9722660147
 40
0.9776492254
 40
0.9824842158
 40
0.9846956507
 40
0.9867695296
 40
0.9887058225
 40
0.9905045575
 40
0.9921658408
 40
0.9936899221
 40
0.9950772244
 40
0.9963283757
 40
0.997444312
 40
0.9984264813
 40
0.9988681066
 40
0.9992772204
 40
0.9996543093
 40
1.0
 40
1.0
 40
1.0
 40
1.0
 10
5.1301369863
 20
3.8104060616
 30
0.0
 10
5.1430920103
 20
3.8107661555
 30
0.0
 10
5.1688849083
 20
3.8114830817
 30
0.0
 10
5.207282166
 20
3.8125600158
 30
0.0
 10
5.2449812672
 20
3.8136367619
 30
0.0
 10
5.2816410345
 20
3.8147132282
 30
0.0
 10
5.311389881
 20
3.8156203087
 30
0.0
 10
5.3344212767
 20
3.8163491695
 30
0.0
 10
5.3510271819
 20
3.816889292
 30
0.0
 10
5.3671330378
 20
3.8174293584
 30
0.0
 10
5.3827023847
 20
3.8179693638
 30
0.0
 10
5.3976999779
 20
3.8185092958
 30
0.0
 10
5.4120918677
 20
3.8190491406
 30
0.0
 10
5.4258454757
 20
3.8195888809
 30
0.0
 10
5.4389296697
 20
3.8201284952
 30
0.0
 10
5.4513148339
 20
3.8206679551
 30
0.0
 10
5.4629729363
 20
3.8212072268
 30
0.0
 10
5.4738775952
 20
3.8217462566
 30
0.0
 10
5.4840041324
 20
3.8222850011
 30
0.0
 10
5.4919454792
 20
3.8227434037
 30
0.0
 10
5.4978922819
 20
3.8231119531
 30
0.0
 10
5.5020421825
 20
3.8233820202
 30
0.0
 10
5.505981581
 20
3.8236520381
 30
0.0
 10
5.5097082504
 20
3.8239220043
 30
0.0
 10
5.5132200842
 20
3.8241919072
 30
0.0
 10
5.5165150982
 20
3.8244617338
 30
0.0
 10
5.5195914337
 20
3.8247314678
 30
0.0
 10
5.5224473565
 20
3.8250010854
 30
0.0
 10
5.5250812629
 20
3.8252705606
 30
0.0
 10
5.5274916811
 20
3.8255398436
 30
0.0
 10
5.5296772662
 20
3.8258089023
 30
0.0
 10
5.5313566593
 20
3.8260391637
 30
0.0
 10
5.5325864932
 20
3.826224702
 30
0.0
 10
5.5334241482
 20
3.8263596474
 30
0.0
 10
5.5342047564
 20
3.8264945474
 30
0.0
 10
5.5349282141
 20
3.8266293979
 30
0.0
 10
5.5355944267
 20
3.8267641886
 30
0.0
 10
5.536203316
 20
3.8268989046
 30
0.0
 10
5.536754819
 20
3.8270335272
 30
0.0
 10
5.5372489002
 20
3.8271680277
 30
0.0
 10
5.5376855213
 20
3.8273023918
 30
0.0
 10
5.5380121855
 20
3.8274179358
 30
0.0
 10
5.5382441133
 20
3.8275112277
 30
0.0
 10
5.5383974019
 20
3.8275786807
 30
0.0
 10
5.5385362909
 20
3.8276461155
 30
0.0
 10
5.538623004
 20
3.8276930758
 30
0.0
 10
5.5386638182
 20
3.827716667
 30
0.0
  0
SPLINE
  5
287
100
AcDbEntity
  8
0
100
AcDbSpline
 62
7
  6
CONTINUOUS
 70
0
 71
3
 72
25
 73
21
 74
0
 42
0.0000001
 43
0.0000001
 44
0.0000000001
 40
0.0
 40
0.0
 40
0.0
 40
0.0
 40
0.0189124564
 40
0.0389170022
 40
0.0599905669
 40
0.0821104456
 40
0.105252014
 40
0.1293895802
 40
0.1805445747
 40
0.235348265
 40
0.2935570346
 40
0.3549119433
 40
0.4191399792
 40
0.4859552058
 40
0.5550601528
 40
0.626147062
 40
0.698899339
 40
0.7729929337
 40
0.848097798
 40
1.0
 40
1.0
 40
1.0
 40
1.0
 10
4.7716513204
 20
3.7982585616
 30
0.0
 10
4.7739088631
 20
3.7983889066
 30
0.0
 10
4.7785547925
 20
3.7986487941
 30
0.0
 10
4.7857176716
 20
3.7990276445
 30
0.0
 10
4.7932645563
 20
3.7994065688
 30
0.0
 10
4.8011869704
 20
3.7997855538
 30
0.0
 10
4.8094761343
 20
3.8001645971
 30
0.0
 10
4.821234303
 20
3.8006800766
 30
0.0
 10
4.8367762986
 20
3.8013214512
 30
0.0
 10
4.8563907358
 20
3.802077442
 30
0.0
 10
4.8772255807
 20
3.8028337793
 30
0.0
 10
4.8991879544
 20
3.8035904063
 30
0.0
 10
4.922179948
 20
3.8043472559
 30
0.0
 10
4.9460990637
 20
3.8051042847
 30
0.0
 10
4.9708386643
 20
3.8058614545
 30
0.0
 10
4.9962884578
 20
3.8066187363
 30
0.0
 10
5.0223349826
 20
3.8073761047
 30
0.0
 10
5.0488621184
 20
3.8081335404
 30
0.0
 10
5.0848494951
 20
3.8091473061
 30
0.0
 10
5.1119815334
 20
3.8099014183
 30
0.0
 10
5.1301369863
 20
3.8104060616
 30
0.0
  0
SPLINE
  5
288
100
AcDbEntity
  8
0
100
AcDbSpline
 62
7
  6
CONTINUOUS
 70
0
 71
3
 72
51
 73
47
 74
0
 42
0.0000001
 43
0.0000001
 44
0.0000000001
 40
0.0
 40
0.0
 40
0.0
 40
0.0
 40
0.0950359368
 40
0.1892124788
 40
0.2816779713
 40
0.3715963202
 40
0.4581545407
 40
0.4999277002
 40
0.540570174
 40
0.5799900921
 40
0.6180983671
 40
0.6548088826
 40
0.690038718
 40
0.7237083291
 40
0.7557417221
 40
0.7860666565
 40
0.8146148081
 40
0.8413219297
 40
0.866128038
 40
0.8889775695
 40
0.8996525189
 40
0.9098195747
 40
0.919473126
 40
0.9286078598
 40
0.9372187911
 40
0.945301268
 40
0.9528509753
 40
0.9598639769
 40
0.9663366985
 40
0.9722660148
 40
0.9776492254
 40
0.9824842158
 40
0.9846956507
 40
0.9867695296
 40
0.9887058226
 40
0.9905045576
 40
0.9921658409
 40
0.9936899222
 40
0.9950772244
 40
0.9963283757
 40
0.997444312
 40
0.9984264813
 40
0.9988681066
 40
0.9992772203
 40
0.9996543093
 40
1.0
 40
1.0
 40
1.0
 40
1.0
 10
5.1301369863
 20
3.8193353388
 30
0.0
 10
5.1171819623
 20
3.818975245
 30
0.0
 10
5.0913890643
 20
3.8182583187
 30
0.0
 10
5.0529918067
 20
3.8171813846
 30
0.0
 10
5.0152927054
 20
3.8161046386
 30
0.0
 10
4.9786329381
 20
3.8150281722
 30
0.0
 10
4.9488840916
 20
3.8141210917
 30
0.0
 10
4.9258526959
 20
3.813392231
 30
0.0
 10
4.9092467906
 20
3.8128521085
 30
0.0
 10
4.8931409347
 20
3.8123120421
 30
0.0
 10
4.8775715879
 20
3.8117720366
 30
0.0
 10
4.8625739946
 20
3.8112321046
 30
0.0
 10
4.8481821049
 20
3.8106922598
 30
0.0
 10
4.8344284968
 20
3.8101525195
 30
0.0
 10
4.8213443028
 20
3.8096129053
 30
0.0
 10
4.8089591386
 20
3.8090734453
 30
0.0
 10
4.7973010362
 20
3.8085341737
 30
0.0
 10
4.7863963774
 20
3.8079951439
 30
0.0
 10
4.7762698402
 20
3.8074563993
 30
0.0
 10
4.7683284934
 20
3.8069979968
 30
0.0
 10
4.7623816907
 20
3.8066294474
 30
0.0
 10
4.75823179
 20
3.8063593803
 30
0.0
 10
4.7542923915
 20
3.8060893624
 30
0.0
 10
4.7505657221
 20
3.8058193962
 30
0.0
 10
4.7470538883
 20
3.8055494932
 30
0.0
 10
4.7437588743
 20
3.8052796667
 30
0.0
 10
4.7406825389
 20
3.8050099326
 30
0.0
 10
4.7378266161
 20
3.8047403151
 30
0.0
 10
4.7351927097
 20
3.8044708399
 30
0.0
 10
4.7327822915
 20
3.8042015569
 30
0.0
 10
4.7305967064
 20
3.8039324982
 30
0.0
 10
4.7289173133
 20
3.8037022368
 30
0.0
 10
4.7276874794
 20
3.8035166985
 30
0.0
 10
4.7268498244
 20
3.8033817531
 30
0.0
 10
4.7260692161
 20
3.8032468531
 30
0.0
 10
4.7253457585
 20
3.8031120025
 30
0.0
 10
4.7246795459
 20
3.8029772119
 30
0.0
 10
4.7240706566
 20
3.8028424958
 30
0.0
 10
4.7235191536
 20
3.8027078733
 30
0.0
 10
4.7230250724
 20
3.8025733728
 30
0.0
 10
4.7225884513
 20
3.8024390087
 30
0.0
 10
4.7222617871
 20
3.8023234647
 30
0.0
 10
4.7220298593
 20
3.8022301728
 30
0.0
 10
4.7218765707
 20
3.8021627197
 30
0.0
 10
4.7217376817
 20
3.802095285
 30
0.0
 10
4.7216509686
 20
3.8020483247
 30
0.0
 10
4.7216101544
 20
3.8020247335
 30
0.0
  0
SPLINE
  5
289
100
AcDbEntity
  8
0
100
AcDbSpline
 62
7
  6
CONTINUOUS
 70
0
 71
3
 72
25
 73
21
 74
0
 42
0.0000001
 43
0.0000001
 44
0.0000000001
 40
0.0
 40
0.0
 40
0.0
 40
0.0
 40
0.151902202
 40
0.2270070663
 40
0.301100661
 40
0.373852938
 40
0.4449398472
 40
0.5140447942
 40
0.5808600208
 40
0.6450880567
 40
0.7064429654
 40
0.764651735
 40
0.8194554253
 40
0.8706104198
 40
0.894747986
 40
0.9178895544
 40
0.9400094331
 40
0.9610829978
 40
0.9810875436
 40
1.0
 40
1.0
 40
1.0
 40
1.0
 10
5.1301369863
 20
3.7479053388
 30
0.0
 10
5.1119815334
 20
3.7474006955
 30
0.0
 10
5.0848494951
 20
3.7466465833
 30
0.0
 10
5.0488621184
 20
3.7456328176
 30
0.0
 10
5.0223349826
 20
3.7448753819
 30
0.0
 10
4.9962884578
 20
3.7441180135
 30
0.0
 10
4.9708386643
 20
3.7433607316
 30
0.0
 10
4.9460990637
 20
3.7426035619
 30
0.0
 10
4.922179948
 20
3.7418465331
 30
0.0
 10
4.8991879544
 20
3.7410896835
 30
0.0
 10
4.8772255807
 20
3.7403330564
 30
0.0
 10
4.8563907358
 20
3.7395767192
 30
0.0
 10
4.8367762986
 20
3.7388207284
 30
0.0
 10
4.821234303
 20
3.7381793538
 30
0.0
 10
4.8094761343
 20
3.7376638743
 30
0.0
 10
4.8011869704
 20
3.737284831
 30
0.0
 10
4.7932645563
 20
3.736905846
 30
0.0
 10
4.7857176716
 20
3.7365269217
 30
0.0
 10
4.7785547925
 20
3.7361480713
 30
0.0
 10
4.7739088631
 20
3.7358881838
 30
0.0
 10
4.7716513204
 20
3.7357578388
 30
0.0
  0
SPLINE
  5
28A
100
AcDbEntity
  8
0
100
AcDbSpline
 62
7
  6
CONTINUOUS
 70
0
 71
3
 72
102
 73
98
 74
0
 42
0.0000001
 43
0.0000001
 44
0.0000000001
 40
0.0
 40
0.0
 40
0.0
 40
0.0
 40
0.0001755358
 40
0.000367263
 40
0.0005755079
 40
0.0008005221
 40
0.0013015703
 40
0.0018716049
 40
0.002511372
 40
0.0032213542
 40
0.0040018625
 40
0.0048531028
 40
0.0057752043
 40
0.0067682194
 40
0.0078321502
 40
0.00896697
 40
0.0114489977
 40
0.0142134916
 40
0.0172593186
 40
0.0205850188
 40
0.0241889341
 40
0.0280691453
 40
0.0322235705
 40
0.0366498998
 40
0.0413456744
 40
0.0463082303
 40
0.0515347595
 40
0.057022268
 40
0.068767485
 40
0.0815168378
 40
0.0952408425
 40
0.1099076827
 40
0.1254832914
 40
0.1419314476
 40
0.1592138719
 40
0.1772903114
 40
0.1961186441
 40
0.215654985
 40
0.23585378
 40
0.256667919
 40
0.2780488551
 40
0.3223103739
 40
0.3682254784
 40
0.4153658095
 40
0.4632915455
 40
0.5115555105
 40
0.5597073539
 40
0.6072977858
 40
0.6538827677
 40
0.6990276688
 40
0.7423113544
 40
0.7631282994
 40
0.783330127
 40
0.802869718
 40
0.8217015158
 40
0.8397816245
 40
0.8570679107
 40
0.873520118
 40
0.8890999546
 40
0.9037711869
 40
0.9174997425
 40
0.9302537915
 40
0.9420038368
 40
0.947493804
 40
0.9527228271
 40
0.9576878993
 40
0.9623862201
 40
0.9668151156
 40
0.9709721328
 40
0.974854955
 40
0.9784615019
 40
0.9817898505
 40
0.9848383397
 40
0.9876055097
 40
0.9900902201
 40
0.9912263843
 40
0.9922916633
 40
0.9932860253
 40
0.9942094688
 40
0.9950620531
 40
0.9958439048
 40
0.9965552233
 40
0.9971963155
 40
0.9977676683
 40
0.9982700191
 40
0.9984956744
 40
0.9987045507
 40
0.9988968974
 40
0.9990730396
 40
0.9992334036
 40
0.9993785567
 40
0.9995092659
 40
0.9996265834
 40
0.9997319659
 40
0.9998274201
 40
0.9999156358
 40
1.0
 40
1.0
 40
1.0
 40
1.0
 10
5.5386638174
 20
3.899146667
 30
0.0
 10
5.5386223299
 20
3.8991226861
 30
0.0
 10
5.538534104
 20
3.8990749569
 30
0.0
 10
5.5383926682
 20
3.8990064627
 30
0.0
 10
5.5382363741
 20
3.8989379491
 30
0.0
 10
5.5379995509
 20
3.8988431481
 30
0.0
 10
5.5376656
 20
3.8987257605
 30
0.0
 10
5.5372188394
 20
3.8985892913
 30
0.0
 10
5.5367127939
 20
3.8984526793
 30
0.0
 10
5.5361475025
 20
3.8983159412
 30
0.0
 10
5.5355230056
 20
3.8981791055
 30
0.0
 10
5.5348393719
 20
3.898042191
 30
0.0
 10
5.5340966826
 20
3.897905215
 30
0.0
 10
5.5332950369
 20
3.8977681885
 30
0.0
 10
5.5324345471
 20
3.8976311149
 30
0.0
 10
5.5311706988
 20
3.8974426245
 30
0.0
 10
5.5294443458
 20
3.8972087163
 30
0.0
 10
5.5271971168
 20
3.8969354179
 30
0.0
 10
5.5247180676
 20
3.8966618912
 30
0.0
 10
5.5220086235
 20
3.8963881652
 30
0.0
 10
5.5190703508
 20
3.8961142952
 30
0.0
 10
5.5159049493
 20
3.8958403041
 30
0.0
 10
5.5125142639
 20
3.89556622
 30
0.0
 10
5.5089002648
 20
3.8952920562
 30
0.0
 10
5.5050650629
 20
3.8950178291
 30
0.0
 10
5.5010108916
 20
3.8947435478
 30
0.0
 10
5.4967401196
 20
3.8944692176
 30
0.0
 10
5.490620381
 20
3.8940948566
 30
0.0
 10
5.4824487658
 20
3.8936292345
 30
0.0
 10
5.4720297811
 20
3.893081993
 30
0.0
 10
5.4608122174
 20
3.8925344606
 30
0.0
 10
5.4488222695
 20
3.8919866818
 30
0.0
 10
5.4360879345
 20
3.8914387112
 30
0.0
 10
5.4226389527
 20
3.8908905836
 30
0.0
 10
5.4085067347
 20
3.8903423278
 30
0.0
 10
5.3937242887
 20
3.8897939657
 30
0.0
 10
5.3783261423
 20
3.8892455152
 30
0.0
 10
5.3623482618
 20
3.8886969901
 30
0.0
 10
5.3458279685
 20
3.8881484034
 30
0.0
 10
5.3288038506
 20
3.88759976
 30
0.0
 10
5.3052135992
 20
3.8868596401
 30
0.0
 10
5.2747733312
 20
3.8859385893
 30
0.0
 10
5.2373030072
 20
3.8848452239
 30
0.0
 10
5.1988319806
 20
3.8837515852
 30
0.0
 10
5.1597194887
 20
3.8826577711
 30
0.0
 10
5.1203307585
 20
3.8815638863
 30
0.0
 10
5.0810335978
 20
3.8804700252
 30
0.0
 10
5.0421949592
 20
3.8793762833
 30
0.0
 10
5.0041775117
 20
3.878282772
 30
0.0
 10
4.9673362557
 20
3.8771895959
 30
0.0
 10
4.9375274746
 20
3.8762674941
 30
0.0
 10
4.9145256122
 20
3.8755263261
 30
0.0
 10
4.8980028364
 20
3.8749777348
 30
0.0
 10
4.8820222933
 20
3.8744292105
 30
0.0
 10
4.8666213103
 20
3.8738807593
 30
0.0
 10
4.8518358604
 20
3.8733323968
 30
0.0
 10
4.8377004782
 20
3.8727841404
 30
0.0
 10
4.8242481793
 20
3.8722360122
 30
0.0
 10
4.8115103821
 20
3.8716880407
 30
0.0
 10
4.7995168349
 20
3.8711402609
 30
0.0
 10
4.7882955435
 20
3.8705927273
 30
0.0
 10
4.7778727112
 20
3.8700454841
 30
0.0
 10
4.7696978193
 20
3.8695798657
 30
0.0
 10
4.7635754054
 20
3.8692055087
 30
0.0
 10
4.7593025903
 20
3.8689311784
 30
0.0
 10
4.7552463515
 20
3.8686568962
 30
0.0
 10
4.7514090617
 20
3.868382669
 30
0.0
 10
4.7477929534
 20
3.8681085041
 30
0.0
 10
4.7444001403
 20
3.8678344195
 30
0.0
 10
4.7412325922
 20
3.8675604272
 30
0.0
 10
4.7382921561
 20
3.867286556
 30
0.0
 10
4.7355805331
 20
3.8670128286
 30
0.0
 10
4.7330992907
 20
3.8667392995
 30
0.0
 10
4.7308498564
 20
3.8664659989
 30
0.0
 10
4.7291216566
 20
3.8662320944
 30
0.0
 10
4.7278563239
 20
3.8660436097
 30
0.0
 10
4.7269947175
 20
3.8659065357
 30
0.0
 10
4.726191954
 20
3.8657695087
 30
0.0
 10
4.7254481457
 20
3.8656325308
 30
0.0
 10
4.7247633905
 20
3.8654956151
 30
0.0
 10
4.7241377696
 20
3.8653587781
 30
0.0
 10
4.7235713543
 20
3.8652220383
 30
0.0
 10
4.723064185
 20
3.8650854226
 30
0.0
 10
4.7226162997
 20
3.8649489504
 30
0.0
 10
4.7222814048
 20
3.8648315684
 30
0.0
 10
4.7220438214
 20
3.8647367748
 30
0.0
 10
4.7218869651
 20
3.8646682613
 30
0.0
 10
4.7217449633
 20
3.8645997644
 30
0.0
 10
4.7216178057
 20
3.8645312764
 30
0.0
 10
4.7215054739
 20
3.8644627889
 30
0.0
 10
4.7214079434
 20
3.8643942811
 30
0.0
 10
4.7213251856
 20
3.8643257135
 30
0.0
 10
4.7212571766
 20
3.8642570121
 30
0.0
 10
4.721203925
 20
3.8641880626
 30
0.0
 10
4.7211655291
 20
3.8641186966
 30
0.0
 10
4.7211422427
 20
3.8640488502
 30
0.0
 10
4.721136989
 20
3.8640015923
 30
0.0
 10
4.7211369896
 20
3.8639785616
 30
0.0
  0
ENDSEC
  0
SECTION
  2
OBJECTS
  0
DICTIONARY
  5
C
100
AcDbDictionary
280
0
281
1
  3
ACAD_GROUP
350
D
  3
ACAD_MLINESTYLE
350
17
  3
ACAD_LAYOUT
350
1A
  3
ACAD_PLOTSETTINGS
350
19
  3
ACAD_PLOTSTYLENAME
350
E
  0
DICTIONARY
  5
D
102
{ACAD_REACTORS
330
C
102
}
100
AcDbDictionary
280
0
281
1
  0
ACDBDICTIONARYWDFLT
  5
E
102
{ACAD_REACTORS
330
C
102
}
100
AcDbDictionary
281
1
  3
Normal
350
F
100
AcDbDictionaryWithDefault
340
F
  0
DICTIONARY
  5
17
102
{ACAD_REACTORS
330
C
102
}
100
AcDbDictionary
280
0
281
1
  3
Standard
350
18
  0
DICTIONARY
  5
19
102
{ACAD_REACTORS
330
C
102
}
100
AcDbDictionary
281
1
  0
DICTIONARY
  5
1A
102
{ACAD_REACTORS
330
C
102
}
100
AcDbDictionary
281
1
  3
Model
350
28B
  3
Layout1
350
28C
  0
ACDBPLACEHOLDER
  5
F
102
{ACAD_REACTORS
330
E
102
}
  0
MLINESTYLE
  5
18
102
{ACAD_REACTORS
330
17
102
}
100
AcDbMlineStyle
  2
STANDARD
 70
0
  3

 62
256
 51
90.0
 52
90.0
 71
2
 49
0.5
 62
256
  6
BYLAYER
 49
-0.5
 62
256
  6
BYLAYER
  0
LAYOUT
  5
28B
102
{ACAD_REACTORS
330
1A
102
}
100
AcDbPlotSettings
  1

  2
none_device
  4
ANSI_A_(11.00_x_8.50_Inches)
  6

 40
0.0
 41
0.0
 42
0.0
 43
0.0
 44
279.4
 45
215.9
 46
0.0
 47
0.0
 48
0.0
 49
0.0
140
0.0
141
0.0
142
1.0
143
1.0
 70
1024
 72
0
 73
0
 74
0
  7

 75
0
147
1.0
148
0.0
149
0.0
100
AcDbLayout
  1
Model
 70
0
 71
0
 10
0.0
 20
0.0
 11
11.0
 21
8.5
 12
0.0
 22
0.0
 32
0.0
 14
0.0
 24
0.0
 34
0.0
 15
0.0
 25
0.0
 35
0.0
146
0.0
 13
0.0
 23
0.0
 33
0.0
 16
1.0
 26
0.0
 36
0.0
 17
0.0
 27
1.0
 37
0.0
 76
0
330
203
345
0
346
0
  0
LAYOUT
  5
28C
102
{ACAD_REACTORS
330
1A
102
}
100
AcDbPlotSettings
  1

  2
none_device
  4
ANSI_A_(11.00_x_8.50_Inches)
  6

 40
0.0
 41
0.0
 42
0.0
 43
0.0
 44
279.4
 45
215.9
 46
0.0
 47
0.0
 48
0.0
 49
0.0
140
0.0
141
0.0
142
1.0
143
1.0
 70
0
 72
0
 73
0
 74
0
  7

 75
0
147
1.0
148
0.0
149
0.0
100
AcDbLayout
  1
Layout1
 70
0
 71
1
 10
0.0
 20
0.0
 11
11.0
 21
8.5
 12
0.0
 22
0.0
 32
0.0
 14
0.0
 24
0.0
 34
0.0
 15
0.0
 25
0.0
 35
0.0
146
0.0
 13
0.0
 23
0.0
 33
0.0
 16
1.0
 26
0.0
 36
0.0
 17
0.0
 27
1.0
 37
0.0
 76
0
330
204
345
0
346
0
  0
ENDSEC
  0
EOF
