999
DXF file: 3-671_right.dxf
999
Pro/ENGINEER 2023134 by Parametric Technology Corporation
  0
SECTION
  2
HEADER
  9
$ACADVER
  1
AC1032
  9
$DWGCODEPAGE
  3
ANSI_1252
  9
$EXTMAX
 10
11.0
 20
8.5
 30
0.0
  9
$EXTMIN
 10
0.0
 20
0.0
 30
0.0
  9
$LIMMIN
 10
0.0
 20
0.0
  9
$LIMMAX
 10
11.0
 20
8.5
  9
$VIEWCTR
 10
5.5
 20
4.25
  9
$VIEWSIZE
 40
8.5
  9
$CLAYER
  8
0
  9
$LTSCALE
 40
0.605
  9
$CELTYPE
  6
BYLAYER
  9
$DIMSCALE
 40
1.0
  9
$DIMASZ
 40
0.1
  9
$DIMEXO
 40
0.03125
  9
$DIMDLI
 40
0.418
  9
$DIMEXE
 40
0.0625
  9
$DIMCEN
 40
0.099
  9
$DIMLFAC
 40
1.0
  9
$DIMBLK
  1
_FILLED
  9
$DIMALT
 70
1
  9
$DIMALTD
 70
2
  9
$DIMALTTD
 70
2
  9
$DIMALTF
 40
25.4
  9
$DIMTXT
 40
0.08
  9
$DIMTOL
 70
1
  9
$DIMLIM
 70
0
  9
$DIMTFAC
 40
1.0
  9
$DIMTP
 40
0.001
  9
$DIMTM
 40
0.001
  9
$DIMGAP
 40
0.09
  9
$DIMDSEP
 70
46
  9
$AUNITS
 70
0
  9
$PDMODE
 70
3
  9
$PDSIZE
 40
0.06
  9
$HANDSEED
  5
274
  9
$TILEMODE
 70
1
  9
$MEASUREMENT
 70
0
  9
$INSUNITS
 70
1
  0
ENDSEC
  0
SECTION
  2
CLASSES
  0
CLASS
  1
ACDBDICTIONARYWDFLT
  2
AcDbDictionaryWithDefault
  3
AutoCAD 2000
 90
0
 91
1
280
0
281
0
  0
CLASS
  1
ACDBPLACEHOLDER
  2
AcDbPlaceHolder
  3
AutoCAD 2000
 90
0
 91
1
280
0
281
0
  0
CLASS
  1
LAYOUT
  2
AcDbLayout
  3
AutoCAD 2000
 90
0
 91
0
280
0
281
0
  0
ENDSEC
  0
SECTION
  2
TABLES
  0
TABLE
  2
VPORT
  5
8
100
AcDbSymbolTable
 70
2
  0
VPORT
  5
1F4
100
AcDbSymbolTableRecord
100
AcDbViewportTableRecord
  2
*ACTIVE
 70
0
 10
0.0
 20
0.0
 11
1.0
 21
1.0
 12
5.5
 22
4.25
 13
0.0
 23
0.0
 14
1.0
 24
1.0
 15
0.0
 25
0.0
 16
0.0
 26
0.0
 36
1.0
 17
0.0
 27
0.0
 37
0.0
 40
8.5
 41
1.2941176471
 42
50.0
 43
0.0
 44
0.0
 50
0.0
 51
0.0
 71
0
 72
100
 73
1
 74
1
 75
0
 76
0
 77
0
 78
0
  0
ENDTAB
  0
TABLE
  2
LTYPE
  5
5
100
AcDbSymbolTable
 70
6
  0
LTYPE
  5
14
100
AcDbSymbolTableRecord
100
AcDbLinetypeTableRecord
  2
BYBLOCK
 70
0
  3

 72
65
 73
0
 40
0.0
  0
LTYPE
  5
15
100
AcDbSymbolTableRecord
100
AcDbLinetypeTableRecord
  2
BYLAYER
 70
0
  3

 72
65
 73
0
 40
0.0
  0
LTYPE
  5
16
100
AcDbSymbolTableRecord
100
AcDbLinetypeTableRecord
  2
CONTINUOUS
 70
64
  3
Solid line
 72
65
 73
0
 40
0.0
  0
LTYPE
  5
1F5
100
AcDbSymbolTableRecord
100
AcDbLinetypeTableRecord
  2
CENTER
 70
64
  3
____ _ ____ _ ____ _ ____ _ ____ _ ____ _ ____
 72
65
 73
4
 40
0.6
 49
0.375
 74
0
 49
-0.075
 74
0
 49
0.075
 74
0
 49
-0.075
 74
0
  0
LTYPE
  5
1F6
100
AcDbSymbolTableRecord
100
AcDbLinetypeTableRecord
  2
HIDDEN
 70
64
  3
- - - - - - - - - - - - - - - - - - - -
 72
65
 73
2
 40
0.2
 49
0.1
 74
0
 49
-0.1
 74
0
  0
LTYPE
  5
1F7
100
AcDbSymbolTableRecord
100
AcDbLinetypeTableRecord
  2
PHANTOM
 70
64
  3
_____ _ _ _____ _ _ _____ _ _ _____
 72
65
 73
6
 40
0.8
 49
0.45
 74
0
 49
-0.05
 74
0
 49
0.1
 74
0
 49
-0.05
 74
0
 49
0.1
 74
0
 49
-0.05
 74
0
  0
LTYPE
  5
1F8
100
AcDbSymbolTableRecord
100
AcDbLinetypeTableRecord
  2
DOT
 70
64
  3
. . . . . . . . . . . . . . . . . . . .
 72
65
 73
2
 40
0.2
 49
0.1
 74
0
 49
-0.1
 74
0
  0
LTYPE
  5
1F9
100
AcDbSymbolTableRecord
100
AcDbLinetypeTableRecord
  2
DASHED
 70
64
  3
- - - - - - - - - - - - - - - - - - - -
 72
65
 73
2
 40
0.2
 49
0.1
 74
0
 49
-0.1
 74
0
  0
ENDTAB
  0
TABLE
  2
LAYER
  5
2
100
AcDbSymbolTable
 70
36
  0
LAYER
  5
10
100
AcDbSymbolTableRecord
100
AcDbLayerTableRecord
  2
0
 70
0
 62
7
  6
CONTINUOUS
370
-3
390
F
  0
LAYER
  5
1FA
100
AcDbSymbolTableRecord
100
AcDbLayerTableRecord
  2
DEFAULT_1
 70
0
 62
7
  6
CENTER
370
-3
390
F
  0
LAYER
  5
1FB
100
AcDbSymbolTableRecord
100
AcDbLayerTableRecord
  2
DEFAULT_2
 70
0
 62
8
  6
HIDDEN
370
-3
390
F
  0
LAYER
  5
1FC
100
AcDbSymbolTableRecord
100
AcDbLayerTableRecord
  2
DEFAULT_3
 70
0
 62
7
  6
PHANTOM
370
-3
390
F
  0
LAYER
  5
1FD
100
AcDbSymbolTableRecord
100
AcDbLayerTableRecord
  2
DEFAULT_COORDINATE_SYSTEM
 70
0
 62
7
  6
CONTINUOUS
370
-3
390
F
  0
LAYER
  5
1FE
100
AcDbSymbolTableRecord
100
AcDbLayerTableRecord
  2
DEFAULT_DATUM_AXES
 70
0
 62
7
  6
CONTINUOUS
370
-3
390
F
  0
LAYER
  5
1FF
100
AcDbSymbolTableRecord
100
AcDbLayerTableRecord
  2
DEFAULT_DATUM_CURVES
 70
0
 62
7
  6
CONTINUOUS
370
-3
390
F
  0
LAYER
  5
200
100
AcDbSymbolTableRecord
100
AcDbLayerTableRecord
  2
DEFAULT_DATUM_PLANES
 70
0
 62
7
  6
CONTINUOUS
370
-3
390
F
  0
ENDTAB
  0
TABLE
  2
STYLE
  5
3
100
AcDbSymbolTable
 70
1
  0
STYLE
  5
11
100
AcDbSymbolTableRecord
100
AcDbTextStyleTableRecord
  2
STANDARD
 70
0
 40
0.0
 41
0.8
 50
0.0
 71
0
 42
0.2
  3
txt
  4

  0
STYLE
  5
201
100
AcDbSymbolTableRecord
100
AcDbTextStyleTableRecord
  2
TEXTSTYLE_1
 70
0
 40
0.0
 41
0.8
 50
0.0
 71
0
 42
0.2
  3
gdt
  4

  0
ENDTAB
  0
TABLE
  2
VIEW
  5
6
100
AcDbSymbolTable
 70
0
  0
ENDTAB
  0
TABLE
  2
UCS
  5
7
100
AcDbSymbolTable
 70
0
  0
ENDTAB
  0
TABLE
  2
APPID
  5
9
100
AcDbSymbolTable
 70
1
  0
APPID
  5
202
100
AcDbSymbolTableRecord
100
AcDbRegAppTableRecord
  2
ACAD
 70
0
  0
ENDTAB
  0
TABLE
  2
BLOCK_RECORD
  5
1
100
AcDbSymbolTable
 70
0
  0
BLOCK_RECORD
  5
203
100
AcDbSymbolTableRecord
100
AcDbBlockTableRecord
  2
*Model_Space
  0
BLOCK_RECORD
  5
204
100
AcDbSymbolTableRecord
100
AcDbBlockTableRecord
  2
*Paper_Space
  0
BLOCK_RECORD
  5
205
100
AcDbSymbolTableRecord
100
AcDbBlockTableRecord
  2
_FILLED
  0
ENDTAB
  0
TABLE
  2
DIMSTYLE
  5
A
100
AcDbSymbolTable
 70
1
100
AcDbDimStyleTable
 71
0
  0
DIMSTYLE
105
206
100
AcDbSymbolTableRecord
100
AcDbDimStyleTableRecord
  2
STANDARD
 70
0
  3

  4

 40
1.0
 41
0.1
 42
0.03125
 43
0.38
 44
0.0625
 45
0.0
 46
0.0
 47
0.001
 48
0.001
140
0.08
141
0.09
142
0.0
143
25.4
144
1.0
145
0.0
146
1.0
147
0.09
 71
1
 72
0
 73
1
 74
1
 75
0
 76
0
 77
0
 78
4
 79
1
170
1
171
2
172
0
173
0
174
0
175
0
176
0
177
0
178
0
270
2
179
3
271
3
272
3
273
2
274
2
275
0
280
0
281
0
282
0
283
1
284
4
285
0
286
0
287
3
288
0
340
11
278
46
341
205
342
205
343
205
344
205
  0
ENDTAB
  0
ENDSEC
  0
SECTION
  2
BLOCKS
  0
BLOCK
  5
20
100
AcDbEntity
  8
0
100
AcDbBlockBegin
  2
*Model_Space
 70
0
 10
0.0
 20
0.0
 30
0.0
  3
*Model_Space
  1

  0
ENDBLK
  5
21
100
AcDbEntity
  8
0
100
AcDbBlockEnd
  0
BLOCK
  5
1C
100
AcDbEntity
  8
0
100
AcDbBlockBegin
  2
*Paper_Space
 70
0
 10
0.0
 20
0.0
 30
0.0
  3
*Paper_Space
  1

  0
ENDBLK
  5
1D
100
AcDbEntity
  8
0
100
AcDbBlockEnd
  0
BLOCK
  5
207
100
AcDbEntity
  8
0
100
AcDbBlockBegin
  2
_FILLED
 70
64
 10
0.0
 20
0.0
  3
_FILLED
  1

  0
SOLID
  5
208
100
AcDbEntity
  8
0
  6
BYBLOCK
 62
0
100
AcDbTrace
 10
0.0
 20
0.0
 11
-1.0
 21
0.2
 12
-1.0
 22
-0.2
 13
-1.0
 23
-0.2
  0
ENDBLK
  5
209
100
AcDbEntity
  8
0
  6
BYBLOCK
 62
0
100
AcDbBlockEnd
  0
ENDSEC
  0
SECTION
  2
ENTITIES
  0
MTEXT
  5
20A
100
AcDbEntity
  8
0
100
AcDbMText
 62
2
  6
CONTINUOUS
  7
STANDARD
 71
3
 72
1
 10
5.7492172211
 20
2.6022174658
 30
0.0
 11
1.0
 21
0.0
 31
0.0
 73
2
 44
0.9
  1
SCALE 1.000
 40
0.08
 41
0.704
  0
LINE
  5
20B
100
AcDbEntity
  8
0
100
AcDbLine
 62
7
  6
CONTINUOUS
 10
0.0
 20
0.0
 11
0.0
 21
8.5
  0
LINE
  5
20C
100
AcDbEntity
  8
0
100
AcDbLine
 62
7
  6
CONTINUOUS
 10
0.0
 20
0.0
 11
11.0
 21
0.0
  0
LINE
  5
20D
100
AcDbEntity
  8
0
100
AcDbLine
 62
7
  6
CONTINUOUS
 10
0.0
 20
8.5
 11
11.0
 21
8.5
  0
LINE
  5
20E
100
AcDbEntity
  8
0
100
AcDbLine
 62
7
  6
CONTINUOUS
 10
11.0
 20
0.0
 11
11.0
 21
8.5
  0
LINE
  5
20F
100
AcDbEntity
  8
0
100
AcDbLine
 62
7
  6
CONTINUOUS
 10
3.3726369863
 20
4.0112585616
 11
3.3726369863
 21
5.2862585616
  0
LINE
  5
210
100
AcDbEntity
  8
0
100
AcDbLine
 62
7
  6
CONTINUOUS
 10
3.4126369863
 20
3.9712585616
 11
3.4126369863
 21
5.3262585616
  0
LINE
  5
211
100
AcDbEntity
  8
0
100
AcDbLine
 62
7
  6
CONTINUOUS
 10
6.6076369863
 20
3.5987585616
 11
6.8876369863
 21
3.5987585616
  0
LINE
  5
212
100
AcDbEntity
  8
0
100
AcDbLine
 62
7
  6
CONTINUOUS
 10
6.5676369863
 20
3.6387585616
 11
6.8876369863
 21
3.6387585616
  0
LINE
  5
213
100
AcDbEntity
  8
0
100
AcDbLine
 62
7
  6
CONTINUOUS
 10
5.3666369863
 20
3.6712585616
 11
4.6286369863
 21
3.6712585616
  0
LINE
  5
214
100
AcDbEntity
  8
0
100
AcDbLine
 62
7
  6
CONTINUOUS
 10
5.3679769863
 20
3.6725985616
 11
5.27266486
 21
3.6725985616
  0
LINE
  5
215
100
AcDbEntity
  8
0
100
AcDbLine
 62
7
  6
CONTINUOUS
 10
5.4052639793
 20
3.7112585616
 11
5.4066369863
 21
3.7112585616
  0
LINE
  5
216
100
AcDbEntity
  8
0
100
AcDbLine
 62
7
  6
CONTINUOUS
 10
4.6272969863
 20
3.7163538254
 11
4.5891101542
 21
3.738429167
  0
LINE
  5
217
100
AcDbEntity
  8
0
100
AcDbLine
 62
7
  6
CONTINUOUS
 10
4.6272969863
 20
3.7877838254
 11
4.5891101542
 21
3.809859167
  0
LINE
  5
218
100
AcDbEntity
  8
0
100
AcDbLine
 62
7
  6
CONTINUOUS
 10
4.6286369863
 20
3.6712585616
 11
4.6106886659
 21
3.689206882
  0
LINE
  5
219
100
AcDbEntity
  8
0
100
AcDbLine
 62
7
  6
CONTINUOUS
 10
4.6272969863
 20
3.8592138254
 11
4.5891101542
 21
3.881289167
  0
LINE
  5
21A
100
AcDbEntity
  8
0
100
AcDbLine
 62
7
  6
CONTINUOUS
 10
4.6272969863
 20
3.9306438254
 11
4.6154037172
 21
3.9375197831
  0
LINE
  5
21B
100
AcDbEntity
  8
0
100
AcDbLine
 62
7
  6
CONTINUOUS
 10
5.3455678349
 20
3.9112585616
 11
5.091614627
 21
3.9112585616
  0
LINE
  5
21C
100
AcDbEntity
  8
0
100
AcDbLine
 62
7
  6
CONTINUOUS
 10
5.0339129119
 20
3.9499185616
 11
5.3679769863
 21
3.9499185616
  0
LINE
  5
21D
100
AcDbEntity
  8
0
100
AcDbLine
 62
7
  6
CONTINUOUS
 10
5.3666369863
 20
3.9512585616
 11
4.6286369863
 21
3.9512585616
  0
LINE
  5
21E
100
AcDbEntity
  8
0
100
AcDbLine
 62
7
  6
CONTINUOUS
 10
6.5676369863
 20
3.9712585616
 11
3.4126369863
 21
3.9712585616
  0
LINE
  5
21F
100
AcDbEntity
  8
0
100
AcDbLine
 62
7
  6
CONTINUOUS
 10
5.3679769863
 20
3.7348125751
 11
5.4061638184
 21
3.7127372335
  0
LINE
  5
220
100
AcDbEntity
  8
0
100
AcDbLine
 62
7
  6
CONTINUOUS
 10
4.5886369863
 20
3.8193353388
 11
4.5886369863
 21
3.8104060616
  0
LINE
  5
221
100
AcDbEntity
  8
0
100
AcDbLine
 62
7
  6
CONTINUOUS
 10
4.5886369863
 20
3.7479053388
 11
4.5886369863
 21
3.7389760616
  0
LINE
  5
222
100
AcDbEntity
  8
0
100
AcDbLine
 62
7
  6
CONTINUOUS
 10
4.5886369863
 20
3.8818360616
 11
4.5886369863
 21
3.8907653388
  0
LINE
  5
223
100
AcDbEntity
  8
0
100
AcDbLine
 62
7
  6
CONTINUOUS
 10
6.5676369863
 20
4.0112585616
 11
3.3726369863
 21
4.0112585616
  0
LINE
  5
224
100
AcDbEntity
  8
0
100
AcDbLine
 62
7
  6
CONTINUOUS
 10
5.3679769863
 20
3.8062425751
 11
5.4061638184
 21
3.7841672335
  0
LINE
  5
225
100
AcDbEntity
  8
0
100
AcDbLine
 62
7
  6
CONTINUOUS
 10
5.3679769863
 20
3.8776725751
 11
5.4061638184
 21
3.8555972335
  0
LINE
  5
226
100
AcDbEntity
  8
0
100
AcDbLine
 62
7
  6
CONTINUOUS
 10
4.6272969863
 20
3.6990975751
 11
4.6272969863
 21
3.7166557002
  0
LINE
  5
227
100
AcDbEntity
  8
0
100
AcDbLine
 62
7
  6
CONTINUOUS
 10
4.6272969863
 20
3.7705275751
 11
4.6272969863
 21
3.7880857002
  0
LINE
  5
228
100
AcDbEntity
  8
0
100
AcDbLine
 62
7
  6
CONTINUOUS
 10
4.6272969863
 20
3.8419575751
 11
4.6272969863
 21
3.8595157002
  0
LINE
  5
229
100
AcDbEntity
  8
0
100
AcDbLine
 62
7
  6
CONTINUOUS
 10
4.6272969863
 20
3.9133875751
 11
4.6272969863
 21
3.9309457002
  0
LINE
  5
22A
100
AcDbEntity
  8
0
100
AcDbLine
 62
7
  6
CONTINUOUS
 10
4.6351369863
 20
3.9712585616
 11
4.6351369863
 21
3.9512585616
  0
LINE
  5
22B
100
AcDbEntity
  8
0
100
AcDbLine
 62
7
  6
CONTINUOUS
 10
5.3679769863
 20
3.9491025721
 11
5.368677104
 21
3.9486977899
  0
LINE
  5
22C
100
AcDbEntity
  8
0
100
AcDbLine
 62
7
  6
CONTINUOUS
 10
5.3679769863
 20
3.9499185616
 11
5.3666369863
 21
3.9512585616
  0
LINE
  5
22D
100
AcDbEntity
  8
0
100
AcDbLine
 62
7
  6
CONTINUOUS
 10
5.3706218748
 20
3.9472736732
 11
5.4026477012
 21
3.9152478468
  0
LINE
  5
22E
100
AcDbEntity
  8
0
100
AcDbLine
 62
7
  6
CONTINUOUS
 10
4.6152686742
 20
3.9378902495
 11
4.6286369863
 21
3.9512585616
  0
LINE
  5
22F
100
AcDbEntity
  8
0
100
AcDbLine
 62
7
  6
CONTINUOUS
 10
5.3601369863
 20
3.9712585616
 11
5.3601369863
 21
3.9512585616
  0
LINE
  5
230
100
AcDbEntity
  8
0
100
AcDbLine
 62
7
  6
CONTINUOUS
 10
5.3679769863
 20
3.9499185616
 11
5.3679769863
 21
3.9488007002
  0
LINE
  5
231
100
AcDbEntity
  8
0
100
AcDbLine
 62
7
  6
CONTINUOUS
 10
5.3679769863
 20
3.8949288254
 11
5.3679769863
 21
3.8773707002
  0
LINE
  5
232
100
AcDbEntity
  8
0
100
AcDbLine
 62
7
  6
CONTINUOUS
 10
5.3679769863
 20
3.8234988254
 11
5.3679769863
 21
3.8059407002
  0
LINE
  5
233
100
AcDbEntity
  8
0
100
AcDbLine
 62
7
  6
CONTINUOUS
 10
5.3679769863
 20
3.7520688254
 11
5.3679769863
 21
3.7345107002
  0
LINE
  5
234
100
AcDbEntity
  8
0
100
AcDbLine
 62
7
  6
CONTINUOUS
 10
5.3679769863
 20
3.6806388254
 11
5.3679769863
 21
3.6725985616
  0
LINE
  5
235
100
AcDbEntity
  8
0
100
AcDbLine
 62
7
  6
CONTINUOUS
 10
5.4066369863
 20
3.8550503388
 11
5.4066369863
 21
3.8461210616
  0
LINE
  5
236
100
AcDbEntity
  8
0
100
AcDbLine
 62
7
  6
CONTINUOUS
 10
5.4066369863
 20
3.7836203388
 11
5.4066369863
 21
3.7746910616
  0
LINE
  5
237
100
AcDbEntity
  8
0
100
AcDbLine
 62
7
  6
CONTINUOUS
 10
5.4066369863
 20
3.7112585616
 11
5.4066369863
 21
3.7121903388
  0
LINE
  5
238
100
AcDbEntity
  8
0
100
AcDbLine
 62
7
  6
CONTINUOUS
 10
4.5891101542
 20
3.8913122335
 11
4.6278193495
 21
3.9136895832
  0
LINE
  5
239
100
AcDbEntity
  8
0
100
AcDbLine
 62
7
  6
CONTINUOUS
 10
4.5891101542
 20
3.8198822335
 11
4.6278193495
 21
3.8422595832
  0
LINE
  5
23A
100
AcDbEntity
  8
0
100
AcDbLine
 62
7
  6
CONTINUOUS
 10
4.5891101542
 20
3.7484522335
 11
4.6278193495
 21
3.7708295832
  0
LINE
  5
23B
100
AcDbEntity
  8
0
100
AcDbLine
 62
7
  6
CONTINUOUS
 10
4.6108221294
 20
3.6895729795
 11
4.6278193495
 21
3.6993995832
  0
LINE
  5
23C
100
AcDbEntity
  8
0
100
AcDbLine
 62
7
  6
CONTINUOUS
 10
6.5676369863
 20
5.2862585616
 11
3.3726369863
 21
5.2862585616
  0
LINE
  5
23D
100
AcDbEntity
  8
0
100
AcDbLine
 62
7
  6
CONTINUOUS
 10
6.5676369863
 20
5.3262585616
 11
3.4126369863
 21
5.3262585616
  0
LINE
  5
23E
100
AcDbEntity
  8
0
100
AcDbLine
 62
7
  6
CONTINUOUS
 10
5.4025201254
 20
3.9148980215
 11
5.3674546231
 21
3.8946268172
  0
LINE
  5
23F
100
AcDbEntity
  8
0
100
AcDbLine
 62
7
  6
CONTINUOUS
 10
5.4061638184
 20
3.845574167
 11
5.3674546231
 21
3.8231968172
  0
LINE
  5
240
100
AcDbEntity
  8
0
100
AcDbLine
 62
7
  6
CONTINUOUS
 10
5.3666369863
 20
3.6712585616
 11
5.3679769863
 21
3.6725985616
  0
LINE
  5
241
100
AcDbEntity
  8
0
100
AcDbLine
 62
7
  6
CONTINUOUS
 10
5.3877146981
 20
3.6923362735
 11
5.4066369863
 21
3.7112585616
  0
LINE
  5
242
100
AcDbEntity
  8
0
100
AcDbLine
 62
7
  6
CONTINUOUS
 10
5.4061638184
 20
3.774144167
 11
5.3674546231
 21
3.7517668172
  0
LINE
  5
243
100
AcDbEntity
  8
0
100
AcDbLine
 62
7
  6
CONTINUOUS
 10
5.3858555568
 20
3.6909748983
 11
5.3674546231
 21
3.6803368172
  0
LINE
  5
244
100
AcDbEntity
  8
0
100
AcDbLine
 62
7
  6
CONTINUOUS
 10
6.5676369863
 20
5.6587585616
 11
6.8876369863
 21
5.6587585616
  0
LINE
  5
245
100
AcDbEntity
  8
0
100
AcDbLine
 62
7
  6
CONTINUOUS
 10
6.6076369863
 20
5.6987585616
 11
6.8876369863
 21
5.6987585616
  0
LINE
  5
246
100
AcDbEntity
  8
0
100
AcDbLine
 62
7
  6
CONTINUOUS
 10
6.5676369863
 20
3.6387585616
 11
6.5676369863
 21
5.6587585616
  0
LINE
  5
247
100
AcDbEntity
  8
0
100
AcDbLine
 62
7
  6
CONTINUOUS
 10
6.6076369863
 20
3.5987585616
 11
6.6076369863
 21
5.6987585616
  0
LINE
  5
248
100
AcDbEntity
  8
0
100
AcDbLine
 62
7
  6
CONTINUOUS
 10
6.8876369863
 20
3.5987585616
 11
6.8876369863
 21
5.6987585616
  0
ARC
  5
249
100
AcDbEntity
  8
0
100
AcDbCircle
 62
7
  6
CONTINUOUS
 10
3.4126369863
 20
5.2862585616
 40
0.04
100
AcDbArc
 50
90.0
 51
180.0
  0
ARC
  5
24A
100
AcDbEntity
  8
0
100
AcDbCircle
 62
7
  6
CONTINUOUS
 10
3.4126369863
 20
4.0112585616
 40
0.04
100
AcDbArc
 50
180.0
 51
270.0
  0
ARC
  5
24B
100
AcDbEntity
  8
0
100
AcDbCircle
 62
7
  6
CONTINUOUS
 10
6.6076369863
 20
3.6387585616
 40
0.04
100
AcDbArc
 50
180.0
 51
270.0
  0
ARC
  5
24C
100
AcDbEntity
  8
0
100
AcDbCircle
 62
7
  6
CONTINUOUS
 10
6.6076369863
 20
5.6587585616
 40
0.04
100
AcDbArc
 50
90.0
 51
180.0
  0
LINE
  5
24D
100
AcDbEntity
  8
0
100
AcDbLine
 62
7
  6
CONTINUOUS
 10
4.5886369905
 20
3.8907653388
 11
4.5891101587
 21
3.8913122335
  0
LINE
  5
24E
100
AcDbEntity
  8
0
100
AcDbLine
 62
7
  6
CONTINUOUS
 10
4.5886369912
 20
3.8818360616
 11
4.5891101589
 21
3.881289167
  0
SPLINE
  5
24F
100
AcDbEntity
  8
0
100
AcDbSpline
 62
7
  6
CONTINUOUS
 70
0
 71
3
 72
15
 73
11
 74
0
 42
0.0000001
 43
0.0000001
 44
0.0000000001
 40
0.0
 40
0.0
 40
0.0
 40
0.0
 40
0.1257715595
 40
0.2334896119
 40
0.3313167927
 40
0.4299000052
 40
0.5396628652
 40
0.6683372356
 40
0.8208019974
 40
1.0
 40
1.0
 40
1.0
 40
1.0
 10
5.4026477007
 20
3.9152478468
 30
0.0
 10
5.4026610962
 20
3.9152344509
 30
0.0
 10
5.4026841806
 20
3.9152075763
 30
0.0
 10
5.4027072404
 20
3.9151626136
 30
0.0
 10
5.4027144535
 20
3.9151164425
 30
0.0
 10
5.4027049671
 20
3.9150703986
 30
0.0
 10
5.4026798271
 20
3.9150256156
 30
0.0
 10
5.4026400647
 20
3.9149817346
 30
0.0
 10
5.4025858258
 20
3.9149382223
 30
0.0
 10
5.4025434932
 20
3.9149115291
 30
0.0
 10
5.4025201245
 20
3.9148980215
 30
0.0
  0
LINE
  5
250
100
AcDbEntity
  8
0
100
AcDbLine
 62
7
  6
CONTINUOUS
 10
5.3706218733
 20
3.9472736732
 11
5.3686771032
 21
3.9486977899
  0
LINE
  5
251
100
AcDbEntity
  8
0
100
AcDbLine
 62
7
  6
CONTINUOUS
 10
5.3877146953
 20
3.6923362735
 11
5.3858555528
 21
3.6909748984
  0
LINE
  5
252
100
AcDbEntity
  8
0
100
AcDbLine
 62
7
  6
CONTINUOUS
 10
5.4061638191
 20
3.845574167
 11
5.4066369863
 21
3.8461210616
  0
LINE
  5
253
100
AcDbEntity
  8
0
100
AcDbLine
 62
7
  6
CONTINUOUS
 10
4.5891101536
 20
3.809859167
 11
4.5886369863
 21
3.8104060616
  0
LINE
  5
254
100
AcDbEntity
  8
0
100
AcDbLine
 62
7
  6
CONTINUOUS
 10
5.4061638191
 20
3.7841672335
 11
5.4066369863
 21
3.7836203388
  0
LINE
  5
255
100
AcDbEntity
  8
0
100
AcDbLine
 62
7
  6
CONTINUOUS
 10
4.5891101535
 20
3.8198822335
 11
4.5886369863
 21
3.8193353388
  0
LINE
  5
256
100
AcDbEntity
  8
0
100
AcDbLine
 62
7
  6
CONTINUOUS
 10
4.5891101535
 20
3.7484522335
 11
4.5886369863
 21
3.7479053388
  0
LINE
  5
257
100
AcDbEntity
  8
0
100
AcDbLine
 62
7
  6
CONTINUOUS
 10
5.4061638191
 20
3.774144167
 11
5.4066369863
 21
3.7746910616
  0
LINE
  5
258
100
AcDbEntity
  8
0
100
AcDbLine
 62
7
  6
CONTINUOUS
 10
4.5891101535
 20
3.738429167
 11
4.5886369863
 21
3.7389760616
  0
SPLINE
  5
259
100
AcDbEntity
  8
0
100
AcDbSpline
 62
7
  6
CONTINUOUS
 70
0
 71
3
 72
17
 73
13
 74
0
 42
0.0000001
 43
0.0000001
 44
0.0000000001
 40
0.0
 40
0.0
 40
0.0
 40
0.0
 40
0.179064327
 40
0.3314178369
 40
0.46000217
 40
0.5696927102
 40
0.6199020679
 40
0.668547536
 40
0.7170025023
 40
0.7666564245
 40
0.8743086268
 40
1.0
 40
1.0
 40
1.0
 40
1.0
 10
4.6108221282
 20
3.6895729795
 30
0.0
 10
4.6107976766
 20
3.6895588439
 30
0.0
 10
4.610753382
 20
3.6895309127
 30
0.0
 10
4.610696633
 20
3.6894853628
 30
0.0
 10
4.6106550246
 20
3.6894394773
 30
0.0
 10
4.6106325095
 20
3.6893992369
 30
0.0
 10
4.6106235119
 20
3.6893674566
 30
0.0
 10
4.6106209494
 20
3.6893442497
 30
0.0
 10
4.6106224076
 20
3.6893210339
 30
0.0
 10
4.6106298806
 20
3.6892893066
 30
0.0
 10
4.6106504815
 20
3.6892489956
 30
0.0
 10
4.6106746475
 20
3.6892209004
 30
0.0
 10
4.6106886659
 20
3.689206882
 30
0.0
  0
LINE
  5
25A
100
AcDbEntity
  8
0
100
AcDbLine
 62
7
  6
CONTINUOUS
 10
5.4066369867
 20
3.7121903388
 11
5.4061638161
 21
3.7127372335
  0
SPLINE
  5
25B
100
AcDbEntity
  8
0
100
AcDbSpline
 62
7
  6
CONTINUOUS
 70
0
 71
3
 72
17
 73
13
 74
0
 42
0.0000001
 43
0.0000001
 44
0.0000000001
 40
0.0
 40
0.0
 40
0.0
 40
0.0
 40
0.1256942854
 40
0.2333490865
 40
0.2830040794
 40
0.331459895
 40
0.3801059417
 40
0.4303155753
 40
0.5400057261
 40
0.6685884873
 40
0.8209393534
 40
1.0
 40
1.0
 40
1.0
 40
1.0
 10
4.6152686742
 20
3.9378902495
 30
0.0
 10
4.6152544883
 20
3.9378760636
 30
0.0
 10
4.6152300336
 20
3.9378476329
 30
0.0
 10
4.6152091862
 20
3.9378068407
 30
0.0
 10
4.6152016233
 20
3.9377747346
 30
0.0
 10
4.6152001472
 20
3.9377512416
 30
0.0
 10
4.6152027396
 20
3.9377277578
 30
0.0
 10
4.6152118435
 20
3.9376955983
 30
0.0
 10
4.6152346257
 20
3.9376548777
 30
0.0
 10
4.6152767286
 20
3.9376084447
 30
0.0
 10
4.6153341522
 20
3.9375623514
 30
0.0
 10
4.6153789736
 20
3.9375340871
 30
0.0
 10
4.615403716
 20
3.9375197831
 30
0.0
  0
LINE
  5
25C
100
AcDbEntity
  8
0
100
AcDbLine
 62
7
  6
CONTINUOUS
 10
5.4066369863
 20
3.8550503388
 11
5.4061638189
 21
3.8555972335
  0
SPLINE
  5
25D
100
AcDbEntity
  8
0
100
AcDbSpline
 62
7
  6
CONTINUOUS
 70
0
 71
3
 72
34
 73
30
 74
0
 42
0.0000001
 43
0.0000001
 44
0.0000000001
 40
0.0
 40
0.0
 40
0.0
 40
0.0
 40
0.0021935507
 40
0.004791496
 40
0.0078052172
 40
0.011241877
 40
0.0151062064
 40
0.0194014339
 40
0.0241297311
 40
0.0292925932
 40
0.0409256578
 40
0.0543060594
 40
0.0694353458
 40
0.0863127732
 40
0.1049364851
 40
0.1253032798
 40
0.1474089276
 40
0.171248799
 40
0.1968173318
 40
0.2241082835
 40
0.2838306869
 40
0.3503564789
 40
0.4236184521
 40
0.5035421131
 40
0.5900460146
 40
0.6830415221
 40
0.7824335675
 40
0.8881245428
 40
1.0
 40
1.0
 40
1.0
 40
1.0
 10
5.4025201245
 20
3.9148980215
 30
0.0
 10
5.4024839566
 20
3.9148771158
 30
0.0
 10
5.4024022503
 20
3.9148361265
 30
0.0
 10
5.4022646856
 20
3.9147795994
 30
0.0
 10
5.4021018577
 20
3.9147229742
 30
0.0
 10
5.4019137358
 20
3.9146662739
 30
0.0
 10
5.4017002767
 20
3.9146095128
 30
0.0
 10
5.4014614737
 20
3.9145527078
 30
0.0
 10
5.4011973297
 20
3.9144958649
 30
0.0
 10
5.4007950773
 20
3.9144168617
 30
0.0
 10
5.4002286447
 20
3.9143193165
 30
0.0
 10
5.3994725189
 20
3.9142061859
 30
0.0
 10
5.3986155607
 20
3.9140929099
 30
0.0
 10
5.3976579939
 20
3.9139795163
 30
0.0
 10
5.3966000629
 20
3.913866052
 30
0.0
 10
5.3954420501
 20
3.9137525387
 30
0.0
 10
5.3941842652
 20
3.9136389933
 30
0.0
 10
5.3928270457
 20
3.9135254317
 30
0.0
 10
5.3913707551
 20
3.9134118584
 30
0.0
 10
5.38923237
 20
3.9132556906
 30
0.0
 10
5.386314671
 20
3.9130620346
 30
0.0
 10
5.382521801
 20
3.9128359042
 30
0.0
 10
5.3783435943
 20
3.9126096946
 30
0.0
 10
5.3737844098
 20
3.9123834393
 30
0.0
 10
5.3688489843
 20
3.912157182
 30
0.0
 10
5.3635424309
 20
3.9119309484
 30
0.0
 10
5.3578701573
 20
3.9117047571
 30
0.0
 10
5.3518380538
 20
3.9114786267
 30
0.0
 10
5.3476971868
 20
3.9113320377
 30
0.0
 10
5.3455678349
 20
3.9112585616
 30
0.0
  0
SPLINE
  5
25E
100
AcDbEntity
  8
0
100
AcDbSpline
 62
7
  6
CONTINUOUS
 70
0
 71
3
 72
100
 73
96
 74
0
 42
0.0000001
 43
0.0000001
 44
0.0000000001
 40
0.0
 40
0.0
 40
0.0
 40
0.0
 40
0.0000929009
 40
0.000189289
 40
0.0002922987
 40
0.0004045096
 40
0.0005279231
 40
0.0006640463
 40
0.0008140016
 40
0.0009786277
 40
0.0011585569
 40
0.0013542722
 40
0.001566147
 40
0.0017944712
 40
0.0023012937
 40
0.0028761386
 40
0.0035198918
 40
0.0042331532
 40
0.005016314
 40
0.0058696342
 40
0.0067932875
 40
0.0077873785
 40
0.0088519389
 40
0.0099869595
 40
0.0124681874
 40
0.0152304158
 40
0.0182725933
 40
0.0215933602
 40
0.0251911051
 40
0.0290639793
 40
0.0332099337
 40
0.0376267117
 40
0.0423118828
 40
0.0472628253
 40
0.0524767598
 40
0.0579507253
 40
0.0696661329
 40
0.0823822485
 40
0.0960698255
 40
0.1106972886
 40
0.1262308163
 40
0.1426344369
 40
0.1598701304
 40
0.1778979099
 40
0.1966759238
 40
0.2161605681
 40
0.2363065752
 40
0.2570671251
 40
0.3002375218
 40
0.3452705244
 40
0.3917474975
 40
0.4392363095
 40
0.48729538
 40
0.5354778153
 40
0.5833355569
 40
0.6304235843
 40
0.6763040678
 40
0.7205504416
 40
0.7419316107
 40
0.7627514222
 40
0.7829614888
 40
0.8025148421
 40
0.8213660518
 40
0.8394713416
 40
0.8567886801
 40
0.8732778869
 40
0.8889007388
 40
0.9036210555
 40
0.9174047935
 40
0.930220146
 40
0.9420376297
 40
0.9475636211
 40
0.9528301937
 40
0.9578343581
 40
0.9625732966
 40
0.9670443576
 40
0.9712450688
 40
0.9751731407
 40
0.9788264779
 40
0.9822031935
 40
0.9853016228
 40
0.9881203567
 40
0.9906582722
 40
0.9918216812
 40
0.9929146425
 40
0.9939371298
 40
0.9948891574
 40
0.9957708067
 40
0.9965822185
 40
0.9973236088
 40
0.9979953113
 40
0.9985978402
 40
0.9991319479
 40
0.9995987549
 40
1.0
 40
1.0
 40
1.0
 40
1.0
 10
4.6272969895
 20
3.8595157002
 30
0.0
 10
4.6272969889
 20
3.859538669
 30
0.0
 10
4.6273016842
 20
3.8595855894
 30
0.0
 10
4.6273225748
 20
3.8596551692
 30
0.0
 10
4.627357122
 20
3.8597243971
 30
0.0
 10
4.6274051305
 20
3.8597932856
 30
0.0
 10
4.6274665027
 20
3.8598619483
 30
0.0
 10
4.6275412123
 20
3.8599304747
 30
0.0
 10
4.6276292661
 20
3.8599989298
 30
0.0
 10
4.627730682
 20
3.8600673521
 30
0.0
 10
4.6278454776
 20
3.8601357643
 30
0.0
 10
4.627973668
 20
3.8602041772
 30
0.0
 10
4.628115262
 20
3.8602726002
 30
0.0
 10
4.628329499
 20
3.8603671647
 30
0.0
 10
4.6286316236
 20
3.8604843349
 30
0.0
 10
4.6290359601
 20
3.8606206374
 30
0.0
 10
4.6294937804
 20
3.8607570676
 30
0.0
 10
4.6300050561
 20
3.8608936093
 30
0.0
 10
4.6305697567
 20
3.8610302408
 30
0.0
 10
4.6311878203
 20
3.8611669462
 30
0.0
 10
4.6318591762
 20
3.8613037113
 30
0.0
 10
4.6325837392
 20
3.8614405228
 30
0.0
 10
4.6333614098
 20
3.8615773793
 30
0.0
 10
4.634503313
 20
3.8617655376
 30
0.0
 10
4.6360630297
 20
3.861999056
 30
0.0
 10
4.638093371
 20
3.862271926
 30
0.0
 10
4.6403329357
 20
3.8625450227
 30
0.0
 10
4.6427804393
 20
3.8628183119
 30
0.0
 10
4.6454344795
 20
3.8630917453
 30
0.0
 10
4.6482935243
 20
3.8633652962
 30
0.0
 10
4.6513559178
 20
3.8636389404
 30
0.0
 10
4.6546198845
 20
3.8639126623
 30
0.0
 10
4.6580835272
 20
3.8641864476
 30
0.0
 10
4.6617448345
 20
3.864460286
 30
0.0
 10
4.6656016753
 20
3.8647341733
 30
0.0
 10
4.6711280509
 20
3.8651079203
 30
0.0
 10
4.6785072936
 20
3.8655727847
 30
0.0
 10
4.6879160336
 20
3.8661191452
 30
0.0
 10
4.698045856
 20
3.8666657948
 30
0.0
 10
4.7088731845
 20
3.8672126896
 30
0.0
 10
4.7203728204
 20
3.8677597753
 30
0.0
 10
4.7325179953
 20
3.8683070173
 30
0.0
 10
4.7452804362
 20
3.8688543869
 30
0.0
 10
4.7586304316
 20
3.8694018624
 30
0.0
 10
4.772536901
 20
3.8699494263
 30
0.0
 10
4.7869674679
 20
3.8704970632
 30
0.0
 10
4.8018885347
 20
3.871044767
 30
0.0
 10
4.8226625369
 20
3.871784759
 30
0.0
 10
4.8495870469
 20
3.8727054027
 30
0.0
 10
4.8828675191
 20
3.8737968191
 30
0.0
 10
4.9172162182
 20
3.8748885709
 30
0.0
 10
4.9523134418
 20
3.8759805543
 30
0.0
 10
4.9878325203
 20
3.8770726586
 30
0.0
 10
5.0234428548
 20
3.8781647888
 30
0.0
 10
5.0588129979
 20
3.8792568514
 30
0.0
 10
5.0936137384
 20
3.8803487429
 30
0.0
 10
5.1275211648
 20
3.8814403667
 30
0.0
 10
5.1550750664
 20
3.8823598536
 30
0.0
 10
5.1764355267
 20
3.8830986931
 30
0.0
 10
5.1918563025
 20
3.8836464539
 30
0.0
 10
5.2068248785
 20
3.884194159
 30
0.0
 10
5.2213064041
 20
3.8847418038
 30
0.0
 10
5.2352671631
 20
3.8852893755
 30
0.0
 10
5.2486746525
 20
3.8858368606
 30
0.0
 10
5.2614976579
 20
3.8863842419
 30
0.0
 10
5.2737063266
 20
3.8869314979
 30
0.0
 10
5.2852722377
 20
3.8874786008
 30
0.0
 10
5.2961684683
 20
3.8880255168
 30
0.0
 10
5.3063696589
 20
3.8885721934
 30
0.0
 10
5.3158520665
 20
3.8891185878
 30
0.0
 10
5.323294071
 20
3.8895833805
 30
0.0
 10
5.3288716825
 20
3.8899570354
 30
0.0
 10
5.3327676555
 20
3.8902309311
 30
0.0
 10
5.336468537
 20
3.890504779
 30
0.0
 10
5.3399721743
 20
3.8907785761
 30
0.0
 10
5.3432765313
 20
3.8910523115
 30
0.0
 10
5.3463796882
 20
3.8913259728
 30
0.0
 10
5.3492798443
 20
3.8915995439
 30
0.0
 10
5.3519753198
 20
3.8918730032
 30
0.0
 10
5.3544645567
 20
3.8921463243
 30
0.0
 10
5.3567461278
 20
3.8924194634
 30
0.0
 10
5.3588187213
 20
3.8926923867
 30
0.0
 10
5.36041383
 20
3.8929258246
 30
0.0
 10
5.3615841767
 20
3.8931138602
 30
0.0
 10
5.3623832198
 20
3.8932507307
 30
0.0
 10
5.3631291971
 20
3.8933875596
 30
0.0
 10
5.3638220053
 20
3.8935243457
 30
0.0
 10
5.3644615552
 20
3.8936610762
 30
0.0
 10
5.3650477696
 20
3.893797739
 30
0.0
 10
5.365580581
 20
3.8939343188
 30
0.0
 10
5.3660599442
 20
3.8940707989
 30
0.0
 10
5.3664858358
 20
3.8942071517
 30
0.0
 10
5.3668582972
 20
3.8943433564
 30
0.0
 10
5.367177351
 20
3.8944793787
 30
0.0
 10
5.3673687372
 20
3.8945771623
 30
0.0
 10
5.3674546195
 20
3.8946268172
 30
0.0
  0
SPLINE
  5
25F
100
AcDbEntity
  8
0
100
AcDbSpline
 62
7
  6
CONTINUOUS
 70
0
 71
3
 72
102
 73
98
 74
0
 42
0.0000001
 43
0.0000001
 44
0.0000000001
 40
0.0
 40
0.0
 40
0.0
 40
0.0
 40
0.0000843588
 40
0.0001725727
 40
0.0002680267
 40
0.0003734088
 40
0.0004907257
 40
0.0006214343
 40
0.0007665878
 40
0.0009269545
 40
0.0011031009
 40
0.0012954508
 40
0.0015043271
 40
0.00172998
 40
0.0022323248
 40
0.0028036795
 40
0.003444778
 40
0.0041560926
 40
0.004937939
 40
0.0057905274
 40
0.0067139761
 40
0.0077083331
 40
0.0087736076
 40
0.0099097777
 40
0.0123944862
 40
0.0151616602
 40
0.0182101445
 40
0.0215384986
 40
0.0251450386
 40
0.0290278689
 40
0.0331848784
 40
0.0376137834
 40
0.0423120946
 40
0.0472771757
 40
0.0525061887
 40
0.057996166
 40
0.0697462126
 40
0.0825002597
 40
0.0962288147
 40
0.1109000484
 40
0.1264798821
 40
0.1429320892
 40
0.1602183773
 40
0.1782984831
 40
0.1971302814
 40
0.2166698751
 40
0.2368717003
 40
0.2576886466
 40
0.3009723337
 40
0.3461172397
 40
0.3927022207
 40
0.4402926536
 40
0.4884445004
 40
0.5367084626
 40
0.5846341991
 40
0.6317745338
 40
0.6776896367
 40
0.7219511565
 40
0.7433320936
 40
0.7641462349
 40
0.7843450275
 40
0.8038813686
 40
0.8227097024
 40
0.8407861393
 40
0.858068563
 40
0.8745167194
 40
0.8900923255
 40
0.9047591647
 40
0.9184831689
 40
0.9312325196
 40
0.9429777355
 40
0.9484652506
 40
0.9536917727
 40
0.958654335
 40
0.9633501016
 40
0.9677764375
 40
0.9719308555
 40
0.9758110731
 40
0.9794149818
 40
0.9827406872
 40
0.9857865083
 40
0.9885510063
 40
0.9910330298
 40
0.9921678548
 40
0.9932317833
 40
0.9942247942
 40
0.9951468973
 40
0.9959981416
 40
0.9967786469
 40
0.9974886255
 40
0.9981283953
 40
0.9986984321
 40
0.9991994766
 40
0.9994244887
 40
0.9996327327
 40
0.9998244611
 40
1.0
 40
1.0
 40
1.0
 40
1.0
 10
4.5886369863
 20
3.7389760616
 30
0.0
 10
4.5886369863
 20
3.7389990908
 30
0.0
 10
4.5886422429
 20
3.7390463466
 30
0.0
 10
4.5886655329
 20
3.7391161894
 30
0.0
 10
4.5887039289
 20
3.7391855544
 30
0.0
 10
4.5887571787
 20
3.7392545047
 30
0.0
 10
4.5888251851
 20
3.7393232081
 30
0.0
 10
4.5889079407
 20
3.7393917781
 30
0.0
 10
4.5890054702
 20
3.7394602884
 30
0.0
 10
4.5891178035
 20
3.7395287774
 30
0.0
 10
4.589244964
 20
3.7395972658
 30
0.0
 10
4.589386968
 20
3.7396657629
 30
0.0
 10
4.5895438244
 20
3.7397342767
 30
0.0
 10
4.5897814054
 20
3.73982907
 30
0.0
 10
4.5901162984
 20
3.7399464522
 30
0.0
 10
4.5905641849
 20
3.7400829227
 30
0.0
 10
4.5910713558
 20
3.7402195364
 30
0.0
 10
4.5916377701
 20
3.7403562777
 30
0.0
 10
4.5922633892
 20
3.7404931159
 30
0.0
 10
4.5929481456
 20
3.7406300309
 30
0.0
 10
4.5936919552
 20
3.740767008
 30
0.0
 10
4.5944947175
 20
3.7409040359
 30
0.0
 10
4.5953563227
 20
3.7410411105
 30
0.0
 10
4.5966216556
 20
3.7412295933
 30
0.0
 10
4.5983498573
 20
3.7414634997
 30
0.0
 10
4.6005992911
 20
3.7417367989
 30
0.0
 10
4.6030805346
 20
3.7420103294
 30
0.0
 10
4.605792156
 20
3.7422840552
 30
0.0
 10
4.6087325937
 20
3.7425579282
 30
0.0
 10
4.6119001402
 20
3.7428319187
 30
0.0
 10
4.6152929559
 20
3.7431060052
 30
0.0
 10
4.6189090622
 20
3.7433801682
 30
0.0
 10
4.6227463542
 20
3.7436543972
 30
0.0
 10
4.6268025902
 20
3.7439286777
 30
0.0
 10
4.6310754076
 20
3.7442030095
 30
0.0
 10
4.637197822
 20
3.7445773651
 30
0.0
 10
4.6453727164
 20
3.7450429844
 30
0.0
 10
4.6557955484
 20
3.7455902274
 30
0.0
 10
4.6670168395
 20
3.746137761
 30
0.0
 10
4.6790103861
 20
3.7466855409
 30
0.0
 10
4.6917481828
 20
3.7472335123
 30
0.0
 10
4.7052004814
 20
3.7477816406
 30
0.0
 10
4.7193358632
 20
3.748329897
 30
0.0
 10
4.734121313
 20
3.7488782594
 30
0.0
 10
4.749522296
 20
3.7494267106
 30
0.0
 10
4.7655028393
 20
3.7499752349
 30
0.0
 10
4.7820256155
 20
3.7505238263
 30
0.0
 10
4.8050274779
 20
3.7512649943
 30
0.0
 10
4.8348362611
 20
3.7521870961
 30
0.0
 10
4.8716775187
 20
3.7532802722
 30
0.0
 10
4.9096949675
 20
3.7543737835
 30
0.0
 10
4.9485336069
 20
3.7554675254
 30
0.0
 10
4.987830768
 20
3.7565613866
 30
0.0
 10
5.0272194984
 20
3.7576552714
 30
0.0
 10
5.0663319907
 20
3.7587490855
 30
0.0
 10
5.1048030178
 20
3.7598427242
 30
0.0
 10
5.1422733427
 20
3.7609360896
 30
0.0
 10
5.1727136107
 20
3.7618571404
 30
0.0
 10
5.1963038633
 20
3.7625972603
 30
0.0
 10
5.2133279813
 20
3.7631459037
 30
0.0
 10
5.2298482747
 20
3.7636944905
 30
0.0
 10
5.2458261549
 20
3.7642430156
 30
0.0
 10
5.2612243009
 20
3.7647914661
 30
0.0
 10
5.2760067463
 20
3.7653398282
 30
0.0
 10
5.2901389634
 20
3.765888084
 30
0.0
 10
5.3035879444
 20
3.7664362116
 30
0.0
 10
5.3163222784
 20
3.7669841822
 30
0.0
 10
5.3283122252
 20
3.767531961
 30
0.0
 10
5.3395297879
 20
3.7680794934
 30
0.0
 10
5.3499487716
 20
3.7686267348
 30
0.0
 10
5.3581203876
 20
3.7690923575
 30
0.0
 10
5.3642401259
 20
3.7694667175
 30
0.0
 10
5.3685108994
 20
3.7697410489
 30
0.0
 10
5.3725650684
 20
3.7700153288
 30
0.0
 10
5.3764002716
 20
3.7702895573
 30
0.0
 10
5.3800142685
 20
3.7705637197
 30
0.0
 10
5.3834049553
 20
3.7708378053
 30
0.0
 10
5.3865703549
 20
3.7711117949
 30
0.0
 10
5.3895086288
 20
3.7713856665
 30
0.0
 10
5.3922180711
 20
3.7716593908
 30
0.0
 10
5.3946971211
 20
3.7719329192
 30
0.0
 10
5.3969443487
 20
3.7722062158
 30
0.0
 10
5.3986707027
 20
3.772440126
 30
0.0
 10
5.3999345509
 20
3.7726286148
 30
0.0
 10
5.4007950403
 20
3.7727656887
 30
0.0
 10
5.4015966846
 20
3.7729027157
 30
0.0
 10
5.4023393742
 20
3.7730396917
 30
0.0
 10
5.4030230089
 20
3.7731766054
 30
0.0
 10
5.4036475049
 20
3.773313442
 30
0.0
 10
5.4042127948
 20
3.7734501812
 30
0.0
 10
5.404718841
 20
3.7735867922
 30
0.0
 10
5.4051656025
 20
3.7737232595
 30
0.0
 10
5.4054995525
 20
3.7738406467
 30
0.0
 10
5.4057363738
 20
3.7739354475
 30
0.0
 10
5.4058926673
 20
3.7740039613
 30
0.0
 10
5.4060341038
 20
3.7740724561
 30
0.0
 10
5.4061223309
 20
3.7741201857
 30
0.0
 10
5.4061638191
 20
3.774144167
 30
0.0
  0
SPLINE
  5
260
100
AcDbEntity
  8
0
100
AcDbSpline
 62
7
  6
CONTINUOUS
 70
0
 71
3
 72
37
 73
33
 74
0
 42
0.0000001
 43
0.0000001
 44
0.0000000001
 40
0.0
 40
0.0
 40
0.0
 40
0.0
 40
0.0050323024
 40
0.0103894245
 40
0.016076307
 40
0.0220969963
 40
0.0284547452
 40
0.0351522339
 40
0.0421916912
 40
0.0495749648
 40
0.0653780067
 40
0.0825700913
 40
0.1011560775
 40
0.1211377658
 40
0.1425150278
 40
0.1652855784
 40
0.189445824
 40
0.2149905726
 40
0.2419135454
 40
0.2702072663
 40
0.2998632037
 40
0.3308719429
 40
0.3632229753
 40
0.3969051397
 40
0.4319061523
 40
0.4682132067
 40
0.5446891511
 40
0.6262137688
 40
0.7126558166
 40
0.8038719937
 40
0.8997088125
 40
1.0
 40
1.0
 40
1.0
 40
1.0
 10
5.3858555528
 20
3.6909748984
 30
0.0
 10
5.3856885483
 20
3.6908783551
 30
0.0
 10
5.3853399041
 20
3.6906856577
 30
0.0
 10
5.3847910009
 20
3.6904053396
 30
0.0
 10
5.3841999843
 20
3.6901247996
 30
0.0
 10
5.3835668845
 20
3.6898440421
 30
0.0
 10
5.3828917288
 20
3.6895630605
 30
0.0
 10
5.382174555
 20
3.6892818565
 30
0.0
 10
5.3814154031
 20
3.6890004249
 30
0.0
 10
5.3803223061
 20
3.6886161279
 30
0.0
 10
5.3788502215
 20
3.6881371598
 30
0.0
 10
5.3769548133
 20
3.6875736028
 30
0.0
 10
5.3748931469
 20
3.687009034
 30
0.0
 10
5.3726658685
 20
3.6864434553
 30
0.0
 10
5.3702736903
 20
3.6858769073
 30
0.0
 10
5.3677174187
 20
3.6853093942
 30
0.0
 10
5.3649979471
 20
3.6847409417
 30
0.0
 10
5.3621162489
 20
3.6841715533
 30
0.0
 10
5.3590733821
 20
3.6836012426
 30
0.0
 10
5.3558704845
 20
3.6830300148
 30
0.0
 10
5.3525087738
 20
3.6824578736
 30
0.0
 10
5.3489895503
 20
3.6818848267
 30
0.0
 10
5.3453141895
 20
3.6813108704
 30
0.0
 10
5.3414841518
 20
3.6807360148
 30
0.0
 10
5.3375009693
 20
3.6801602476
 30
0.0
 10
5.3318902881
 20
3.6793777494
 30
0.0
 10
5.3245062577
 20
3.6784003159
 30
0.0
 10
5.3152077892
 20
3.6772428726
 30
0.0
 10
5.3053406411
 20
3.6760815783
 30
0.0
 10
5.2949217249
 20
3.674916433
 30
0.0
 10
5.283969205
 20
3.6737474547
 30
0.0
 10
5.2764900759
 20
3.672982496
 30
0.0
 10
5.27266486
 20
3.6725985616
 30
0.0
  0
SPLINE
  5
261
100
AcDbEntity
  8
0
100
AcDbSpline
 62
7
  6
CONTINUOUS
 70
0
 71
3
 72
102
 73
98
 74
0
 42
0.0000001
 43
0.0000001
 44
0.0000000001
 40
0.0
 40
0.0
 40
0.0
 40
0.0
 40
0.0000843588
 40
0.0001725727
 40
0.0002680267
 40
0.0003734088
 40
0.0004907257
 40
0.0006214343
 40
0.0007665878
 40
0.0009269545
 40
0.0011031009
 40
0.0012954508
 40
0.0015043271
 40
0.00172998
 40
0.0022323248
 40
0.0028036795
 40
0.003444778
 40
0.0041560926
 40
0.004937939
 40
0.0057905274
 40
0.0067139761
 40
0.0077083331
 40
0.0087736076
 40
0.0099097777
 40
0.0123944862
 40
0.0151616602
 40
0.0182101445
 40
0.0215384986
 40
0.0251450386
 40
0.0290278689
 40
0.0331848784
 40
0.0376137834
 40
0.0423120945
 40
0.0472771757
 40
0.0525061887
 40
0.057996166
 40
0.0697462126
 40
0.0825002596
 40
0.0962288147
 40
0.1109000483
 40
0.1264798821
 40
0.1429320891
 40
0.1602183773
 40
0.1782984831
 40
0.1971302814
 40
0.2166698751
 40
0.2368717003
 40
0.2576886467
 40
0.3009723337
 40
0.3461172398
 40
0.3927022208
 40
0.4402926537
 40
0.4884445005
 40
0.5367084626
 40
0.5846341991
 40
0.6317745339
 40
0.6776896368
 40
0.7219511565
 40
0.7433320936
 40
0.764146235
 40
0.7843450276
 40
0.8038813687
 40
0.8227097025
 40
0.8407861394
 40
0.8580685631
 40
0.8745167194
 40
0.8900923256
 40
0.9047591647
 40
0.918483169
 40
0.9312325196
 40
0.9429777355
 40
0.9484652507
 40
0.9536917727
 40
0.958654335
 40
0.9633501017
 40
0.9677764375
 40
0.9719308555
 40
0.9758110732
 40
0.9794149818
 40
0.9827406872
 40
0.9857865084
 40
0.9885510064
 40
0.9910330299
 40
0.9921678548
 40
0.9932317833
 40
0.9942247942
 40
0.9951468973
 40
0.9959981416
 40
0.996778647
 40
0.9974886256
 40
0.9981283953
 40
0.9986984321
 40
0.9991994766
 40
0.9994244887
 40
0.9996327327
 40
0.9998244611
 40
1.0
 40
1.0
 40
1.0
 40
1.0
 10
5.4066369863
 20
3.7836203388
 30
0.0
 10
5.4066369863
 20
3.7835973097
 30
0.0
 10
5.4066317298
 20
3.7835500539
 30
0.0
 10
5.4066084397
 20
3.783480211
 30
0.0
 10
5.4065700437
 20
3.7834108461
 30
0.0
 10
5.4065167939
 20
3.7833418957
 30
0.0
 10
5.4064487875
 20
3.7832731924
 30
0.0
 10
5.4063660319
 20
3.7832046224
 30
0.0
 10
5.4062685024
 20
3.7831361121
 30
0.0
 10
5.4061561691
 20
3.783067623
 30
0.0
 10
5.4060290086
 20
3.7829991347
 30
0.0
 10
5.4058870046
 20
3.7829306376
 30
0.0
 10
5.4057301482
 20
3.7828621238
 30
0.0
 10
5.4054925672
 20
3.7827673304
 30
0.0
 10
5.4051576742
 20
3.7826499482
 30
0.0
 10
5.4047097877
 20
3.7825134777
 30
0.0
 10
5.4042026168
 20
3.782376864
 30
0.0
 10
5.4036362026
 20
3.7822401228
 30
0.0
 10
5.4030105834
 20
3.7821032845
 30
0.0
 10
5.402325827
 20
3.7819663695
 30
0.0
 10
5.4015820174
 20
3.7818293925
 30
0.0
 10
5.4007792551
 20
3.7816923646
 30
0.0
 10
5.3999176499
 20
3.78155529
 30
0.0
 10
5.398652317
 20
3.7813668072
 30
0.0
 10
5.3969241153
 20
3.7811329008
 30
0.0
 10
5.3946746815
 20
3.7808596016
 30
0.0
 10
5.392193438
 20
3.780586071
 30
0.0
 10
5.3894818166
 20
3.7803123452
 30
0.0
 10
5.3865413789
 20
3.7800384723
 30
0.0
 10
5.3833738324
 20
3.7797644818
 30
0.0
 10
5.3799810167
 20
3.7794903953
 30
0.0
 10
5.3763649104
 20
3.7792162323
 30
0.0
 10
5.3725276184
 20
3.7789420032
 30
0.0
 10
5.3684713824
 20
3.7786677228
 30
0.0
 10
5.364198565
 20
3.778393391
 30
0.0
 10
5.3580761506
 20
3.7780190354
 30
0.0
 10
5.3499012562
 20
3.7775534161
 30
0.0
 10
5.3394784242
 20
3.7770061731
 30
0.0
 10
5.3282571331
 20
3.7764586394
 30
0.0
 10
5.3162635865
 20
3.7759108596
 30
0.0
 10
5.3035257898
 20
3.7753628882
 30
0.0
 10
5.2900734912
 20
3.7748147599
 30
0.0
 10
5.2759381094
 20
3.7742665035
 30
0.0
 10
5.2611526597
 20
3.773718141
 30
0.0
 10
5.2457516766
 20
3.7731696898
 30
0.0
 10
5.2297711333
 20
3.7726211655
 30
0.0
 10
5.2132483571
 20
3.7720725741
 30
0.0
 10
5.1902464947
 20
3.7713314062
 30
0.0
 10
5.1604377115
 20
3.7704093044
 30
0.0
 10
5.1235964539
 20
3.7693161283
 30
0.0
 10
5.0855790051
 20
3.768222617
 30
0.0
 10
5.0467403656
 20
3.7671288751
 30
0.0
 10
5.0074432045
 20
3.7660350139
 30
0.0
 10
4.9680544742
 20
3.7649411291
 30
0.0
 10
4.9289419819
 20
3.7638473149
 30
0.0
 10
4.8904709547
 20
3.7627536762
 30
0.0
 10
4.8530006299
 20
3.7616603109
 30
0.0
 10
4.8225603619
 20
3.7607392601
 30
0.0
 10
4.7989701093
 20
3.7599991402
 30
0.0
 10
4.7819459912
 20
3.7594504967
 30
0.0
 10
4.7654256978
 20
3.75890191
 30
0.0
 10
4.7494478177
 20
3.7583533849
 30
0.0
 10
4.7340496717
 20
3.7578049344
 30
0.0
 10
4.7192672262
 20
3.7572565723
 30
0.0
 10
4.7051350091
 20
3.7567083165
 30
0.0
 10
4.6916860281
 20
3.7561601889
 30
0.0
 10
4.6789516941
 20
3.7556122183
 30
0.0
 10
4.6669617473
 20
3.7550644394
 30
0.0
 10
4.6557441846
 20
3.7545169071
 30
0.0
 10
4.6453252009
 20
3.7539696657
 30
0.0
 10
4.6371535849
 20
3.753504043
 30
0.0
 10
4.6310338467
 20
3.753129683
 30
0.0
 10
4.6267630732
 20
3.7528553516
 30
0.0
 10
4.6227089042
 20
3.7525810716
 30
0.0
 10
4.618873701
 20
3.7523068431
 30
0.0
 10
4.6152597041
 20
3.7520326808
 30
0.0
 10
4.6118690173
 20
3.7517585951
 30
0.0
 10
4.6087036177
 20
3.7514846056
 30
0.0
 10
4.6057653437
 20
3.751210734
 30
0.0
 10
4.6030559015
 20
3.7509370097
 30
0.0
 10
4.6005768515
 20
3.7506634813
 30
0.0
 10
4.5983296239
 20
3.7503901847
 30
0.0
 10
4.5966032699
 20
3.7501562745
 30
0.0
 10
4.5953394217
 20
3.7499677856
 30
0.0
 10
4.5944789323
 20
3.7498307118
 30
0.0
 10
4.593677288
 20
3.7496936847
 30
0.0
 10
4.5929345984
 20
3.7495567088
 30
0.0
 10
4.5922509637
 20
3.7494197951
 30
0.0
 10
4.5916264677
 20
3.7492829584
 30
0.0
 10
4.5910611777
 20
3.7491462193
 30
0.0
 10
4.5905551316
 20
3.7490096082
 30
0.0
 10
4.5901083701
 20
3.748873141
 30
0.0
 10
4.5897744201
 20
3.7487557537
 30
0.0
 10
4.5895375988
 20
3.7486609529
 30
0.0
 10
4.5893813053
 20
3.7485924391
 30
0.0
 10
4.5892398688
 20
3.7485239443
 30
0.0
 10
4.5891516417
 20
3.7484762148
 30
0.0
 10
4.5891101535
 20
3.7484522335
 30
0.0
  0
SPLINE
  5
262
100
AcDbEntity
  8
0
100
AcDbSpline
 62
7
  6
CONTINUOUS
 70
0
 71
3
 72
38
 73
34
 74
0
 42
0.0000001
 43
0.0000001
 44
0.0000000001
 40
0.0
 40
0.0
 40
0.0
 40
0.0
 40
0.1082474101
 40
0.2110813079
 40
0.3083148721
 40
0.3997748984
 40
0.485296979
 40
0.5647286262
 40
0.6379285809
 40
0.67215087
 40
0.7047678
 40
0.7357651151
 40
0.7651295865
 40
0.7928485526
 40
0.8189105967
 40
0.843304877
 40
0.8660219
 40
0.887052984
 40
0.896933996
 40
0.9063909216
 40
0.9240295758
 40
0.9399646628
 40
0.9541940765
 40
0.9606692636
 40
0.9667185629
 40
0.9723427275
 40
0.9775428575
 40
0.982320544
 40
0.9866781641
 40
0.9906190721
 40
0.99414797
 40
0.997271602
 40
1.0
 40
1.0
 40
1.0
 40
1.0
 10
5.27266486
 20
3.6725985616
 30
0.0
 10
5.2760980694
 20
3.6727559321
 30
0.0
 10
5.2827924729
 20
3.6730698237
 30
0.0
 10
5.2925694647
 20
3.6735523402
 30
0.0
 10
5.3018127876
 20
3.6740347263
 30
0.0
 10
5.310505684
 20
3.6745169504
 30
0.0
 10
5.318632465
 20
3.6749989711
 30
0.0
 10
5.3261784182
 20
3.6754807517
 30
0.0
 10
5.3320968231
 20
3.6758906178
 30
0.0
 10
5.3365307996
 20
3.6762200665
 30
0.0
 10
5.3396276801
 20
3.6764615424
 30
0.0
 10
5.3425698385
 20
3.6767029794
 30
0.0
 10
5.345355942
 20
3.6769443724
 30
0.0
 10
5.3479847372
 20
3.6771857165
 30
0.0
 10
5.3504550335
 20
3.6774269972
 30
0.0
 10
5.352765724
 20
3.6776682053
 30
0.0
 10
5.3549157641
 20
3.6779093244
 30
0.0
 10
5.3566061288
 20
3.6781141929
 30
0.0
 10
5.3578772367
 20
3.6782786917
 30
0.0
 10
5.3590406298
 20
3.6784361284
 30
0.0
 10
5.3603927912
 20
3.678631865
 30
0.0
 10
5.361891421
 20
3.678872316
 30
0.0
 10
5.3630364283
 20
3.6790783716
 30
0.0
 10
5.3638694699
 20
3.67924452
 30
0.0
 10
5.364432938
 20
3.6793651435
 30
0.0
 10
5.3649549497
 20
3.6794857223
 30
0.0
 10
5.3654354541
 20
3.6796062532
 30
0.0
 10
5.36587441
 20
3.6797267269
 30
0.0
 10
5.3662717926
 20
3.6798471311
 30
0.0
 10
5.3666275905
 20
3.67996745
 30
0.0
 10
5.3669418292
 20
3.680087674
 30
0.0
 10
5.3672145203
 20
3.6802077852
 30
0.0
 10
5.3673796264
 20
3.6802934581
 30
0.0
 10
5.3674546196
 20
3.6803368172
 30
0.0
  0
SPLINE
  5
263
100
AcDbEntity
  8
0
100
AcDbSpline
 62
7
  6
CONTINUOUS
 70
0
 71
3
 72
100
 73
96
 74
0
 42
0.0000001
 43
0.0000001
 44
0.0000000001
 40
0.0
 40
0.0
 40
0.0
 40
0.0
 40
0.00040125
 40
0.0008680505
 40
0.0014021533
 40
0.0020046886
 40
0.002676396
 40
0.0034177794
 40
0.0042291869
 40
0.0051108431
 40
0.0060628756
 40
0.0070853555
 40
0.0081783128
 40
0.0093417287
 40
0.0118796405
 40
0.0146983774
 40
0.0177968028
 40
0.0211735231
 40
0.0248268564
 40
0.028754933
 40
0.0329556387
 40
0.037426704
 40
0.0421656368
 40
0.0471698075
 40
0.052436375
 40
0.0579623727
 40
0.0697798548
 40
0.0825952074
 40
0.0963789473
 40
0.1110992622
 40
0.1267221134
 40
0.1432113228
 40
0.1605286594
 40
0.1786339476
 40
0.1974851604
 40
0.2170385119
 40
0.2372485762
 40
0.2580683911
 40
0.2794495588
 40
0.3236959329
 40
0.3695764122
 40
0.4166644427
 40
0.4645221825
 40
0.512704615
 40
0.560763689
 40
0.6082524975
 40
0.6547294702
 40
0.699762476
 40
0.7429328691
 40
0.7636934226
 40
0.7838394279
 40
0.8033240709
 40
0.8221020882
 40
0.8401298669
 40
0.8573655589
 40
0.8737691825
 40
0.8893027103
 40
0.903930172
 40
0.9176177514
 40
0.9303338677
 40
0.9420492741
 40
0.9475232387
 40
0.9527371759
 40
0.9576881171
 40
0.9623732906
 40
0.9667900655
 40
0.9709360223
 40
0.9748088935
 40
0.9784066428
 40
0.9817274063
 40
0.9847695883
 40
0.9875318119
 40
0.9900130444
 40
0.9911480669
 40
0.9922126204
 40
0.9932067087
 40
0.9941303706
 40
0.9949836924
 40
0.9957668461
 40
0.9964801052
 40
0.9971238669
 40
0.9976987132
 40
0.998205529
 40
0.9984338509
 40
0.9986457261
 40
0.9988414448
 40
0.999021378
 40
0.9991860055
 40
0.9993359592
 40
0.9994720793
 40
0.9995954901
 40
0.9997076995
 40
0.9998107096
 40
0.9999070989
 40
1.0
 40
1.0
 40
1.0
 40
1.0
 10
4.6278193535
 20
3.9136895832
 30
0.0
 10
4.6279052374
 20
3.9137392378
 30
0.0
 10
4.6280966239
 20
3.9138370197
 30
0.0
 10
4.6284156747
 20
3.9139730447
 30
0.0
 10
4.6287881346
 20
3.9141092502
 30
0.0
 10
4.6292140285
 20
3.9142456011
 30
0.0
 10
4.6296933931
 20
3.9143820803
 30
0.0
 10
4.6302262024
 20
3.9145186618
 30
0.0
 10
4.6308124156
 20
3.9146553252
 30
0.0
 10
4.6314519676
 20
3.9147920545
 30
0.0
 10
4.6321447771
 20
3.9149288399
 30
0.0
 10
4.6328907526
 20
3.9150656701
 30
0.0
 10
4.6336897945
 20
3.915202541
 30
0.0
 10
4.6348601413
 20
3.9153905747
 30
0.0
 10
4.6364552511
 20
3.9156240146
 30
0.0
 10
4.6385278437
 20
3.9158969364
 30
0.0
 10
4.6408094156
 20
3.9161700767
 30
0.0
 10
4.6432986518
 20
3.9164433966
 30
0.0
 10
4.6459941286
 20
3.9167168572
 30
0.0
 10
4.6488942836
 20
3.9169904271
 30
0.0
 10
4.6519974413
 20
3.9172640895
 30
0.0
 10
4.6553017967
 20
3.9175378238
 30
0.0
 10
4.6588054351
 20
3.9178116219
 30
0.0
 10
4.6625063155
 20
3.9180854689
 30
0.0
 10
4.6664022903
 20
3.9183593655
 30
0.0
 10
4.6719799018
 20
3.9187330195
 30
0.0
 10
4.6794219074
 20
3.9191978127
 30
0.0
 10
4.6889043151
 20
3.919744207
 30
0.0
 10
4.6991055057
 20
3.9202908836
 30
0.0
 10
4.710001736
 20
3.9208377997
 30
0.0
 10
4.7215676471
 20
3.9213849025
 30
0.0
 10
4.7337763158
 20
3.9219321585
 30
0.0
 10
4.7465993209
 20
3.9224795398
 30
0.0
 10
4.7600068102
 20
3.9230270249
 30
0.0
 10
4.7739675691
 20
3.9235745966
 30
0.0
 10
4.7884490944
 20
3.9241222414
 30
0.0
 10
4.8034176701
 20
3.9246699465
 30
0.0
 10
4.8188384458
 20
3.9252177073
 30
0.0
 10
4.8401989066
 20
3.9259565468
 30
0.0
 10
4.8677528068
 20
3.9268760337
 30
0.0
 10
4.9016602329
 20
3.9279676575
 30
0.0
 10
4.9364609726
 20
3.929059549
 30
0.0
 10
4.9718311152
 20
3.9301516116
 30
0.0
 10
5.0074414493
 20
3.9312437418
 30
0.0
 10
5.042960527
 20
3.932335846
 30
0.0
 10
5.0780577504
 20
3.9334278294
 30
0.0
 10
5.1124064492
 20
3.9345195813
 30
0.0
 10
5.145686921
 20
3.9356109977
 30
0.0
 10
5.1726114317
 20
3.9365316413
 30
0.0
 10
5.1933854334
 20
3.9372716334
 30
0.0
 10
5.2083065003
 20
3.9378193372
 30
0.0
 10
5.2227370672
 20
3.938366974
 30
0.0
 10
5.2366435369
 20
3.938914538
 30
0.0
 10
5.2499935325
 20
3.9394620134
 30
0.0
 10
5.2627559736
 20
3.9400093831
 30
0.0
 10
5.2749011488
 20
3.9405566251
 30
0.0
 10
5.286400785
 20
3.9411037107
 30
0.0
 10
5.2972281137
 20
3.9416506055
 30
0.0
 10
5.3073579366
 20
3.9421972551
 30
0.0
 10
5.316766677
 20
3.9427436157
 30
0.0
 10
5.3241459194
 20
3.9432084799
 30
0.0
 10
5.3296722951
 20
3.9435822271
 30
0.0
 10
5.3335291361
 20
3.9438561141
 30
0.0
 10
5.3371904442
 20
3.944129953
 30
0.0
 10
5.3406540865
 20
3.9444037378
 30
0.0
 10
5.3439180535
 20
3.9446774602
 30
0.0
 10
5.3469804461
 20
3.9449511037
 30
0.0
 10
5.3498394918
 20
3.9452246554
 30
0.0
 10
5.3524935316
 20
3.9454980879
 30
0.0
 10
5.3549410364
 20
3.9457713783
 30
0.0
 10
5.3571806003
 20
3.9460444737
 30
0.0
 10
5.3592109425
 20
3.946317345
 30
0.0
 10
5.3607706598
 20
3.9465508628
 30
0.0
 10
5.361912563
 20
3.9467390202
 30
0.0
 10
5.3626902315
 20
3.9468758776
 30
0.0
 10
5.3634147941
 20
3.9470126899
 30
0.0
 10
5.3640861522
 20
3.9471494535
 30
0.0
 10
5.3647042166
 20
3.9472861587
 30
0.0
 10
5.365268915
 20
3.9474227914
 30
0.0
 10
5.3657801902
 20
3.9475593343
 30
0.0
 10
5.3662380131
 20
3.9476957622
 30
0.0
 10
5.3666423506
 20
3.9478320642
 30
0.0
 10
5.3669444727
 20
3.9479492357
 30
0.0
 10
5.3671587072
 20
3.9480438004
 30
0.0
 10
5.3673003016
 20
3.9481122235
 30
0.0
 10
5.3674284944
 20
3.948180636
 30
0.0
 10
5.3675432929
 20
3.9482490477
 30
0.0
 10
5.3676447099
 20
3.9483174699
 30
0.0
 10
5.3677327625
 20
3.9483859253
 30
0.0
 10
5.3678074691
 20
3.9484544523
 30
0.0
 10
5.3678688381
 20
3.9485231156
 30
0.0
 10
5.3679168442
 20
3.9485920044
 30
0.0
 10
5.3679513915
 20
3.9486612321
 30
0.0
 10
5.367972286
 20
3.948730811
 30
0.0
 10
5.3679769847
 20
3.9487777314
 30
0.0
 10
5.3679769855
 20
3.9488007002
 30
0.0
  0
SPLINE
  5
264
100
AcDbEntity
  8
0
100
AcDbSpline
 62
7
  6
CONTINUOUS
 70
0
 71
3
 72
56
 73
52
 74
0
 42
0.0000001
 43
0.0000001
 44
0.0000000001
 40
0.0
 40
0.0
 40
0.0
 40
0.0
 40
0.0003261068
 40
0.0006862199
 40
0.0010810792
 40
0.0015112419
 40
0.0019771338
 40
0.0024790791
 40
0.0035920311
 40
0.0042034443
 40
0.0048516445
 40
0.0055367337
 40
0.0062587917
 40
0.007814006
 40
0.0095176033
 40
0.0113697282
 40
0.0133704027
 40
0.0155195131
 40
0.0178168796
 40
0.0202622757
 40
0.0228553875
 40
0.0284832264
 40
0.0346970457
 40
0.041492754
 40
0.0488657114
 40
0.0568107485
 40
0.0653221572
 40
0.074393807
 40
0.0840190423
 40
0.0941908084
 40
0.1049015964
 40
0.1161434605
 40
0.1279080803
 40
0.1401866717
 40
0.1662488285
 40
0.1942521367
 40
0.2241128512
 40
0.2557415683
 40
0.2890435304
 40
0.3239188945
 40
0.3602630557
 40
0.3979669774
 40
0.436917502
 40
0.4769977298
 40
0.5180873429
 40
0.5600629729
 40
0.6461658735
 40
0.7342730036
 40
0.8233267995
 40
0.9122583331
 40
1.0
 40
1.0
 40
1.0
 40
1.0
 10
4.5891101587
 20
3.8913122335
 30
0.0
 10
4.5891575087
 20
3.8913396024
 30
0.0
 10
4.5892590064
 20
3.8913939999
 30
0.0
 10
4.5894229078
 20
3.8914716386
 30
0.0
 10
4.5896059143
 20
3.8915493045
 30
0.0
 10
4.5898080292
 20
3.8916269931
 30
0.0
 10
4.5900292608
 20
3.8917047082
 30
0.0
 10
4.5903613246
 20
3.8918120867
 30
0.0
 10
4.5907203095
 20
3.8919151251
 30
0.0
 10
4.5911052806
 20
3.8920157464
 30
0.0
 10
4.5914220226
 20
3.8920935385
 30
0.0
 10
4.5917578325
 20
3.8921713477
 30
0.0
 10
4.592243125
 20
3.8922777566
 30
0.0
 10
4.5928975452
 20
3.8924101127
 30
0.0
 10
4.5937405464
 20
3.8925653669
 30
0.0
 10
4.5946593899
 20
3.8927207002
 30
0.0
 10
4.5956539122
 20
3.8928761001
 30
0.0
 10
4.5967239354
 20
3.8930315552
 30
0.0
 10
4.5978692642
 20
3.8931870553
 30
0.0
 10
4.5990896894
 20
3.8933425952
 30
0.0
 10
4.6008657718
 20
3.8935558907
 30
0.0
 10
4.6032721146
 20
3.8938208594
 30
0.0
 10
4.6063823591
 20
3.8941310686
 30
0.0
 10
4.6097865745
 20
3.8944414979
 30
0.0
 10
4.613482214
 20
3.8947521122
 30
0.0
 10
4.6174665151
 20
3.895062867
 30
0.0
 10
4.6217364951
 20
3.8953737383
 30
0.0
 10
4.626288948
 20
3.895684701
 30
0.0
 10
4.63112046
 20
3.895995742
 30
0.0
 10
4.6362274011
 20
3.8963068465
 30
0.0
 10
4.6416059364
 20
3.896618005
 30
0.0
 10
4.6472520278
 20
3.8969292094
 30
0.0
 10
4.6531614305
 20
3.8972404558
 30
0.0
 10
4.6615538269
 20
3.8976639568
 30
0.0
 10
4.6726677885
 20
3.898191065
 30
0.0
 10
4.6867291916
 20
3.8988120465
 30
0.0
 10
4.70172499
 20
3.8994332949
 30
0.0
 10
4.7176101214
 20
3.9000547699
 30
0.0
 10
4.7343368513
 20
3.9006764231
 30
0.0
 10
4.7518549127
 20
3.9012982226
 30
0.0
 10
4.7701116581
 20
3.9019201417
 30
0.0
 10
4.7890522181
 20
3.9025421594
 30
0.0
 10
4.8086196696
 20
3.903164259
 30
0.0
 10
4.8287552044
 20
3.9037864253
 30
0.0
 10
4.8493983074
 20
3.9044086507
 30
0.0
 10
4.877756812
 20
3.9052454194
 30
0.0
 10
4.9139979327
 20
3.9062862255
 30
0.0
 10
4.9581319864
 20
3.9075252486
 30
0.0
 10
5.0027406044
 20
3.9087644182
 30
0.0
 10
5.0472879078
 20
3.9100035739
 30
0.0
 10
5.0769056479
 20
3.9108384756
 30
0.0
 10
5.091614627
 20
3.9112585616
 30
0.0
  0
SPLINE
  5
265
100
AcDbEntity
  8
0
100
AcDbSpline
 62
7
  6
CONTINUOUS
 70
0
 71
3
 72
85
 73
81
 74
0
 42
0.0000001
 43
0.0000001
 44
0.0000000001
 40
0.0
 40
0.0
 40
0.0
 40
0.0
 40
0.0006274993
 40
0.0013211875
 40
0.0020811157
 40
0.0029072997
 40
0.0037997276
 40
0.0047583583
 40
0.0068739771
 40
0.0092535498
 40
0.0118961418
 40
0.0148006569
 40
0.0179657773
 40
0.0213900647
 40
0.0250718726
 40
0.0290094468
 40
0.0332008388
 40
0.0376440004
 40
0.042336696
 40
0.0524611747
 40
0.0635537984
 40
0.0755919279
 40
0.0885508271
 40
0.1024037075
 40
0.1171217873
 40
0.1326743553
 40
0.1490288213
 40
0.1661507838
 40
0.1840041063
 40
0.2025509779
 40
0.2415662264
 40
0.2828636216
 40
0.3260887395
 40
0.370868565
 40
0.4168146135
 40
0.4635261926
 40
0.5105938423
 40
0.5576028808
 40
0.6041370183
 40
0.6497820661
 40
0.6941296468
 40
0.7367808916
 40
0.7773501297
 40
0.7967379693
 40
0.8154684807
 40
0.8334987474
 40
0.8507873384
 40
0.8672944005
 40
0.8829817572
 40
0.897813014
 40
0.9117536445
 40
0.9247710789
 40
0.9368348022
 40
0.9479164339
 40
0.9579898138
 40
0.9626408719
 40
0.9670311076
 40
0.9711579274
 40
0.9750188783
 40
0.9786116837
 40
0.981934226
 40
0.9849845692
 40
0.9877609623
 40
0.9902618524
 40
0.9924859201
 40
0.9934938097
 40
0.9944321159
 40
0.9953007695
 40
0.9960997235
 40
0.9968289577
 40
0.9974885064
 40
0.9980784809
 40
0.99859908
 40
0.999050642
 40
0.9992507197
 40
0.9994337949
 40
0.9996000159
 40
0.9997495839
 40
0.9998827784
 40
1.0
 40
1.0
 40
1.0
 40
1.0
 10
5.4052639793
 20
3.7112585616
 30
0.0
 10
5.4051002629
 20
3.7112295473
 30
0.0
 10
5.4047549326
 20
3.7111719849
 30
0.0
 10
5.4042096353
 20
3.711089862
 30
0.0
 10
5.4036111641
 20
3.7110076622
 30
0.0
 10
5.4029595907
 20
3.7109253999
 30
0.0
 10
5.402254989
 20
3.7108430836
 30
0.0
 10
5.4012100908
 20
3.7107294991
 30
0.0
 10
5.3997718342
 20
3.7105886959
 30
0.0
 10
5.3978876636
 20
3.7104244821
 30
0.0
 10
5.3957937704
 20
3.710260024
 30
0.0
 10
5.3934911701
 20
3.7100953563
 30
0.0
 10
5.3909809747
 20
3.7099305132
 30
0.0
 10
5.388264423
 20
3.7097655204
 30
0.0
 10
5.3853428543
 20
3.7096003918
 30
0.0
 10
5.3822177315
 20
3.7094351433
 30
0.0
 10
5.3788906159
 20
3.7092697823
 30
0.0
 10
5.3753631898
 20
3.7091043152
 30
0.0
 10
5.3702648339
 20
3.7088777833
 30
0.0
 10
5.3634053153
 20
3.7085961005
 30
0.0
 10
5.354599918
 20
3.7082654953
 30
0.0
 10
5.3450430201
 20
3.7079344033
 30
0.0
 10
5.3347543514
 20
3.7076028577
 30
0.0
 10
5.3237552497
 20
3.7072709008
 30
0.0
 10
5.3120686256
 20
3.7069385579
 30
0.0
 10
5.2997189174
 20
3.7066058501
 30
0.0
 10
5.2867320461
 20
3.7062727924
 30
0.0
 10
5.2731353648
 20
3.7059393983
 30
0.0
 10
5.2589576061
 20
3.7056056723
 30
0.0
 10
5.2389800265
 20
3.7051526053
 30
0.0
 10
5.2127914367
 20
3.7045885627
 30
0.0
 10
5.1800646262
 20
3.7039210801
 30
0.0
 10
5.1458101101
 20
3.703252194
 30
0.0
 10
5.1103236477
 20
3.7025819698
 30
0.0
 10
5.0739132467
 20
3.7019104781
 30
0.0
 10
5.0368965656
 20
3.7012377721
 30
0.0
 10
4.9995982008
 20
3.7005639008
 30
0.0
 10
4.9623468802
 20
3.6998889107
 30
0.0
 10
4.9254725859
 20
3.6992128504
 30
0.0
 10
4.8893036332
 20
3.6985357727
 30
0.0
 10
4.8541637269
 20
3.6978577466
 30
0.0
 10
4.8203690267
 20
3.6971788375
 30
0.0
 10
4.7931871238
 20
3.6966041216
 30
0.0
 10
4.7723425274
 20
3.6961413881
 30
0.0
 10
4.7574688447
 20
3.6957993409
 30
0.0
 10
4.7431515549
 20
3.6954570498
 30
0.0
 10
4.72942359
 20
3.6951145192
 30
0.0
 10
4.71631663
 20
3.6947717615
 30
0.0
 10
4.7038610251
 20
3.694428791
 30
0.0
 10
4.6920857207
 20
3.6940856264
 30
0.0
 10
4.6810181845
 20
3.6937422931
 30
0.0
 10
4.6706843376
 20
3.6933988225
 30
0.0
 10
4.6611084859
 20
3.6930552671
 30
0.0
 10
4.652313261
 20
3.6927116692
 30
0.0
 10
4.6454817445
 20
3.6924181323
 30
0.0
 10
4.6404224791
 20
3.6921816064
 30
0.0
 10
4.6369376145
 20
3.6920089285
 30
0.0
 10
4.633662377
 20
3.6918362257
 30
0.0
 10
4.6305987468
 20
3.6916635022
 30
0.0
 10
4.6277485869
 20
3.6914907734
 30
0.0
 10
4.6251136349
 20
3.6913180574
 30
0.0
 10
4.6226955063
 20
3.6911453773
 30
0.0
 10
4.6204956861
 20
3.690972775
 30
0.0
 10
4.6185155365
 20
3.6908002808
 30
0.0
 10
4.6170036975
 20
3.6906522619
 30
0.0
 10
4.6159051788
 20
3.6905327727
 30
0.0
 10
4.6151643718
 20
3.6904461369
 30
0.0
 10
4.6144793288
 20
3.6903595242
 30
0.0
 10
4.613850156
 20
3.6902729403
 30
0.0
 10
4.6132769507
 20
3.6901863996
 30
0.0
 10
4.6127597977
 20
3.690099918
 30
0.0
 10
4.6122987556
 20
3.6900135296
 30
0.0
 10
4.6118938824
 20
3.689927256
 30
0.0
 10
4.6115922364
 20
3.6898528276
 30
0.0
 10
4.6113794163
 20
3.6897925436
 30
0.0
 10
4.6112404337
 20
3.6897491913
 30
0.0
 10
4.6111155262
 20
3.6897058632
 30
0.0
 10
4.6110046804
 20
3.689662558
 30
0.0
 10
4.6109078874
 20
3.6896192818
 30
0.0
 10
4.6108490182
 20
3.6895885246
 30
0.0
 10
4.6108221282
 20
3.6895729795
 30
0.0
  0
SPLINE
  5
266
100
AcDbEntity
  8
0
100
AcDbSpline
 62
7
  6
CONTINUOUS
 70
0
 71
3
 72
102
 73
98
 74
0
 42
0.0000001
 43
0.0000001
 44
0.0000000001
 40
0.0
 40
0.0
 40
0.0
 40
0.0
 40
0.0000843588
 40
0.0001725727
 40
0.0002680267
 40
0.0003734088
 40
0.0004907257
 40
0.0006214343
 40
0.0007665878
 40
0.0009269545
 40
0.0011031009
 40
0.0012954508
 40
0.0015043271
 40
0.00172998
 40
0.0022323249
 40
0.0028036795
 40
0.003444778
 40
0.0041560927
 40
0.004937939
 40
0.0057905274
 40
0.0067139761
 40
0.0077083331
 40
0.0087736076
 40
0.0099097777
 40
0.0123944863
 40
0.0151616602
 40
0.0182101445
 40
0.0215384986
 40
0.0251450386
 40
0.0290278689
 40
0.0331848783
 40
0.0376137833
 40
0.0423120944
 40
0.0472771756
 40
0.0525061886
 40
0.0579961659
 40
0.0697462124
 40
0.0825002594
 40
0.0962288145
 40
0.1109000481
 40
0.1264798818
 40
0.1429320889
 40
0.1602183769
 40
0.1782984826
 40
0.197130281
 40
0.2166698744
 40
0.2368716993
 40
0.257688646
 40
0.3009723326
 40
0.3461172388
 40
0.3927022201
 40
0.4402926525
 40
0.4884444993
 40
0.5367084619
 40
0.5846341981
 40
0.6317745327
 40
0.6776896361
 40
0.7219511556
 40
0.743332093
 40
0.764146234
 40
0.7843450268
 40
0.8038813682
 40
0.8227097019
 40
0.8407861389
 40
0.8580685628
 40
0.8745167191
 40
0.8900923253
 40
0.9047591645
 40
0.9184831687
 40
0.9312325194
 40
0.9429777354
 40
0.9484652505
 40
0.9536917725
 40
0.9586543349
 40
0.9633501016
 40
0.9677764374
 40
0.9719308554
 40
0.9758110731
 40
0.9794149818
 40
0.9827406872
 40
0.9857865083
 40
0.9885510063
 40
0.9910330298
 40
0.9921678548
 40
0.9932317833
 40
0.9942247942
 40
0.9951468973
 40
0.9959981416
 40
0.996778647
 40
0.9974886256
 40
0.9981283953
 40
0.9986984321
 40
0.9991994766
 40
0.9994244887
 40
0.9996327327
 40
0.9998244611
 40
1.0
 40
1.0
 40
1.0
 40
1.0
 10
4.5886369863
 20
3.8104060616
 30
0.0
 10
4.5886369863
 20
3.8104290908
 30
0.0
 10
4.5886422429
 20
3.8104763466
 30
0.0
 10
4.5886655329
 20
3.8105461894
 30
0.0
 10
4.5887039289
 20
3.8106155544
 30
0.0
 10
4.5887571787
 20
3.8106845047
 30
0.0
 10
4.5888251851
 20
3.8107532081
 30
0.0
 10
4.5889079407
 20
3.8108217781
 30
0.0
 10
4.5890054702
 20
3.8108902884
 30
0.0
 10
4.5891178035
 20
3.8109587774
 30
0.0
 10
4.589244964
 20
3.8110272658
 30
0.0
 10
4.589386968
 20
3.8110957629
 30
0.0
 10
4.5895438244
 20
3.8111642767
 30
0.0
 10
4.5897814054
 20
3.81125907
 30
0.0
 10
4.5901162984
 20
3.8113764522
 30
0.0
 10
4.5905641849
 20
3.8115129227
 30
0.0
 10
4.5910713558
 20
3.8116495364
 30
0.0
 10
4.5916377701
 20
3.8117862777
 30
0.0
 10
4.5922633892
 20
3.8119231159
 30
0.0
 10
4.5929481456
 20
3.8120600309
 30
0.0
 10
4.5936919553
 20
3.812197008
 30
0.0
 10
4.5944947175
 20
3.8123340359
 30
0.0
 10
4.5953563227
 20
3.8124711105
 30
0.0
 10
4.5966216556
 20
3.8126595933
 30
0.0
 10
4.5983498573
 20
3.8128934997
 30
0.0
 10
4.6005992911
 20
3.8131667989
 30
0.0
 10
4.6030805346
 20
3.8134403294
 30
0.0
 10
4.605792156
 20
3.8137140552
 30
0.0
 10
4.6087325937
 20
3.8139879282
 30
0.0
 10
4.6119001402
 20
3.8142619187
 30
0.0
 10
4.6152929559
 20
3.8145360052
 30
0.0
 10
4.6189090621
 20
3.8148101682
 30
0.0
 10
4.6227463542
 20
3.8150843972
 30
0.0
 10
4.6268025901
 20
3.8153586777
 30
0.0
 10
4.6310754075
 20
3.8156330095
 30
0.0
 10
4.6371978219
 20
3.8160073651
 30
0.0
 10
4.6453727162
 20
3.8164729844
 30
0.0
 10
4.6557955482
 20
3.8170202274
 30
0.0
 10
4.6670168393
 20
3.817567761
 30
0.0
 10
4.6790103859
 20
3.8181155409
 30
0.0
 10
4.6917481826
 20
3.8186635123
 30
0.0
 10
4.7052004811
 20
3.8192116406
 30
0.0
 10
4.7193358628
 20
3.819759897
 30
0.0
 10
4.7341213126
 20
3.8203082594
 30
0.0
 10
4.7495222956
 20
3.8208567106
 30
0.0
 10
4.7655028388
 20
3.8214052349
 30
0.0
 10
4.7820256149
 20
3.8219538263
 30
0.0
 10
4.8050274772
 20
3.8226949943
 30
0.0
 10
4.8348362604
 20
3.8236170961
 30
0.0
 10
4.871677518
 20
3.8247102722
 30
0.0
 10
4.9096949668
 20
3.8258037835
 30
0.0
 10
4.9485336061
 20
3.8268975254
 30
0.0
 10
4.9878307672
 20
3.8279913866
 30
0.0
 10
5.0272194976
 20
3.8290852714
 30
0.0
 10
5.0663319899
 20
3.8301790855
 30
0.0
 10
5.1048030171
 20
3.8312727242
 30
0.0
 10
5.142273342
 20
3.8323660896
 30
0.0
 10
5.1727136101
 20
3.8332871404
 30
0.0
 10
5.1963038627
 20
3.8340272603
 30
0.0
 10
5.2133279808
 20
3.8345759037
 30
0.0
 10
5.2298482742
 20
3.8351244905
 30
0.0
 10
5.2458261544
 20
3.8356730155
 30
0.0
 10
5.2612243005
 20
3.8362214661
 30
0.0
 10
5.276006746
 20
3.8367698282
 30
0.0
 10
5.2901389632
 20
3.837318084
 30
0.0
 10
5.3035879442
 20
3.8378662116
 30
0.0
 10
5.3163222782
 20
3.8384141822
 30
0.0
 10
5.3283122251
 20
3.838961961
 30
0.0
 10
5.3395297878
 20
3.8395094934
 30
0.0
 10
5.3499487715
 20
3.8400567348
 30
0.0
 10
5.3581203875
 20
3.8405223575
 30
0.0
 10
5.3642401258
 20
3.8408967174
 30
0.0
 10
5.3685108993
 20
3.8411710489
 30
0.0
 10
5.3725650683
 20
3.8414453288
 30
0.0
 10
5.3764002716
 20
3.8417195573
 30
0.0
 10
5.3800142684
 20
3.8419937197
 30
0.0
 10
5.3834049553
 20
3.8422678053
 30
0.0
 10
5.3865703549
 20
3.8425417949
 30
0.0
 10
5.3895086288
 20
3.8428156665
 30
0.0
 10
5.3922180711
 20
3.8430893908
 30
0.0
 10
5.3946971211
 20
3.8433629192
 30
0.0
 10
5.3969443487
 20
3.8436362158
 30
0.0
 10
5.3986707027
 20
3.843870126
 30
0.0
 10
5.3999345509
 20
3.8440586148
 30
0.0
 10
5.4007950403
 20
3.8441956887
 30
0.0
 10
5.4015966846
 20
3.8443327157
 30
0.0
 10
5.4023393742
 20
3.8444696917
 30
0.0
 10
5.4030230089
 20
3.8446066054
 30
0.0
 10
5.4036475049
 20
3.844743442
 30
0.0
 10
5.4042127948
 20
3.8448801812
 30
0.0
 10
5.404718841
 20
3.8450167922
 30
0.0
 10
5.4051656025
 20
3.8451532595
 30
0.0
 10
5.4054995525
 20
3.8452706467
 30
0.0
 10
5.4057363738
 20
3.8453654475
 30
0.0
 10
5.4058926673
 20
3.8454339613
 30
0.0
 10
5.4060341038
 20
3.8455024561
 30
0.0
 10
5.4061223309
 20
3.8455501857
 30
0.0
 10
5.4061638191
 20
3.845574167
 30
0.0
  0
SPLINE
  5
267
100
AcDbEntity
  8
0
100
AcDbSpline
 62
7
  6
CONTINUOUS
 70
0
 71
3
 72
53
 73
49
 74
0
 42
0.0000001
 43
0.0000001
 44
0.0000000001
 40
0.0
 40
0.0
 40
0.0
 40
0.0
 40
0.0001699134
 40
0.0003699151
 40
0.000602197
 40
0.0008681514
 40
0.0011687006
 40
0.0015044798
 40
0.0018759414
 40
0.0022834167
 40
0.0032072741
 40
0.0042774266
 40
0.0054946561
 40
0.0068594402
 40
0.0083720175
 40
0.0100324838
 40
0.0118408557
 40
0.0137970691
 40
0.0159009652
 40
0.018152349
 40
0.0230966129
 40
0.0286274504
 40
0.0347419349
 40
0.0414365576
 40
0.0487074145
 40
0.0565501045
 40
0.0649598305
 40
0.0739313767
 40
0.0834591003
 40
0.0935370088
 40
0.1041586552
 40
0.1270056645
 40
0.1519412459
 40
0.1789006247
 40
0.2078133071
 40
0.2386032635
 40
0.2711891292
 40
0.3054843875
 40
0.3413976022
 40
0.3788326416
 40
0.4176889039
 40
0.4578616015
 40
0.5417177383
 40
0.6294892042
 40
0.7202153222
 40
0.8128967612
 40
0.9065063301
 40
1.0
 40
1.0
 40
1.0
 40
1.0
 10
4.6152686742
 20
3.9378902495
 30
0.0
 10
4.6152854532
 20
3.9379070286
 30
0.0
 10
4.6153252898
 20
3.9379402585
 30
0.0
 10
4.6153958823
 20
3.9379861798
 30
0.0
 10
4.615482006
 20
3.9380321194
 30
0.0
 10
4.6155837127
 20
3.9380780867
 30
0.0
 10
4.6157010652
 20
3.9381241005
 30
0.0
 10
4.6158340916
 20
3.9381701547
 30
0.0
 10
4.6159828103
 20
3.9382162492
 30
0.0
 10
4.6162118022
 20
3.9382804688
 30
0.0
 10
4.6165377831
 20
3.9383597161
 30
0.0
 10
4.6169768009
 20
3.9384515274
 30
0.0
 10
4.6174785232
 20
3.9385435145
 30
0.0
 10
4.6180429086
 20
3.9386356514
 30
0.0
 10
4.618669909
 20
3.9387279021
 30
0.0
 10
4.6193594471
 20
3.9388202469
 30
0.0
 10
4.6201114354
 20
3.9389126688
 30
0.0
 10
4.6209257712
 20
3.9390051548
 30
0.0
 10
4.6218023369
 20
3.9390977018
 30
0.0
 10
4.6230947985
 20
3.9392251837
 30
0.0
 10
4.6248650998
 20
3.939383338
 30
0.0
 10
4.6271745641
 20
3.9395680332
 30
0.0
 10
4.6297291571
 20
3.9397529926
 30
0.0
 10
4.632527311
 20
3.9399381915
 30
0.0
 10
4.6355672879
 20
3.9401235888
 30
0.0
 10
4.6388471869
 20
3.9403091648
 30
0.0
 10
4.6423649391
 20
3.9404949009
 30
0.0
 10
4.6461183128
 20
3.9406807845
 30
0.0
 10
4.6501049173
 20
3.9408668057
 30
0.0
 10
4.6543221965
 20
3.9410529596
 30
0.0
 10
4.6603983515
 20
3.9413075627
 30
0.0
 10
4.6685486473
 20
3.9416242565
 30
0.0
 10
4.6789800947
 20
3.9419963318
 30
0.0
 10
4.6902591182
 20
3.9423690059
 30
0.0
 10
4.7023561282
 20
3.9427422432
 30
0.0
 10
4.7152392379
 20
3.9431159997
 30
0.0
 10
4.7288743336
 20
3.9434902482
 30
0.0
 10
4.743225159
 20
3.9438649668
 30
0.0
 10
4.7582534027
 20
3.9442401393
 30
0.0
 10
4.7739187912
 20
3.9446157517
 30
0.0
 10
4.7901791908
 20
3.9449917988
 30
0.0
 10
4.8129211617
 20
3.9455010521
 30
0.0
 10
4.8424932809
 20
3.9461350821
 30
0.0
 10
4.8791244912
 20
3.946887398
 30
0.0
 10
4.9169884111
 20
3.9476414908
 30
0.0
 10
4.9556677737
 20
3.9483972733
 30
0.0
 10
4.9947336796
 20
3.9491546522
 30
0.0
 10
5.0208585863
 20
3.9496627898
 30
0.0
 10
5.0339129119
 20
3.9499185616
 30
0.0
  0
SPLINE
  5
268
100
AcDbEntity
  8
0
100
AcDbSpline
 62
7
  6
CONTINUOUS
 70
0
 71
3
 72
65
 73
61
 74
0
 42
0.0000001
 43
0.0000001
 44
0.0000000001
 40
0.0
 40
0.0
 40
0.0
 40
0.0
 40
0.1083982805
 40
0.1613628759
 40
0.213386595
 40
0.2643814987
 40
0.3142611201
 40
0.3629400391
 40
0.4103342623
 40
0.4563613322
 40
0.5009404968
 40
0.5439929041
 40
0.5854417895
 40
0.6252126411
 40
0.6632333977
 40
0.6994346684
 40
0.73374994
 40
0.7661157993
 40
0.796472215
 40
0.8108791586
 40
0.8247629518
 40
0.8381171427
 40
0.8509356475
 40
0.8632126136
 40
0.8749425604
 40
0.8861203335
 40
0.8967411557
 40
0.9068007011
 40
0.9162950603
 40
0.9252209434
 40
0.933575593
 40
0.9413571098
 40
0.9485644011
 40
0.9551976342
 40
0.958299501
 40
0.9612586025
 40
0.9640754818
 40
0.9667508428
 40
0.9692855829
 40
0.9716808521
 40
0.9739381397
 40
0.9760593104
 40
0.9780466926
 40
0.9799032085
 40
0.9816325731
 40
0.9832394857
 40
0.9847298884
 40
0.9861113194
 40
0.9873933594
 40
0.9885880943
 40
0.9897105152
 40
0.9907787459
 40
0.9918138506
 40
0.9928390157
 40
0.9938781466
 40
0.9949542679
 40
0.9960881955
 40
0.9972977745
 40
0.9985977427
 40
1.0
 40
1.0
 40
1.0
 40
1.0
 10
5.091614627
 20
3.9112585616
 30
0.0
 10
5.1019293021
 20
3.911966551
 30
0.0
 10
5.1172827986
 20
3.9130358242
 30
0.0
 10
5.1375834245
 20
3.9144901719
 30
0.0
 10
5.1524213599
 20
3.9155753564
 30
0.0
 10
5.1669640402
 20
3.9166633786
 30
0.0
 10
5.1811865675
 20
3.9177542559
 30
0.0
 10
5.1950644073
 20
3.9188480022
 30
0.0
 10
5.2085733921
 20
3.9199446308
 30
0.0
 10
5.2216897815
 20
3.9210441533
 30
0.0
 10
5.234390304
 20
3.9221465793
 30
0.0
 10
5.2466522048
 20
3.923251916
 30
0.0
 10
5.2584532929
 20
3.9243601671
 30
0.0
 10
5.2697719861
 20
3.9254713323
 30
0.0
 10
5.2805873583
 20
3.9265854051
 30
0.0
 10
5.2908791856
 20
3.9277023738
 30
0.0
 10
5.3006279985
 20
3.9288222094
 30
0.0
 10
5.3098151096
 20
3.9299448948
 30
0.0
 10
5.3171096664
 20
3.9308986312
 30
0.0
 10
5.3226505574
 20
3.9316657606
 30
0.0
 10
5.3265820995
 20
3.9322318147
 30
0.0
 10
5.3303603989
 20
3.9327986433
 30
0.0
 10
5.3339835354
 20
3.9333662451
 30
0.0
 10
5.3374496563
 20
3.9339346193
 30
0.0
 10
5.3407569698
 20
3.9345037596
 30
0.0
 10
5.3439037518
 20
3.9350736603
 30
0.0
 10
5.3468883454
 20
3.9356443158
 30
0.0
 10
5.3497091617
 20
3.9362157118
 30
0.0
 10
5.3523646862
 20
3.9367878425
 30
0.0
 10
5.3548534763
 20
3.9373606823
 30
0.0
 10
5.3571741692
 20
3.9379342233
 30
0.0
 10
5.3593254906
 20
3.9385084246
 30
0.0
 10
5.3613062281
 20
3.9390832808
 30
0.0
 10
5.362846391
 20
3.9395731518
 30
0.0
 10
5.3639913231
 20
3.9399670989
 30
0.0
 10
5.3647872841
 20
3.9402561123
 30
0.0
 10
5.3655397548
 20
3.9405453172
 30
0.0
 10
5.3662486229
 20
3.9408347186
 30
0.0
 10
5.3669137801
 20
3.9411243158
 30
0.0
 10
5.3675351255
 20
3.9414141131
 30
0.0
 10
5.3681125707
 20
3.9417041112
 30
0.0
 10
5.3686460358
 20
3.9419943161
 30
0.0
 10
5.3691354466
 20
3.9422847385
 30
0.0
 10
5.369580736
 20
3.9425754009
 30
0.0
 10
5.3699818513
 20
3.9428663321
 30
0.0
 10
5.370338749
 20
3.9431575788
 30
0.0
 10
5.3706513834
 20
3.9434492139
 30
0.0
 10
5.3709196923
 20
3.9437413468
 30
0.0
 10
5.371143581
 20
3.9440341203
 30
0.0
 10
5.3713228921
 20
3.9443276976
 30
0.0
 10
5.3714573569
 20
3.9446222254
 30
0.0
 10
5.3715465882
 20
3.9449177453
 30
0.0
 10
5.3715901586
 20
3.9452140934
 30
0.0
 10
5.3715877858
 20
3.9455108806
 30
0.0
 10
5.3715394554
 20
3.9458076302
 30
0.0
 10
5.3714454095
 20
3.9461039799
 30
0.0
 10
5.371305993
 20
3.9463997884
 30
0.0
 10
5.3711215112
 20
3.9466951192
 30
0.0
 10
5.3708921749
 20
3.9469901056
 30
0.0
 10
5.3707164455
 20
3.9471790996
 30
0.0
 10
5.3706218733
 20
3.9472736732
 30
0.0
  0
SPLINE
  5
269
100
AcDbEntity
  8
0
100
AcDbSpline
 62
7
  6
CONTINUOUS
 70
0
 71
3
 72
102
 73
98
 74
0
 42
0.0000001
 43
0.0000001
 44
0.0000000001
 40
0.0
 40
0.0
 40
0.0
 40
0.0
 40
0.0000843588
 40
0.0001725727
 40
0.0002680267
 40
0.0003734088
 40
0.0004907257
 40
0.0006214343
 40
0.0007665878
 40
0.0009269545
 40
0.0011031009
 40
0.0012954508
 40
0.0015043271
 40
0.00172998
 40
0.0022323249
 40
0.0028036795
 40
0.003444778
 40
0.0041560927
 40
0.004937939
 40
0.0057905274
 40
0.0067139761
 40
0.0077083331
 40
0.0087736076
 40
0.0099097777
 40
0.0123944863
 40
0.0151616602
 40
0.0182101445
 40
0.0215384986
 40
0.0251450386
 40
0.0290278689
 40
0.0331848784
 40
0.0376137833
 40
0.0423120944
 40
0.0472771756
 40
0.0525061886
 40
0.0579961659
 40
0.0697462124
 40
0.0825002594
 40
0.0962288145
 40
0.1109000481
 40
0.1264798818
 40
0.1429320889
 40
0.1602183769
 40
0.1782984826
 40
0.197130281
 40
0.2166698744
 40
0.2368716993
 40
0.257688646
 40
0.3009723326
 40
0.3461172388
 40
0.3927022201
 40
0.4402926525
 40
0.4884444996
 40
0.5367084623
 40
0.5846341987
 40
0.6317745336
 40
0.6776896366
 40
0.7219511564
 40
0.7433320936
 40
0.764146235
 40
0.7843450276
 40
0.8038813687
 40
0.8227097026
 40
0.8407861395
 40
0.8580685631
 40
0.8745167194
 40
0.8900923256
 40
0.9047591647
 40
0.918483169
 40
0.9312325196
 40
0.9429777355
 40
0.9484652507
 40
0.9536917727
 40
0.958654335
 40
0.9633501017
 40
0.9677764375
 40
0.9719308555
 40
0.9758110732
 40
0.9794149818
 40
0.9827406872
 40
0.9857865084
 40
0.9885510064
 40
0.9910330299
 40
0.9921678548
 40
0.9932317833
 40
0.9942247942
 40
0.9951468973
 40
0.9959981416
 40
0.996778647
 40
0.9974886256
 40
0.9981283953
 40
0.9986984321
 40
0.9991994766
 40
0.9994244887
 40
0.9996327327
 40
0.9998244611
 40
1.0
 40
1.0
 40
1.0
 40
1.0
 10
5.4066369863
 20
3.8550503388
 30
0.0
 10
5.4066369863
 20
3.8550273097
 30
0.0
 10
5.4066317298
 20
3.8549800539
 30
0.0
 10
5.4066084397
 20
3.854910211
 30
0.0
 10
5.4065700437
 20
3.8548408461
 30
0.0
 10
5.4065167939
 20
3.8547718957
 30
0.0
 10
5.4064487875
 20
3.8547031924
 30
0.0
 10
5.4063660319
 20
3.8546346224
 30
0.0
 10
5.4062685024
 20
3.8545661121
 30
0.0
 10
5.4061561691
 20
3.854497623
 30
0.0
 10
5.4060290086
 20
3.8544291347
 30
0.0
 10
5.4058870046
 20
3.8543606376
 30
0.0
 10
5.4057301482
 20
3.8542921238
 30
0.0
 10
5.4054925672
 20
3.8541973304
 30
0.0
 10
5.4051576742
 20
3.8540799482
 30
0.0
 10
5.4047097877
 20
3.8539434777
 30
0.0
 10
5.4042026168
 20
3.853806864
 30
0.0
 10
5.4036362025
 20
3.8536701228
 30
0.0
 10
5.4030105834
 20
3.8535332845
 30
0.0
 10
5.402325827
 20
3.8533963695
 30
0.0
 10
5.4015820173
 20
3.8532593925
 30
0.0
 10
5.4007792551
 20
3.8531223646
 30
0.0
 10
5.3999176499
 20
3.85298529
 30
0.0
 10
5.398652317
 20
3.8527968072
 30
0.0
 10
5.3969241153
 20
3.8525629008
 30
0.0
 10
5.3946746815
 20
3.8522896016
 30
0.0
 10
5.392193438
 20
3.852016071
 30
0.0
 10
5.3894818166
 20
3.8517423452
 30
0.0
 10
5.3865413789
 20
3.8514684723
 30
0.0
 10
5.3833738324
 20
3.8511944818
 30
0.0
 10
5.3799810167
 20
3.8509203953
 30
0.0
 10
5.3763649105
 20
3.8506462323
 30
0.0
 10
5.3725276184
 20
3.8503720032
 30
0.0
 10
5.3684713825
 20
3.8500977228
 30
0.0
 10
5.3641985651
 20
3.849823391
 30
0.0
 10
5.3580761507
 20
3.8494490354
 30
0.0
 10
5.3499012564
 20
3.8489834161
 30
0.0
 10
5.3394784243
 20
3.8484361731
 30
0.0
 10
5.3282571333
 20
3.8478886394
 30
0.0
 10
5.3162635867
 20
3.8473408596
 30
0.0
 10
5.30352579
 20
3.8467928882
 30
0.0
 10
5.2900734915
 20
3.8462447599
 30
0.0
 10
5.2759381098
 20
3.8456965035
 30
0.0
 10
5.26115266
 20
3.8451481411
 30
0.0
 10
5.245751677
 20
3.8445996898
 30
0.0
 10
5.2297711339
 20
3.8440511656
 30
0.0
 10
5.2132483577
 20
3.8435025742
 30
0.0
 10
5.1902464954
 20
3.8427614062
 30
0.0
 10
5.1604377122
 20
3.8418393044
 30
0.0
 10
5.1235964546
 20
3.8407461283
 30
0.0
 10
5.0855790058
 20
3.839652617
 30
0.0
 10
5.0467403664
 20
3.8385588751
 30
0.0
 10
5.0074432052
 20
3.8374650139
 30
0.0
 10
4.9680544746
 20
3.8363711291
 30
0.0
 10
4.9289419822
 20
3.8352773149
 30
0.0
 10
4.8904709549
 20
3.8341836762
 30
0.0
 10
4.85300063
 20
3.8330903109
 30
0.0
 10
4.822560362
 20
3.8321692601
 30
0.0
 10
4.7989701093
 20
3.8314291402
 30
0.0
 10
4.7819459912
 20
3.8308804967
 30
0.0
 10
4.7654256978
 20
3.83033191
 30
0.0
 10
4.7494478176
 20
3.8297833849
 30
0.0
 10
4.7340496716
 20
3.8292349344
 30
0.0
 10
4.7192672262
 20
3.8286865723
 30
0.0
 10
4.7051350091
 20
3.8281383165
 30
0.0
 10
4.6916860281
 20
3.8275901889
 30
0.0
 10
4.6789516941
 20
3.8270422183
 30
0.0
 10
4.6669617473
 20
3.8264944394
 30
0.0
 10
4.6557441846
 20
3.8259469071
 30
0.0
 10
4.6453252009
 20
3.8253996657
 30
0.0
 10
4.6371535849
 20
3.824934043
 30
0.0
 10
4.6310338467
 20
3.824559683
 30
0.0
 10
4.6267630732
 20
3.8242853516
 30
0.0
 10
4.6227089042
 20
3.8240110716
 30
0.0
 10
4.6188737009
 20
3.8237368431
 30
0.0
 10
4.6152597041
 20
3.8234626808
 30
0.0
 10
4.6118690173
 20
3.8231885951
 30
0.0
 10
4.6087036177
 20
3.8229146056
 30
0.0
 10
4.6057653437
 20
3.822640734
 30
0.0
 10
4.6030559015
 20
3.8223670097
 30
0.0
 10
4.6005768515
 20
3.8220934813
 30
0.0
 10
4.5983296239
 20
3.8218201847
 30
0.0
 10
4.5966032699
 20
3.8215862745
 30
0.0
 10
4.5953394217
 20
3.8213977856
 30
0.0
 10
4.5944789323
 20
3.8212607118
 30
0.0
 10
4.593677288
 20
3.8211236847
 30
0.0
 10
4.5929345984
 20
3.8209867088
 30
0.0
 10
4.5922509637
 20
3.8208497951
 30
0.0
 10
4.5916264677
 20
3.8207129584
 30
0.0
 10
4.5910611777
 20
3.8205762193
 30
0.0
 10
4.5905551316
 20
3.8204396082
 30
0.0
 10
4.5901083701
 20
3.820303141
 30
0.0
 10
4.5897744201
 20
3.8201857537
 30
0.0
 10
4.5895375988
 20
3.8200909529
 30
0.0
 10
4.5893813053
 20
3.8200224391
 30
0.0
 10
4.5892398688
 20
3.8199539443
 30
0.0
 10
4.5891516417
 20
3.8199062148
 30
0.0
 10
4.5891101535
 20
3.8198822335
 30
0.0
  0
SPLINE
  5
26A
100
AcDbEntity
  8
0
100
AcDbSpline
 62
7
  6
CONTINUOUS
 70
0
 71
3
 72
77
 73
73
 74
0
 42
0.0000001
 43
0.0000001
 44
0.0000000001
 40
0.0
 40
0.0
 40
0.0
 40
0.0
 40
0.0118578542
 40
0.0244461009
 40
0.0377440519
 40
0.0517302581
 40
0.0663818829
 40
0.0816750885
 40
0.0975849402
 40
0.1140854983
 40
0.1487501444
 40
0.185442837
 40
0.223924073
 40
0.2639425961
 40
0.3052370714
 40
0.3475377851
 40
0.3905684346
 40
0.4340479354
 40
0.4776922515
 40
0.5212162794
 40
0.564335691
 40
0.6067688226
 40
0.6482384933
 40
0.6884738583
 40
0.7272121479
 40
0.7642004201
 40
0.7991972265
 40
0.8158769166
 40
0.8319742091
 40
0.8474628546
 40
0.8623176033
 40
0.8765142513
 40
0.890029689
 40
0.9028419368
 40
0.9149301821
 40
0.9262748209
 40
0.9368575017
 40
0.946661164
 40
0.9556700805
 40
0.9598719778
 40
0.9638699311
 40
0.9676623723
 40
0.9712478286
 40
0.974624945
 40
0.9777924369
 40
0.9807491744
 40
0.9834941006
 40
0.9860263287
 40
0.9883450921
 40
0.9904498056
 40
0.9923401028
 40
0.9932048048
 40
0.9940158945
 40
0.9947734229
 40
0.9954774712
 40
0.9961281623
 40
0.9967256893
 40
0.997270327
 40
0.997762457
 40
0.9982026174
 40
0.998591591
 40
0.9989305531
 40
0.9990818469
 40
0.9992213935
 40
0.9993495937
 40
0.999466966
 40
0.9995741871
 40
0.9996721466
 40
0.9997620117
 40
0.9998452912
 40
0.9999238741
 40
1.0
 40
1.0
 40
1.0
 40
1.0
 10
5.3455678349
 20
3.9112585616
 30
0.0
 10
5.3425759579
 20
3.911100362
 30
0.0
 10
5.3364073368
 20
3.9107851386
 30
0.0
 10
5.3268817842
 20
3.9103265313
 30
0.0
 10
5.3168178897
 20
3.9098678102
 30
0.0
 10
5.306232145
 20
3.9094089932
 30
0.0
 10
5.2951418235
 20
3.908950096
 30
0.0
 10
5.2835650709
 20
3.9084911321
 30
0.0
 10
5.2715208092
 20
3.9080321062
 30
0.0
 10
5.2545847632
 20
3.9074097433
 30
0.0
 10
5.2323997012
 20
3.9066353005
 30
0.0
 10
5.2046624965
 20
3.90572006
 30
0.0
 10
5.1755718708
 20
3.9048044568
 30
0.0
 10
5.1453179975
 20
3.9038885625
 30
0.0
 10
5.1140986585
 20
3.9029724553
 30
0.0
 10
5.0821179489
 20
3.902056192
 30
0.0
 10
5.0495849425
 20
3.9011398226
 30
0.0
 10
5.0167123249
 20
3.9002233904
 30
0.0
 10
4.9837150007
 20
3.8993069357
 30
0.0
 10
4.9508086928
 20
3.8983904975
 30
0.0
 10
4.9182085257
 20
3.8974741155
 30
0.0
 10
4.886127626
 20
3.8965578326
 30
0.0
 10
4.8547757201
 20
3.8956416974
 30
0.0
 10
4.8243577715
 20
3.8947257653
 30
0.0
 10
4.7950726335
 20
3.8938101118
 30
0.0
 10
4.7671117552
 20
3.8928948056
 30
0.0
 10
4.7447226957
 20
3.8921205917
 30
0.0
 10
4.727609978
 20
3.8914984791
 30
0.0
 10
4.7154236147
 20
3.8910394372
 30
0.0
 10
4.7036986858
 20
3.8905804544
 30
0.0
 10
4.6924543618
 20
3.8901215348
 30
0.0
 10
4.6817090268
 20
3.8896626913
 30
0.0
 10
4.671480247
 20
3.8892039382
 30
0.0
 10
4.6617847431
 20
3.8887452937
 30
0.0
 10
4.6526383631
 20
3.8882867815
 30
0.0
 10
4.6440560569
 20
3.8878284303
 30
0.0
 10
4.6360518475
 20
3.8873702855
 30
0.0
 10
4.6286388154
 20
3.8869123829
 30
0.0
 10
4.6228369193
 20
3.8865225729
 30
0.0
 10
4.618500179
 20
3.8862091753
 30
0.0
 10
4.6154788526
 20
3.8859796544
 30
0.0
 10
4.6126137473
 20
3.8857501752
 30
0.0
 10
4.6099060315
 20
3.8855207386
 30
0.0
 10
4.6073568117
 20
3.8852913573
 30
0.0
 10
4.6049671224
 20
3.8850620377
 30
0.0
 10
4.6027379394
 20
3.8848327989
 30
0.0
 10
4.6006701613
 20
3.8846036547
 30
0.0
 10
4.5987646258
 20
3.884374632
 30
0.0
 10
4.597022089
 20
3.8841457677
 30
0.0
 10
4.5954432469
 20
3.8839170897
 30
0.0
 10
4.5942309872
 20
3.8837213866
 30
0.0
 10
4.5933438506
 20
3.883563708
 30
0.0
 10
4.5927398128
 20
3.8834490197
 30
0.0
 10
4.5921771335
 20
3.8833343678
 30
0.0
 10
4.5916558658
 20
3.8832197549
 30
0.0
 10
4.591176055
 20
3.8831051886
 30
0.0
 10
4.5907377352
 20
3.8829906796
 30
0.0
 10
4.5903409265
 20
3.8828762414
 30
0.0
 10
4.58998564
 20
3.8827618882
 30
0.0
 10
4.5896718522
 20
3.8826476376
 30
0.0
 10
4.589399547
 20
3.8825334929
 30
0.0
 10
4.5892001363
 20
3.8824350787
 30
0.0
 10
4.5890622326
 20
3.8823555737
 30
0.0
 10
4.5889731762
 20
3.8822982202
 30
0.0
 10
4.5888944989
 20
3.8822408552
 30
0.0
 10
4.5888261916
 20
3.882183456
 30
0.0
 10
4.5887682459
 20
3.8821259927
 30
0.0
 10
4.588720664
 20
3.8820684171
 30
0.0
 10
4.5886834728
 20
3.8820106708
 30
0.0
 10
4.5886567456
 20
3.8819526862
 30
0.0
 10
4.5886406108
 20
3.8818944726
 30
0.0
 10
4.5886369914
 20
3.8818552959
 30
0.0
 10
4.5886369912
 20
3.8818360616
 30
0.0
  0
SPLINE
  5
26B
100
AcDbEntity
  8
0
100
AcDbSpline
 62
7
  6
CONTINUOUS
 70
0
 71
3
 72
100
 73
96
 74
0
 42
0.0000001
 43
0.0000001
 44
0.0000000001
 40
0.0
 40
0.0
 40
0.0
 40
0.0
 40
0.00040125
 40
0.0008680587
 40
0.001402162
 40
0.0020046883
 40
0.0026763963
 40
0.0034177884
 40
0.0042291957
 40
0.0051108427
 40
0.006062876
 40
0.0070853644
 40
0.0081783209
 40
0.0093417275
 40
0.0118796496
 40
0.0146983766
 40
0.0177968129
 40
0.0211735226
 40
0.0248268662
 40
0.0287549314
 40
0.032955648
 40
0.037426703
 40
0.0421656476
 40
0.0471698074
 40
0.0524363854
 40
0.0579623712
 40
0.0697798539
 40
0.082595208
 40
0.0963789465
 40
0.1110992615
 40
0.1267221149
 40
0.143211323
 40
0.1605286592
 40
0.1786339502
 40
0.1974851619
 40
0.2170385125
 40
0.2372485798
 40
0.258068394
 40
0.2794495601
 40
0.3236959372
 40
0.3695764171
 40
0.4166644453
 40
0.4645221889
 40
0.51270462
 40
0.5607636928
 40
0.6082525043
 40
0.654729474
 40
0.6997624796
 40
0.7429328741
 40
0.7636934255
 40
0.7838394292
 40
0.8033240744
 40
0.8221020901
 40
0.8401298667
 40
0.8573655605
 40
0.873769183
 40
0.8893027085
 40
0.9039301714
 40
0.9176177503
 40
0.9303338644
 40
0.9420492715
 40
0.9475232452
 40
0.9527371731
 40
0.9576881227
 40
0.9623732859
 40
0.9667900706
 40
0.9709360176
 40
0.9748088997
 40
0.978406638
 40
0.9817274121
 40
0.9847695822
 40
0.9875318171
 40
0.990013038
 40
0.9911480641
 40
0.9922126261
 40
0.9932067103
 40
0.9941303641
 40
0.9949836897
 40
0.9957668516
 40
0.9964801061
 40
0.9971238599
 40
0.99769871
 40
0.998205533
 40
0.9984338538
 40
0.9986457254
 40
0.9988414401
 40
0.9990213708
 40
0.9991859993
 40
0.9993359568
 40
0.9994720811
 40
0.999595494
 40
0.9997077026
 40
0.9998107109
 40
0.9999070989
 40
1.0
 40
1.0
 40
1.0
 40
1.0
 10
4.6278193501
 20
3.8422595832
 30
0.0
 10
4.6279052336
 20
3.8423092387
 30
0.0
 10
4.6280966224
 20
3.8424070208
 30
0.0
 10
4.6284156765
 20
3.8425430433
 30
0.0
 10
4.6287881362
 20
3.8426792491
 30
0.0
 10
4.6292140272
 20
3.8428156026
 30
0.0
 10
4.6296933921
 20
3.8429520811
 30
0.0
 10
4.6302262042
 20
3.8430886609
 30
0.0
 10
4.6308124171
 20
3.8432253245
 30
0.0
 10
4.6314519666
 20
3.8433620556
 30
0.0
 10
4.6321447762
 20
3.8434988404
 30
0.0
 10
4.6328907541
 20
3.8436356694
 30
0.0
 10
4.6336897955
 20
3.8437725405
 30
0.0
 10
4.634860142
 20
3.8439605765
 30
0.0
 10
4.6364552502
 20
3.8441940127
 30
0.0
 10
4.6385278451
 20
3.8444669381
 30
0.0
 10
4.6408094151
 20
3.8447400752
 30
0.0
 10
4.6432986536
 20
3.8450133981
 30
0.0
 10
4.6459941278
 20
3.8452868559
 30
0.0
 10
4.648894285
 20
3.8455604284
 30
0.0
 10
4.6519974402
 20
3.8458340883
 30
0.0
 10
4.6553017985
 20
3.8461078249
 30
0.0
 10
4.6588054348
 20
3.846381621
 30
0.0
 10
4.6625063179
 20
3.8466554699
 30
0.0
 10
4.6664022898
 20
3.8469293647
 30
0.0
 10
4.6719799009
 20
3.8473030204
 30
0.0
 10
4.6794219043
 20
3.8477678125
 30
0.0
 10
4.6889043122
 20
3.8483142071
 30
0.0
 10
4.6991055028
 20
3.8488608836
 30
0.0
 10
4.7100017335
 20
3.8494077997
 30
0.0
 10
4.7215676449
 20
3.8499549026
 30
0.0
 10
4.7337763138
 20
3.8505021586
 30
0.0
 10
4.7465993193
 20
3.8510495398
 30
0.0
 10
4.7600068089
 20
3.851597025
 30
0.0
 10
4.7739675681
 20
3.8521445967
 30
0.0
 10
4.7884490937
 20
3.8526922414
 30
0.0
 10
4.8034176699
 20
3.8532399466
 30
0.0
 10
4.8188384458
 20
3.8537877074
 30
0.0
 10
4.8401989069
 20
3.8545265469
 30
0.0
 10
4.8677528077
 20
3.8554460338
 30
0.0
 10
4.9016602344
 20
3.8565376575
 30
0.0
 10
4.9364609748
 20
3.8576295491
 30
0.0
 10
4.9718311176
 20
3.8587216117
 30
0.0
 10
5.0074414523
 20
3.8598137419
 30
0.0
 10
5.0429605303
 20
3.8609058461
 30
0.0
 10
5.0780577536
 20
3.8619978295
 30
0.0
 10
5.1124064525
 20
3.8630895814
 30
0.0
 10
5.1456869241
 20
3.8641809978
 30
0.0
 10
5.1726114348
 20
3.8651016415
 30
0.0
 10
5.193385436
 20
3.8658416335
 30
0.0
 10
5.2083065025
 20
3.8663893373
 30
0.0
 10
5.2227370693
 20
3.8669369741
 30
0.0
 10
5.2366435387
 20
3.8674845381
 30
0.0
 10
5.2499935339
 20
3.8680320135
 30
0.0
 10
5.2627559747
 20
3.8685793832
 30
0.0
 10
5.2749011496
 20
3.8691266252
 30
0.0
 10
5.2864007854
 20
3.8696737109
 30
0.0
 10
5.2972281138
 20
3.8702206056
 30
0.0
 10
5.3073579363
 20
3.8707672553
 30
0.0
 10
5.3167666763
 20
3.8713136156
 30
0.0
 10
5.3241459205
 20
3.8717784807
 30
0.0
 10
5.3296722964
 20
3.8721522266
 30
0.0
 10
5.3335291394
 20
3.8724261151
 30
0.0
 10
5.3371904449
 20
3.8726999522
 30
0.0
 10
5.340654089
 20
3.8729737389
 30
0.0
 10
5.3439180537
 20
3.8732474592
 30
0.0
 10
5.3469804488
 20
3.8735211051
 30
0.0
 10
5.3498394924
 20
3.8737946542
 30
0.0
 10
5.3524935345
 20
3.8740680895
 30
0.0
 10
5.3549410365
 20
3.8743413768
 30
0.0
 10
5.3571806025
 20
3.8746144756
 30
0.0
 10
5.3592109422
 20
3.8748873432
 30
0.0
 10
5.3607706599
 20
3.8751208638
 30
0.0
 10
5.3619125633
 20
3.8753090209
 30
0.0
 10
5.362690234
 20
3.8754458769
 30
0.0
 10
5.3634147956
 20
3.8755826897
 30
0.0
 10
5.3640861513
 20
3.8757194547
 30
0.0
 10
5.3647042168
 20
3.8758561594
 30
0.0
 10
5.3652689175
 20
3.8759927902
 30
0.0
 10
5.3657801915
 20
3.8761293338
 30
0.0
 10
5.3662380115
 20
3.8762657637
 30
0.0
 10
5.36664235
 20
3.8764020651
 30
0.0
 10
5.3669444755
 20
3.8765192348
 30
0.0
 10
5.3671587104
 20
3.8766138002
 30
0.0
 10
5.3673003023
 20
3.8766822236
 30
0.0
 10
5.367428492
 20
3.8767506365
 30
0.0
 10
5.3675432887
 20
3.8768190485
 30
0.0
 10
5.3676447064
 20
3.8768874707
 30
0.0
 10
5.3677327623
 20
3.8769559254
 30
0.0
 10
5.3678074729
 20
3.8770244516
 30
0.0
 10
5.3678688447
 20
3.8770931143
 30
0.0
 10
5.3679168505
 20
3.8771620035
 30
0.0
 10
5.3679513947
 20
3.8772312318
 30
0.0
 10
5.3679722849
 20
3.8773008112
 30
0.0
 10
5.3679769812
 20
3.8773477314
 30
0.0
 10
5.3679769812
 20
3.8773707002
 30
0.0
  0
SPLINE
  5
26C
100
AcDbEntity
  8
0
100
AcDbSpline
 62
7
  6
CONTINUOUS
 70
0
 71
3
 72
100
 73
96
 74
0
 42
0.0000001
 43
0.0000001
 44
0.0000000001
 40
0.0
 40
0.0
 40
0.0
 40
0.0
 40
0.0000929012
 40
0.0001892893
 40
0.0002922976
 40
0.0004045058
 40
0.0005279179
 40
0.0006640418
 40
0.0008139995
 40
0.0009786285
 40
0.0011585599
 40
0.0013542751
 40
0.0015661467
 40
0.0017944668
 40
0.0023012886
 40
0.0028761398
 40
0.0035198948
 40
0.0042331485
 40
0.0050163091
 40
0.0058696356
 40
0.0067932903
 40
0.0077873734
 40
0.0088519343
 40
0.0099869611
 40
0.0124681821
 40
0.0152304176
 40
0.0182725879
 40
0.0215933619
 40
0.0251910994
 40
0.0290639813
 40
0.0332099282
 40
0.0376267139
 40
0.0423118774
 40
0.0472628272
 40
0.0524767541
 40
0.0579507274
 40
0.0696661352
 40
0.0823822502
 40
0.0960698275
 40
0.1106972907
 40
0.1262308177
 40
0.1426344386
 40
0.1598701321
 40
0.177897911
 40
0.196675925
 40
0.2161605693
 40
0.2363065759
 40
0.2570671256
 40
0.3002375221
 40
0.3452705245
 40
0.3917474964
 40
0.4392363092
 40
0.4872953796
 40
0.5354778134
 40
0.5833355567
 40
0.630423584
 40
0.6763040668
 40
0.7205504421
 40
0.7419316103
 40
0.7627514223
 40
0.7829614896
 40
0.8025148422
 40
0.8213660519
 40
0.8394713426
 40
0.8567886805
 40
0.8732778869
 40
0.8889007398
 40
0.903621056
 40
0.9174047934
 40
0.9302201469
 40
0.9420376302
 40
0.9475636203
 40
0.9528301935
 40
0.9578343579
 40
0.9625732972
 40
0.9670443579
 40
0.9712450691
 40
0.9751731404
 40
0.9788264777
 40
0.9822031936
 40
0.9853016232
 40
0.9881203571
 40
0.9906582724
 40
0.9918216815
 40
0.9929146428
 40
0.9939371297
 40
0.9948891572
 40
0.9957708069
 40
0.9965822189
 40
0.9973236089
 40
0.9979953113
 40
0.9985978407
 40
0.9991319486
 40
0.9995987549
 40
1.0
 40
1.0
 40
1.0
 40
1.0
 10
4.627296991
 20
3.7166557002
 30
0.0
 10
4.6272969913
 20
3.7166786691
 30
0.0
 10
4.627301688
 20
3.7167255893
 30
0.0
 10
4.6273225788
 20
3.7167951686
 30
0.0
 10
4.627357123
 20
3.7168643968
 30
0.0
 10
4.627405128
 20
3.716933286
 30
0.0
 10
4.6274664989
 20
3.717001949
 30
0.0
 10
4.6275412094
 20
3.7170704751
 30
0.0
 10
4.6276292654
 20
3.7171389298
 30
0.0
 10
4.6277306836
 20
3.7172073519
 30
0.0
 10
4.6278454808
 20
3.7172757638
 30
0.0
 10
4.6279736709
 20
3.7173441767
 30
0.0
 10
4.6281152627
 20
3.7174126001
 30
0.0
 10
4.628329497
 20
3.7175071657
 30
0.0
 10
4.6286316221
 20
3.7176243356
 30
0.0
 10
4.629035961
 20
3.7177606367
 30
0.0
 10
4.6294937815
 20
3.7178970664
 30
0.0
 10
4.6300050552
 20
3.7180336103
 30
0.0
 10
4.6305697555
 20
3.7181702413
 30
0.0
 10
4.6311878212
 20
3.7183069457
 30
0.0
 10
4.631859177
 20
3.7184437106
 30
0.0
 10
4.6325837383
 20
3.7185805236
 30
0.0
 10
4.6333614087
 20
3.7187173797
 30
0.0
 10
4.634503312
 20
3.7189055364
 30
0.0
 10
4.63606303
 20
3.7191390573
 30
0.0
 10
4.6380933699
 20
3.7194119248
 30
0.0
 10
4.6403329361
 20
3.7196850237
 30
0.0
 10
4.642780438
 20
3.7199583109
 30
0.0
 10
4.6454344799
 20
3.7202317463
 30
0.0
 10
4.6482935231
 20
3.7205052953
 30
0.0
 10
4.6513559184
 20
3.7207789412
 30
0.0
 10
4.6546198833
 20
3.7210526615
 30
0.0
 10
4.6580835278
 20
3.7213264483
 30
0.0
 10
4.6617448331
 20
3.7216002853
 30
0.0
 10
4.6656016758
 20
3.7218741739
 30
0.0
 10
4.6711280515
 20
3.7222479197
 30
0.0
 10
4.678507296
 20
3.7227127848
 30
0.0
 10
4.687916036
 20
3.7232591451
 30
0.0
 10
4.6980458584
 20
3.7238057948
 30
0.0
 10
4.7088731868
 20
3.7243526896
 30
0.0
 10
4.7203728226
 20
3.7248997753
 30
0.0
 10
4.7325179973
 20
3.7254470172
 30
0.0
 10
4.7452804381
 20
3.7259943869
 30
0.0
 10
4.7586304334
 20
3.7265418624
 30
0.0
 10
4.7725369026
 20
3.7270894263
 30
0.0
 10
4.7869674694
 20
3.7276370632
 30
0.0
 10
4.801888536
 20
3.728184767
 30
0.0
 10
4.8226625379
 20
3.728924759
 30
0.0
 10
4.8495870478
 20
3.7298454027
 30
0.0
 10
4.8828675195
 20
3.730936819
 30
0.0
 10
4.9172162184
 20
3.7320285709
 30
0.0
 10
4.9523134418
 20
3.7331205543
 30
0.0
 10
4.9878325201
 20
3.7342126586
 30
0.0
 10
5.0234428546
 20
3.7353047888
 30
0.0
 10
5.0588129976
 20
3.7363968514
 30
0.0
 10
5.0936137383
 20
3.7374887429
 30
0.0
 10
5.1275211649
 20
3.7385803667
 30
0.0
 10
5.1550750664
 20
3.7394998536
 30
0.0
 10
5.1764355269
 20
3.7402386931
 30
0.0
 10
5.1918563027
 20
3.7407864539
 30
0.0
 10
5.2068248788
 20
3.741334159
 30
0.0
 10
5.2213064044
 20
3.7418818038
 30
0.0
 10
5.2352671634
 20
3.7424293755
 30
0.0
 10
5.2486746528
 20
3.7429768606
 30
0.0
 10
5.2614976583
 20
3.7435242419
 30
0.0
 10
5.2737063269
 20
3.7440714979
 30
0.0
 10
5.2852722381
 20
3.7446186007
 30
0.0
 10
5.2961684686
 20
3.7451655168
 30
0.0
 10
5.3063696591
 20
3.7457121934
 30
0.0
 10
5.3158520667
 20
3.7462585878
 30
0.0
 10
5.323294071
 20
3.7467233804
 30
0.0
 10
5.3288716822
 20
3.7470970354
 30
0.0
 10
5.3327676551
 20
3.747370931
 30
0.0
 10
5.3364685369
 20
3.747644779
 30
0.0
 10
5.3399721743
 20
3.7479185761
 30
0.0
 10
5.3432765314
 20
3.7481923116
 30
0.0
 10
5.3463796881
 20
3.7484659727
 30
0.0
 10
5.3492798441
 20
3.7487395439
 30
0.0
 10
5.3519753196
 20
3.7490130032
 30
0.0
 10
5.3544645566
 20
3.7492863243
 30
0.0
 10
5.3567461279
 20
3.7495594634
 30
0.0
 10
5.3588187214
 20
3.7498323867
 30
0.0
 10
5.36041383
 20
3.7500658246
 30
0.0
 10
5.3615841767
 20
3.7502538602
 30
0.0
 10
5.3623832197
 20
3.7503907307
 30
0.0
 10
5.3631291969
 20
3.7505275596
 30
0.0
 10
5.3638220051
 20
3.7506643457
 30
0.0
 10
5.3644615552
 20
3.7508010762
 30
0.0
 10
5.3650477696
 20
3.7509377389
 30
0.0
 10
5.365580581
 20
3.7510743188
 30
0.0
 10
5.3660599442
 20
3.751210799
 30
0.0
 10
5.366485836
 20
3.7513471517
 30
0.0
 10
5.3668582974
 20
3.7514833562
 30
0.0
 10
5.367177351
 20
3.7516193788
 30
0.0
 10
5.367368737
 20
3.7517171623
 30
0.0
 10
5.3674546193
 20
3.7517668172
 30
0.0
  0
SPLINE
  5
26D
100
AcDbEntity
  8
0
100
AcDbSpline
 62
7
  6
CONTINUOUS
 70
0
 71
3
 72
100
 73
96
 74
0
 42
0.0000001
 43
0.0000001
 44
0.0000000001
 40
0.0
 40
0.0
 40
0.0
 40
0.0
 40
0.0004012459
 40
0.000868048
 40
0.0014021561
 40
0.0020046885
 40
0.0026763915
 40
0.003417777
 40
0.0042291896
 40
0.0051108426
 40
0.0060628706
 40
0.0070853532
 40
0.0081783157
 40
0.0093417282
 40
0.011879639
 40
0.0146983769
 40
0.0177968015
 40
0.0211735219
 40
0.0248268552
 40
0.0287549318
 40
0.0329556384
 40
0.037426703
 40
0.0421656369
 40
0.0471698058
 40
0.0524363749
 40
0.0579623708
 40
0.0697798536
 40
0.0825952055
 40
0.0963789448
 40
0.1110992609
 40
0.1267221114
 40
0.1432113199
 40
0.1605286583
 40
0.1786339459
 40
0.1974851576
 40
0.2170385112
 40
0.237248575
 40
0.2580683887
 40
0.2794495585
 40
0.3236959314
 40
0.369576413
 40
0.4166644436
 40
0.4645221836
 40
0.5127046188
 40
0.5607636915
 40
0.6082525009
 40
0.6547294757
 40
0.6997624794
 40
0.7429328731
 40
0.7636934257
 40
0.7838394324
 40
0.8033240745
 40
0.8221020906
 40
0.8401298699
 40
0.8573655616
 40
0.8737691836
 40
0.8893027115
 40
0.9039301731
 40
0.9176177508
 40
0.9303338669
 40
0.9420492733
 40
0.9475232427
 40
0.9527371734
 40
0.9576881207
 40
0.9623732877
 40
0.9667900699
 40
0.9709360192
 40
0.9748088979
 40
0.9784066383
 40
0.9817274104
 40
0.9847695832
 40
0.9875318164
 40
0.990013039
 40
0.9911480627
 40
0.9922126248
 40
0.9932067114
 40
0.9941303641
 40
0.9949836879
 40
0.9957668504
 40
0.9964801073
 40
0.9971238601
 40
0.9976987086
 40
0.9982055323
 40
0.9984338546
 40
0.9986457267
 40
0.9988414411
 40
0.9990213711
 40
0.9991859987
 40
0.9993359556
 40
0.9994720797
 40
0.9995954932
 40
0.9997077027
 40
0.9998107111
 40
0.999907099
 40
1.0
 40
1.0
 40
1.0
 40
1.0
 10
4.6278193544
 20
3.6993995832
 30
0.0
 10
4.6279052371
 20
3.6994492379
 30
0.0
 10
4.6280966225
 20
3.6995470208
 30
0.0
 10
4.6284156743
 20
3.6996830451
 30
0.0
 10
4.6287881359
 20
3.699819249
 30
0.0
 10
4.6292140288
 20
3.6999556011
 30
0.0
 10
4.6296933919
 20
3.700092081
 30
0.0
 10
4.6302262021
 20
3.7002286621
 30
0.0
 10
4.6308124165
 20
3.7003653243
 30
0.0
 10
4.6314519677
 20
3.7005020545
 30
0.0
 10
4.6321447758
 20
3.7006388404
 30
0.0
 10
4.6328907522
 20
3.7007756702
 30
0.0
 10
4.6336897954
 20
3.7009125404
 30
0.0
 10
4.6348601422
 20
3.7011005752
 30
0.0
 10
4.6364552513
 20
3.7013340146
 30
0.0
 10
4.6385278437
 20
3.7016069363
 30
0.0
 10
4.6408094156
 20
3.7018800767
 30
0.0
 10
4.6432986517
 20
3.7021533966
 30
0.0
 10
4.6459941285
 20
3.7024268571
 30
0.0
 10
4.6488942837
 20
3.7027004272
 30
0.0
 10
4.6519974415
 20
3.7029740894
 30
0.0
 10
4.6553017972
 20
3.7032478239
 30
0.0
 10
4.6588054352
 20
3.7035216218
 30
0.0
 10
4.6625063159
 20
3.703795469
 30
0.0
 10
4.6664022902
 20
3.7040693654
 30
0.0
 10
4.6719799018
 20
3.7044430197
 30
0.0
 10
4.679421907
 20
3.7049078127
 30
0.0
 10
4.6889043145
 20
3.705454207
 30
0.0
 10
4.699105505
 20
3.7060008836
 30
0.0
 10
4.7100017355
 20
3.7065477997
 30
0.0
 10
4.7215676465
 20
3.7070949026
 30
0.0
 10
4.7337763152
 20
3.7076421586
 30
0.0
 10
4.7465993204
 20
3.7081895398
 30
0.0
 10
4.7600068097
 20
3.7087370249
 30
0.0
 10
4.7739675687
 20
3.7092845967
 30
0.0
 10
4.7884490942
 20
3.7098322414
 30
0.0
 10
4.80341767
 20
3.7103799466
 30
0.0
 10
4.8188384458
 20
3.7109277074
 30
0.0
 10
4.8401989066
 20
3.7116665469
 30
0.0
 10
4.8677528076
 20
3.7125860338
 30
0.0
 10
4.901660234
 20
3.7136776575
 30
0.0
 10
4.9364609744
 20
3.7147695491
 30
0.0
 10
4.9718311178
 20
3.7158616117
 30
0.0
 10
5.0074414524
 20
3.7169537419
 30
0.0
 10
5.0429605307
 20
3.7180458461
 30
0.0
 10
5.0780577545
 20
3.7191378296
 30
0.0
 10
5.1124064536
 20
3.7202295814
 30
0.0
 10
5.1456869256
 20
3.7213209978
 30
0.0
 10
5.1726114358
 20
3.7222416415
 30
0.0
 10
5.1933854377
 20
3.7229816335
 30
0.0
 10
5.2083065045
 20
3.7235293373
 30
0.0
 10
5.2227370712
 20
3.7240769742
 30
0.0
 10
5.2366435406
 20
3.7246245381
 30
0.0
 10
5.249993536
 20
3.7251720136
 30
0.0
 10
5.2627559768
 20
3.7257193832
 30
0.0
 10
5.2749011515
 20
3.7262666252
 30
0.0
 10
5.2864007874
 20
3.7268137109
 30
0.0
 10
5.2972281158
 20
3.7273606057
 30
0.0
 10
5.3073579381
 20
3.7279072553
 30
0.0
 10
5.316766678
 20
3.7284536157
 30
0.0
 10
5.3241459216
 20
3.7289184805
 30
0.0
 10
5.3296722969
 20
3.7292922268
 30
0.0
 10
5.3335291389
 20
3.7295661148
 30
0.0
 10
5.3371904454
 20
3.7298399525
 30
0.0
 10
5.3406540893
 20
3.7301137387
 30
0.0
 10
5.3439180548
 20
3.7303874596
 30
0.0
 10
5.346980449
 20
3.7306611048
 30
0.0
 10
5.3498394928
 20
3.7309346545
 30
0.0
 10
5.3524935341
 20
3.7312080892
 30
0.0
 10
5.3549410368
 20
3.7314813771
 30
0.0
 10
5.3571806026
 20
3.7317544753
 30
0.0
 10
5.3592109429
 20
3.7320273436
 30
0.0
 10
5.3607706601
 20
3.7322608635
 30
0.0
 10
5.3619125632
 20
3.7324490211
 30
0.0
 10
5.362690234
 20
3.7325858771
 30
0.0
 10
5.3634147961
 20
3.7327226894
 30
0.0
 10
5.3640861516
 20
3.7328594546
 30
0.0
 10
5.3647042164
 20
3.7329961596
 30
0.0
 10
5.3652689174
 20
3.7331327905
 30
0.0
 10
5.365780192
 20
3.7332693334
 30
0.0
 10
5.3662380119
 20
3.7334057637
 30
0.0
 10
5.3666423498
 20
3.7335420655
 30
0.0
 10
5.3669444753
 20
3.7336592352
 30
0.0
 10
5.3671587112
 20
3.7337538001
 30
0.0
 10
5.3673003035
 20
3.7338222236
 30
0.0
 10
5.3674284931
 20
3.7338906365
 30
0.0
 10
5.3675432892
 20
3.7339590486
 30
0.0
 10
5.3676447062
 20
3.7340274708
 30
0.0
 10
5.3677327615
 20
3.7340959256
 30
0.0
 10
5.367807472
 20
3.7341644519
 30
0.0
 10
5.3678688443
 20
3.7342331145
 30
0.0
 10
5.3679168513
 20
3.7343020033
 30
0.0
 10
5.3679513958
 20
3.7343712317
 30
0.0
 10
5.3679722858
 20
3.7344408112
 30
0.0
 10
5.3679769817
 20
3.7344877314
 30
0.0
 10
5.3679769815
 20
3.7345107002
 30
0.0
  0
SPLINE
  5
26E
100
AcDbEntity
  8
0
100
AcDbSpline
 62
7
  6
CONTINUOUS
 70
0
 71
3
 72
100
 73
96
 74
0
 42
0.0000001
 43
0.0000001
 44
0.0000000001
 40
0.0
 40
0.0
 40
0.0
 40
0.0
 40
0.0000929013
 40
0.0001892897
 40
0.0002922983
 40
0.0004045062
 40
0.0005279171
 40
0.0006640401
 40
0.0008139978
 40
0.0009786275
 40
0.00115856
 40
0.0013542762
 40
0.0015661482
 40
0.0017944678
 40
0.0023012866
 40
0.0028761387
 40
0.003519896
 40
0.0042331494
 40
0.0050163069
 40
0.0058696345
 40
0.0067932916
 40
0.0077873743
 40
0.008851932
 40
0.0099869603
 40
0.0124681831
 40
0.0152304168
 40
0.0182725886
 40
0.0215933611
 40
0.0251910999
 40
0.0290639808
 40
0.0332099287
 40
0.0376267136
 40
0.0423118775
 40
0.0472628267
 40
0.0524767538
 40
0.0579507272
 40
0.0696661353
 40
0.08238225
 40
0.0960698276
 40
0.1106972913
 40
0.1262308177
 40
0.1426344388
 40
0.159870133
 40
0.177897911
 40
0.1966759253
 40
0.2161605703
 40
0.2363065758
 40
0.2570671258
 40
0.3002375219
 40
0.3452705247
 40
0.3917474959
 40
0.4392363082
 40
0.4872953781
 40
0.535477811
 40
0.583335554
 40
0.6304235805
 40
0.6763040621
 40
0.7205504377
 40
0.7419316051
 40
0.7627514175
 40
0.7829614848
 40
0.802514837
 40
0.8213660472
 40
0.8394713378
 40
0.8567886757
 40
0.8732778826
 40
0.8889007355
 40
0.903621052
 40
0.9174047898
 40
0.9302201435
 40
0.9420376273
 40
0.9475636159
 40
0.9528301909
 40
0.9578343527
 40
0.962573295
 40
0.9670443524
 40
0.9712450674
 40
0.9751731346
 40
0.9788264764
 40
0.9822031872
 40
0.9853016223
 40
0.9881203504
 40
0.9906582719
 40
0.9918216824
 40
0.9929146357
 40
0.9939371206
 40
0.994889157
 40
0.9957708075
 40
0.9965822114
 40
0.9973236001
 40
0.9979953115
 40
0.998597841
 40
0.9991319409
 40
0.9995987466
 40
1.0
 40
1.0
 40
1.0
 40
1.0
 10
4.6272969904
 20
3.7880857002
 30
0.0
 10
4.6272969909
 20
3.7881086691
 30
0.0
 10
4.6273016883
 20
3.7881555894
 30
0.0
 10
4.6273225798
 20
3.7882251686
 30
0.0
 10
4.6273571244
 20
3.7882943967
 30
0.0
 10
4.6274051291
 20
3.7883632857
 30
0.0
 10
4.6274664986
 20
3.7884319491
 30
0.0
 10
4.6275412083
 20
3.7885004754
 30
0.0
 10
4.6276292643
 20
3.78856893
 30
0.0
 10
4.6277306831
 20
3.788637352
 30
0.0
 10
4.6278454811
 20
3.7887057638
 30
0.0
 10
4.627973672
 20
3.7887741766
 30
0.0
 10
4.6281152641
 20
3.7888426
 30
0.0
 10
4.6283294976
 20
3.7889371656
 30
0.0
 10
4.6286316217
 20
3.7890543364
 30
0.0
 10
4.6290359608
 20
3.7891906368
 30
0.0
 10
4.6294937822
 20
3.7893270662
 30
0.0
 10
4.6300050555
 20
3.78946361
 30
0.0
 10
4.6305697551
 20
3.7896002418
 30
0.0
 10
4.631187821
 20
3.7897369458
 30
0.0
 10
4.6318591777
 20
3.7898737103
 30
0.0
 10
4.6325837387
 20
3.7900105234
 30
0.0
 10
4.6333614084
 20
3.7901473801
 30
0.0
 10
4.6345033119
 20
3.7903355363
 30
0.0
 10
4.6360630302
 20
3.7905690572
 30
0.0
 10
4.6380933705
 20
3.790841925
 30
0.0
 10
4.6403329363
 20
3.7911150236
 30
0.0
 10
4.6427804385
 20
3.7913883111
 30
0.0
 10
4.64543448
 20
3.7916617461
 30
0.0
 10
4.6482935236
 20
3.7919352954
 30
0.0
 10
4.6513559187
 20
3.7922089411
 30
0.0
 10
4.6546198838
 20
3.7924826616
 30
0.0
 10
4.658083528
 20
3.7927564483
 30
0.0
 10
4.6617448334
 20
3.7930302854
 30
0.0
 10
4.665601676
 20
3.7933041739
 30
0.0
 10
4.6711280519
 20
3.7936779197
 30
0.0
 10
4.6785072965
 20
3.7941427848
 30
0.0
 10
4.6879160365
 20
3.7946891452
 30
0.0
 10
4.698045859
 20
3.7952357948
 30
0.0
 10
4.7088731875
 20
3.7957826896
 30
0.0
 10
4.7203728234
 20
3.7963297753
 30
0.0
 10
4.7325179982
 20
3.7968770173
 30
0.0
 10
4.7452804391
 20
3.7974243869
 30
0.0
 10
4.7586304344
 20
3.7979718624
 30
0.0
 10
4.7725369038
 20
3.7985194263
 30
0.0
 10
4.7869674706
 20
3.7990670632
 30
0.0
 10
4.8018885372
 20
3.799614767
 30
0.0
 10
4.8226625389
 20
3.800354759
 30
0.0
 10
4.8495870489
 20
3.8012754027
 30
0.0
 10
4.8828675206
 20
3.8023668191
 30
0.0
 10
4.9172162194
 20
3.8034585709
 30
0.0
 10
4.9523134424
 20
3.8045505544
 30
0.0
 10
4.9878325204
 20
3.8056426586
 30
0.0
 10
5.0234428546
 20
3.8067347888
 30
0.0
 10
5.0588129973
 20
3.8078268514
 30
0.0
 10
5.0936137375
 20
3.8089187429
 30
0.0
 10
5.1275211638
 20
3.8100103667
 30
0.0
 10
5.1550750649
 20
3.8109298536
 30
0.0
 10
5.1764355255
 20
3.8116686931
 30
0.0
 10
5.1918563013
 20
3.8122164539
 30
0.0
 10
5.2068248774
 20
3.812764159
 30
0.0
 10
5.2213064031
 20
3.8133118038
 30
0.0
 10
5.2352671622
 20
3.8138593755
 30
0.0
 10
5.2486746518
 20
3.8144068606
 30
0.0
 10
5.2614976574
 20
3.8149542419
 30
0.0
 10
5.2737063262
 20
3.8155014979
 30
0.0
 10
5.2852722375
 20
3.8160486007
 30
0.0
 10
5.2961684683
 20
3.8165955168
 30
0.0
 10
5.3063696591
 20
3.8171421934
 30
0.0
 10
5.3158520669
 20
3.8176885879
 30
0.0
 10
5.3232940711
 20
3.8181533803
 30
0.0
 10
5.3288716825
 20
3.8185270356
 30
0.0
 10
5.3327676549
 20
3.8188009308
 30
0.0
 10
5.3364685372
 20
3.8190747793
 30
0.0
 10
5.3399721739
 20
3.8193485757
 30
0.0
 10
5.3432765318
 20
3.819622312
 30
0.0
 10
5.3463796877
 20
3.8198959723
 30
0.0
 10
5.3492798446
 20
3.8201695444
 30
0.0
 10
5.3519753191
 20
3.8204430025
 30
0.0
 10
5.3544645572
 20
3.8207163251
 30
0.0
 10
5.3567461273
 20
3.8209894625
 30
0.0
 10
5.3588187222
 20
3.8212623875
 30
0.0
 10
5.3604138313
 20
3.8214958247
 30
0.0
 10
5.361584178
 20
3.8216838595
 30
0.0
 10
5.3623832187
 20
3.821820731
 30
0.0
 10
5.3631291955
 20
3.8219575606
 30
0.0
 10
5.363822006
 20
3.822094345
 30
0.0
 10
5.3644615565
 20
3.8222310753
 30
0.0
 10
5.3650477684
 20
3.8223677394
 30
0.0
 10
5.3655805794
 20
3.8225043201
 30
0.0
 10
5.3660599453
 20
3.822640798
 30
0.0
 10
5.3664858375
 20
3.8227771505
 30
0.0
 10
5.366858296
 20
3.8229133571
 30
0.0
 10
5.3671773489
 20
3.8230493807
 30
0.0
 10
5.367368738
 20
3.8231471622
 30
0.0
 10
5.3674546227
 20
3.8231968172
 30
0.0
  0
SPLINE
  5
26F
100
AcDbEntity
  8
0
100
AcDbSpline
 62
7
  6
CONTINUOUS
 70
0
 71
3
 72
20
 73
16
 74
0
 42
0.0000001
 43
0.0000001
 44
0.0000000001
 40
0.0
 40
0.0
 40
0.0
 40
0.0
 40
0.1972595729
 40
0.3715151517
 40
0.5232776601
 40
0.5909717633
 40
0.6533733464
 40
0.7106589365
 40
0.7630579537
 40
0.8108720351
 40
0.8544984822
 40
0.8944598301
 40
0.9314344769
 40
0.9662758784
 40
1.0
 40
1.0
 40
1.0
 40
1.0
 10
5.4052639793
 20
3.7112585616
 30
0.0
 10
5.4053719513
 20
3.7112952192
 30
0.0
 10
5.4055741285
 20
3.7113678569
 30
0.0
 10
5.4058537514
 20
3.7114835189
 30
0.0
 10
5.4060585683
 20
3.7115832558
 30
0.0
 10
5.4062002299
 20
3.7116638429
 30
0.0
 10
5.4062916916
 20
3.7117219626
 30
0.0
 10
5.4063724925
 20
3.7117800927
 30
0.0
 10
5.4064426421
 20
3.7118382567
 30
0.0
 10
5.4065021511
 20
3.7118964848
 30
0.0
 10
5.4065510201
 20
3.7119548265
 30
0.0
 10
5.4065892228
 20
3.7120133442
 30
0.0
 10
5.4066166832
 20
3.7120721109
 30
0.0
 10
5.4066332655
 20
3.71213112
 30
0.0
 10
5.4066369866
 20
3.7121708447
 30
0.0
 10
5.4066369867
 20
3.7121903388
 30
0.0
  0
SPLINE
  5
270
100
AcDbEntity
  8
0
100
AcDbSpline
 62
7
  6
CONTINUOUS
 70
0
 71
3
 72
100
 73
96
 74
0
 42
0.0000001
 43
0.0000001
 44
0.0000000001
 40
0.0
 40
0.0
 40
0.0
 40
0.0
 40
0.0004012472
 40
0.0008680478
 40
0.0014021547
 40
0.0020046889
 40
0.0026763934
 40
0.003417777
 40
0.0042291884
 40
0.0051108431
 40
0.0060628724
 40
0.0070853527
 40
0.008178314
 40
0.0093417285
 40
0.0118796384
 40
0.0146983779
 40
0.0177968014
 40
0.0211735231
 40
0.0248268541
 40
0.0287549323
 40
0.0329556371
 40
0.0374267047
 40
0.0421656367
 40
0.0471698076
 40
0.0524363735
 40
0.0579623716
 40
0.0697798555
 40
0.0825952079
 40
0.0963789459
 40
0.1110992628
 40
0.1267221143
 40
0.1432113213
 40
0.1605286599
 40
0.1786339492
 40
0.1974851591
 40
0.2170385123
 40
0.2372485786
 40
0.2580683903
 40
0.279449559
 40
0.3236959328
 40
0.3695764157
 40
0.4166644426
 40
0.4645221842
 40
0.5127046191
 40
0.5607636893
 40
0.6082525012
 40
0.6547294744
 40
0.6997624772
 40
0.7429328741
 40
0.7636934242
 40
0.7838394312
 40
0.803324076
 40
0.8221020902
 40
0.8401298696
 40
0.8573655637
 40
0.8737691846
 40
0.8893027122
 40
0.903930176
 40
0.9176177532
 40
0.9303338689
 40
0.942049277
 40
0.9475232387
 40
0.9527371773
 40
0.9576881153
 40
0.962373291
 40
0.9667900643
 40
0.9709360237
 40
0.9748088929
 40
0.9784066432
 40
0.9817274045
 40
0.9847695877
 40
0.9875318101
 40
0.9900130441
 40
0.9911480635
 40
0.992212619
 40
0.9932067099
 40
0.9941303696
 40
0.9949836883
 40
0.9957668442
 40
0.9964801058
 40
0.9971238652
 40
0.9976987084
 40
0.9982055262
 40
0.9984338495
 40
0.9986457256
 40
0.9988414443
 40
0.9990213758
 40
0.9991860018
 40
0.9993359556
 40
0.9994720768
 40
0.9995954888
 40
0.9997076992
 40
0.9998107097
 40
0.9999070989
 40
1.0
 40
1.0
 40
1.0
 40
1.0
 10
4.6278193545
 20
3.7708295832
 30
0.0
 10
4.6279052377
 20
3.7708792378
 30
0.0
 10
4.6280966231
 20
3.7709770203
 30
0.0
 10
4.6284156744
 20
3.7711130453
 30
0.0
 10
4.6287881356
 20
3.7712492494
 30
0.0
 10
4.6292140292
 20
3.7713856011
 30
0.0
 10
4.6296933927
 20
3.7715220807
 30
0.0
 10
4.6302262023
 20
3.7716586623
 30
0.0
 10
4.6308124164
 20
3.7717953247
 30
0.0
 10
4.6314519681
 20
3.7719320545
 30
0.0
 10
4.6321447764
 20
3.7720688401
 30
0.0
 10
4.6328907522
 20
3.7722056704
 30
0.0
 10
4.633689795
 20
3.7723425406
 30
0.0
 10
4.6348601418
 20
3.7725305749
 30
0.0
 10
4.6364552515
 20
3.7727640149
 30
0.0
 10
4.6385278439
 20
3.7730369361
 30
0.0
 10
4.6408094163
 20
3.773310077
 30
0.0
 10
4.6432986518
 20
3.7735833964
 30
0.0
 10
4.6459941287
 20
3.7738568574
 30
0.0
 10
4.6488942834
 20
3.774130427
 30
0.0
 10
4.6519974418
 20
3.7744040896
 30
0.0
 10
4.6553017973
 20
3.7746778237
 30
0.0
 10
4.6588054361
 20
3.7749516221
 30
0.0
 10
4.662506316
 20
3.7752254688
 30
0.0
 10
4.6664022906
 20
3.7754993656
 30
0.0
 10
4.6719799022
 20
3.7758730195
 30
0.0
 10
4.6794219084
 20
3.7763378128
 30
0.0
 10
4.688904316
 20
3.776884207
 30
0.0
 10
4.6991055065
 20
3.7774308836
 30
0.0
 10
4.710001737
 20
3.7779777997
 30
0.0
 10
4.7215676481
 20
3.7785249026
 30
0.0
 10
4.7337763167
 20
3.7790721586
 30
0.0
 10
4.7465993221
 20
3.7796195398
 30
0.0
 10
4.7600068114
 20
3.780167025
 30
0.0
 10
4.7739675703
 20
3.7807145967
 30
0.0
 10
4.7884490959
 20
3.7812622414
 30
0.0
 10
4.8034176717
 20
3.7818099466
 30
0.0
 10
4.8188384474
 20
3.7823577074
 30
0.0
 10
4.8401989076
 20
3.7830965469
 30
0.0
 10
4.8677528088
 20
3.7840160338
 30
0.0
 10
4.9016602349
 20
3.7851076575
 30
0.0
 10
4.9364609751
 20
3.7861995491
 30
0.0
 10
4.9718311179
 20
3.7872916117
 30
0.0
 10
5.0074414522
 20
3.7883837419
 30
0.0
 10
5.0429605305
 20
3.7894758461
 30
0.0
 10
5.0780577539
 20
3.7905678295
 30
0.0
 10
5.1124064529
 20
3.7916595814
 30
0.0
 10
5.1456869252
 20
3.7927509978
 30
0.0
 10
5.1726114353
 20
3.7936716414
 30
0.0
 10
5.1933854375
 20
3.7944116335
 30
0.0
 10
5.2083065044
 20
3.7949593373
 30
0.0
 10
5.2227370714
 20
3.7955069741
 30
0.0
 10
5.236643541
 20
3.7960545381
 30
0.0
 10
5.2499935366
 20
3.7966020135
 30
0.0
 10
5.2627559777
 20
3.7971493832
 30
0.0
 10
5.2749011527
 20
3.7976966252
 30
0.0
 10
5.2864007888
 20
3.7982437108
 30
0.0
 10
5.2972281175
 20
3.7987906057
 30
0.0
 10
5.3073579401
 20
3.7993372552
 30
0.0
 10
5.3167666803
 20
3.7998836159
 30
0.0
 10
5.3241459222
 20
3.8003484799
 30
0.0
 10
5.3296722979
 20
3.8007222275
 30
0.0
 10
5.3335291378
 20
3.8009961141
 30
0.0
 10
5.337190446
 20
3.8012699533
 30
0.0
 10
5.3406540877
 20
3.8015437377
 30
0.0
 10
5.3439180555
 20
3.8018174606
 30
0.0
 10
5.3469804479
 20
3.8020911037
 30
0.0
 10
5.3498394939
 20
3.8023646558
 30
0.0
 10
5.352493533
 20
3.8026380878
 30
0.0
 10
5.3549410377
 20
3.8029113786
 30
0.0
 10
5.3571806012
 20
3.8031844736
 30
0.0
 10
5.3592109437
 20
3.8034573454
 30
0.0
 10
5.3607706604
 20
3.8036908624
 30
0.0
 10
5.3619125635
 20
3.8038790208
 30
0.0
 10
5.3626902324
 20
3.8040158779
 30
0.0
 10
5.3634147958
 20
3.8041526898
 30
0.0
 10
5.3640861531
 20
3.8042894536
 30
0.0
 10
5.3647042166
 20
3.8044261593
 30
0.0
 10
5.3652689155
 20
3.8045627916
 30
0.0
 10
5.3657801915
 20
3.8046993338
 30
0.0
 10
5.3662380135
 20
3.8048357621
 30
0.0
 10
5.3666423498
 20
3.8049720651
 30
0.0
 10
5.3669444722
 20
3.805089236
 30
0.0
 10
5.367158708
 20
3.8051838006
 30
0.0
 10
5.367300303
 20
3.8052522237
 30
0.0
 10
5.3674284956
 20
3.805320636
 30
0.0
 10
5.3675432931
 20
3.8053890479
 30
0.0
 10
5.367644709
 20
3.8054574704
 30
0.0
 10
5.3677327616
 20
3.8055259256
 30
0.0
 10
5.3678074693
 20
3.8055944522
 30
0.0
 10
5.3678688399
 20
3.8056631152
 30
0.0
 10
5.3679168475
 20
3.8057320037
 30
0.0
 10
5.3679513956
 20
3.8058012315
 30
0.0
 10
5.3679722896
 20
3.8058708107
 30
0.0
 10
5.3679769863
 20
3.8059177314
 30
0.0
 10
5.367976986
 20
3.8059407002
 30
0.0
  0
SPLINE
  5
271
100
AcDbEntity
  8
0
100
AcDbSpline
 62
7
  6
CONTINUOUS
 70
0
 71
3
 72
58
 73
54
 74
0
 42
0.0000001
 43
0.0000001
 44
0.0000000001
 40
0.0
 40
0.0
 40
0.0
 40
0.0
 40
0.0001828637
 40
0.000373709
 40
0.0005795881
 40
0.0008061512
 40
0.0010576561
 40
0.0013372213
 40
0.0016471176
 40
0.0019890057
 40
0.0023641132
 40
0.0027733637
 40
0.0032174637
 40
0.0036969614
 40
0.004763708
 40
0.005976213
 40
0.0073360495
 40
0.0088442498
 40
0.0105015041
 40
0.012308236
 40
0.0142646572
 40
0.0163708604
 40
0.0186268484
 40
0.0210325052
 40
0.0262919586
 40
0.0321471584
 40
0.0385950948
 40
0.0456321841
 40
0.0532541941
 40
0.0614564238
 40
0.0702336543
 40
0.0795802153
 40
0.0894900126
 40
0.0999564925
 40
0.1109727489
 40
0.1225314047
 40
0.1472446856
 40
0.1740300151
 40
0.2028152347
 40
0.2335226135
 40
0.2660690888
 40
0.3003665376
 40
0.3363220154
 40
0.3738380178
 40
0.4128127813
 40
0.4531405361
 40
0.4947118075
 40
0.5374137416
 40
0.6257429717
 40
0.7171693027
 40
0.8107000092
 40
0.9053194515
 40
1.0
 40
1.0
 40
1.0
 40
1.0
 10
4.627296987
 20
3.9309457002
 30
0.0
 10
4.6272969875
 20
3.9309705434
 30
0.0
 10
4.6273025155
 20
3.931021464
 30
0.0
 10
4.6273270305
 20
3.9310967871
 30
0.0
 10
4.627367476
 20
3.9311716274
 30
0.0
 10
4.6274235946
 20
3.9312460381
 30
0.0
 10
4.6274952809
 20
3.9313201859
 30
0.0
 10
4.6275825214
 20
3.9313941877
 30
0.0
 10
4.6276853381
 20
3.9314681209
 30
0.0
 10
4.6278037584
 20
3.9315420283
 30
0.0
 10
4.6279378041
 20
3.9316159336
 30
0.0
 10
4.6280874913
 20
3.9316898468
 30
0.0
 10
4.6282528288
 20
3.9317637768
 30
0.0
 10
4.6285031891
 20
3.931866039
 30
0.0
 10
4.6288561196
 20
3.9319926868
 30
0.0
 10
4.6293281783
 20
3.9321399467
 30
0.0
 10
4.6298626752
 20
3.9322873594
 30
0.0
 10
4.6304595569
 20
3.9324349061
 30
0.0
 10
4.6311187729
 20
3.9325825542
 30
0.0
 10
4.6318402347
 20
3.9327302839
 30
0.0
 10
4.6326238348
 20
3.9328780819
 30
0.0
 10
4.6334694519
 20
3.9330259341
 30
0.0
 10
4.634376952
 20
3.9331738344
 30
0.0
 10
4.6357093874
 20
3.9333771838
 30
0.0
 10
4.6375288769
 20
3.9336295453
 30
0.0
 10
4.6398966314
 20
3.933924426
 30
0.0
 10
4.6425075439
 20
3.9342195594
 30
0.0
 10
4.6453598537
 20
3.9345148999
 30
0.0
 10
4.6484516487
 20
3.9348104002
 30
0.0
 10
4.6517808365
 20
3.9351060267
 30
0.0
 10
4.655345164
 20
3.9354017559
 30
0.0
 10
4.6591422138
 20
3.9356975691
 30
0.0
 10
4.6631694071
 20
3.935993451
 30
0.0
 10
4.6674240119
 20
3.9362893911
 30
0.0
 10
4.6719031339
 20
3.9365853834
 30
0.0
 10
4.678314843
 20
3.9369891564
 30
0.0
 10
4.6868668815
 20
3.9374913583
 30
0.0
 10
4.6977579863
 20
3.9380817805
 30
0.0
 10
4.7094645194
 20
3.938672515
 30
0.0
 10
4.7219546554
 20
3.9392635138
 30
0.0
 10
4.7351944403
 20
3.9398547178
 30
0.0
 10
4.7491478768
 20
3.9404460895
 30
0.0
 10
4.7637770254
 20
3.9410375977
 30
0.0
 10
4.7790421084
 20
3.9416292185
 30
0.0
 10
4.7949016174
 20
3.9422209329
 30
0.0
 10
4.8113124271
 20
3.942812724
 30
0.0
 10
4.8282299126
 20
3.9434045844
 30
0.0
 10
4.8516654641
 20
3.944202796
 30
0.0
 10
4.8818714268
 20
3.9451956459
 30
0.0
 10
4.9189803861
 20
3.9463745681
 30
0.0
 10
4.9569443208
 20
3.9475537772
 30
0.0
 10
4.9953505659
 20
3.9487331404
 30
0.0
 10
5.0210560723
 20
3.9495219843
 30
0.0
 10
5.0339129119
 20
3.9499185616
 30
0.0
  0
ENDSEC
  0
SECTION
  2
OBJECTS
  0
DICTIONARY
  5
C
100
AcDbDictionary
280
0
281
1
  3
ACAD_GROUP
350
D
  3
ACAD_MLINESTYLE
350
17
  3
ACAD_LAYOUT
350
1A
  3
ACAD_PLOTSETTINGS
350
19
  3
ACAD_PLOTSTYLENAME
350
E
  0
DICTIONARY
  5
D
102
{ACAD_REACTORS
330
C
102
}
100
AcDbDictionary
280
0
281
1
  0
ACDBDICTIONARYWDFLT
  5
E
102
{ACAD_REACTORS
330
C
102
}
100
AcDbDictionary
281
1
  3
Normal
350
F
100
AcDbDictionaryWithDefault
340
F
  0
DICTIONARY
  5
17
102
{ACAD_REACTORS
330
C
102
}
100
AcDbDictionary
280
0
281
1
  3
Standard
350
18
  0
DICTIONARY
  5
19
102
{ACAD_REACTORS
330
C
102
}
100
AcDbDictionary
281
1
  0
DICTIONARY
  5
1A
102
{ACAD_REACTORS
330
C
102
}
100
AcDbDictionary
281
1
  3
Model
350
272
  3
Layout1
350
273
  0
ACDBPLACEHOLDER
  5
F
102
{ACAD_REACTORS
330
E
102
}
  0
MLINESTYLE
  5
18
102
{ACAD_REACTORS
330
17
102
}
100
AcDbMlineStyle
  2
STANDARD
 70
0
  3

 62
256
 51
90.0
 52
90.0
 71
2
 49
0.5
 62
256
  6
BYLAYER
 49
-0.5
 62
256
  6
BYLAYER
  0
LAYOUT
  5
272
102
{ACAD_REACTORS
330
1A
102
}
100
AcDbPlotSettings
  1

  2
none_device
  4
ANSI_A_(11.00_x_8.50_Inches)
  6

 40
0.0
 41
0.0
 42
0.0
 43
0.0
 44
279.4
 45
215.9
 46
0.0
 47
0.0
 48
0.0
 49
0.0
140
0.0
141
0.0
142
1.0
143
1.0
 70
1024
 72
0
 73
0
 74
0
  7

 75
0
147
1.0
148
0.0
149
0.0
100
AcDbLayout
  1
Model
 70
0
 71
0
 10
0.0
 20
0.0
 11
11.0
 21
8.5
 12
0.0
 22
0.0
 32
0.0
 14
0.0
 24
0.0
 34
0.0
 15
0.0
 25
0.0
 35
0.0
146
0.0
 13
0.0
 23
0.0
 33
0.0
 16
1.0
 26
0.0
 36
0.0
 17
0.0
 27
1.0
 37
0.0
 76
0
330
203
345
0
346
0
  0
LAYOUT
  5
273
102
{ACAD_REACTORS
330
1A
102
}
100
AcDbPlotSettings
  1

  2
none_device
  4
ANSI_A_(11.00_x_8.50_Inches)
  6

 40
0.0
 41
0.0
 42
0.0
 43
0.0
 44
279.4
 45
215.9
 46
0.0
 47
0.0
 48
0.0
 49
0.0
140
0.0
141
0.0
142
1.0
143
1.0
 70
0
 72
0
 73
0
 74
0
  7

 75
0
147
1.0
148
0.0
149
0.0
100
AcDbLayout
  1
Layout1
 70
0
 71
1
 10
0.0
 20
0.0
 11
11.0
 21
8.5
 12
0.0
 22
0.0
 32
0.0
 14
0.0
 24
0.0
 34
0.0
 15
0.0
 25
0.0
 35
0.0
146
0.0
 13
0.0
 23
0.0
 33
0.0
 16
1.0
 26
0.0
 36
0.0
 17
0.0
 27
1.0
 37
0.0
 76
0
330
204
345
0
346
0
  0
ENDSEC
  0
EOF
