999
DXF file: 3-672_front.dxf
999
Pro/ENGINEER 2023134 by Parametric Technology Corporation
  0
SECTION
  2
HEADER
  9
$ACADVER
  1
AC1032
  9
$DWGCODEPAGE
  3
ANSI_1252
  9
$EXTMAX
 10
11.0
 20
8.5
 30
0.0
  9
$EXTMIN
 10
0.0
 20
0.0
 30
0.0
  9
$LIMMIN
 10
0.0
 20
0.0
  9
$LIMMAX
 10
11.0
 20
8.5
  9
$VIEWCTR
 10
5.5
 20
4.25
  9
$VIEWSIZE
 40
8.5
  9
$CLAYER
  8
0
  9
$LTSCALE
 40
0.605
  9
$CELTYPE
  6
BYLAYER
  9
$DIMSCALE
 40
1.0
  9
$DIMASZ
 40
0.1
  9
$DIMEXO
 40
0.03125
  9
$DIMDLI
 40
0.418
  9
$DIMEXE
 40
0.0625
  9
$DIMCEN
 40
0.099
  9
$DIMLFAC
 40
1.0
  9
$DIMBLK
  1
_FILLED
  9
$DIMALT
 70
1
  9
$DIMALTD
 70
2
  9
$DIMALTTD
 70
2
  9
$DIMALTF
 40
25.4
  9
$DIMTXT
 40
0.08
  9
$DIMTOL
 70
1
  9
$DIMLIM
 70
0
  9
$DIMTFAC
 40
1.0
  9
$DIMTP
 40
0.001
  9
$DIMTM
 40
0.001
  9
$DIMGAP
 40
0.09
  9
$DIMDSEP
 70
46
  9
$AUNITS
 70
0
  9
$PDMODE
 70
3
  9
$PDSIZE
 40
0.06
  9
$HANDSEED
  5
280
  9
$TILEMODE
 70
1
  9
$MEASUREMENT
 70
0
  9
$INSUNITS
 70
1
  0
ENDSEC
  0
SECTION
  2
CLASSES
  0
CLASS
  1
ACDBDICTIONARYWDFLT
  2
AcDbDictionaryWithDefault
  3
AutoCAD 2000
 90
0
 91
1
280
0
281
0
  0
CLASS
  1
ACDBPLACEHOLDER
  2
AcDbPlaceHolder
  3
AutoCAD 2000
 90
0
 91
1
280
0
281
0
  0
CLASS
  1
LAYOUT
  2
AcDbLayout
  3
AutoCAD 2000
 90
0
 91
0
280
0
281
0
  0
ENDSEC
  0
SECTION
  2
TABLES
  0
TABLE
  2
VPORT
  5
8
100
AcDbSymbolTable
 70
2
  0
VPORT
  5
1F4
100
AcDbSymbolTableRecord
100
AcDbViewportTableRecord
  2
*ACTIVE
 70
0
 10
0.0
 20
0.0
 11
1.0
 21
1.0
 12
5.5
 22
4.25
 13
0.0
 23
0.0
 14
1.0
 24
1.0
 15
0.0
 25
0.0
 16
0.0
 26
0.0
 36
1.0
 17
0.0
 27
0.0
 37
0.0
 40
8.5
 41
1.2941176471
 42
50.0
 43
0.0
 44
0.0
 50
0.0
 51
0.0
 71
0
 72
100
 73
1
 74
1
 75
0
 76
0
 77
0
 78
0
  0
ENDTAB
  0
TABLE
  2
LTYPE
  5
5
100
AcDbSymbolTable
 70
6
  0
LTYPE
  5
14
100
AcDbSymbolTableRecord
100
AcDbLinetypeTableRecord
  2
BYBLOCK
 70
0
  3

 72
65
 73
0
 40
0.0
  0
LTYPE
  5
15
100
AcDbSymbolTableRecord
100
AcDbLinetypeTableRecord
  2
BYLAYER
 70
0
  3

 72
65
 73
0
 40
0.0
  0
LTYPE
  5
16
100
AcDbSymbolTableRecord
100
AcDbLinetypeTableRecord
  2
CONTINUOUS
 70
64
  3
Solid line
 72
65
 73
0
 40
0.0
  0
LTYPE
  5
1F5
100
AcDbSymbolTableRecord
100
AcDbLinetypeTableRecord
  2
CENTER
 70
64
  3
____ _ ____ _ ____ _ ____ _ ____ _ ____ _ ____
 72
65
 73
4
 40
0.6
 49
0.375
 74
0
 49
-0.075
 74
0
 49
0.075
 74
0
 49
-0.075
 74
0
  0
LTYPE
  5
1F6
100
AcDbSymbolTableRecord
100
AcDbLinetypeTableRecord
  2
HIDDEN
 70
64
  3
- - - - - - - - - - - - - - - - - - - -
 72
65
 73
2
 40
0.2
 49
0.1
 74
0
 49
-0.1
 74
0
  0
LTYPE
  5
1F7
100
AcDbSymbolTableRecord
100
AcDbLinetypeTableRecord
  2
PHANTOM
 70
64
  3
_____ _ _ _____ _ _ _____ _ _ _____
 72
65
 73
6
 40
0.8
 49
0.45
 74
0
 49
-0.05
 74
0
 49
0.1
 74
0
 49
-0.05
 74
0
 49
0.1
 74
0
 49
-0.05
 74
0
  0
LTYPE
  5
1F8
100
AcDbSymbolTableRecord
100
AcDbLinetypeTableRecord
  2
DOT
 70
64
  3
. . . . . . . . . . . . . . . . . . . .
 72
65
 73
2
 40
0.2
 49
0.1
 74
0
 49
-0.1
 74
0
  0
LTYPE
  5
1F9
100
AcDbSymbolTableRecord
100
AcDbLinetypeTableRecord
  2
DASHED
 70
64
  3
- - - - - - - - - - - - - - - - - - - -
 72
65
 73
2
 40
0.2
 49
0.1
 74
0
 49
-0.1
 74
0
  0
ENDTAB
  0
TABLE
  2
LAYER
  5
2
100
AcDbSymbolTable
 70
36
  0
LAYER
  5
10
100
AcDbSymbolTableRecord
100
AcDbLayerTableRecord
  2
0
 70
0
 62
7
  6
CONTINUOUS
370
-3
390
F
  0
LAYER
  5
1FA
100
AcDbSymbolTableRecord
100
AcDbLayerTableRecord
  2
DEFAULT_1
 70
0
 62
7
  6
CENTER
370
-3
390
F
  0
LAYER
  5
1FB
100
AcDbSymbolTableRecord
100
AcDbLayerTableRecord
  2
DEFAULT_2
 70
0
 62
8
  6
HIDDEN
370
-3
390
F
  0
LAYER
  5
1FC
100
AcDbSymbolTableRecord
100
AcDbLayerTableRecord
  2
DEFAULT_3
 70
0
 62
7
  6
PHANTOM
370
-3
390
F
  0
LAYER
  5
1FD
100
AcDbSymbolTableRecord
100
AcDbLayerTableRecord
  2
DEFAULT_COORDINATE_SYSTEM
 70
0
 62
7
  6
CONTINUOUS
370
-3
390
F
  0
LAYER
  5
1FE
100
AcDbSymbolTableRecord
100
AcDbLayerTableRecord
  2
DEFAULT_DATUM_AXES
 70
0
 62
7
  6
CONTINUOUS
370
-3
390
F
  0
LAYER
  5
1FF
100
AcDbSymbolTableRecord
100
AcDbLayerTableRecord
  2
DEFAULT_DATUM_CURVES
 70
0
 62
7
  6
CONTINUOUS
370
-3
390
F
  0
LAYER
  5
200
100
AcDbSymbolTableRecord
100
AcDbLayerTableRecord
  2
DEFAULT_DATUM_PLANES
 70
0
 62
7
  6
CONTINUOUS
370
-3
390
F
  0
ENDTAB
  0
TABLE
  2
STYLE
  5
3
100
AcDbSymbolTable
 70
1
  0
STYLE
  5
11
100
AcDbSymbolTableRecord
100
AcDbTextStyleTableRecord
  2
STANDARD
 70
0
 40
0.0
 41
0.8
 50
0.0
 71
0
 42
0.2
  3
txt
  4

  0
STYLE
  5
201
100
AcDbSymbolTableRecord
100
AcDbTextStyleTableRecord
  2
TEXTSTYLE_1
 70
0
 40
0.0
 41
0.8
 50
0.0
 71
0
 42
0.2
  3
gdt
  4

  0
ENDTAB
  0
TABLE
  2
VIEW
  5
6
100
AcDbSymbolTable
 70
0
  0
ENDTAB
  0
TABLE
  2
UCS
  5
7
100
AcDbSymbolTable
 70
0
  0
ENDTAB
  0
TABLE
  2
APPID
  5
9
100
AcDbSymbolTable
 70
1
  0
APPID
  5
202
100
AcDbSymbolTableRecord
100
AcDbRegAppTableRecord
  2
ACAD
 70
0
  0
ENDTAB
  0
TABLE
  2
BLOCK_RECORD
  5
1
100
AcDbSymbolTable
 70
0
  0
BLOCK_RECORD
  5
203
100
AcDbSymbolTableRecord
100
AcDbBlockTableRecord
  2
*Model_Space
  0
BLOCK_RECORD
  5
204
100
AcDbSymbolTableRecord
100
AcDbBlockTableRecord
  2
*Paper_Space
  0
BLOCK_RECORD
  5
205
100
AcDbSymbolTableRecord
100
AcDbBlockTableRecord
  2
_FILLED
  0
ENDTAB
  0
TABLE
  2
DIMSTYLE
  5
A
100
AcDbSymbolTable
 70
1
100
AcDbDimStyleTable
 71
0
  0
DIMSTYLE
105
206
100
AcDbSymbolTableRecord
100
AcDbDimStyleTableRecord
  2
STANDARD
 70
0
  3

  4

 40
1.0
 41
0.1
 42
0.03125
 43
0.38
 44
0.0625
 45
0.0
 46
0.0
 47
0.001
 48
0.001
140
0.08
141
0.09
142
0.0
143
25.4
144
1.0
145
0.0
146
1.0
147
0.09
 71
1
 72
0
 73
1
 74
1
 75
0
 76
0
 77
0
 78
4
 79
1
170
1
171
2
172
0
173
0
174
0
175
0
176
0
177
0
178
0
270
2
179
3
271
3
272
3
273
2
274
2
275
0
280
0
281
0
282
0
283
1
284
4
285
0
286
0
287
3
288
0
340
11
278
46
341
205
342
205
343
205
344
205
  0
ENDTAB
  0
ENDSEC
  0
SECTION
  2
BLOCKS
  0
BLOCK
  5
20
100
AcDbEntity
  8
0
100
AcDbBlockBegin
  2
*Model_Space
 70
0
 10
0.0
 20
0.0
 30
0.0
  3
*Model_Space
  1

  0
ENDBLK
  5
21
100
AcDbEntity
  8
0
100
AcDbBlockEnd
  0
BLOCK
  5
1C
100
AcDbEntity
  8
0
100
AcDbBlockBegin
  2
*Paper_Space
 70
0
 10
0.0
 20
0.0
 30
0.0
  3
*Paper_Space
  1

  0
ENDBLK
  5
1D
100
AcDbEntity
  8
0
100
AcDbBlockEnd
  0
BLOCK
  5
207
100
AcDbEntity
  8
0
100
AcDbBlockBegin
  2
_FILLED
 70
64
 10
0.0
 20
0.0
  3
_FILLED
  1

  0
SOLID
  5
208
100
AcDbEntity
  8
0
  6
BYBLOCK
 62
0
100
AcDbTrace
 10
0.0
 20
0.0
 11
-1.0
 21
0.2
 12
-1.0
 22
-0.2
 13
-1.0
 23
-0.2
  0
ENDBLK
  5
209
100
AcDbEntity
  8
0
  6
BYBLOCK
 62
0
100
AcDbBlockEnd
  0
ENDSEC
  0
SECTION
  2
ENTITIES
  0
MTEXT
  5
20A
100
AcDbEntity
  8
0
100
AcDbMText
 62
2
  6
CONTINUOUS
  7
STANDARD
 71
3
 72
1
 10
5.5083219178
 20
2.4787756849
 30
0.0
 11
1.0
 21
0.0
 31
0.0
 73
2
 44
0.9
  1
SCALE 1.000
 40
0.08
 41
0.704
  0
LINE
  5
20B
100
AcDbEntity
  8
0
100
AcDbLine
 62
7
  6
CONTINUOUS
 10
0.0
 20
0.0
 11
0.0
 21
8.5
  0
LINE
  5
20C
100
AcDbEntity
  8
0
100
AcDbLine
 62
7
  6
CONTINUOUS
 10
0.0
 20
0.0
 11
11.0
 21
0.0
  0
LINE
  5
20D
100
AcDbEntity
  8
0
100
AcDbLine
 62
7
  6
CONTINUOUS
 10
0.0
 20
8.5
 11
11.0
 21
8.5
  0
LINE
  5
20E
100
AcDbEntity
  8
0
100
AcDbLine
 62
7
  6
CONTINUOUS
 10
11.0
 20
0.0
 11
11.0
 21
8.5
  0
LINE
  5
20F
100
AcDbEntity
  8
0
100
AcDbLine
 62
7
  6
CONTINUOUS
 10
4.7829134247
 20
3.5922463273
 11
4.7447265923
 21
3.6143216672
  0
LINE
  5
210
100
AcDbEntity
  8
0
100
AcDbLine
 62
7
  6
CONTINUOUS
 10
5.5222534247
 20
3.5650085616
 11
4.7842534247
 21
3.5650085616
  0
LINE
  5
211
100
AcDbEntity
  8
0
100
AcDbLine
 62
7
  6
CONTINUOUS
 10
4.7829134247
 20
3.6636763273
 11
4.7447265923
 21
3.6857516672
  0
LINE
  5
212
100
AcDbEntity
  8
0
100
AcDbLine
 62
7
  6
CONTINUOUS
 10
4.7842534247
 20
3.5650085616
 11
4.7776263056
 21
3.5716356807
  0
LINE
  5
213
100
AcDbEntity
  8
0
100
AcDbLine
 62
7
  6
CONTINUOUS
 10
4.7829134247
 20
3.7351063273
 11
4.7447265923
 21
3.7571816672
  0
LINE
  5
214
100
AcDbEntity
  8
0
100
AcDbLine
 62
7
  6
CONTINUOUS
 10
4.7829134247
 20
3.8065363273
 11
4.7533533124
 21
3.8236251352
  0
LINE
  5
215
100
AcDbEntity
  8
0
100
AcDbLine
 62
7
  6
CONTINUOUS
 10
5.5222534247
 20
3.8550085616
 11
4.7842534247
 21
3.8550085616
  0
LINE
  5
216
100
AcDbEntity
  8
0
100
AcDbLine
 62
7
  6
CONTINUOUS
 10
5.5782534247
 20
3.9350085616
 11
4.7282534247
 21
3.9350085616
  0
LINE
  5
217
100
AcDbEntity
  8
0
100
AcDbLine
 62
7
  6
CONTINUOUS
 10
5.5237242312
 20
3.6106294463
 11
5.5513932347
 21
3.5946338099
  0
LINE
  5
218
100
AcDbEntity
  8
0
100
AcDbLine
 62
7
  6
CONTINUOUS
 10
5.5237242312
 20
3.6820594463
 11
5.561780257
 21
3.6600597333
  0
LINE
  5
219
100
AcDbEntity
  8
0
100
AcDbLine
 62
7
  6
CONTINUOUS
 10
4.8589923232
 20
4.1360490771
 11
4.8190166901
 21
4.1346530972
  0
LINE
  5
21A
100
AcDbEntity
  8
0
100
AcDbLine
 62
7
  6
CONTINUOUS
 10
5.4874901592
 20
4.1346530972
 11
5.4475145261
 21
4.1360490771
  0
LINE
  5
21B
100
AcDbEntity
  8
0
100
AcDbLine
 62
7
  6
CONTINUOUS
 10
5.5237242312
 20
3.7534894463
 11
5.561780257
 21
3.7314897333
  0
LINE
  5
21C
100
AcDbEntity
  8
0
100
AcDbLine
 62
7
  6
CONTINUOUS
 10
5.5237242312
 20
3.8249194463
 11
5.561780257
 21
3.8029197333
  0
LINE
  5
21D
100
AcDbEntity
  8
0
100
AcDbLine
 62
7
  6
CONTINUOUS
 10
4.7282534247
 20
4.1499915503
 11
4.7282534247
 21
3.9350085616
  0
LINE
  5
21E
100
AcDbEntity
  8
0
100
AcDbLine
 62
7
  6
CONTINUOUS
 10
4.7442534247
 20
3.6148685616
 11
4.7442534247
 21
3.6237978388
  0
LINE
  5
21F
100
AcDbEntity
  8
0
100
AcDbLine
 62
7
  6
CONTINUOUS
 10
4.7442534247
 20
3.6862985616
 11
4.7442534247
 21
3.6952278388
  0
LINE
  5
220
100
AcDbEntity
  8
0
100
AcDbLine
 62
7
  6
CONTINUOUS
 10
4.7442534247
 20
3.7577285616
 11
4.7442534247
 21
3.7666578388
  0
LINE
  5
221
100
AcDbEntity
  8
0
100
AcDbLine
 62
7
  6
CONTINUOUS
 10
4.8190166901
 20
4.1346530972
 11
4.7819631911
 21
5.1957264815
  0
LINE
  5
222
100
AcDbEntity
  8
0
100
AcDbLine
 62
7
  6
CONTINUOUS
 10
4.8589923232
 20
4.1360490771
 11
4.8219388241
 21
5.1971224613
  0
LINE
  5
223
100
AcDbEntity
  8
0
100
AcDbLine
 62
7
  6
CONTINUOUS
 10
4.7829134247
 20
3.5749900734
 11
4.7829134247
 21
3.5925482002
  0
LINE
  5
224
100
AcDbEntity
  8
0
100
AcDbLine
 62
7
  6
CONTINUOUS
 10
4.7829134247
 20
3.6464200734
 11
4.7829134247
 21
3.6639782002
  0
LINE
  5
225
100
AcDbEntity
  8
0
100
AcDbLine
 62
7
  6
CONTINUOUS
 10
4.7829134247
 20
3.7178500734
 11
4.7829134247
 21
3.7354082002
  0
LINE
  5
226
100
AcDbEntity
  8
0
100
AcDbLine
 62
7
  6
CONTINUOUS
 10
4.7829134247
 20
3.7892800734
 11
4.7829134247
 21
3.8068382002
  0
LINE
  5
227
100
AcDbEntity
  8
0
100
AcDbLine
 62
7
  6
CONTINUOUS
 10
4.7882534247
 20
3.8550085616
 11
4.7882534247
 21
3.9350085616
  0
LINE
  5
228
100
AcDbEntity
  8
0
100
AcDbLine
 62
7
  6
CONTINUOUS
 10
5.5222534247
 20
3.8550085616
 11
5.5306402814
 21
3.8466217049
  0
LINE
  5
229
100
AcDbEntity
  8
0
100
AcDbLine
 62
7
  6
CONTINUOUS
 10
4.7980449735
 20
4.1005915778
 11
4.8190166901
 21
4.1346530972
  0
LINE
  5
22A
100
AcDbEntity
  8
0
100
AcDbLine
 62
7
  6
CONTINUOUS
 10
5.5478403004
 20
5.2282421157
 11
5.5245436583
 21
5.1957264815
  0
LINE
  5
22B
100
AcDbEntity
  8
0
100
AcDbLine
 62
7
  6
CONTINUOUS
 10
4.758666549
 20
5.2282421157
 11
4.7819631911
 21
5.1957264815
  0
LINE
  5
22C
100
AcDbEntity
  8
0
100
AcDbLine
 62
7
  6
CONTINUOUS
 10
5.5084618759
 20
4.1005915778
 11
5.4874901592
 21
4.1346530972
  0
LINE
  5
22D
100
AcDbEntity
  8
0
100
AcDbLine
 62
7
  6
CONTINUOUS
 10
5.4845680252
 20
5.1971224613
 11
5.4475145261
 21
4.1360490771
  0
LINE
  5
22E
100
AcDbEntity
  8
0
100
AcDbLine
 62
7
  6
CONTINUOUS
 10
4.7842534247
 20
3.8550085616
 11
4.7532241652
 21
3.8239793022
  0
LINE
  5
22F
100
AcDbEntity
  8
0
100
AcDbLine
 62
7
  6
CONTINUOUS
 10
5.5182534247
 20
3.8550085616
 11
5.5182534247
 21
3.9350085616
  0
LINE
  5
230
100
AcDbEntity
  8
0
100
AcDbLine
 62
7
  6
CONTINUOUS
 10
5.5235934247
 20
3.8422513273
 11
5.5235934247
 21
3.8246932002
  0
LINE
  5
231
100
AcDbEntity
  8
0
100
AcDbLine
 62
7
  6
CONTINUOUS
 10
5.5235934247
 20
3.7708213273
 11
5.5235934247
 21
3.7532632002
  0
LINE
  5
232
100
AcDbEntity
  8
0
100
AcDbLine
 62
7
  6
CONTINUOUS
 10
5.5235934247
 20
3.6993913273
 11
5.5235934247
 21
3.6818332002
  0
LINE
  5
233
100
AcDbEntity
  8
0
100
AcDbLine
 62
7
  6
CONTINUOUS
 10
5.5235934247
 20
3.6279613273
 11
5.5235934247
 21
3.6104032002
  0
LINE
  5
234
100
AcDbEntity
  8
0
100
AcDbLine
 62
7
  6
CONTINUOUS
 10
5.5622534247
 20
3.6505835616
 11
5.5622534247
 21
3.6595128388
  0
LINE
  5
235
100
AcDbEntity
  8
0
100
AcDbLine
 62
7
  6
CONTINUOUS
 10
5.5622534247
 20
3.7220135616
 11
5.5622534247
 21
3.7309428388
  0
LINE
  5
236
100
AcDbEntity
  8
0
100
AcDbLine
 62
7
  6
CONTINUOUS
 10
5.5622534247
 20
3.7934435616
 11
5.5622534247
 21
3.8023728388
  0
LINE
  5
237
100
AcDbEntity
  8
0
100
AcDbLine
 62
7
  6
CONTINUOUS
 10
5.5245436583
 20
5.1957264815
 11
5.4874901592
 21
4.1346530972
  0
LINE
  5
238
100
AcDbEntity
  8
0
100
AcDbLine
 62
7
  6
CONTINUOUS
 10
5.5782534247
 20
4.1499106403
 11
5.5782534247
 21
3.9350085616
  0
LINE
  5
239
100
AcDbEntity
  8
0
100
AcDbLine
 62
7
  6
CONTINUOUS
 10
4.7447265923
 20
3.7672047333
 11
4.7834357876
 21
3.7895820831
  0
LINE
  5
23A
100
AcDbEntity
  8
0
100
AcDbLine
 62
7
  6
CONTINUOUS
 10
4.7819631911
 20
5.1957264815
 11
4.8219388241
 21
5.1971224613
  0
LINE
  5
23B
100
AcDbEntity
  8
0
100
AcDbLine
 62
7
  6
CONTINUOUS
 10
5.4845680252
 20
5.1971224613
 11
5.5245436583
 21
5.1957264815
  0
LINE
  5
23C
100
AcDbEntity
  8
0
100
AcDbLine
 62
7
  6
CONTINUOUS
 10
4.7447265923
 20
3.6957747333
 11
4.7834357876
 21
3.7181520831
  0
LINE
  5
23D
100
AcDbEntity
  8
0
100
AcDbLine
 62
7
  6
CONTINUOUS
 10
4.7447265923
 20
3.6243447333
 11
4.7834357876
 21
3.6467220831
  0
LINE
  5
23E
100
AcDbEntity
  8
0
100
AcDbLine
 62
7
  6
CONTINUOUS
 10
4.7777637424
 20
3.5720127703
 11
4.7834357876
 21
3.5752920831
  0
LINE
  5
23F
100
AcDbEntity
  8
0
100
AcDbLine
 62
7
  6
CONTINUOUS
 10
5.5305034776
 20
3.8462463668
 11
5.5230710618
 21
3.8419493174
  0
LINE
  5
240
100
AcDbEntity
  8
0
100
AcDbLine
 62
7
  6
CONTINUOUS
 10
5.561780257
 20
3.7928966672
 11
5.5230710618
 21
3.7705193174
  0
LINE
  5
241
100
AcDbEntity
  8
0
100
AcDbLine
 62
7
  6
CONTINUOUS
 10
5.561780257
 20
3.7214666672
 11
5.5230710618
 21
3.6990893174
  0
LINE
  5
242
100
AcDbEntity
  8
0
100
AcDbLine
 62
7
  6
CONTINUOUS
 10
5.5222534247
 20
3.5650085616
 11
5.5515229464
 21
3.5942780834
  0
LINE
  5
243
100
AcDbEntity
  8
0
100
AcDbLine
 62
7
  6
CONTINUOUS
 10
5.561780257
 20
3.6500366672
 11
5.5230710618
 21
3.6276593174
  0
ARC
  5
244
100
AcDbEntity
  8
0
100
AcDbCircle
 62
7
  6
CONTINUOUS
 10
4.8190166901
 20
4.1346530972
 40
0.04
100
AcDbArc
 50
238.3793452284
 51
2.0000016068
  0
ARC
  5
245
100
AcDbEntity
  8
0
100
AcDbCircle
 62
7
  6
CONTINUOUS
 10
4.7819631911
 20
5.1957264815
 40
0.04
100
AcDbArc
 50
2.0
 51
125.6206549555
  0
ARC
  5
246
100
AcDbEntity
  8
0
100
AcDbCircle
 62
7
  6
CONTINUOUS
 10
5.4874901592
 20
4.1346530972
 40
0.04
100
AcDbArc
 50
178.0000000712
 51
301.6206549555
  0
ARC
  5
247
100
AcDbEntity
  8
0
100
AcDbCircle
 62
7
  6
CONTINUOUS
 10
5.1532534247
 20
4.6775085616
 40
1.055
100
AcDbArc
 50
290.5528313406
 51
247.758367786
  0
ARC
  5
248
100
AcDbEntity
  8
0
100
AcDbCircle
 62
7
  6
CONTINUOUS
 10
5.1532534247
 20
4.6775085616
 40
1.025
100
AcDbArc
 50
293.1275196309
 51
248.8194775517
  0
CIRCLE
  5
249
100
AcDbEntity
  8
0
100
AcDbCircle
 62
7
  6
CONTINUOUS
 10
5.1532534247
 20
4.6775085616
 40
0.6775
  0
ARC
  5
24A
100
AcDbEntity
  8
0
100
AcDbCircle
 62
7
  6
CONTINUOUS
 10
5.1532534247
 20
4.6775085616
 40
0.6375
100
AcDbArc
 50
301.6206549555
 51
54.3793450445
  0
ARC
  5
24B
100
AcDbEntity
  8
0
100
AcDbCircle
 62
7
  6
CONTINUOUS
 10
5.1532534247
 20
4.6775085616
 40
0.6375
100
AcDbArc
 50
125.6206549555
 51
238.3793450445
  0
ARC
  5
24C
100
AcDbEntity
  8
0
100
AcDbCircle
 62
7
  6
CONTINUOUS
 10
5.5245436583
 20
5.1957264815
 40
0.04
100
AcDbArc
 50
54.3793450445
 51
177.9999999142
  0
LINE
  5
24D
100
AcDbEntity
  8
0
100
AcDbLine
 62
7
  6
CONTINUOUS
 10
5.5622533762
 20
3.7934435618
 11
5.561780124
 21
3.792896667
  0
SPLINE
  5
24E
100
AcDbEntity
  8
0
100
AcDbSpline
 62
7
  6
CONTINUOUS
 70
0
 71
3
 72
14
 73
10
 74
0
 42
0.0000001
 43
0.0000001
 44
0.0000000001
 40
0.0
 40
0.0
 40
0.0
 40
0.0
 40
0.3312738873
 40
0.4600414635
 40
0.5698875222
 40
0.6685355393
 40
0.7664097692
 40
0.8741706638
 40
1.0
 40
1.0
 40
1.0
 40
1.0
 10
5.5305032662
 20
3.8462463666
 30
0.0
 10
5.5305495913
 20
3.8462731459
 30
0.0
 10
5.5306124038
 20
3.846314754
 30
0.0
 10
5.5306746422
 20
3.8463832507
 30
0.0
 10
5.5307016317
 20
3.8464313089
 30
0.0
 10
5.5307118432
 20
3.8464807061
 30
0.0
 10
5.5307041331
 20
3.8465302491
 30
0.0
 10
5.530679411
 20
3.8465784965
 30
0.0
 10
5.5306546493
 20
3.846607332
 30
0.0
 10
5.5306402792
 20
3.8466217049
 30
0.0
  0
LINE
  5
24F
100
AcDbEntity
  8
0
100
AcDbLine
 62
7
  6
CONTINUOUS
 10
5.561780048
 20
3.721466667
 11
5.5622534247
 21
3.7220135616
  0
SPLINE
  5
250
100
AcDbEntity
  8
0
100
AcDbSpline
 62
7
  6
CONTINUOUS
 70
0
 71
3
 72
14
 73
10
 74
0
 42
0.0000001
 43
0.0000001
 44
0.0000000001
 40
0.0
 40
0.0
 40
0.0
 40
0.0
 40
0.3313126666
 40
0.4600600752
 40
0.5698668541
 40
0.6684785469
 40
0.7663464387
 40
0.8741332678
 40
1.0
 40
1.0
 40
1.0
 40
1.0
 10
4.7533534061
 20
3.823625135
 30
0.0
 10
4.7533096742
 20
3.8236504023
 30
0.0
 10
4.7532503787
 20
3.8236896579
 30
0.0
 10
4.7531916351
 20
3.8237542979
 30
0.0
 10
4.7531661793
 20
3.8237996497
 30
0.0
 10
4.7531565833
 20
3.8238462687
 30
0.0
 10
4.7531639161
 20
3.823893016
 30
0.0
 10
4.7531872982
 20
3.8239385339
 30
0.0
 10
4.7532106912
 20
3.8239657401
 30
0.0
 10
4.7532242644
 20
3.8239793022
 30
0.0
  0
LINE
  5
251
100
AcDbEntity
  8
0
100
AcDbLine
 62
7
  6
CONTINUOUS
 10
4.7447268013
 20
3.757181667
 11
4.7442534247
 21
3.7577285616
  0
LINE
  5
252
100
AcDbEntity
  8
0
100
AcDbLine
 62
7
  6
CONTINUOUS
 10
5.5617801047
 20
3.8029197335
 11
5.5622533848
 21
3.8023728387
  0
LINE
  5
253
100
AcDbEntity
  8
0
100
AcDbLine
 62
7
  6
CONTINUOUS
 10
5.561780048
 20
3.7314897334
 11
5.5622534247
 21
3.7309428388
  0
LINE
  5
254
100
AcDbEntity
  8
0
100
AcDbLine
 62
7
  6
CONTINUOUS
 10
5.561780048
 20
3.6600597334
 11
5.5622534247
 21
3.6595128388
  0
LINE
  5
255
100
AcDbEntity
  8
0
100
AcDbLine
 62
7
  6
CONTINUOUS
 10
4.7447268013
 20
3.7672047334
 11
4.7442534247
 21
3.7666578388
  0
LINE
  5
256
100
AcDbEntity
  8
0
100
AcDbLine
 62
7
  6
CONTINUOUS
 10
4.7447268013
 20
3.6957747334
 11
4.7442534247
 21
3.6952278388
  0
LINE
  5
257
100
AcDbEntity
  8
0
100
AcDbLine
 62
7
  6
CONTINUOUS
 10
5.561780048
 20
3.650036667
 11
5.5622534247
 21
3.6505835616
  0
LINE
  5
258
100
AcDbEntity
  8
0
100
AcDbLine
 62
7
  6
CONTINUOUS
 10
4.744726841
 20
3.6857516673
 11
4.7442534735
 21
3.6862985615
  0
LINE
  5
259
100
AcDbEntity
  8
0
100
AcDbLine
 62
7
  6
CONTINUOUS
 10
4.7447267466
 20
3.6143216669
 11
4.7442534632
 21
3.6148685618
  0
SPLINE
  5
25A
100
AcDbEntity
  8
0
100
AcDbSpline
 62
7
  6
CONTINUOUS
 70
0
 71
3
 72
14
 73
10
 74
0
 42
0.0000001
 43
0.0000001
 44
0.0000000001
 40
0.0
 40
0.0
 40
0.0
 40
0.0
 40
0.3313101872
 40
0.4600562684
 40
0.5698620051
 40
0.6684738414
 40
0.7663430162
 40
0.8741315937
 40
1.0
 40
1.0
 40
1.0
 40
1.0
 10
5.5513931435
 20
3.5946338102
 30
0.0
 10
5.5514370672
 20
3.5946084318
 30
0.0
 10
5.5514966226
 20
3.5945690034
 30
0.0
 10
5.5515556228
 20
3.5945040788
 30
0.0
 10
5.5515811889
 20
3.594458527
 30
0.0
 10
5.5515908252
 20
3.5944117027
 30
0.0
 10
5.5515834589
 20
3.5943647498
 30
0.0
 10
5.5515599732
 20
3.5943190314
 30
0.0
 10
5.551536477
 20
3.5942917052
 30
0.0
 10
5.551522844
 20
3.5942780833
 30
0.0
  0
SPLINE
  5
25B
100
AcDbEntity
  8
0
100
AcDbSpline
 62
7
  6
CONTINUOUS
 70
0
 71
3
 72
14
 73
10
 74
0
 42
0.0000001
 43
0.0000001
 44
0.0000000001
 40
0.0
 40
0.0
 40
0.0
 40
0.0
 40
0.3312708837
 40
0.4600377929
 40
0.5698837419
 40
0.6685321941
 40
0.766407303
 40
0.874169352
 40
1.0
 40
1.0
 40
1.0
 40
1.0
 10
4.7777639544
 20
3.5720127706
 30
0.0
 10
4.777717414
 20
3.5719858664
 30
0.0
 10
4.7776543096
 20
3.5719440641
 30
0.0
 10
4.7775917822
 20
3.5718752479
 30
0.0
 10
4.7775646676
 20
3.5718269655
 30
0.0
 10
4.7775544091
 20
3.5717773378
 30
0.0
 10
4.7775621556
 20
3.5717275635
 30
0.0
 10
4.7775869933
 20
3.5716790909
 30
0.0
 10
4.7776118706
 20
3.5716501207
 30
0.0
 10
4.7776263079
 20
3.5716356807
 30
0.0
  0
LINE
  5
25C
100
AcDbEntity
  8
0
100
AcDbLine
 62
7
  6
CONTINUOUS
 10
4.7442535211
 20
3.6237978387
 11
4.7447266696
 21
3.6243447334
  0
SPLINE
  5
25D
100
AcDbEntity
  8
0
100
AcDbSpline
 62
7
  6
CONTINUOUS
 70
0
 71
3
 72
18
 73
14
 74
0
 42
0.0000001
 43
0.0000001
 44
0.0000000001
 40
0.0
 40
0.0
 40
0.0
 40
0.0
 40
0.1519043299
 40
0.3010997413
 40
0.4449399586
 40
0.58085976
 40
0.7064425952
 40
0.7646517926
 40
0.8194556846
 40
0.8706090556
 40
0.9178885082
 40
0.9610881963
 40
1.0
 40
1.0
 40
1.0
 40
1.0
 10
5.1532534247
 20
3.6416553388
 30
0.0
 10
5.1350977204
 20
3.6411506885
 30
0.0
 10
5.0991100824
 20
3.6401504159
 30
0.0
 10
5.0459313026
 20
3.6386459581
 30
0.0
 10
4.9946644911
 20
3.6371425879
 30
0.0
 10
4.946222183
 20
3.6356408279
 30
0.0
 10
4.9080165999
 20
3.6343615519
 30
0.0
 10
4.8795072015
 20
3.6333267322
 30
0.0
 10
4.859892885
 20
3.6325707327
 30
0.0
 10
4.8415864153
 20
3.6318152417
 30
0.0
 10
4.8246686597
 20
3.6310603557
 30
0.0
 10
4.8092161397
 20
3.6303062267
 30
0.0
 10
4.7994125835
 20
3.6297760196
 30
0.0
 10
4.7947677588
 20
3.6295078388
 30
0.0
  0
LINE
  5
25E
100
AcDbEntity
  8
0
100
AcDbLine
 62
7
  6
CONTINUOUS
 10
4.7834359775
 20
3.7181520829
 11
4.7846026184
 21
3.7186344268
  0
SPLINE
  5
25F
100
AcDbEntity
  8
0
100
AcDbSpline
 62
7
  6
CONTINUOUS
 70
0
 71
3
 72
66
 73
62
 74
0
 42
0.0000001
 43
0.0000001
 44
0.0000000001
 40
0.0
 40
0.0
 40
0.0
 40
0.0
 40
0.0013277436
 40
0.0029277569
 40
0.0048016529
 40
0.0069500126
 40
0.0093728528
 40
0.0120698004
 40
0.015039775
 40
0.0182812962
 40
0.0255725453
 40
0.0339298411
 40
0.0433349266
 40
0.0537671727
 40
0.0652043163
 40
0.0776200296
 40
0.0909870887
 40
0.1052755561
 40
0.1364852328
 40
0.170968109
 40
0.2084133225
 40
0.2484825444
 40
0.2908134808
 40
0.3350235302
 40
0.3807130753
 40
0.4274688312
 40
0.4748677978
 40
0.5224813047
 40
0.5698786938
 40
0.6166311344
 40
0.6623158004
 40
0.7065196393
 40
0.74884289
 40
0.7889027108
 40
0.8263372277
 40
0.8608085347
 40
0.892005536
 40
0.9062867797
 40
0.9196469413
 40
0.9320555399
 40
0.9434847769
 40
0.9539098539
 40
0.9633068628
 40
0.9716560565
 40
0.9789396641
 40
0.9821768709
 40
0.9851424597
 40
0.987835275
 40
0.9902543013
 40
0.9923987369
 40
0.9942683288
 40
0.9958639208
 40
0.9971874748
 40
0.9977484858
 40
0.9982433347
 40
0.9986733335
 40
0.9990405418
 40
0.9993483528
 40
0.9996026639
 40
0.9998139318
 40
1.0
 40
1.0
 40
1.0
 40
1.0
 10
4.7846026184
 20
3.7186344268
 30
0.0
 10
4.7849145773
 20
3.718734805
 30
0.0
 10
4.7856109434
 20
3.7189297051
 30
0.0
 10
4.7867658519
 20
3.7191965911
 30
0.0
 10
4.7881276639
 20
3.7194643306
 30
0.0
 10
4.7896957393
 20
3.7197327063
 30
0.0
 10
4.7914694804
 20
3.7200015166
 30
0.0
 10
4.7934480197
 20
3.72027062
 30
0.0
 10
4.7956302656
 20
3.7205399783
 30
0.0
 10
4.7989419485
 20
3.7209142151
 30
0.0
 10
4.803581596
 20
3.7213762441
 30
0.0
 10
4.8097420754
 20
3.7219125533
 30
0.0
 10
4.8166803233
 20
3.7224497804
 30
0.0
 10
4.824380699
 20
3.7229877615
 30
0.0
 10
4.8328257598
 20
3.7235261924
 30
0.0
 10
4.8419965011
 20
3.7240650611
 30
0.0
 10
4.8518721032
 20
3.7246042274
 30
0.0
 10
4.8663821747
 20
3.7253454074
 30
0.0
 10
4.8861016639
 20
3.7262628334
 30
0.0
 10
4.911535302
 20
3.7273358581
 30
0.0
 10
4.9391573606
 20
3.7284101505
 30
0.0
 10
4.9687177733
 20
3.7294854453
 30
0.0
 10
4.9999488792
 20
3.7305614373
 30
0.0
 10
5.0325679445
 20
3.7316379367
 30
0.0
 10
5.0662796931
 20
3.7327147873
 30
0.0
 10
5.1007789047
 20
3.7337918738
 30
0.0
 10
5.1357532066
 20
3.7348690973
 30
0.0
 10
5.1708859477
 20
3.7359463637
 30
0.0
 10
5.2058590415
 20
3.7370235839
 30
0.0
 10
5.2403558401
 20
3.7381006712
 30
0.0
 10
5.2740640314
 20
3.7391775233
 30
0.0
 10
5.3066784602
 20
3.7402540191
 30
0.0
 10
5.3379038129
 20
3.7413300037
 30
0.0
 10
5.3674573636
 20
3.742405301
 30
0.0
 10
5.3950716003
 20
3.7434795933
 30
0.0
 10
5.4204966069
 20
3.7445526132
 30
0.0
 10
5.4402083218
 20
3.7454700208
 30
0.0
 10
5.4547117684
 20
3.7462112497
 30
0.0
 10
5.4645821219
 20
3.7467504043
 30
0.0
 10
5.4737474458
 20
3.7472892453
 30
0.0
 10
5.4821870152
 20
3.7478277286
 30
0.0
 10
5.4898816671
 20
3.7483656456
 30
0.0
 10
5.4968141342
 20
3.748902892
 30
0.0
 10
5.5029687095
 20
3.7494392283
 30
0.0
 10
5.5076033887
 20
3.7499011965
 30
0.0
 10
5.5109110075
 20
3.7502754804
 30
0.0
 10
5.5130900608
 20
3.7505448508
 30
0.0
 10
5.5150655277
 20
3.7508139599
 30
0.0
 10
5.5168363101
 20
3.7510827389
 30
0.0
 10
5.5184013765
 20
3.7513510877
 30
0.0
 10
5.5197600086
 20
3.7516188106
 30
0.0
 10
5.5209116434
 20
3.7518857601
 30
0.0
 10
5.5217392042
 20
3.7521180269
 30
0.0
 10
5.5222951125
 20
3.7523078851
 30
0.0
 10
5.5226365495
 20
3.7524421753
 30
0.0
 10
5.5229261473
 20
3.7525762844
 30
0.0
 10
5.5231641241
 20
3.752710302
 30
0.0
 10
5.5233509321
 20
3.7528445062
 30
0.0
 10
5.523487133
 20
3.7529798786
 30
0.0
 10
5.5235726985
 20
3.7531185717
 30
0.0
 10
5.5235932383
 20
3.7532172755
 30
0.0
 10
5.5235932227
 20
3.7532632004
 30
0.0
  0
SPLINE
  5
260
100
AcDbEntity
  8
0
100
AcDbSpline
 62
7
  6
CONTINUOUS
 70
0
 71
3
 72
41
 73
37
 74
0
 42
0.0000001
 43
0.0000001
 44
0.0000000001
 40
0.0
 40
0.0
 40
0.0
 40
0.0
 40
0.000171236
 40
0.0003505449
 40
0.0007588924
 40
0.0012658991
 40
0.0018923026
 40
0.002649037
 40
0.0035422192
 40
0.0045755083
 40
0.0057512232
 40
0.0085352987
 40
0.0119012723
 40
0.0158511819
 40
0.0203852928
 40
0.0255029197
 40
0.0312027416
 40
0.0374821102
 40
0.0443374718
 40
0.0597610727
 40
0.0774413523
 40
0.097336316
 40
0.1193997933
 40
0.1435803235
 40
0.1698189973
 40
0.1980548573
 40
0.2282190826
 40
0.2940407021
 40
0.3666522851
 40
0.4453565522
 40
0.5293971113
 40
0.6179656645
 40
0.710211515
 40
0.8052411057
 40
0.9021558708
 40
1.0
 40
1.0
 40
1.0
 40
1.0
 10
5.5622533848
 20
3.8023728387
 30
0.0
 10
5.5622533748
 20
3.8023494443
 30
0.0
 10
5.5622479255
 20
3.8023014042
 30
0.0
 10
5.5622143687
 20
3.8022025942
 30
0.0
 10
5.5621263977
 20
3.8020782979
 30
0.0
 10
5.5619664242
 20
3.8019397533
 30
0.0
 10
5.5617473287
 20
3.8018017467
 30
0.0
 10
5.561468182
 20
3.8016638619
 30
0.0
 10
5.5611283763
 20
3.8015257065
 30
0.0
 10
5.5607276271
 20
3.8013873123
 30
0.0
 10
5.5600740784
 20
3.8011913231
 30
0.0
 10
5.5591017527
 20
3.8009518324
 30
0.0
 10
5.5577493958
 20
3.8006766712
 30
0.0
 10
5.5561539545
 20
3.8004006481
 30
0.0
 10
5.5543163074
 20
3.8001239024
 30
0.0
 10
5.552237287
 20
3.7998466975
 30
0.0
 10
5.5499179997
 20
3.7995691734
 30
0.0
 10
5.547359808
 20
3.7992913842
 30
0.0
 10
5.5434772497
 20
3.7989053932
 30
0.0
 10
5.5380386504
 20
3.7984289035
 30
0.0
 10
5.5308189778
 20
3.7978758227
 30
0.0
 10
5.5226898828
 20
3.7973217653
 30
0.0
 10
5.5136709368
 20
3.7967669545
 30
0.0
 10
5.503783855
 20
3.79621165
 30
0.0
 10
5.4930523082
 20
3.7956558939
 30
0.0
 10
5.4815022676
 20
3.7950998546
 30
0.0
 10
5.4645482185
 20
3.794335697
 30
0.0
 10
5.4415336783
 20
3.7933899228
 30
0.0
 10
5.4118888313
 20
3.7922833948
 30
0.0
 10
5.3797533597
 20
3.7911755621
 30
0.0
 10
5.3454366731
 20
3.7900667069
 30
0.0
 10
5.3092690403
 20
3.7889571476
 30
0.0
 10
5.2715994216
 20
3.7878470981
 30
0.0
 10
5.2327890724
 20
3.7867366699
 30
0.0
 10
5.1932135836
 20
3.7856260536
 30
0.0
 10
5.1666157847
 20
3.7848867549
 30
0.0
 10
5.1532534247
 20
3.7845153388
 30
0.0
  0
SPLINE
  5
261
100
AcDbEntity
  8
0
100
AcDbSpline
 62
7
  6
CONTINUOUS
 70
0
 71
3
 72
30
 73
26
 74
0
 42
0.0000001
 43
0.0000001
 44
0.0000000001
 40
0.0
 40
0.0
 40
0.0
 40
0.0
 40
0.001761045
 40
0.0036547231
 40
0.005789322
 40
0.008241243
 40
0.0110610514
 40
0.0142819017
 40
0.0220049957
 40
0.0315223953
 40
0.0428883792
 40
0.0561335075
 40
0.0712760827
 40
0.0883274944
 40
0.1072936
 40
0.1281753028
 40
0.1509715138
 40
0.2022966829
 40
0.2612424672
 40
0.3277716656
 40
0.4018291064
 40
0.483350193
 40
0.5722683935
 40
0.7719613376
 40
1.0
 40
1.0
 40
1.0
 40
1.0
 10
4.7442534735
 20
3.6862985615
 30
0.0
 10
4.7442534593
 20
3.6863285943
 30
0.0
 10
4.7442626266
 20
3.686391219
 30
0.0
 10
4.7443026612
 20
3.6864824641
 30
0.0
 10
4.7443679168
 20
3.6865724529
 30
0.0
 10
4.7444578973
 20
3.6866616645
 30
0.0
 10
4.7445725686
 20
3.6867505721
 30
0.0
 10
4.7447708411
 20
3.6868766787
 30
0.0
 10
4.7450850257
 20
3.6870305627
 30
0.0
 10
4.7455404273
 20
3.6872063514
 30
0.0
 10
4.746095408
 20
3.6873826663
 30
0.0
 10
4.7467500605
 20
3.687559453
 30
0.0
 10
4.7475045801
 20
3.6877365705
 30
0.0
 10
4.7483589199
 20
3.687913935
 30
0.0
 10
4.7493129529
 20
3.6880914767
 30
0.0
 10
4.7503664404
 20
3.6882691788
 30
0.0
 10
4.7519677289
 20
3.6885161386
 30
0.0
 10
4.7542166485
 20
3.6888210891
 30
0.0
 10
4.7572110463
 20
3.6891749855
 30
0.0
 10
4.7605954362
 20
3.6895294109
 30
0.0
 10
4.7643666414
 20
3.6898843056
 30
0.0
 10
4.7685211542
 20
3.6902395826
 30
0.0
 10
4.7748141012
 20
3.6907329488
 30
0.0
 10
4.7836041349
 20
3.6913417035
 30
0.0
 10
4.7908852656
 20
3.691784396
 30
0.0
 10
4.7947677588
 20
3.6920085616
 30
0.0
  0
SPLINE
  5
262
100
AcDbEntity
  8
0
100
AcDbSpline
 62
7
  6
CONTINUOUS
 70
0
 71
3
 72
39
 73
35
 74
0
 42
0.0000001
 43
0.0000001
 44
0.0000000001
 40
0.0
 40
0.0
 40
0.0
 40
0.0
 40
0.0003649233
 40
0.0008548075
 40
0.0014789016
 40
0.0022415511
 40
0.0031450739
 40
0.0041908252
 40
0.006711975
 40
0.0098087775
 40
0.0134815591
 40
0.0177294233
 40
0.0225509864
 40
0.027944587
 40
0.0339081461
 40
0.0475313676
 40
0.0633910004
 40
0.0814543832
 40
0.1016795921
 40
0.1240217748
 40
0.1484302521
 40
0.1748476468
 40
0.2032145129
 40
0.2334633434
 40
0.2655240024
 40
0.2993215003
 40
0.3718018625
 40
0.4502170519
 40
0.5338182283
 40
0.6218016283
 40
0.7133175866
 40
0.8074697083
 40
0.9033526791
 40
1.0
 40
1.0
 40
1.0
 40
1.0
 10
5.551522844
 20
3.5942780833
 30
0.0
 10
5.5514885475
 20
3.5942438148
 30
0.0
 10
5.5513940948
 20
3.5941783135
 30
0.0
 10
5.5512167387
 20
3.5940934176
 30
0.0
 10
5.5509821797
 20
3.5940078404
 30
0.0
 10
5.5506901946
 20
3.5939218939
 30
0.0
 10
5.5503402855
 20
3.5938355769
 30
0.0
 10
5.5497591987
 20
3.5937123907
 30
0.0
 10
5.5488863741
 20
3.5935624861
 30
0.0
 10
5.5476639738
 20
3.5933905512
 30
0.0
 10
5.5462103523
 20
3.5932178821
 30
0.0
 10
5.5445263039
 20
3.5930445777
 30
0.0
 10
5.5426126162
 20
3.592870867
 30
0.0
 10
5.5404701882
 20
3.5926968168
 30
0.0
 10
5.5371602678
 20
3.5924535049
 30
0.0
 10
5.5324603963
 20
3.5921538276
 30
0.0
 10
5.5261530297
 20
3.5918066751
 30
0.0
 10
5.5189674308
 20
3.5914585334
 30
0.0
 10
5.5109197334
 20
3.5911094415
 30
0.0
 10
5.5020283602
 20
3.5907596516
 30
0.0
 10
5.492313755
 20
3.590409256
 30
0.0
 10
5.4817982684
 20
3.5900582887
 30
0.0
 10
5.470506463
 20
3.5897068589
 30
0.0
 10
5.4584645842
 20
3.5893549529
 30
0.0
 10
5.4457009291
 20
3.5890026146
 30
0.0
 10
5.4273279568
 20
3.588521001
 30
0.0
 10
5.4027974164
 20
3.5879227007
 30
0.0
 10
5.3716507723
 20
3.587218342
 30
0.0
 10
5.3384439849
 20
3.5865121585
 30
0.0
 10
5.3034963292
 20
3.5858042674
 30
0.0
 10
5.2671466597
 20
3.5850948098
 30
0.0
 10
5.2297473104
 20
3.5843838415
 30
0.0
 10
5.1916661282
 20
3.5836714758
 30
0.0
 10
5.1660914977
 20
3.583196004
 30
0.0
 10
5.1532534247
 20
3.582956882
 30
0.0
  0
SPLINE
  5
263
100
AcDbEntity
  8
0
100
AcDbSpline
 62
7
  6
CONTINUOUS
 70
0
 71
3
 72
37
 73
33
 74
0
 42
0.0000001
 43
0.0000001
 44
0.0000000001
 40
0.0
 40
0.0
 40
0.0
 40
0.0
 40
0.0950309135
 40
0.1892154782
 40
0.2816773725
 40
0.3715969829
 40
0.4581552676
 40
0.5405707999
 40
0.6180989972
 40
0.6900394867
 40
0.7557427942
 40
0.786067388
 40
0.8146159386
 40
0.8413228737
 40
0.8661289462
 40
0.8889788588
 40
0.9098204011
 40
0.9286090454
 40
0.9453022772
 40
0.959864757
 40
0.9663377836
 40
0.9722672637
 40
0.977650231
 40
0.9824849687
 40
0.9867702753
 40
0.9905055024
 40
0.9936909411
 40
0.9963289186
 40
0.9974447069
 40
0.9984267768
 40
0.9992773672
 40
1.0
 40
1.0
 40
1.0
 40
1.0
 10
5.1532534247
 20
3.6327260616
 30
0.0
 10
5.1662077436
 20
3.6330861359
 30
0.0
 10
5.1920010101
 20
3.6338030729
 30
0.0
 10
5.2303981262
 20
3.6348800014
 30
0.0
 10
5.2680979433
 20
3.6359567741
 30
0.0
 10
5.3047573444
 20
3.6370332175
 30
0.0
 10
5.3400461314
 20
3.6381092495
 30
0.0
 10
5.3736443073
 20
3.6391846916
 30
0.0
 10
5.4052480168
 20
3.6402592841
 30
0.0
 10
5.4345713173
 20
3.641332802
 30
0.0
 10
5.45745884
 20
3.6422487438
 30
0.0
 10
5.4744312004
 20
3.6429879545
 30
0.0
 10
5.4860892676
 20
3.6435272208
 30
0.0
 10
5.4969939325
 20
3.6440662596
 30
0.0
 10
5.5071204775
 20
3.6446050008
 30
0.0
 10
5.5164459684
 20
3.6451433166
 30
0.0
 10
5.5249494081
 20
3.6456811828
 30
0.0
 10
5.5326114854
 20
3.6462182589
 30
0.0
 10
5.5394150077
 20
3.6467544735
 30
0.0
 10
5.5445394601
 20
3.6472163843
 30
0.0
 10
5.5481976202
 20
3.6475905468
 30
0.0
 10
5.5506080638
 20
3.6478598379
 30
0.0
 10
5.5527936043
 20
3.6481288918
 30
0.0
 10
5.5547531125
 20
3.6483976183
 30
0.0
 10
5.5564856338
 20
3.6486659041
 30
0.0
 10
5.5579903653
 20
3.648933501
 30
0.0
 10
5.5592664868
 20
3.6492002816
 30
0.0
 10
5.5601844008
 20
3.6494324695
 30
0.0
 10
5.5608018143
 20
3.6496223746
 30
0.0
 10
5.56118101
 20
3.6497565698
 30
0.0
 10
5.5615028947
 20
3.6498905205
 30
0.0
 10
5.5616947269
 20
3.6499873572
 30
0.0
 10
5.561780048
 20
3.650036667
 30
0.0
  0
SPLINE
  5
264
100
AcDbEntity
  8
0
100
AcDbSpline
 62
7
  6
CONTINUOUS
 70
0
 71
3
 72
29
 73
25
 74
0
 42
0.0000001
 43
0.0000001
 44
0.0000000001
 40
0.0
 40
0.0
 40
0.0
 40
0.0
 40
0.0019368885
 40
0.0039947141
 40
0.006275206
 40
0.0088537302
 40
0.0150901599
 40
0.0229650205
 40
0.0325980481
 40
0.0440529573
 40
0.057366452
 40
0.0725610029
 40
0.0896506407
 40
0.1086419691
 40
0.129537292
 40
0.1523367873
 40
0.2036413056
 40
0.2625354494
 40
0.3289853915
 40
0.4029370784
 40
0.4843284812
 40
0.573095281
 40
0.7724186431
 40
1.0
 40
1.0
 40
1.0
 40
1.0
 10
4.782913431
 20
3.6639782002
 30
0.0
 10
4.7829134248
 20
3.6640081814
 30
0.0
 10
4.7829216149
 20
3.6640702682
 30
0.0
 10
4.7829576199
 20
3.6641613181
 30
0.0
 10
4.7830165676
 20
3.664251401
 30
0.0
 10
4.7831327295
 20
3.6643786538
 30
0.0
 10
4.7833414913
 20
3.6645340492
 30
0.0
 10
4.7836649844
 20
3.6647096093
 30
0.0
 10
4.7840778783
 20
3.6648856295
 30
0.0
 10
4.7845805438
 20
3.6650620828
 30
0.0
 10
4.7851735027
 20
3.6652389446
 30
0.0
 10
4.7858568341
 20
3.6654161083
 30
0.0
 10
4.7866305418
 20
3.6655934951
 30
0.0
 10
4.7874944839
 20
3.6657710584
 30
0.0
 10
4.7884484409
 20
3.6659487748
 30
0.0
 10
4.78989811
 20
3.6661957003
 30
0.0
 10
4.7919342874
 20
3.6665006489
 30
0.0
 10
4.794645751
 20
3.6668545675
 30
0.0
 10
4.797710327
 20
3.6672090031
 30
0.0
 10
4.801125143
 20
3.6675639119
 30
0.0
 10
4.8048870435
 20
3.6679192006
 30
0.0
 10
4.8105850032
 20
3.6684125512
 30
0.0
 10
4.8185440605
 20
3.669021302
 30
0.0
 10
4.8251373727
 20
3.6694640282
 30
0.0
 10
4.8286529809
 20
3.6696882002
 30
0.0
  0
SPLINE
  5
265
100
AcDbEntity
  8
0
100
AcDbSpline
 62
7
  6
CONTINUOUS
 70
0
 71
3
 72
69
 73
65
 74
0
 42
0.0000001
 43
0.0000001
 44
0.0000000001
 40
0.0
 40
0.0
 40
0.0
 40
0.0
 40
0.0001884436
 40
0.0004030586
 40
0.0006622066
 40
0.0009765401
 40
0.0013520447
 40
0.001792205
 40
0.0022991015
 40
0.002874037
 40
0.0042310146
 40
0.0058673558
 40
0.0077848858
 40
0.009984387
 40
0.0124657792
 40
0.0152281424
 40
0.0182702941
 40
0.0215909116
 40
0.0290615485
 40
0.0376244109
 40
0.0472602717
 40
0.057948439
 40
0.0696637838
 40
0.0823798698
 40
0.0960676775
 40
0.1106949568
 40
0.1426323325
 40
0.1778959541
 40
0.2161586399
 40
0.2570652474
 40
0.3002358521
 40
0.3452690484
 40
0.3917461295
 40
0.4392350545
 40
0.4872943094
 40
0.5354769097
 40
0.5833347762
 40
0.6304229676
 40
0.6763036567
 40
0.7205501305
 40
0.7627511507
 40
0.8025147048
 40
0.8394714517
 40
0.873278102
 40
0.88890088
 40
0.9036212081
 40
0.9174051803
 40
0.9302203245
 40
0.942038021
 40
0.9528305666
 40
0.9625735482
 40
0.9712455841
 40
0.97882671
 40
0.9853019062
 40
0.9881207983
 40
0.9906586531
 40
0.9929148302
 40
0.9948892533
 40
0.9965823568
 40
0.9979954915
 40
0.9985980458
 40
0.9991321029
 40
0.999598828
 40
1.0
 40
1.0
 40
1.0
 40
1.0
 10
4.7829136572
 20
3.5925482002
 30
0.0
 10
4.7829136563
 20
3.5925947908
 30
0.0
 10
4.7829348892
 20
3.5926950815
 30
0.0
 10
4.7830229722
 20
3.5928356792
 30
0.0
 10
4.7831629731
 20
3.5929728639
 30
0.0
 10
4.7833549432
 20
3.5931088885
 30
0.0
 10
4.7835995014
 20
3.5932447523
 30
0.0
 10
4.7838971538
 20
3.593380707
 30
0.0
 10
4.78424813
 20
3.5935168528
 30
0.0
 10
4.7848197024
 20
3.5937093712
 30
0.0
 10
4.785670501
 20
3.5939448599
 30
0.0
 10
4.7868543355
 20
3.594215507
 30
0.0
 10
4.7882508642
 20
3.5944869502
 30
0.0
 10
4.7898595165
 20
3.5947590493
 30
0.0
 10
4.79167958
 20
3.5950315614
 30
0.0
 10
4.7937099889
 20
3.5953044125
 30
0.0
 10
4.7959495321
 20
3.5955775293
 30
0.0
 10
4.7993486187
 20
3.5959570141
 30
0.0
 10
4.8041109279
 20
3.5964254175
 30
0.0
 10
4.8104341601
 20
3.5969691935
 30
0.0
 10
4.8175554087
 20
3.5975139263
 30
0.0
 10
4.825458049
 20
3.5980593289
 30
0.0
 10
4.8341238438
 20
3.5986052975
 30
0.0
 10
4.8435325875
 20
3.599151646
 30
0.0
 10
4.8536623779
 20
3.599698298
 30
0.0
 10
4.8685401963
 20
3.6004497148
 30
0.0
 10
4.8887500485
 20
3.6013797183
 30
0.0
 10
4.9148021297
 20
3.6024676228
 30
0.0
 10
4.9430734736
 20
3.6035568124
 30
0.0
 10
4.9733010352
 20
3.6046470161
 30
0.0
 10
5.0052035303
 20
3.6057379112
 30
0.0
 10
5.0384840124
 20
3.6068293156
 30
0.0
 10
5.0728326927
 20
3.6079210716
 30
0.0
 10
5.107929893
 20
3.609013055
 30
0.0
 10
5.1434489608
 20
3.6101051583
 30
0.0
 10
5.1790592872
 20
3.6111972886
 30
0.0
 10
5.214429418
 20
3.6122893517
 30
0.0
 10
5.249230158
 20
3.613381246
 30
0.0
 10
5.283137582
 20
3.6144728582
 30
0.0
 10
5.3158360764
 20
3.6155640564
 30
0.0
 10
5.3470213206
 20
3.616654675
 30
0.0
 10
5.3764031348
 20
3.6177444518
 30
0.0
 10
5.4037080514
 20
3.6188331514
 30
0.0
 10
5.4250459607
 20
3.6197617534
 30
0.0
 10
5.4408885881
 20
3.6205110914
 30
0.0
 10
5.4517848222
 20
3.6210580264
 30
0.0
 10
5.4619859863
 20
3.6216046821
 30
0.0
 10
5.4714684209
 20
3.622151092
 30
0.0
 10
5.4802099642
 20
3.6226970714
 30
0.0
 10
5.4881903787
 20
3.6232425572
 30
0.0
 10
5.4953911193
 20
3.623787398
 30
0.0
 10
5.5017954627
 20
3.6243311518
 30
0.0
 10
5.5073886873
 20
3.6248737513
 30
0.0
 10
5.5115347306
 20
3.6253430976
 30
0.0
 10
5.5144351115
 20
3.6257248497
 30
0.0
 10
5.516297558
 20
3.6259974777
 30
0.0
 10
5.5179488046
 20
3.6262696843
 30
0.0
 10
5.5193881654
 20
3.6265412677
 30
0.0
 10
5.5206149696
 20
3.6268121041
 30
0.0
 10
5.5215017328
 20
3.627047476
 30
0.0
 10
5.5221022661
 20
3.6272396306
 30
0.0
 10
5.5224746925
 20
3.6273758536
 30
0.0
 10
5.5227936885
 20
3.6275118781
 30
0.0
 10
5.5229850301
 20
3.6276096633
 30
0.0
 10
5.5230708915
 20
3.6276593176
 30
0.0
  0
SPLINE
  5
266
100
AcDbEntity
  8
0
100
AcDbSpline
 62
7
  6
CONTINUOUS
 70
0
 71
3
 72
37
 73
33
 74
0
 42
0.0000001
 43
0.0000001
 44
0.0000000001
 40
0.0
 40
0.0
 40
0.0
 40
0.0
 40
0.0961426036
 40
0.1912876799
 40
0.284569001
 40
0.3751762684
 40
0.4622950208
 40
0.5451447805
 40
0.622978595
 40
0.6950901423
 40
0.760820988
 40
0.7911020524
 40
0.8195666571
 40
0.8461478308
 40
0.8707838339
 40
0.8934179873
 40
0.9139956813
 40
0.9324701419
 40
0.9487970557
 40
0.9629378538
 40
0.9691785619
 40
0.9748610186
 40
0.9799816471
 40
0.9845380382
 40
0.9885284577
 40
0.991951551
 40
0.9948066442
 40
0.997094544
 40
0.9980272556
 40
0.9988206432
 40
0.9994768937
 40
1.0
 40
1.0
 40
1.0
 40
1.0
 10
5.1532534246
 20
3.8353005035
 30
0.0
 10
5.1653501001
 20
3.8355247962
 30
0.0
 10
5.1894179278
 20
3.8359718198
 30
0.0
 10
5.2252222649
 20
3.8366450033
 30
0.0
 10
5.2603298807
 20
3.8373192406
 30
0.0
 10
5.2944272405
 20
3.8379944233
 30
0.0
 10
5.3272115903
 20
3.8386705058
 30
0.0
 10
5.3583881326
 20
3.8393473753
 30
0.0
 10
5.3876756594
 20
3.8400248621
 30
0.0
 10
5.4148082824
 20
3.8407028193
 30
0.0
 10
5.4359573236
 20
3.8412825371
 30
0.0
 10
5.4516146631
 20
3.8417511919
 30
0.0
 10
5.4623469043
 20
3.8420931635
 30
0.0
 10
5.4723683726
 20
3.8424352727
 30
0.0
 10
5.4816556645
 20
3.8427774937
 30
0.0
 10
5.490186915
 20
3.8431197158
 30
0.0
 10
5.4979421068
 20
3.8434619238
 30
0.0
 10
5.5049027504
 20
3.8438038828
 30
0.0
 10
5.5110522844
 20
3.844145502
 30
0.0
 10
5.5156623999
 20
3.8444404891
 30
0.0
 10
5.518933604
 20
3.8446799529
 30
0.0
 10
5.5210715436
 20
3.8448519066
 30
0.0
 10
5.5229967832
 20
3.8450237435
 30
0.0
 10
5.5247081775
 20
3.845195387
 30
0.0
 10
5.5262047699
 20
3.8453667349
 30
0.0
 10
5.5274857772
 20
3.8455375102
 30
0.0
 10
5.5285503503
 20
3.8457076125
 30
0.0
 10
5.5293007205
 20
3.8458563644
 30
0.0
 10
5.5297907738
 20
3.8459792631
 30
0.0
 10
5.5300782683
 20
3.8460648181
 30
0.0
 10
5.5303115895
 20
3.8461500085
 30
0.0
 10
5.5304462748
 20
3.8462134213
 30
0.0
 10
5.5305032662
 20
3.8462463666
 30
0.0
  0
SPLINE
  5
267
100
AcDbEntity
  8
0
100
AcDbSpline
 62
7
  6
CONTINUOUS
 70
0
 71
3
 72
41
 73
37
 74
0
 42
0.0000001
 43
0.0000001
 44
0.0000000001
 40
0.0
 40
0.0
 40
0.0
 40
0.0
 40
0.0001712294
 40
0.0003505273
 40
0.00075887
 40
0.0012659156
 40
0.0018923937
 40
0.0026492171
 40
0.0035424784
 40
0.0045758114
 40
0.0057515093
 40
0.0085353315
 40
0.0119012273
 40
0.0158512692
 40
0.0203855444
 40
0.025503187
 40
0.0312027709
 40
0.0374820834
 40
0.0443375706
 40
0.0597613242
 40
0.0774413521
 40
0.0973365524
 40
0.1193998392
 40
0.1435804367
 40
0.1698191958
 40
0.198054878
 40
0.2282192536
 40
0.2940407731
 40
0.3666523046
 40
0.4453565851
 40
0.5293972163
 40
0.6179657388
 40
0.7102115262
 40
0.8052412827
 40
0.9021555581
 40
1.0
 40
1.0
 40
1.0
 40
1.0
 10
5.5622534247
 20
3.7309428388
 30
0.0
 10
5.5622534247
 20
3.7309194454
 30
0.0
 10
5.5622479923
 20
3.7308714051
 30
0.0
 10
5.5622144535
 20
3.7307725911
 30
0.0
 10
5.5621264764
 20
3.7306482916
 30
0.0
 10
5.5619664799
 20
3.7305097512
 30
0.0
 10
5.5617473499
 20
3.7303717472
 30
0.0
 10
5.5614681655
 20
3.7302338643
 30
0.0
 10
5.5611283282
 20
3.73009571
 30
0.0
 10
5.5607275635
 20
3.7299573164
 30
0.0
 10
5.5600740455
 20
3.7297613329
 30
0.0
 10
5.5591017746
 20
3.7295218188
 30
0.0
 10
5.5577494431
 20
3.729246665
 30
0.0
 10
5.5561539702
 20
3.7289706483
 30
0.0
 10
5.5543162789
 20
3.7286939074
 30
0.0
 10
5.552237266
 20
3.728416705
 30
0.0
 10
5.5499180183
 20
3.7281391673
 30
0.0
 10
5.5473598491
 20
3.7278613807
 30
0.0
 10
5.5434772592
 20
3.7274753958
 30
0.0
 10
5.538038655
 20
3.7269989117
 30
0.0
 10
5.530818964
 20
3.7264458114
 30
0.0
 10
5.5226898947
 20
3.7258917743
 30
0.0
 10
5.5136709329
 20
3.7253369486
 30
0.0
 10
5.5037838545
 20
3.7247816503
 30
0.0
 10
5.4930523095
 20
3.7242258972
 30
0.0
 10
5.4815022598
 20
3.7236698501
 30
0.0
 10
5.4645482253
 20
3.7229057021
 30
0.0
 10
5.4415336824
 20
3.7219599211
 30
0.0
 10
5.4118888501
 20
3.720853395
 30
0.0
 10
5.3797533695
 20
3.7197455617
 30
0.0
 10
5.3454366706
 20
3.7186367073
 30
0.0
 10
5.3092690358
 20
3.7175271476
 30
0.0
 10
5.2715994021
 20
3.7164170973
 30
0.0
 10
5.2327891004
 20
3.7153066706
 30
0.0
 10
5.1932136076
 20
3.7141960542
 30
0.0
 10
5.1666158292
 20
3.7134567561
 30
0.0
 10
5.1532534247
 20
3.7130853388
 30
0.0
  0
SPLINE
  5
268
100
AcDbEntity
  8
0
100
AcDbSpline
 62
7
  6
CONTINUOUS
 70
0
 71
3
 72
23
 73
19
 74
0
 42
0.0000001
 43
0.0000001
 44
0.0000000001
 40
0.0
 40
0.0
 40
0.0
 40
0.0
 40
0.0076925206
 40
0.0168345955
 40
0.0274665676
 40
0.0396133332
 40
0.0532909775
 40
0.068510226
 40
0.1035931575
 40
0.1448786704
 40
0.1923596864
 40
0.2460190199
 40
0.3058323384
 40
0.371761712
 40
0.4437621059
 40
0.6057867161
 40
0.7914302914
 40
1.0
 40
1.0
 40
1.0
 40
1.0
 10
4.783435946
 20
3.6467220831
 30
0.0
 10
4.7835371875
 20
3.6467806077
 30
0.0
 10
4.7837665054
 20
3.6468952552
 30
0.0
 10
4.7841532921
 20
3.647053126
 30
0.0
 10
4.7846122535
 20
3.6472113138
 30
0.0
 10
4.7851434501
 20
3.6473697448
 30
0.0
 10
4.785746974
 20
3.6475283935
 30
0.0
 10
4.7866939022
 20
3.6477507927
 30
0.0
 10
4.7880594526
 20
3.6480241572
 30
0.0
 10
4.7899156944
 20
3.6483398341
 30
0.0
 10
4.7920577195
 20
3.6486562313
 30
0.0
 10
4.7944839675
 20
3.6489732216
 30
0.0
 10
4.797192737
 20
3.6492905688
 30
0.0
 10
4.8001819994
 20
3.6496082406
 30
0.0
 10
4.8047204681
 20
3.6500497059
 30
0.0
 10
4.8110770718
 20
3.6505945372
 30
0.0
 10
4.8195092971
 20
3.6512269522
 30
0.0
 10
4.8254887757
 20
3.6516264353
 30
0.0
 10
4.8286529809
 20
3.6518282002
 30
0.0
  0
SPLINE
  5
269
100
AcDbEntity
  8
0
100
AcDbSpline
 62
7
  6
CONTINUOUS
 70
0
 71
3
 72
23
 73
19
 74
0
 42
0.0000001
 43
0.0000001
 44
0.0000000001
 40
0.0
 40
0.0
 40
0.0
 40
0.0
 40
0.0071154018
 40
0.0157184261
 40
0.0258513637
 40
0.0375391202
 40
0.0507971467
 40
0.0656353685
 40
0.100073782
 40
0.1408712806
 40
0.18801554
 40
0.2414846298
 40
0.3012510101
 40
0.3672769161
 40
0.4395142402
 40
0.6024211623
 40
0.7894869299
 40
1.0
 40
1.0
 40
1.0
 40
1.0
 10
4.7447266696
 20
3.6243447334
 30
0.0
 10
4.7448301866
 20
3.6244045533
 30
0.0
 10
4.7450678022
 20
3.6245211646
 30
0.0
 10
4.7454721741
 20
3.6246804567
 30
0.0
 10
4.7459580296
 20
3.6248401707
 30
0.0
 10
4.7465254372
 20
3.6250002011
 30
0.0
 10
4.747174513
 20
3.6251605004
 30
0.0
 10
4.7482009176
 20
3.6253858182
 30
0.0
 10
4.7496892963
 20
3.6256623501
 30
0.0
 10
4.7517208949
 20
3.6259812814
 30
0.0
 10
4.7540755135
 20
3.6263010254
 30
0.0
 10
4.7567513007
 20
3.6266214353
 30
0.0
 10
4.759746314
 20
3.6269422502
 30
0.0
 10
4.7630582669
 20
3.6272634002
 30
0.0
 10
4.7680990487
 20
3.6277100574
 30
0.0
 10
4.775172096
 20
3.6282610746
 30
0.0
 10
4.7845681666
 20
3.6289003782
 30
0.0
 10
4.791236442
 20
3.6293039493
 30
0.0
 10
4.7947677588
 20
3.6295078388
 30
0.0
  0
SPLINE
  5
26A
100
AcDbEntity
  8
0
100
AcDbSpline
 62
7
  6
CONTINUOUS
 70
0
 71
3
 72
69
 73
65
 74
0
 42
0.0000001
 43
0.0000001
 44
0.0000000001
 40
0.0
 40
0.0
 40
0.0
 40
0.0
 40
0.0001884423
 40
0.0004031128
 40
0.0006623835
 40
0.000976859
 40
0.00135246
 40
0.0017926158
 40
0.0022994193
 40
0.0028742115
 40
0.0042309182
 40
0.0058672891
 40
0.0077851522
 40
0.0099848231
 40
0.0124660091
 40
0.0152280797
 40
0.0182701912
 40
0.0215911156
 40
0.0290618222
 40
0.0376242888
 40
0.0472606702
 40
0.0579484639
 40
0.0696638614
 40
0.0823801903
 40
0.0960675679
 40
0.1106952544
 40
0.1426323251
 40
0.177895913
 40
0.2161588107
 40
0.2570654941
 40
0.3002359306
 40
0.345269035
 40
0.3917462043
 40
0.439235169
 40
0.4872943657
 40
0.5354769647
 40
0.5833348729
 40
0.6304229955
 40
0.6763035752
 40
0.7205501419
 40
0.7627513269
 40
0.8025147791
 40
0.8394712866
 40
0.8732779673
 40
0.8889008596
 40
0.9036213815
 40
0.9174049256
 40
0.9302205091
 40
0.9420379568
 40
0.9528304392
 40
0.9625738045
 40
0.9712453062
 40
0.9788268295
 40
0.9853019578
 40
0.9881205368
 40
0.9906584264
 40
0.9929148983
 40
0.9948895308
 40
0.9965824664
 40
0.9979952702
 40
0.9985977516
 40
0.9991318472
 40
0.9995986853
 40
1.0
 40
1.0
 40
1.0
 40
1.0
 10
4.7829134496
 20
3.8068382001
 30
0.0
 10
4.7829134332
 20
3.8068847904
 30
0.0
 10
4.78293467
 20
3.8069851038
 30
0.0
 10
4.7830228583
 20
3.8071256929
 30
0.0
 10
4.7831629828
 20
3.8072628607
 30
0.0
 10
4.7833550686
 20
3.8073988743
 30
0.0
 10
4.7835996939
 20
3.8075347332
 30
0.0
 10
4.7838973416
 20
3.8076706958
 30
0.0
 10
4.7842482512
 20
3.8078068487
 30
0.0
 10
4.7848196877
 20
3.8079993778
 30
0.0
 10
4.7856703816
 20
3.8082348925
 30
0.0
 10
4.7868542433
 20
3.8085055281
 30
0.0
 10
4.7882509136
 20
3.8087769333
 30
0.0
 10
4.7898596412
 20
3.8090490263
 30
0.0
 10
4.7916796193
 20
3.8093215598
 30
0.0
 10
4.7937098922
 20
3.8095944261
 30
0.0
 10
4.7959494291
 20
3.8098675455
 30
0.0
 10
4.7993486045
 20
3.8102469884
 30
0.0
 10
4.8041109082
 20
3.8107154027
 30
0.0
 10
4.8104341855
 20
3.8112592314
 30
0.0
 10
4.8175553794
 20
3.8118038888
 30
0.0
 10
4.8254580663
 20
3.8123493478
 30
0.0
 10
4.8341238443
 20
3.8128953004
 30
0.0
 10
4.8435325574
 20
3.8134416268
 30
0.0
 10
4.8536624017
 20
3.8139883209
 30
0.0
 10
4.868540144
 20
3.8147396865
 30
0.0
 10
4.8887500143
 20
3.815669732
 30
0.0
 10
4.9148020689
 20
3.8167576239
 30
0.0
 10
4.9430734802
 20
3.8178468107
 30
0.0
 10
4.9733010763
 20
3.8189370121
 30
0.0
 10
5.0052035308
 20
3.8200279124
 30
0.0
 10
5.0384839756
 20
3.8211193176
 30
0.0
 10
5.0728326704
 20
3.8222110705
 30
0.0
 10
5.1079298936
 20
3.8233030535
 30
0.0
 10
5.1434489621
 20
3.8243951591
 30
0.0
 10
5.1790592898
 20
3.8254872891
 30
0.0
 10
5.2144294193
 20
3.8265793499
 30
0.0
 10
5.2492301311
 20
3.8276712449
 30
0.0
 10
5.2831375393
 20
3.8287628606
 30
0.0
 10
5.3158360756
 20
3.8298540574
 30
0.0
 10
5.3470213635
 20
3.8309446709
 30
0.0
 10
5.3764031388
 20
3.8320344487
 30
0.0
 10
5.4037079825
 20
3.8331231565
 30
0.0
 10
5.425045872
 20
3.8340517533
 30
0.0
 10
5.4408885854
 20
3.8348010962
 30
0.0
 10
5.4517847928
 20
3.8353480065
 30
0.0
 10
5.4619860069
 20
3.8358947082
 30
0.0
 10
5.4714683868
 20
3.8364410707
 30
0.0
 10
5.4802099617
 20
3.8369870737
 30
0.0
 10
5.4881903936
 20
3.837532579
 30
0.0
 10
5.4953910875
 20
3.8380773551
 30
0.0
 10
5.501795486
 20
3.8386211943
 30
0.0
 10
5.5073886658
 20
3.8391637356
 30
0.0
 10
5.5115347165
 20
3.8396330659
 30
0.0
 10
5.5144350049
 20
3.8400148682
 30
0.0
 10
5.5162974557
 20
3.8402874945
 30
0.0
 10
5.5179488405
 20
3.8405596829
 30
0.0
 10
5.5193882916
 20
3.8408312382
 30
0.0
 10
5.5206150228
 20
3.8411020803
 30
0.0
 10
5.5215016307
 20
3.8413374869
 30
0.0
 10
5.5221020682
 20
3.8415296439
 30
0.0
 10
5.5224745155
 20
3.8416658648
 30
0.0
 10
5.5227935916
 20
3.8418018857
 30
0.0
 10
5.5229850072
 20
3.8418996643
 30
0.0
 10
5.5230709102
 20
3.8419493171
 30
0.0
  0
LINE
  5
26B
100
AcDbEntity
  8
0
100
AcDbLine
 62
7
  6
CONTINUOUS
 10
4.7834359878
 20
3.5752920833
 11
4.784352686
 21
3.5756907346
  0
SPLINE
  5
26C
100
AcDbEntity
  8
0
100
AcDbSpline
 62
7
  6
CONTINUOUS
 70
0
 71
3
 72
66
 73
62
 74
0
 42
0.0000001
 43
0.0000001
 44
0.0000000001
 40
0.0
 40
0.0
 40
0.0
 40
0.0
 40
0.0012468045
 40
0.0027662344
 40
0.0045607246
 40
0.0066309482
 40
0.0089768453
 40
0.0115979627
 40
0.0144936049
 40
0.0176627358
 40
0.0248145586
 40
0.0330386915
 40
0.0423185869
 40
0.0526331763
 40
0.0639599684
 40
0.0762739281
 40
0.0895467138
 40
0.1037492136
 40
0.1348113641
 40
0.1691795843
 40
0.206542187
 40
0.2465599193
 40
0.2888694527
 40
0.3330865974
 40
0.3788095813
 40
0.4256227512
 40
0.4731006731
 40
0.5208118946
 40
0.5683227213
 40
0.6152012611
 40
0.6610215152
 40
0.7053671424
 40
0.7478351034
 40
0.7880394934
 40
0.8256153961
 40
0.8602219208
 40
0.8915452058
 40
0.9058854791
 40
0.9193014963
 40
0.931762534
 40
0.9432405544
 40
0.953710472
 40
0.9631481927
 40
0.9715338255
 40
0.9788492733
 40
0.9821006973
 40
0.9850793576
 40
0.9877840477
 40
0.990213701
 40
0.9923674756
 40
0.9942452232
 40
0.9958477864
 40
0.9971770699
 40
0.9977404626
 40
0.9982373628
 40
0.9986690774
 40
0.9990376658
 40
0.9993465609
 40
0.9996016875
 40
0.9998135266
 40
1.0
 40
1.0
 40
1.0
 40
1.0
 10
4.784352686
 20
3.5756907346
 30
0.0
 10
4.784643373
 20
3.5757920668
 30
0.0
 10
4.7852982638
 20
3.5759881691
 30
0.0
 10
4.7863924218
 20
3.5762553528
 30
0.0
 10
4.787694727
 20
3.5765234622
 30
0.0
 10
4.7892045383
 20
3.5767922995
 30
0.0
 10
4.7909211699
 20
3.5770616244
 30
0.0
 10
4.7928437467
 20
3.577331306
 30
0.0
 10
4.7949713327
 20
3.5776012633
 30
0.0
 10
4.7982129578
 20
3.5779767505
 30
0.0
 10
4.8027685567
 20
3.5784400134
 30
0.0
 10
4.8088325554
 20
3.5789774998
 30
0.0
 10
4.8156800841
 20
3.5795158506
 30
0.0
 10
4.8232957098
 20
3.580055027
 30
0.0
 10
4.8316621218
 20
3.580594722
 30
0.0
 10
4.8407602895
 20
3.5811347958
 30
0.0
 10
4.8505696159
 20
3.5816752483
 30
0.0
 10
4.8650037251
 20
3.5824184955
 30
0.0
 10
4.884644084
 20
3.5833383244
 30
0.0
 10
4.9100014792
 20
3.5844137922
 30
0.0
 10
4.9375718194
 20
3.5854905773
 30
0.0
 10
4.9671042529
 20
3.5865683962
 30
0.0
 10
4.9983301422
 20
3.5876469286
 30
0.0
 10
5.0309654689
 20
3.5887259793
 30
0.0
 10
5.0647133396
 20
3.5898053922
 30
0.0
 10
5.0992667055
 20
3.5908850505
 30
0.0
 10
5.1343112084
 20
3.5919648493
 30
0.0
 10
5.1695280459
 20
3.5930446946
 30
0.0
 10
5.2045968247
 20
3.5941244985
 30
0.0
 10
5.2391984946
 20
3.5952041716
 30
0.0
 10
5.2730182806
 20
3.5962836099
 30
0.0
 10
5.3057485137
 20
3.5973626918
 30
0.0
 10
5.3370913969
 20
3.5984412651
 30
0.0
 10
5.366761787
 20
3.5995191491
 30
0.0
 10
5.394489832
 20
3.6005960256
 30
0.0
 10
5.4200233559
 20
3.6016716275
 30
0.0
 10
5.4398212241
 20
3.6025912236
 30
0.0
 10
5.454389378
 20
3.6033342189
 30
0.0
 10
5.4643045577
 20
3.6038746761
 30
0.0
 10
5.4735119278
 20
3.6044148187
 30
0.0
 10
5.4819905665
 20
3.6049546006
 30
0.0
 10
5.4897211279
 20
3.6054938167
 30
0.0
 10
5.4966861862
 20
3.6060323634
 30
0.0
 10
5.5028698683
 20
3.6065699861
 30
0.0
 10
5.5075265709
 20
3.6070330748
 30
0.0
 10
5.5108499719
 20
3.6074082611
 30
0.0
 10
5.5130394753
 20
3.6076782804
 30
0.0
 10
5.515024434
 20
3.607948038
 30
0.0
 10
5.5168037148
 20
3.6082174621
 30
0.0
 10
5.5183762864
 20
3.6084864671
 30
0.0
 10
5.5197414499
 20
3.6087548372
 30
0.0
 10
5.5208986539
 20
3.6090224262
 30
0.0
 10
5.5217302438
 20
3.6092552499
 30
0.0
 10
5.522288867
 20
3.6094455693
 30
0.0
 10
5.5226319492
 20
3.609580181
 30
0.0
 10
5.5229229258
 20
3.6097146081
 30
0.0
 10
5.5231620167
 20
3.6098489502
 30
0.0
 10
5.5233496936
 20
3.6099834744
 30
0.0
 10
5.5234865415
 20
3.6101191605
 30
0.0
 10
5.5235725449
 20
3.6102581816
 30
0.0
 10
5.5235932152
 20
3.6103571591
 30
0.0
 10
5.523593208
 20
3.6104032003
 30
0.0
  0
SPLINE
  5
26D
100
AcDbEntity
  8
0
100
AcDbSpline
 62
7
  6
CONTINUOUS
 70
0
 71
3
 72
52
 73
48
 74
0
 42
0.0000001
 43
0.0000001
 44
0.0000000001
 40
0.0
 40
0.0
 40
0.0
 40
0.0
 40
0.0227233626
 40
0.0484636642
 40
0.0770374413
 40
0.1082569159
 40
0.1419097476
 40
0.1777671935
 40
0.2155866647
 40
0.2551109799
 40
0.3381916185
 40
0.4247561771
 40
0.5124569588
 40
0.5559895464
 40
0.5989151742
 40
0.6409424886
 40
0.681785999
 40
0.7211681515
 40
0.7588219851
 40
0.7944916914
 40
0.8279350948
 40
0.8589260071
 40
0.8872540774
 40
0.9127276617
 40
0.9351756538
 40
0.9452167192
 40
0.9544470266
 40
0.9628507852
 40
0.9704142215
 40
0.9771260497
 40
0.9829755448
 40
0.9855742055
 40
0.9879545647
 40
0.9901161125
 40
0.9920584855
 40
0.9937815425
 40
0.9952855321
 40
0.9965716338
 40
0.9976422737
 40
0.998098195
 40
0.9985022716
 40
0.9988558508
 40
0.999160974
 40
0.999420856
 40
0.99964074
 40
0.9998292766
 40
1.0
 40
1.0
 40
1.0
 40
1.0
 10
4.8286529809
 20
3.6518282002
 30
0.0
 10
4.8339149649
 20
3.6521637296
 30
0.0
 10
4.8451411332
 20
3.6528233968
 30
0.0
 10
4.8629926445
 20
3.6537520992
 30
0.0
 10
4.8828178877
 20
3.6546823484
 30
0.0
 10
4.9044809036
 20
3.655613769
 30
0.0
 10
4.9278354046
 20
3.6565460681
 30
0.0
 10
4.9527224633
 20
3.6574789852
 30
0.0
 10
4.9789728097
 20
3.6584123845
 30
0.0
 10
5.0161757545
 20
3.6596784801
 30
0.0
 10
5.0646857305
 20
3.6612426662
 30
0.0
 10
5.1243709836
 20
3.6630921674
 30
0.0
 10
5.1748846218
 20
3.6646375568
 30
0.0
 10
5.2152767249
 20
3.6658864828
 30
0.0
 10
5.2450755342
 20
3.6668208215
 30
0.0
 10
5.2742500699
 20
3.6677550135
 30
0.0
 10
5.302601962
 20
3.6686890011
 30
0.0
 10
5.3299384843
 20
3.6696227256
 30
0.0
 10
5.3560737762
 20
3.6705560748
 30
0.0
 10
5.3808301534
 20
3.6714889402
 30
0.0
 10
5.4040393491
 20
3.6724211693
 30
0.0
 10
5.4255435787
 20
3.6733525196
 30
0.0
 10
5.4451967037
 20
3.6742826106
 30
0.0
 10
5.4628651822
 20
3.6752111597
 30
0.0
 10
5.4762911491
 20
3.6760094836
 30
0.0
 10
5.4859500046
 20
3.6766564377
 30
0.0
 10
5.4923547399
 20
3.6771230604
 30
0.0
 10
5.4981829482
 20
3.6775892274
 30
0.0
 10
5.503424783
 20
3.678054813
 30
0.0
 10
5.5080714
 20
3.6785195843
 30
0.0
 10
5.5115664177
 20
3.678920017
 30
0.0
 10
5.5140580592
 20
3.6792443988
 30
0.0
 10
5.5156984607
 20
3.6794778212
 30
0.0
 10
5.5171849354
 20
3.6797110252
 30
0.0
 10
5.5185168853
 20
3.6799439586
 30
0.0
 10
5.5196937378
 20
3.6801765307
 30
0.0
 10
5.5207151282
 20
3.6804085942
 30
0.0
 10
5.5215807762
 20
3.6806400547
 30
0.0
 10
5.522202174
 20
3.6808413733
 30
0.0
 10
5.5226190793
 20
3.6810057133
 30
0.0
 10
5.5228756208
 20
3.6811221938
 30
0.0
 10
5.5230932799
 20
3.6812385885
 30
0.0
 10
5.5232722293
 20
3.6813550164
 30
0.0
 10
5.52341274
 20
3.6814717497
 30
0.0
 10
5.523515024
 20
3.681589567
 30
0.0
 10
5.5235785463
 20
3.6817097331
 30
0.0
 10
5.5235934048
 20
3.6817935862
 30
0.0
 10
5.5235933888
 20
3.6818332004
 30
0.0
  0
SPLINE
  5
26E
100
AcDbEntity
  8
0
100
AcDbSpline
 62
7
  6
CONTINUOUS
 70
0
 71
3
 72
46
 73
42
 74
0
 42
0.0000001
 43
0.0000001
 44
0.0000000001
 40
0.0
 40
0.0
 40
0.0
 40
0.0
 40
0.0222623098
 40
0.0474282747
 40
0.0753251577
 40
0.1057770107
 40
0.1385851248
 40
0.1735354323
 40
0.2104007566
 40
0.2489404428
 40
0.33002949
 40
0.4146910069
 40
0.5007202432
 40
0.5858765206
 40
0.6274318547
 40
0.667942091
 40
0.7071432727
 40
0.7447799885
 40
0.7806064732
 40
0.8143897721
 40
0.845909857
 40
0.8749611405
 40
0.9013555253
 40
0.9249215465
 40
0.9355954763
 40
0.9455067164
 40
0.9546399011
 40
0.962979903
 40
0.9705137775
 40
0.977230589
 40
0.9831198607
 40
0.9881735823
 40
0.9903855579
 40
0.9923869425
 40
0.9941774535
 40
0.9957571121
 40
0.9971266914
 40
0.9982878435
 40
0.9992435646
 40
0.9996461612
 40
1.0
 40
1.0
 40
1.0
 40
1.0
 10
4.8286529809
 20
3.6696882002
 30
0.0
 10
4.8338020407
 20
3.670016529
 30
0.0
 10
4.8447751731
 20
3.6706624501
 30
0.0
 10
4.8622088756
 20
3.6715727506
 30
0.0
 10
4.8815428398
 20
3.6724844987
 30
0.0
 10
4.9026496781
 20
3.673397344
 30
0.0
 10
4.9253925926
 20
3.6743110281
 30
0.0
 10
4.9496229882
 20
3.6752252928
 30
0.0
 10
4.9751826075
 20
3.6761400216
 30
0.0
 10
5.0114304678
 20
3.6773811938
 30
0.0
 10
5.0587519953
 20
3.6789150542
 30
0.0
 10
5.1170763588
 20
3.6807281627
 30
0.0
 10
5.1763437666
 20
3.6825419577
 30
0.0
 10
5.2256250981
 20
3.6840651268
 30
0.0
 10
5.2643609212
 20
3.6852958788
 30
0.0
 10
5.2924508186
 20
3.6862112983
 30
0.0
 10
5.3196320485
 20
3.6871264833
 30
0.0
 10
5.3457271452
 20
3.6880413574
 30
0.0
 10
5.3705658013
 20
3.688955849
 30
0.0
 10
5.3939858762
 20
3.6898698037
 30
0.0
 10
5.4158344878
 20
3.6907830509
 30
0.0
 10
5.4359690854
 20
3.6916953339
 30
0.0
 10
5.4542582426
 20
3.6926063611
 30
0.0
 10
5.4682892717
 20
3.6933874581
 30
0.0
 10
5.4785022817
 20
3.6940190238
 30
0.0
 10
5.4853746203
 20
3.6944767076
 30
0.0
 10
5.4917047816
 20
3.6949340314
 30
0.0
 10
5.4974824364
 20
3.6953909793
 30
0.0
 10
5.5026981959
 20
3.6958474312
 30
0.0
 10
5.5073436619
 20
3.6963030586
 30
0.0
 10
5.5114113034
 20
3.6967577555
 30
0.0
 10
5.5144349452
 20
3.6971507767
 30
0.0
 10
5.5165588996
 20
3.6974700071
 30
0.0
 10
5.5179315475
 20
3.6976984476
 30
0.0
 10
5.5191554825
 20
3.6979265684
 30
0.0
 10
5.5202302284
 20
3.6981543291
 30
0.0
 10
5.5211556152
 20
3.69838152
 30
0.0
 10
5.521931499
 20
3.6986080361
 30
0.0
 10
5.5224817593
 20
3.6988055149
 30
0.0
 10
5.5228443654
 20
3.6989670903
 30
0.0
 10
5.5229999493
 20
3.6990482798
 30
0.0
 10
5.5230709485
 20
3.6990893171
 30
0.0
  0
SPLINE
  5
26F
100
AcDbEntity
  8
0
100
AcDbSpline
 62
7
  6
CONTINUOUS
 70
0
 71
3
 72
41
 73
37
 74
0
 42
0.0000001
 43
0.0000001
 44
0.0000000001
 40
0.0
 40
0.0
 40
0.0
 40
0.0
 40
0.0001712294
 40
0.0003505273
 40
0.0007588699
 40
0.0012659156
 40
0.0018923936
 40
0.0026492171
 40
0.0035424784
 40
0.0045758115
 40
0.0057515093
 40
0.0085353314
 40
0.0119012271
 40
0.0158512689
 40
0.0203855441
 40
0.0255031867
 40
0.0312027705
 40
0.037482083
 40
0.0443375702
 40
0.0597613237
 40
0.0774413511
 40
0.097336551
 40
0.1193998374
 40
0.1435804344
 40
0.169819193
 40
0.1980548749
 40
0.2282192501
 40
0.2940407695
 40
0.3666523016
 40
0.4453565826
 40
0.5293972142
 40
0.617965737
 40
0.7102115248
 40
0.8052412817
 40
0.9021555576
 40
1.0
 40
1.0
 40
1.0
 40
1.0
 10
5.5622534247
 20
3.6595128388
 30
0.0
 10
5.5622534247
 20
3.6594894454
 30
0.0
 10
5.5622479923
 20
3.6594414051
 30
0.0
 10
5.5622144535
 20
3.6593425911
 30
0.0
 10
5.5621264764
 20
3.6592182916
 30
0.0
 10
5.5619664799
 20
3.6590797512
 30
0.0
 10
5.5617473499
 20
3.6589417472
 30
0.0
 10
5.5614681655
 20
3.6588038643
 30
0.0
 10
5.5611283282
 20
3.6586657101
 30
0.0
 10
5.5607275635
 20
3.6585273165
 30
0.0
 10
5.5600740455
 20
3.658331333
 30
0.0
 10
5.5591017746
 20
3.6580918188
 30
0.0
 10
5.5577494432
 20
3.657816665
 30
0.0
 10
5.5561539704
 20
3.6575406483
 30
0.0
 10
5.554316279
 20
3.6572639075
 30
0.0
 10
5.5522372662
 20
3.656986705
 30
0.0
 10
5.5499180185
 20
3.6567091673
 30
0.0
 10
5.5473598493
 20
3.6564313807
 30
0.0
 10
5.5434772594
 20
3.6560453958
 30
0.0
 10
5.5380386553
 20
3.6555689117
 30
0.0
 10
5.5308189644
 20
3.6550158115
 30
0.0
 10
5.5226898953
 20
3.6544617743
 30
0.0
 10
5.5136709336
 20
3.6539069486
 30
0.0
 10
5.5037838555
 20
3.6533516503
 30
0.0
 10
5.4930523107
 20
3.6527958972
 30
0.0
 10
5.4815022611
 20
3.6522398502
 30
0.0
 10
5.4645482267
 20
3.6514757022
 30
0.0
 10
5.4415336838
 20
3.6505299212
 30
0.0
 10
5.4118888514
 20
3.649423395
 30
0.0
 10
5.3797533706
 20
3.6483155617
 30
0.0
 10
5.3454366715
 20
3.6472067073
 30
0.0
 10
5.3092690365
 20
3.6460971476
 30
0.0
 10
5.2715994027
 20
3.6449870974
 30
0.0
 10
5.2327891008
 20
3.6438766706
 30
0.0
 10
5.1932136078
 20
3.6427660542
 30
0.0
 10
5.1666158293
 20
3.6420267561
 30
0.0
 10
5.1532534247
 20
3.6416553388
 30
0.0
  0
SPLINE
  5
270
100
AcDbEntity
  8
0
100
AcDbSpline
 62
7
  6
CONTINUOUS
 70
0
 71
3
 72
37
 73
33
 74
0
 42
0.0000001
 43
0.0000001
 44
0.0000000001
 40
0.0
 40
0.0
 40
0.0
 40
0.0
 40
0.0950309145
 40
0.1892154795
 40
0.2816773732
 40
0.3715969834
 40
0.4581552676
 40
0.5405707993
 40
0.6180989969
 40
0.6900394867
 40
0.7557427937
 40
0.7860673874
 40
0.8146159378
 40
0.8413228725
 40
0.8661289447
 40
0.8889788568
 40
0.9098203989
 40
0.9286090433
 40
0.9453022751
 40
0.9598647556
 40
0.9663377826
 40
0.9722672628
 40
0.9776502303
 40
0.9824849682
 40
0.986770275
 40
0.9905055023
 40
0.993690941
 40
0.9963289185
 40
0.9974447069
 40
0.9984267767
 40
0.9992773672
 40
1.0
 40
1.0
 40
1.0
 40
1.0
 10
5.1532534247
 20
3.7130853388
 30
0.0
 10
5.1402991055
 20
3.7127252646
 30
0.0
 10
5.1145058389
 20
3.7120083276
 30
0.0
 10
5.0761087227
 20
3.710931399
 30
0.0
 10
5.0384089057
 20
3.7098546263
 30
0.0
 10
5.0017495048
 20
3.7087781829
 30
0.0
 10
4.9664607179
 20
3.7077021509
 30
0.0
 10
4.9328625421
 20
3.7066267089
 30
0.0
 10
4.9012588326
 20
3.7055521164
 30
0.0
 10
4.8719355321
 20
3.7044785985
 30
0.0
 10
4.8490480095
 20
3.7035626567
 30
0.0
 10
4.8320756492
 20
3.702823446
 30
0.0
 10
4.820417582
 20
3.7022841797
 30
0.0
 10
4.8095129173
 20
3.7017451409
 30
0.0
 10
4.7993863725
 20
3.7012063998
 30
0.0
 10
4.7900608817
 20
3.7006680839
 30
0.0
 10
4.7815574421
 20
3.7001302178
 30
0.0
 10
4.7738953648
 20
3.6995931416
 30
0.0
 10
4.7670918423
 20
3.6990569271
 30
0.0
 10
4.7619673898
 20
3.6985950162
 30
0.0
 10
4.7583092295
 20
3.6982208538
 30
0.0
 10
4.7558987858
 20
3.6979515626
 30
0.0
 10
4.7537132452
 20
3.6976825087
 30
0.0
 10
4.751753737
 20
3.6974137822
 30
0.0
 10
4.7500212156
 20
3.6971454964
 30
0.0
 10
4.7485164841
 20
3.6968778995
 30
0.0
 10
4.7472403625
 20
3.6966111189
 30
0.0
 10
4.7463224486
 20
3.696378931
 30
0.0
 10
4.745705035
 20
3.6961890258
 30
0.0
 10
4.7453258393
 20
3.6960548307
 30
0.0
 10
4.7450039546
 20
3.6959208799
 30
0.0
 10
4.7448121224
 20
3.6958240432
 30
0.0
 10
4.7447268013
 20
3.6957747334
 30
0.0
  0
SPLINE
  5
271
100
AcDbEntity
  8
0
100
AcDbSpline
 62
7
  6
CONTINUOUS
 70
0
 71
3
 72
18
 73
14
 74
0
 42
0.0000001
 43
0.0000001
 44
0.0000000001
 40
0.0
 40
0.0
 40
0.0
 40
0.0
 40
0.0389118037
 40
0.0821114918
 40
0.1293909444
 40
0.1805443154
 40
0.2353482074
 40
0.2935574048
 40
0.41914024
 40
0.5550600414
 40
0.6989002587
 40
0.8480956701
 40
1.0
 40
1.0
 40
1.0
 40
1.0
 10
4.7947677588
 20
3.6920085616
 30
0.0
 10
4.7994125835
 20
3.6922767424
 30
0.0
 10
4.8092161397
 20
3.6928069495
 30
0.0
 10
4.8246686597
 20
3.6935610785
 30
0.0
 10
4.8415864153
 20
3.6943159645
 30
0.0
 10
4.859892885
 20
3.6950714555
 30
0.0
 10
4.8795072015
 20
3.695827455
 30
0.0
 10
4.9080165999
 20
3.6968622747
 30
0.0
 10
4.946222183
 20
3.6981415507
 30
0.0
 10
4.9946644911
 20
3.6996433107
 30
0.0
 10
5.0459313026
 20
3.7011466809
 30
0.0
 10
5.0991100824
 20
3.7026511387
 30
0.0
 10
5.1350977204
 20
3.7036514113
 30
0.0
 10
5.1532534247
 20
3.7041560616
 30
0.0
  0
SPLINE
  5
272
100
AcDbEntity
  8
0
100
AcDbSpline
 62
7
  6
CONTINUOUS
 70
0
 71
3
 72
37
 73
33
 74
0
 42
0.0000001
 43
0.0000001
 44
0.0000000001
 40
0.0
 40
0.0
 40
0.0
 40
0.0
 40
0.0950309151
 40
0.1892154811
 40
0.2816773753
 40
0.3715969853
 40
0.4581552685
 40
0.5405707984
 40
0.6180989954
 40
0.690039486
 40
0.7557427936
 40
0.7860673875
 40
0.8146159379
 40
0.8413228726
 40
0.8661289448
 40
0.8889788565
 40
0.9098203985
 40
0.9286090427
 40
0.9453022742
 40
0.9598647549
 40
0.966337782
 40
0.9722672622
 40
0.9776502297
 40
0.9824849677
 40
0.9867702748
 40
0.9905055021
 40
0.9936909408
 40
0.9963289184
 40
0.9974447067
 40
0.9984267767
 40
0.9992773671
 40
1.0
 40
1.0
 40
1.0
 40
1.0
 10
5.1532534247
 20
3.7845153388
 30
0.0
 10
5.1402991055
 20
3.7841552646
 30
0.0
 10
5.1145058386
 20
3.7834383276
 30
0.0
 10
5.0761087221
 20
3.782361399
 30
0.0
 10
5.0384089049
 20
3.7812846263
 30
0.0
 10
5.0017495041
 20
3.7802081829
 30
0.0
 10
4.9664607176
 20
3.7791321509
 30
0.0
 10
4.9328625423
 20
3.7780567089
 30
0.0
 10
4.901258833
 20
3.7769821164
 30
0.0
 10
4.8719355324
 20
3.7759085985
 30
0.0
 10
4.8490480096
 20
3.7749926567
 30
0.0
 10
4.8320756492
 20
3.774253446
 30
0.0
 10
4.820417582
 20
3.7737141797
 30
0.0
 10
4.8095129173
 20
3.7731751409
 30
0.0
 10
4.7993863725
 20
3.7726363998
 30
0.0
 10
4.7900608818
 20
3.7720980839
 30
0.0
 10
4.7815574423
 20
3.7715602178
 30
0.0
 10
4.7738953651
 20
3.7710231416
 30
0.0
 10
4.7670918427
 20
3.7704869271
 30
0.0
 10
4.7619673901
 20
3.7700250163
 30
0.0
 10
4.7583092298
 20
3.7696508538
 30
0.0
 10
4.7558987861
 20
3.7693815627
 30
0.0
 10
4.7537132455
 20
3.7691125087
 30
0.0
 10
4.7517537372
 20
3.7688437822
 30
0.0
 10
4.7500212157
 20
3.7685754964
 30
0.0
 10
4.7485164842
 20
3.7683078995
 30
0.0
 10
4.7472403626
 20
3.7680411189
 30
0.0
 10
4.7463224486
 20
3.767808931
 30
0.0
 10
4.7457050351
 20
3.7676190259
 30
0.0
 10
4.7453258394
 20
3.7674848307
 30
0.0
 10
4.7450039546
 20
3.7673508799
 30
0.0
 10
4.7448121224
 20
3.7672540432
 30
0.0
 10
4.7447268013
 20
3.7672047334
 30
0.0
  0
SPLINE
  5
273
100
AcDbEntity
  8
0
100
AcDbSpline
 62
7
  6
CONTINUOUS
 70
0
 71
3
 72
41
 73
37
 74
0
 42
0.0000001
 43
0.0000001
 44
0.0000000001
 40
0.0
 40
0.0
 40
0.0
 40
0.0
 40
0.000171236
 40
0.0003505448
 40
0.0007588925
 40
0.0012659001
 40
0.0018923051
 40
0.002649041
 40
0.0035422244
 40
0.0045755141
 40
0.0057512284
 40
0.0085353003
 40
0.0119012743
 40
0.0158511866
 40
0.0203853001
 40
0.0255029263
 40
0.0312027445
 40
0.0374821133
 40
0.0443374772
 40
0.0597610796
 40
0.0774413555
 40
0.0973363224
 40
0.1193997953
 40
0.1435803259
 40
0.1698189988
 40
0.1980548546
 40
0.2282190804
 40
0.2940407007
 40
0.3666522869
 40
0.4453565557
 40
0.5293971163
 40
0.6179656683
 40
0.7102115165
 40
0.8052411082
 40
0.9021558655
 40
1.0
 40
1.0
 40
1.0
 40
1.0
 10
4.7442534632
 20
3.6148685618
 30
0.0
 10
4.7442534732
 20
3.6148919562
 30
0.0
 10
4.7442589223
 20
3.6149399962
 30
0.0
 10
4.7442924789
 20
3.6150388064
 30
0.0
 10
4.7443804502
 20
3.6151631027
 30
0.0
 10
4.7445404242
 20
3.6153016472
 30
0.0
 10
4.7447595204
 20
3.6154396538
 30
0.0
 10
4.7450386677
 20
3.6155775386
 30
0.0
 10
4.7453784739
 20
3.6157156939
 30
0.0
 10
4.7457792233
 20
3.6158540882
 30
0.0
 10
4.7464327715
 20
3.6160500773
 30
0.0
 10
4.7474050966
 20
3.6162895685
 30
0.0
 10
4.7487574534
 20
3.6165647294
 30
0.0
 10
4.7503528955
 20
3.6168407525
 30
0.0
 10
4.7521905433
 20
3.617117498
 30
0.0
 10
4.7542695634
 20
3.617394703
 30
0.0
 10
4.7565888502
 20
3.6176722273
 30
0.0
 10
4.7591470417
 20
3.6179500164
 30
0.0
 10
4.7630296005
 20
3.6183360074
 30
0.0
 10
4.7684681999
 20
3.618812497
 30
0.0
 10
4.7756878727
 20
3.619365578
 30
0.0
 10
4.783816967
 20
3.619919635
 30
0.0
 10
4.7928359129
 20
3.6204744461
 30
0.0
 10
4.8027229941
 20
3.6210297504
 30
0.0
 10
4.8134545403
 20
3.6215855065
 30
0.0
 10
4.8250045802
 20
3.6221415459
 30
0.0
 10
4.8419586291
 20
3.6229057034
 30
0.0
 10
4.8649731699
 20
3.6238514776
 30
0.0
 10
4.8946180178
 20
3.6249580057
 30
0.0
 10
4.9267534903
 20
3.6260658384
 30
0.0
 10
4.9610701774
 20
3.6271746936
 30
0.0
 10
4.99723781
 20
3.6282842529
 30
0.0
 10
5.0349074284
 20
3.6293943024
 30
0.0
 10
5.0737177765
 20
3.6305047306
 30
0.0
 10
5.1132932652
 20
3.6316153469
 30
0.0
 10
5.1398910639
 20
3.6323546456
 30
0.0
 10
5.1532534247
 20
3.6327260616
 30
0.0
  0
SPLINE
  5
274
100
AcDbEntity
  8
0
100
AcDbSpline
 62
7
  6
CONTINUOUS
 70
0
 71
3
 72
37
 73
33
 74
0
 42
0.0000001
 43
0.0000001
 44
0.0000000001
 40
0.0
 40
0.0
 40
0.0
 40
0.0
 40
0.0950309148
 40
0.1892154801
 40
0.2816773739
 40
0.3715969837
 40
0.4581552668
 40
0.5405707969
 40
0.6180989943
 40
0.6900394851
 40
0.755742793
 40
0.786067387
 40
0.8146159374
 40
0.8413228721
 40
0.8661289443
 40
0.8889788561
 40
0.909820398
 40
0.9286090422
 40
0.9453022737
 40
0.9598647546
 40
0.9663377817
 40
0.9722672619
 40
0.9776502295
 40
0.9824849676
 40
0.9867702747
 40
0.9905055021
 40
0.9936909408
 40
0.9963289184
 40
0.9974447067
 40
0.9984267767
 40
0.9992773671
 40
1.0
 40
1.0
 40
1.0
 40
1.0
 10
5.1532534247
 20
3.7041560616
 30
0.0
 10
5.1662077438
 20
3.7045161359
 30
0.0
 10
5.1920010106
 20
3.7052330729
 30
0.0
 10
5.2303981268
 20
3.7063100015
 30
0.0
 10
5.2680979438
 20
3.7073867742
 30
0.0
 10
5.3047573446
 20
3.7084632175
 30
0.0
 10
5.340046131
 20
3.7095392495
 30
0.0
 10
5.3736443064
 20
3.7106146916
 30
0.0
 10
5.4052480158
 20
3.7116892841
 30
0.0
 10
5.4345713166
 20
3.712762802
 30
0.0
 10
5.4574588394
 20
3.7136787438
 30
0.0
 10
5.4744311999
 20
3.7144179545
 30
0.0
 10
5.4860892671
 20
3.7149572208
 30
0.0
 10
5.4969939318
 20
3.7154962596
 30
0.0
 10
5.5071204766
 20
3.7160350007
 30
0.0
 10
5.5164459673
 20
3.7165733165
 30
0.0
 10
5.5249494068
 20
3.7171111827
 30
0.0
 10
5.532611484
 20
3.7176482588
 30
0.0
 10
5.5394150065
 20
3.7181844734
 30
0.0
 10
5.5445394591
 20
3.7186463842
 30
0.0
 10
5.5481976194
 20
3.7190205467
 30
0.0
 10
5.5506080631
 20
3.7192898378
 30
0.0
 10
5.5527936038
 20
3.7195588918
 30
0.0
 10
5.5547531121
 20
3.7198276183
 30
0.0
 10
5.5564856336
 20
3.7200959041
 30
0.0
 10
5.5579903651
 20
3.720363501
 30
0.0
 10
5.5592664867
 20
3.7206302816
 30
0.0
 10
5.5601844007
 20
3.7208624695
 30
0.0
 10
5.5608018142
 20
3.7210523746
 30
0.0
 10
5.5611810099
 20
3.7211865698
 30
0.0
 10
5.5615028947
 20
3.7213205205
 30
0.0
 10
5.5616947269
 20
3.7214173572
 30
0.0
 10
5.561780048
 20
3.721466667
 30
0.0
  0
SPLINE
  5
275
100
AcDbEntity
  8
0
100
AcDbSpline
 62
7
  6
CONTINUOUS
 70
0
 71
3
 72
69
 73
65
 74
0
 42
0.0000001
 43
0.0000001
 44
0.0000000001
 40
0.0
 40
0.0
 40
0.0
 40
0.0
 40
0.0001884502
 40
0.0004030794
 40
0.0006622378
 40
0.0009765667
 40
0.0013520414
 40
0.0017921506
 40
0.0022990186
 40
0.002873951
 40
0.0042309725
 40
0.0058673764
 40
0.0077849281
 40
0.0099843535
 40
0.0124656937
 40
0.0152280909
 40
0.0182703044
 40
0.021590953
 40
0.029061463
 40
0.0376244048
 40
0.047260266
 40
0.0579483652
 40
0.0696638068
 40
0.0823797964
 40
0.0960676522
 40
0.1106949771
 40
0.1426323575
 40
0.1778959288
 40
0.216158582
 40
0.2570652185
 40
0.3002358403
 40
0.3452690173
 40
0.3917460981
 40
0.4392350463
 40
0.487294302
 40
0.5354768734
 40
0.5833347333
 40
0.6304229417
 40
0.6763036215
 40
0.7205500818
 40
0.7627511254
 40
0.8025147091
 40
0.8394714388
 40
0.8732780127
 40
0.8889008786
 40
0.9036211274
 40
0.9174051452
 40
0.9302203065
 40
0.9420379284
 40
0.9528305856
 40
0.9625734906
 40
0.9712455226
 40
0.9788267109
 40
0.9853018048
 40
0.9881207146
 40
0.9906586531
 40
0.9929148306
 40
0.9948892017
 40
0.996582255
 40
0.9979953944
 40
0.9985979873
 40
0.9991320886
 40
0.9995988311
 40
1.0
 40
1.0
 40
1.0
 40
1.0
 10
4.7829136503
 20
3.7354082003
 30
0.0
 10
4.7829136578
 20
3.7354547926
 30
0.0
 10
4.7829349108
 20
3.7355550838
 30
0.0
 10
4.7830230127
 20
3.7356956772
 30
0.0
 10
4.783163021
 20
3.7358328603
 30
0.0
 10
4.7833549838
 20
3.7359688844
 30
0.0
 10
4.7835995164
 20
3.7361047499
 30
0.0
 10
4.7838971356
 20
3.7362407125
 30
0.0
 10
4.784248091
 20
3.7363768565
 30
0.0
 10
4.7848196663
 20
3.7365693759
 30
0.0
 10
4.7856704927
 20
3.7368048605
 30
0.0
 10
4.7868543605
 20
3.7370755039
 30
0.0
 10
4.788250892
 20
3.7373469436
 30
0.0
 10
4.789859516
 20
3.7376190529
 30
0.0
 10
4.7916795559
 20
3.7378915667
 30
0.0
 10
4.7937099764
 20
3.7381644137
 30
0.0
 10
4.7959495515
 20
3.7384375282
 30
0.0
 10
4.7993486303
 20
3.7388170075
 30
0.0
 10
4.8041109338
 20
3.7392854286
 30
0.0
 10
4.810434156
 20
3.7398291885
 30
0.0
 10
4.8175554074
 20
3.7403739245
 30
0.0
 10
4.8254580546
 20
3.7409193343
 30
0.0
 10
4.8341238336
 20
3.7414652908
 30
0.0
 10
4.8435325889
 20
3.7420116508
 30
0.0
 10
4.8536623792
 20
3.7425582971
 30
0.0
 10
4.8685402223
 20
3.7433097142
 30
0.0
 10
4.8887500751
 20
3.7442397181
 30
0.0
 10
4.9148021376
 20
3.7453276238
 30
0.0
 10
4.9430734689
 20
3.7464168136
 30
0.0
 10
4.9733010346
 20
3.7475070157
 30
0.0
 10
5.0052035372
 20
3.7485979106
 30
0.0
 10
5.0384840195
 20
3.7496893159
 30
0.0
 10
5.0728327016
 20
3.7507810724
 30
0.0
 10
5.1079299087
 20
3.7518730555
 30
0.0
 10
5.1434489762
 20
3.7529651586
 30
0.0
 10
5.179059295
 20
3.7540572891
 30
0.0
 10
5.2144294221
 20
3.755149352
 30
0.0
 10
5.2492301634
 20
3.7562412456
 30
0.0
 10
5.2831375868
 20
3.7573328583
 30
0.0
 10
5.3158360822
 20
3.7584240577
 30
0.0
 10
5.347021337
 20
3.7595146758
 30
0.0
 10
5.3764031609
 20
3.7606044523
 30
0.0
 10
5.4037080625
 20
3.7616931487
 30
0.0
 10
5.4250459706
 20
3.762621759
 30
0.0
 10
5.440888582
 20
3.7633710871
 30
0.0
 10
5.4517848294
 20
3.7639180297
 30
0.0
 10
5.4619859899
 20
3.7644646819
 30
0.0
 10
5.471468422
 20
3.7650110887
 30
0.0
 10
5.4802099782
 20
3.7655570789
 30
0.0
 10
5.488190384
 20
3.7661025511
 30
0.0
 10
5.4953911319
 20
3.7666474009
 30
0.0
 10
5.5017954707
 20
3.767191157
 30
0.0
 10
5.507388686
 20
3.7677337426
 30
0.0
 10
5.5115347224
 20
3.7682031024
 30
0.0
 10
5.514435103
 20
3.7685848549
 30
0.0
 10
5.5162975764
 20
3.7688574728
 30
0.0
 10
5.517948831
 20
3.7691296807
 30
0.0
 10
5.5193881657
 20
3.7694012671
 30
0.0
 10
5.5206149445
 20
3.7696721077
 30
0.0
 10
5.5215017046
 20
3.7699074832
 30
0.0
 10
5.5221022622
 20
3.7700996325
 30
0.0
 10
5.5224747169
 20
3.7702358502
 30
0.0
 10
5.5227937286
 20
3.7703718751
 30
0.0
 10
5.5229850734
 20
3.7704696622
 30
0.0
 10
5.5230709333
 20
3.7705193177
 30
0.0
  0
SPLINE
  5
276
100
AcDbEntity
  8
0
100
AcDbSpline
 62
7
  6
CONTINUOUS
 70
0
 71
3
 72
37
 73
33
 74
0
 42
0.0000001
 43
0.0000001
 44
0.0000000001
 40
0.0
 40
0.0
 40
0.0
 40
0.0
 40
0.0961339222
 40
0.1912700543
 40
0.2845425767
 40
0.3751415844
 40
0.4622529782
 40
0.5450966037
 40
0.6229257994
 40
0.6950344988
 40
0.7607644706
 40
0.7910458815
 40
0.8195113715
 40
0.8460939876
 40
0.8707319884
 40
0.8933687089
 40
0.9139495405
 40
0.9324277054
 40
0.948758902
 40
0.9629045491
 40
0.9691478963
 40
0.9748331381
 40
0.9799566979
 40
0.9845161642
 40
0.9885098066
 40
0.9919362762
 40
0.9947949087
 40
0.9970865226
 40
0.9980211618
 40
0.9988165282
 40
0.999474811
 40
1.0
 40
1.0
 40
1.0
 40
1.0
 10
5.1532534247
 20
3.582956882
 30
0.0
 10
5.1412142307
 20
3.5827326399
 30
0.0
 10
5.1172608135
 20
3.5822857148
 30
0.0
 10
5.0816267056
 20
3.5816126723
 30
0.0
 10
5.0466860206
 20
3.5809385712
 30
0.0
 10
5.0127506867
 20
3.5802635197
 30
0.0
 10
4.9801219126
 20
3.5795875634
 30
0.0
 10
4.9490930004
 20
3.5789108149
 30
0.0
 10
4.9199437395
 20
3.5782334437
 30
0.0
 10
4.8929386864
 20
3.5775555965
 30
0.0
 10
4.8718887024
 20
3.5769759717
 30
0.0
 10
4.8563043507
 20
3.5765073912
 30
0.0
 10
4.8456218401
 20
3.5761654692
 30
0.0
 10
4.8356465865
 20
3.5758234083
 30
0.0
 10
4.8264018812
 20
3.575481234
 30
0.0
 10
4.8179094863
 20
3.575139057
 30
0.0
 10
4.8101893255
 20
3.5747968924
 30
0.0
 10
4.8032598022
 20
3.5744549745
 30
0.0
 10
4.7971374033
 20
3.5741133946
 30
0.0
 10
4.7925473805
 20
3.5738184446
 30
0.0
 10
4.7892902105
 20
3.5735790141
 30
0.0
 10
4.7871612475
 20
3.5734070786
 30
0.0
 10
4.7852439445
 20
3.5732352593
 30
0.0
 10
4.7835394426
 20
3.573063632
 30
0.0
 10
4.7820486947
 20
3.572892299
 30
0.0
 10
4.7807724804
 20
3.5727215354
 30
0.0
 10
4.7797116448
 20
3.5725514418
 30
0.0
 10
4.7789637329
 20
3.5724027033
 30
0.0
 10
4.7784751161
 20
3.5722798304
 30
0.0
 10
4.7781883037
 20
3.5721942769
 30
0.0
 10
4.7779554024
 20
3.5721090841
 30
0.0
 10
4.7778209058
 20
3.5720456933
 30
0.0
 10
4.7777639544
 20
3.5720127706
 30
0.0
  0
SPLINE
  5
277
100
AcDbEntity
  8
0
100
AcDbSpline
 62
7
  6
CONTINUOUS
 70
0
 71
3
 72
37
 73
33
 74
0
 42
0.0000001
 43
0.0000001
 44
0.0000000001
 40
0.0
 40
0.0
 40
0.0
 40
0.0
 40
0.0007227112
 40
0.0015734015
 40
0.0025555676
 40
0.0036714226
 40
0.0063093386
 40
0.009494492
 40
0.0132297118
 40
0.0175151892
 40
0.0223500873
 40
0.0277330149
 40
0.0336622283
 40
0.0401352315
 40
0.0546980047
 40
0.0713909817
 40
0.0901797174
 40
0.1110213931
 40
0.1338710654
 40
0.158677352
 40
0.185384131
 40
0.2139327109
 40
0.2442574137
 40
0.3099606691
 40
0.3819010663
 40
0.4594292218
 40
0.5418448165
 40
0.62840308
 40
0.7183226463
 40
0.810784715
 40
0.9049687242
 40
1.0
 40
1.0
 40
1.0
 40
1.0
 10
5.561780124
 20
3.792896667
 30
0.0
 10
5.5616947911
 20
3.7928473563
 30
0.0
 10
5.5615029313
 20
3.7927505201
 30
0.0
 10
5.5611810053
 20
3.7926165711
 30
0.0
 10
5.5608017712
 20
3.7924823772
 30
0.0
 10
5.5601843411
 20
3.7922924791
 30
0.0
 10
5.5592664671
 20
3.7920602907
 30
0.0
 10
5.5579903996
 20
3.7917934856
 30
0.0
 10
5.5564856824
 20
3.7915259001
 30
0.0
 10
5.5547531154
 20
3.7912576192
 30
0.0
 10
5.5527935661
 20
3.7909888977
 30
0.0
 10
5.5506080454
 20
3.7907198438
 30
0.0
 10
5.5481976481
 20
3.7904505397
 30
0.0
 10
5.5445394865
 20
3.7900763804
 30
0.0
 10
5.5394150297
 20
3.789614487
 30
0.0
 10
5.5326114902
 20
3.7890782503
 30
0.0
 10
5.524949415
 20
3.7885411835
 30
0.0
 10
5.5164459758
 20
3.7880033226
 30
0.0
 10
5.5071204695
 20
3.787464993
 30
0.0
 10
5.4969939469
 20
3.7869262658
 30
0.0
 10
5.4860892688
 20
3.7863872174
 30
0.0
 10
5.4744312019
 20
3.7858479541
 30
0.0
 10
5.4574588269
 20
3.7851087459
 30
0.0
 10
5.4345713054
 20
3.7841928018
 30
0.0
 10
5.4052480255
 20
3.7831192838
 30
0.0
 10
5.3736443206
 20
3.7820446911
 30
0.0
 10
5.3400461392
 20
3.7809692499
 30
0.0
 10
5.3047573467
 20
3.7798932179
 30
0.0
 10
5.2680979247
 20
3.7788167735
 30
0.0
 10
5.2303981594
 20
3.7777400023
 30
0.0
 10
5.1920010395
 20
3.7766630737
 30
0.0
 10
5.1662077952
 20
3.7759461373
 30
0.0
 10
5.1532534247
 20
3.7755860616
 30
0.0
  0
SPLINE
  5
278
100
AcDbEntity
  8
0
100
AcDbSpline
 62
7
  6
CONTINUOUS
 70
0
 71
3
 72
39
 73
35
 74
0
 42
0.0000001
 43
0.0000001
 44
0.0000000001
 40
0.0
 40
0.0
 40
0.0
 40
0.0
 40
0.0003636054
 40
0.000852247
 40
0.0014751697
 40
0.002236707
 40
0.0031391666
 40
0.0041838958
 40
0.0067031037
 40
0.0097980903
 40
0.0134691782
 40
0.0177154546
 40
0.0225355223
 40
0.0279277083
 40
0.0338899376
 40
0.0475107714
 40
0.0633683238
 40
0.0814299233
 40
0.1016536518
 40
0.1239946135
 40
0.1484021523
 40
0.1748188591
 40
0.2031852783
 40
0.2334339072
 40
0.2654945742
 40
0.2992923048
 40
0.3717737429
 40
0.4501907972
 40
0.5337945841
 40
0.6217813025
 40
0.7133012727
 40
0.8074581109
 40
0.9033464896
 40
1.0
 40
1.0
 40
1.0
 40
1.0
 10
4.7532242644
 20
3.8239793022
 30
0.0
 10
4.7532585878
 20
3.8240135976
 30
0.0
 10
4.7533532325
 20
3.824079121
 30
0.0
 10
4.7535309995
 20
3.8241640054
 30
0.0
 10
4.7537662319
 20
3.8242495791
 30
0.0
 10
4.7540591504
 20
3.8243355251
 30
0.0
 10
4.7544102571
 20
3.824421844
 30
0.0
 10
4.7549934702
 20
3.8245450436
 30
0.0
 10
4.7558696093
 20
3.8246949566
 30
0.0
 10
4.7570967738
 20
3.8248668967
 30
0.0
 10
4.7585562134
 20
3.8250395715
 30
0.0
 10
4.7602471292
 20
3.8252128829
 30
0.0
 10
4.7621687268
 20
3.8253866007
 30
0.0
 10
4.764320102
 20
3.8255606584
 30
0.0
 10
4.767644018
 20
3.8258039847
 30
0.0
 10
4.7723639347
 20
3.826103675
 30
0.0
 10
4.7786983799
 20
3.8264508391
 30
0.0
 10
4.7859150442
 20
3.8267989916
 30
0.0
 10
4.7939977187
 20
3.8271480929
 30
0.0
 10
4.8029278986
 20
3.8274978919
 30
0.0
 10
4.8126850441
 20
3.8278482947
 30
0.0
 10
4.8232467041
 20
3.8281992683
 30
0.0
 10
4.8345882035
 20
3.8285507032
 30
0.0
 10
4.8466831761
 20
3.8289026126
 30
0.0
 10
4.8595031981
 20
3.8292549532
 30
0.0
 10
4.8779574713
 20
3.8297365692
 30
0.0
 10
4.9025967391
 20
3.8303348682
 30
0.0
 10
4.9338816273
 20
3.8310392183
 30
0.0
 10
4.9672360446
 20
3.8317453876
 30
0.0
 10
5.0023392952
 20
3.832453259
 30
0.0
 10
5.038851025
 20
3.8331626912
 30
0.0
 10
5.0764173437
 20
3.8338736283
 30
0.0
 10
5.1146687938
 20
3.8345859569
 30
0.0
 10
5.1403578583
 20
3.8350613981
 30
0.0
 10
5.1532534246
 20
3.8353005035
 30
0.0
  0
SPLINE
  5
279
100
AcDbEntity
  8
0
100
AcDbSpline
 62
7
  6
CONTINUOUS
 70
0
 71
3
 72
41
 73
37
 74
0
 42
0.0000001
 43
0.0000001
 44
0.0000000001
 40
0.0
 40
0.0
 40
0.0
 40
0.0
 40
0.0001712294
 40
0.0003505273
 40
0.00075887
 40
0.0012659156
 40
0.0018923936
 40
0.002649217
 40
0.0035424784
 40
0.0045758113
 40
0.0057515091
 40
0.0085353312
 40
0.0119012269
 40
0.0158512685
 40
0.0203855435
 40
0.025503186
 40
0.0312027698
 40
0.0374820821
 40
0.0443375692
 40
0.0597613225
 40
0.0774413502
 40
0.0973365503
 40
0.119399837
 40
0.1435804342
 40
0.1698191929
 40
0.1980548748
 40
0.2282192498
 40
0.2940407686
 40
0.3666522995
 40
0.4453565802
 40
0.5293972134
 40
0.6179657373
 40
0.7102115257
 40
0.8052412824
 40
0.9021555579
 40
1.0
 40
1.0
 40
1.0
 40
1.0
 10
4.7442534247
 20
3.7577285616
 30
0.0
 10
4.7442534247
 20
3.7577519551
 30
0.0
 10
4.744258857
 20
3.7577999953
 30
0.0
 10
4.7442923958
 20
3.7578988094
 30
0.0
 10
4.7443803729
 20
3.7580231089
 30
0.0
 10
4.7445403694
 20
3.7581616493
 30
0.0
 10
4.7447594994
 20
3.7582996533
 30
0.0
 10
4.7450386838
 20
3.7584375362
 30
0.0
 10
4.7453785211
 20
3.7585756904
 30
0.0
 10
4.7457792858
 20
3.758714084
 30
0.0
 10
4.7464328037
 20
3.7589100675
 30
0.0
 10
4.7474050746
 20
3.7591495817
 30
0.0
 10
4.7487574061
 20
3.7594247355
 30
0.0
 10
4.7503528788
 20
3.7597007522
 30
0.0
 10
4.7521905701
 20
3.759977493
 30
0.0
 10
4.7542695829
 20
3.7602546954
 30
0.0
 10
4.7565888305
 20
3.7605322331
 30
0.0
 10
4.7591469997
 20
3.7608100197
 30
0.0
 10
4.7630295895
 20
3.7611960047
 30
0.0
 10
4.7684681936
 20
3.7616724887
 30
0.0
 10
4.7756878845
 20
3.762225589
 30
0.0
 10
4.7838169538
 20
3.7627796261
 30
0.0
 10
4.7928359155
 20
3.7633344519
 30
0.0
 10
4.8027229938
 20
3.7638897501
 30
0.0
 10
4.8134545386
 20
3.7644455033
 30
0.0
 10
4.8250045881
 20
3.7650015503
 30
0.0
 10
4.8419586224
 20
3.7657656983
 30
0.0
 10
4.864973165
 20
3.7667114793
 30
0.0
 10
4.8946179972
 20
3.7678180055
 30
0.0
 10
4.926753478
 20
3.7689258388
 30
0.0
 10
4.9610701775
 20
3.7700346931
 30
0.0
 10
4.9972378128
 20
3.7711442528
 30
0.0
 10
5.0349074469
 20
3.7722543031
 30
0.0
 10
5.0737177488
 20
3.7733647298
 30
0.0
 10
5.1132932416
 20
3.7744753462
 30
0.0
 10
5.1398910201
 20
3.7752146444
 30
0.0
 10
5.1532534247
 20
3.7755860616
 30
0.0
  0
SPLINE
  5
27A
100
AcDbEntity
  8
0
100
AcDbSpline
 62
7
  6
CONTINUOUS
 70
0
 71
3
 72
43
 73
39
 74
0
 42
0.0000001
 43
0.0000001
 44
0.0000000001
 40
0.0
 40
0.0
 40
0.0
 40
0.0
 40
0.053095056
 40
0.0808725073
 40
0.1094278662
 40
0.1387337159
 40
0.168766906
 40
0.1994997941
 40
0.230903027
 40
0.2629411578
 40
0.2955700676
 40
0.3120914442
 40
0.3287392342
 40
0.3455054667
 40
0.3623819077
 40
0.3793578978
 40
0.3964223877
 40
0.4135646538
 40
0.4307732187
 40
0.4653349232
 40
0.5000052481
 40
0.5346754741
 40
0.5692371652
 40
0.5864457825
 40
0.6035880808
 40
0.6206525755
 40
0.6376285561
 40
0.6712691846
 40
0.7044364431
 40
0.7208230218
 40
0.7370671982
 40
0.7691054403
 40
0.8005087878
 40
0.8312417063
 40
0.8612748657
 40
0.8905807245
 40
0.9469045323
 40
1.0
 40
1.0
 40
1.0
 40
1.0
 10
4.8210453154
 20
5.2038406809
 30
0.0
 10
4.8311448391
 20
5.2114300692
 30
0.0
 10
4.8469098785
 20
5.2224950288
 30
0.0
 10
4.868947366
 20
5.2363679774
 30
0.0
 10
4.8865673714
 20
5.2466115733
 30
0.0
 10
4.9050219706
 20
5.2564599014
 30
0.0
 10
4.9243003533
 20
5.2658340005
 30
0.0
 10
4.9443845987
 20
5.2746552971
 30
0.0
 10
4.9652496379
 20
5.2828420478
 30
0.0
 10
4.9868592057
 20
5.2903143912
 30
0.0
 10
5.0053712635
 20
5.2958572352
 30
0.0
 10
5.0205065235
 20
5.2998645165
 30
0.0
 10
5.0320563078
 20
5.3026564469
 30
0.0
 10
5.0437469491
 20
5.3052129268
 30
0.0
 10
5.0555680294
 20
5.3075247937
 30
0.0
 10
5.0675075874
 20
5.3095850393
 30
0.0
 10
5.0795528792
 20
5.3113865499
 30
0.0
 10
5.0916908677
 20
5.3129218109
 30
0.0
 10
5.1080019163
 20
5.3146079654
 30
0.0
 10
5.1285283636
 20
5.3160234083
 30
0.0
 10
5.1532525147
 20
5.3165911951
 30
0.0
 10
5.1779767651
 20
5.3160258158
 30
0.0
 10
5.1985031417
 20
5.3146090565
 30
0.0
 10
5.2148140774
 20
5.3129216532
 30
0.0
 10
5.226951991
 20
5.3113857405
 30
0.0
 10
5.2389972882
 20
5.3095839473
 30
0.0
 10
5.2548677173
 20
5.3068456376
 30
0.0
 10
5.2743957782
 20
5.302802649
 30
0.0
 10
5.2935918618
 20
5.2979433645
 30
0.0
 10
5.3086377524
 20
5.2936124642
 30
0.0
 10
5.3233312565
 20
5.2890413454
 30
0.0
 10
5.3412556543
 20
5.2828422714
 30
0.0
 10
5.3621203009
 20
5.2746548998
 30
0.0
 10
5.3822047702
 20
5.2658340542
 30
0.0
 10
5.4014834815
 20
5.256460267
 30
0.0
 10
5.4257679238
 20
5.2435012754
 30
0.0
 10
5.454034651
 20
5.2264012228
 30
0.0
 10
5.4753615949
 20
5.2114321904
 30
0.0
 10
5.4854605321
 20
5.2038418587
 30
0.0
  0
SPLINE
  5
27B
100
AcDbEntity
  8
0
100
AcDbSpline
 62
7
  6
CONTINUOUS
 70
0
 71
3
 72
33
 73
29
 74
0
 42
0.0000001
 43
0.0000001
 44
0.0000000001
 40
0.0
 40
0.0
 40
0.0
 40
0.0
 40
0.0541429116
 40
0.1112379237
 40
0.1710506538
 40
0.201907251
 40
0.2333514993
 40
0.2653433038
 40
0.2978406333
 40
0.330789341
 40
0.3641328908
 40
0.3978021616
 40
0.4317247798
 40
0.4658190664
 40
0.5000009015
 40
0.5341827311
 40
0.5682769861
 40
0.602199571
 40
0.6358687773
 40
0.6692122567
 40
0.7021608741
 40
0.7346580967
 40
0.7666498019
 40
0.7980939137
 40
0.8289504063
 40
0.8887628328
 40
0.9458575106
 40
1.0
 40
1.0
 40
1.0
 40
1.0
 10
5.4478851812
 20
4.1294035557
 30
0.0
 10
5.43842653
 20
4.1233097715
 30
0.0
 10
5.4186208739
 20
4.111357353
 30
0.0
 10
5.3870996614
 20
4.0948782343
 30
0.0
 10
5.3589922327
 20
4.0824480809
 30
0.0
 10
5.3352830201
 20
4.0733882185
 30
0.0
 10
5.3167373464
 20
4.0670471031
 30
0.0
 10
5.2976468984
 20
4.0612859788
 30
0.0
 10
5.2780521606
 20
4.0561613681
 30
0.0
 10
5.2580028728
 20
4.0517218296
 30
0.0
 10
5.2375568257
 20
4.0480186522
 30
0.0
 10
5.2167810536
 20
4.0450891693
 30
0.0
 10
5.1957498276
 20
4.0429726892
 30
0.0
 10
5.1745445044
 20
4.0416900232
 30
0.0
 10
5.1532507956
 20
4.0412624148
 30
0.0
 10
5.1319570931
 20
4.0416900558
 30
0.0
 10
5.1107517918
 20
4.0429728637
 30
0.0
 10
5.0897206123
 20
4.0450895396
 30
0.0
 10
5.0689449039
 20
4.0480192257
 30
0.0
 10
5.0484989409
 20
4.051722603
 30
0.0
 10
5.0284497456
 20
4.056162302
 30
0.0
 10
5.0088551201
 20
4.0612871001
 30
0.0
 10
4.9897648037
 20
4.0670484157
 30
0.0
 10
4.9712192857
 20
4.0733897678
 30
0.0
 10
4.9475102735
 20
4.0824498338
 30
0.0
 10
4.9194030981
 20
4.0948801842
 30
0.0
 10
4.8878822818
 20
4.1113595758
 30
0.0
 10
4.8680767673
 20
4.1233119175
 30
0.0
 10
4.8586182023
 20
4.1294056734
 30
0.0
  0
LINE
  5
27C
100
AcDbEntity
  8
0
100
AcDbLine
 62
7
  6
CONTINUOUS
 10
4.7834358112
 20
3.7895820829
 11
4.7836702373
 21
3.7897051153
  0
SPLINE
  5
27D
100
AcDbEntity
  8
0
100
AcDbSpline
 62
7
  6
CONTINUOUS
 70
0
 71
3
 72
68
 73
64
 74
0
 42
0.0000001
 43
0.0000001
 44
0.0000000001
 40
0.0
 40
0.0
 40
0.0
 40
0.0
 40
0.0004584334
 40
0.0009836136
 40
0.0022381822
 40
0.0037692026
 40
0.0055790366
 40
0.0076687413
 40
0.0100386112
 40
0.0126880098
 40
0.0156158134
 40
0.0223013129
 40
0.0300832368
 40
0.0389445183
 40
0.0488657099
 40
0.0598252772
 40
0.0717975351
 40
0.0847559217
 40
0.0986706308
 40
0.1135093601
 40
0.1292388056
 40
0.1632212206
 40
0.2003052647
 40
0.2401491119
 40
0.2823849886
 40
0.3266231371
 40
0.3724553449
 40
0.4194585165
 40
0.4671985278
 40
0.5152345836
 40
0.5631231971
 40
0.610422106
 40
0.6566944955
 40
0.7015132551
 40
0.7444647336
 40
0.7851523897
 40
0.8232007069
 40
0.8582590809
 40
0.8900046932
 40
0.904542493
 40
0.9181454881
 40
0.93078172
 40
0.9424231762
 40
0.9530429828
 40
0.9626169958
 40
0.9711246548
 40
0.9785465437
 40
0.9818456253
 40
0.9848680753
 40
0.9876124792
 40
0.9900775723
 40
0.9922626523
 40
0.9941678068
 40
0.9957937221
 40
0.9971421245
 40
0.9977134364
 40
0.9982171381
 40
0.9986545636
 40
0.9990278525
 40
0.9993404787
 40
0.9995983898
 40
0.9998121627
 40
1.0
 40
1.0
 40
1.0
 40
1.0
 10
4.7836702373
 20
3.7897051153
 30
0.0
 10
4.7837723654
 20
3.7897541788
 30
0.0
 10
4.7839955621
 20
3.7898510148
 30
0.0
 10
4.7845143313
 20
3.7900435375
 30
0.0
 10
4.7852989368
 20
3.7902783783
 30
0.0
 10
4.7864025614
 20
3.7905476964
 30
0.0
 10
4.7877174985
 20
3.7908179085
 30
0.0
 10
4.7892432399
 20
3.7910888832
 30
0.0
 10
4.7909792382
 20
3.7913603043
 30
0.0
 10
4.7929245332
 20
3.791632116
 30
0.0
 10
4.7959314497
 20
3.7920118993
 30
0.0
 10
4.8002054757
 20
3.7924794174
 30
0.0
 10
4.8059458825
 20
3.793020393
 30
0.0
 10
4.8124889836
 20
3.7935625518
 30
0.0
 10
4.8198197311
 20
3.7941056565
 30
0.0
 10
4.8279212102
 20
3.7946493303
 30
0.0
 10
4.8367748313
 20
3.7951935403
 30
0.0
 10
4.8463600637
 20
3.7957380763
 30
0.0
 10
4.8566547885
 20
3.7962828888
 30
0.0
 10
4.8676352634
 20
3.7968279681
 30
0.0
 10
4.8835715416
 20
3.7975742915
 30
0.0
 10
4.9050033286
 20
3.7984994238
 30
0.0
 10
4.9323934506
 20
3.7995844714
 30
0.0
 10
4.9618248628
 20
3.8006705526
 30
0.0
 10
4.9930255121
 20
3.8017574442
 30
0.0
 10
5.0257070214
 20
3.8028448968
 30
0.0
 10
5.0595673831
 20
3.8039327485
 30
0.0
 10
5.0942936571
 20
3.8050208654
 30
0.0
 10
5.1295648703
 20
3.8061091438
 30
0.0
 10
5.1650550222
 20
3.8071974846
 30
0.0
 10
5.2004361052
 20
3.808285793
 30
0.0
 10
5.2353810932
 20
3.8093739759
 30
0.0
 10
5.2695669981
 20
3.8104619314
 30
0.0
 10
5.3026778862
 20
3.8115495352
 30
0.0
 10
5.33440775
 20
3.8126366287
 30
0.0
 10
5.3644632909
 20
3.8137230254
 30
0.0
 10
5.392566738
 20
3.8148084163
 30
0.0
 10
5.4184584303
 20
3.8158925263
 30
0.0
 10
5.4385408393
 20
3.8168193231
 30
0.0
 10
5.4533228802
 20
3.8175681362
 30
0.0
 10
5.4633862451
 20
3.8181128673
 30
0.0
 10
5.4727326712
 20
3.8186573249
 30
0.0
 10
5.4813404815
 20
3.8192013543
 30
0.0
 10
5.4891898557
 20
3.8197448695
 30
0.0
 10
5.4962627353
 20
3.8202876944
 30
0.0
 10
5.5025427318
 20
3.8208295398
 30
0.0
 10
5.5072723186
 20
3.8212963419
 30
0.0
 10
5.5106479482
 20
3.8216744868
 30
0.0
 10
5.5128720583
 20
3.8219466428
 30
0.0
 10
5.5148884029
 20
3.8222185297
 30
0.0
 10
5.5166957782
 20
3.8224900981
 30
0.0
 10
5.518293196
 20
3.8227612583
 30
0.0
 10
5.519680021
 20
3.8230317465
 30
0.0
 10
5.5208556733
 20
3.8233014413
 30
0.0
 10
5.5217005725
 20
3.8235360999
 30
0.0
 10
5.5222681311
 20
3.823727941
 30
0.0
 10
5.522616614
 20
3.8238636147
 30
0.0
 10
5.5229121341
 20
3.8239991096
 30
0.0
 10
5.5231549532
 20
3.8241345071
 30
0.0
 10
5.5233455826
 20
3.8242700676
 30
0.0
 10
5.523484624
 20
3.8244067867
 30
0.0
 10
5.5235721012
 20
3.8245468897
 30
0.0
 10
5.5235931988
 20
3.8246467759
 30
0.0
 10
5.5235932123
 20
3.8246932001
 30
0.0
  0
ENDSEC
  0
SECTION
  2
OBJECTS
  0
DICTIONARY
  5
C
100
AcDbDictionary
280
0
281
1
  3
ACAD_GROUP
350
D
  3
ACAD_MLINESTYLE
350
17
  3
ACAD_LAYOUT
350
1A
  3
ACAD_PLOTSETTINGS
350
19
  3
ACAD_PLOTSTYLENAME
350
E
  0
DICTIONARY
  5
D
102
{ACAD_REACTORS
330
C
102
}
100
AcDbDictionary
280
0
281
1
  0
ACDBDICTIONARYWDFLT
  5
E
102
{ACAD_REACTORS
330
C
102
}
100
AcDbDictionary
281
1
  3
Normal
350
F
100
AcDbDictionaryWithDefault
340
F
  0
DICTIONARY
  5
17
102
{ACAD_REACTORS
330
C
102
}
100
AcDbDictionary
280
0
281
1
  3
Standard
350
18
  0
DICTIONARY
  5
19
102
{ACAD_REACTORS
330
C
102
}
100
AcDbDictionary
281
1
  0
DICTIONARY
  5
1A
102
{ACAD_REACTORS
330
C
102
}
100
AcDbDictionary
281
1
  3
Model
350
27E
  3
Layout1
350
27F
  0
ACDBPLACEHOLDER
  5
F
102
{ACAD_REACTORS
330
E
102
}
  0
MLINESTYLE
  5
18
102
{ACAD_REACTORS
330
17
102
}
100
AcDbMlineStyle
  2
STANDARD
 70
0
  3

 62
256
 51
90.0
 52
90.0
 71
2
 49
0.5
 62
256
  6
BYLAYER
 49
-0.5
 62
256
  6
BYLAYER
  0
LAYOUT
  5
27E
102
{ACAD_REACTORS
330
1A
102
}
100
AcDbPlotSettings
  1

  2
none_device
  4
ANSI_A_(11.00_x_8.50_Inches)
  6

 40
0.0
 41
0.0
 42
0.0
 43
0.0
 44
279.4
 45
215.9
 46
0.0
 47
0.0
 48
0.0
 49
0.0
140
0.0
141
0.0
142
1.0
143
1.0
 70
1024
 72
0
 73
0
 74
0
  7

 75
0
147
1.0
148
0.0
149
0.0
100
AcDbLayout
  1
Model
 70
0
 71
0
 10
0.0
 20
0.0
 11
11.0
 21
8.5
 12
0.0
 22
0.0
 32
0.0
 14
0.0
 24
0.0
 34
0.0
 15
0.0
 25
0.0
 35
0.0
146
0.0
 13
0.0
 23
0.0
 33
0.0
 16
1.0
 26
0.0
 36
0.0
 17
0.0
 27
1.0
 37
0.0
 76
0
330
203
345
0
346
0
  0
LAYOUT
  5
27F
102
{ACAD_REACTORS
330
1A
102
}
100
AcDbPlotSettings
  1

  2
none_device
  4
ANSI_A_(11.00_x_8.50_Inches)
  6

 40
0.0
 41
0.0
 42
0.0
 43
0.0
 44
279.4
 45
215.9
 46
0.0
 47
0.0
 48
0.0
 49
0.0
140
0.0
141
0.0
142
1.0
143
1.0
 70
0
 72
0
 73
0
 74
0
  7

 75
0
147
1.0
148
0.0
149
0.0
100
AcDbLayout
  1
Layout1
 70
0
 71
1
 10
0.0
 20
0.0
 11
11.0
 21
8.5
 12
0.0
 22
0.0
 32
0.0
 14
0.0
 24
0.0
 34
0.0
 15
0.0
 25
0.0
 35
0.0
146
0.0
 13
0.0
 23
0.0
 33
0.0
 16
1.0
 26
0.0
 36
0.0
 17
0.0
 27
1.0
 37
0.0
 76
0
330
204
345
0
346
0
  0
ENDSEC
  0
EOF
