999
DXF file: 3-672_right.dxf
999
Pro/ENGINEER 2023134 by Parametric Technology Corporation
  0
SECTION
  2
HEADER
  9
$ACADVER
  1
AC1032
  9
$DWGCODEPAGE
  3
ANSI_1252
  9
$EXTMAX
 10
11.0
 20
8.5
 30
0.0
  9
$EXTMIN
 10
0.0
 20
0.0
 30
0.0
  9
$LIMMIN
 10
0.0
 20
0.0
  9
$LIMMAX
 10
11.0
 20
8.5
  9
$VIEWCTR
 10
5.5
 20
4.25
  9
$VIEWSIZE
 40
8.5
  9
$CLAYER
  8
0
  9
$LTSCALE
 40
0.605
  9
$CELTYPE
  6
BYLAYER
  9
$DIMSCALE
 40
1.0
  9
$DIMASZ
 40
0.1
  9
$DIMEXO
 40
0.03125
  9
$DIMDLI
 40
0.418
  9
$DIMEXE
 40
0.0625
  9
$DIMCEN
 40
0.099
  9
$DIMLFAC
 40
1.0
  9
$DIMBLK
  1
_FILLED
  9
$DIMALT
 70
1
  9
$DIMALTD
 70
2
  9
$DIMALTTD
 70
2
  9
$DIMALTF
 40
25.4
  9
$DIMTXT
 40
0.08
  9
$DIMTOL
 70
1
  9
$DIMLIM
 70
0
  9
$DIMTFAC
 40
1.0
  9
$DIMTP
 40
0.001
  9
$DIMTM
 40
0.001
  9
$DIMGAP
 40
0.09
  9
$DIMDSEP
 70
46
  9
$AUNITS
 70
0
  9
$PDMODE
 70
3
  9
$PDSIZE
 40
0.06
  9
$HANDSEED
  5
2D1
  9
$TILEMODE
 70
1
  9
$MEASUREMENT
 70
0
  9
$INSUNITS
 70
1
  0
ENDSEC
  0
SECTION
  2
CLASSES
  0
CLASS
  1
ACDBDICTIONARYWDFLT
  2
AcDbDictionaryWithDefault
  3
AutoCAD 2000
 90
0
 91
1
280
0
281
0
  0
CLASS
  1
ACDBPLACEHOLDER
  2
AcDbPlaceHolder
  3
AutoCAD 2000
 90
0
 91
1
280
0
281
0
  0
CLASS
  1
LAYOUT
  2
AcDbLayout
  3
AutoCAD 2000
 90
0
 91
0
280
0
281
0
  0
ENDSEC
  0
SECTION
  2
TABLES
  0
TABLE
  2
VPORT
  5
8
100
AcDbSymbolTable
 70
2
  0
VPORT
  5
1F4
100
AcDbSymbolTableRecord
100
AcDbViewportTableRecord
  2
*ACTIVE
 70
0
 10
0.0
 20
0.0
 11
1.0
 21
1.0
 12
5.5
 22
4.25
 13
0.0
 23
0.0
 14
1.0
 24
1.0
 15
0.0
 25
0.0
 16
0.0
 26
0.0
 36
1.0
 17
0.0
 27
0.0
 37
0.0
 40
8.5
 41
1.2941176471
 42
50.0
 43
0.0
 44
0.0
 50
0.0
 51
0.0
 71
0
 72
100
 73
1
 74
1
 75
0
 76
0
 77
0
 78
0
  0
ENDTAB
  0
TABLE
  2
LTYPE
  5
5
100
AcDbSymbolTable
 70
6
  0
LTYPE
  5
14
100
AcDbSymbolTableRecord
100
AcDbLinetypeTableRecord
  2
BYBLOCK
 70
0
  3

 72
65
 73
0
 40
0.0
  0
LTYPE
  5
15
100
AcDbSymbolTableRecord
100
AcDbLinetypeTableRecord
  2
BYLAYER
 70
0
  3

 72
65
 73
0
 40
0.0
  0
LTYPE
  5
16
100
AcDbSymbolTableRecord
100
AcDbLinetypeTableRecord
  2
CONTINUOUS
 70
64
  3
Solid line
 72
65
 73
0
 40
0.0
  0
LTYPE
  5
1F5
100
AcDbSymbolTableRecord
100
AcDbLinetypeTableRecord
  2
CENTER
 70
64
  3
____ _ ____ _ ____ _ ____ _ ____ _ ____ _ ____
 72
65
 73
4
 40
0.6
 49
0.375
 74
0
 49
-0.075
 74
0
 49
0.075
 74
0
 49
-0.075
 74
0
  0
LTYPE
  5
1F6
100
AcDbSymbolTableRecord
100
AcDbLinetypeTableRecord
  2
HIDDEN
 70
64
  3
- - - - - - - - - - - - - - - - - - - -
 72
65
 73
2
 40
0.2
 49
0.1
 74
0
 49
-0.1
 74
0
  0
LTYPE
  5
1F7
100
AcDbSymbolTableRecord
100
AcDbLinetypeTableRecord
  2
PHANTOM
 70
64
  3
_____ _ _ _____ _ _ _____ _ _ _____
 72
65
 73
6
 40
0.8
 49
0.45
 74
0
 49
-0.05
 74
0
 49
0.1
 74
0
 49
-0.05
 74
0
 49
0.1
 74
0
 49
-0.05
 74
0
  0
LTYPE
  5
1F8
100
AcDbSymbolTableRecord
100
AcDbLinetypeTableRecord
  2
DOT
 70
64
  3
. . . . . . . . . . . . . . . . . . . .
 72
65
 73
2
 40
0.2
 49
0.1
 74
0
 49
-0.1
 74
0
  0
LTYPE
  5
1F9
100
AcDbSymbolTableRecord
100
AcDbLinetypeTableRecord
  2
DASHED
 70
64
  3
- - - - - - - - - - - - - - - - - - - -
 72
65
 73
2
 40
0.2
 49
0.1
 74
0
 49
-0.1
 74
0
  0
ENDTAB
  0
TABLE
  2
LAYER
  5
2
100
AcDbSymbolTable
 70
36
  0
LAYER
  5
10
100
AcDbSymbolTableRecord
100
AcDbLayerTableRecord
  2
0
 70
0
 62
7
  6
CONTINUOUS
370
-3
390
F
  0
LAYER
  5
1FA
100
AcDbSymbolTableRecord
100
AcDbLayerTableRecord
  2
DEFAULT_1
 70
0
 62
7
  6
CENTER
370
-3
390
F
  0
LAYER
  5
1FB
100
AcDbSymbolTableRecord
100
AcDbLayerTableRecord
  2
DEFAULT_2
 70
0
 62
8
  6
HIDDEN
370
-3
390
F
  0
LAYER
  5
1FC
100
AcDbSymbolTableRecord
100
AcDbLayerTableRecord
  2
DEFAULT_3
 70
0
 62
7
  6
PHANTOM
370
-3
390
F
  0
LAYER
  5
1FD
100
AcDbSymbolTableRecord
100
AcDbLayerTableRecord
  2
DEFAULT_COORDINATE_SYSTEM
 70
0
 62
7
  6
CONTINUOUS
370
-3
390
F
  0
LAYER
  5
1FE
100
AcDbSymbolTableRecord
100
AcDbLayerTableRecord
  2
DEFAULT_DATUM_AXES
 70
0
 62
7
  6
CONTINUOUS
370
-3
390
F
  0
LAYER
  5
1FF
100
AcDbSymbolTableRecord
100
AcDbLayerTableRecord
  2
DEFAULT_DATUM_CURVES
 70
0
 62
7
  6
CONTINUOUS
370
-3
390
F
  0
LAYER
  5
200
100
AcDbSymbolTableRecord
100
AcDbLayerTableRecord
  2
DEFAULT_DATUM_PLANES
 70
0
 62
7
  6
CONTINUOUS
370
-3
390
F
  0
ENDTAB
  0
TABLE
  2
STYLE
  5
3
100
AcDbSymbolTable
 70
1
  0
STYLE
  5
11
100
AcDbSymbolTableRecord
100
AcDbTextStyleTableRecord
  2
STANDARD
 70
0
 40
0.0
 41
0.8
 50
0.0
 71
0
 42
0.2
  3
txt
  4

  0
STYLE
  5
201
100
AcDbSymbolTableRecord
100
AcDbTextStyleTableRecord
  2
TEXTSTYLE_1
 70
0
 40
0.0
 41
0.8
 50
0.0
 71
0
 42
0.2
  3
gdt
  4

  0
ENDTAB
  0
TABLE
  2
VIEW
  5
6
100
AcDbSymbolTable
 70
0
  0
ENDTAB
  0
TABLE
  2
UCS
  5
7
100
AcDbSymbolTable
 70
0
  0
ENDTAB
  0
TABLE
  2
APPID
  5
9
100
AcDbSymbolTable
 70
1
  0
APPID
  5
202
100
AcDbSymbolTableRecord
100
AcDbRegAppTableRecord
  2
ACAD
 70
0
  0
ENDTAB
  0
TABLE
  2
BLOCK_RECORD
  5
1
100
AcDbSymbolTable
 70
0
  0
BLOCK_RECORD
  5
203
100
AcDbSymbolTableRecord
100
AcDbBlockTableRecord
  2
*Model_Space
  0
BLOCK_RECORD
  5
204
100
AcDbSymbolTableRecord
100
AcDbBlockTableRecord
  2
*Paper_Space
  0
BLOCK_RECORD
  5
205
100
AcDbSymbolTableRecord
100
AcDbBlockTableRecord
  2
_FILLED
  0
ENDTAB
  0
TABLE
  2
DIMSTYLE
  5
A
100
AcDbSymbolTable
 70
1
100
AcDbDimStyleTable
 71
0
  0
DIMSTYLE
105
206
100
AcDbSymbolTableRecord
100
AcDbDimStyleTableRecord
  2
STANDARD
 70
0
  3

  4

 40
1.0
 41
0.1
 42
0.03125
 43
0.38
 44
0.0625
 45
0.0
 46
0.0
 47
0.001
 48
0.001
140
0.08
141
0.09
142
0.0
143
25.4
144
1.0
145
0.0
146
1.0
147
0.09
 71
1
 72
0
 73
1
 74
1
 75
0
 76
0
 77
0
 78
4
 79
1
170
1
171
2
172
0
173
0
174
0
175
0
176
0
177
0
178
0
270
2
179
3
271
3
272
3
273
2
274
2
275
0
280
0
281
0
282
0
283
1
284
4
285
0
286
0
287
3
288
0
340
11
278
46
341
205
342
205
343
205
344
205
  0
ENDTAB
  0
ENDSEC
  0
SECTION
  2
BLOCKS
  0
BLOCK
  5
20
100
AcDbEntity
  8
0
100
AcDbBlockBegin
  2
*Model_Space
 70
0
 10
0.0
 20
0.0
 30
0.0
  3
*Model_Space
  1

  0
ENDBLK
  5
21
100
AcDbEntity
  8
0
100
AcDbBlockEnd
  0
BLOCK
  5
1C
100
AcDbEntity
  8
0
100
AcDbBlockBegin
  2
*Paper_Space
 70
0
 10
0.0
 20
0.0
 30
0.0
  3
*Paper_Space
  1

  0
ENDBLK
  5
1D
100
AcDbEntity
  8
0
100
AcDbBlockEnd
  0
BLOCK
  5
207
100
AcDbEntity
  8
0
100
AcDbBlockBegin
  2
_FILLED
 70
64
 10
0.0
 20
0.0
  3
_FILLED
  1

  0
SOLID
  5
208
100
AcDbEntity
  8
0
  6
BYBLOCK
 62
0
100
AcDbTrace
 10
0.0
 20
0.0
 11
-1.0
 21
0.2
 12
-1.0
 22
-0.2
 13
-1.0
 23
-0.2
  0
ENDBLK
  5
209
100
AcDbEntity
  8
0
  6
BYBLOCK
 62
0
100
AcDbBlockEnd
  0
ENDSEC
  0
SECTION
  2
ENTITIES
  0
MTEXT
  5
20A
100
AcDbEntity
  8
0
100
AcDbMText
 62
2
  6
CONTINUOUS
  7
STANDARD
 71
3
 72
1
 10
5.7447537817
 20
2.4787756849
 30
0.0
 11
1.0
 21
0.0
 31
0.0
 73
2
 44
0.9
  1
SCALE 1.000
 40
0.08
 41
0.704
  0
LINE
  5
20B
100
AcDbEntity
  8
0
100
AcDbLine
 62
7
  6
CONTINUOUS
 10
0.0
 20
0.0
 11
0.0
 21
8.5
  0
LINE
  5
20C
100
AcDbEntity
  8
0
100
AcDbLine
 62
7
  6
CONTINUOUS
 10
0.0
 20
0.0
 11
11.0
 21
0.0
  0
LINE
  5
20D
100
AcDbEntity
  8
0
100
AcDbLine
 62
7
  6
CONTINUOUS
 10
0.0
 20
8.5
 11
11.0
 21
8.5
  0
LINE
  5
20E
100
AcDbEntity
  8
0
100
AcDbLine
 62
7
  6
CONTINUOUS
 10
11.0
 20
0.0
 11
11.0
 21
8.5
  0
LINE
  5
20F
100
AcDbEntity
  8
0
100
AcDbLine
 62
7
  6
CONTINUOUS
 10
3.3957534247
 20
4.1346530972
 11
3.3957534247
 21
5.1957264815
  0
LINE
  5
210
100
AcDbEntity
  8
0
100
AcDbLine
 62
7
  6
CONTINUOUS
 10
3.4357534247
 20
4.0946530973
 11
3.4357534247
 21
5.2357264813
  0
LINE
  5
211
100
AcDbEntity
  8
0
100
AcDbLine
 62
7
  6
CONTINUOUS
 10
3.576579118
 20
5.2282421158
 11
3.5765791182
 21
5.2357264815
  0
LINE
  5
212
100
AcDbEntity
  8
0
100
AcDbLine
 62
7
  6
CONTINUOUS
 10
3.5906254128
 20
4.1005915778
 11
3.5906254127
 21
4.0946530972
  0
LINE
  5
213
100
AcDbEntity
  8
0
100
AcDbLine
 62
7
  6
CONTINUOUS
 10
5.3897534247
 20
3.5650085616
 11
4.6517534247
 21
3.5650085616
  0
LINE
  5
214
100
AcDbEntity
  8
0
100
AcDbLine
 62
7
  6
CONTINUOUS
 10
4.6504134247
 20
3.6101038273
 11
4.6122265923
 21
3.6321791672
  0
LINE
  5
215
100
AcDbEntity
  8
0
100
AcDbLine
 62
7
  6
CONTINUOUS
 10
4.6504134247
 20
3.6815338273
 11
4.6122265923
 21
3.7036091672
  0
LINE
  5
216
100
AcDbEntity
  8
0
100
AcDbLine
 62
7
  6
CONTINUOUS
 10
4.6517534247
 20
3.5650085616
 11
4.6338051043
 21
3.582956882
  0
LINE
  5
217
100
AcDbEntity
  8
0
100
AcDbLine
 62
7
  6
CONTINUOUS
 10
4.3654272465
 20
5.346923475
 11
4.361465602
 21
5.3439402942
  0
LINE
  5
218
100
AcDbEntity
  8
0
100
AcDbLine
 62
7
  6
CONTINUOUS
 10
4.3616614737
 20
5.3440886084
 11
4.3497109782
 21
5.3351540423
  0
LINE
  5
219
100
AcDbEntity
  8
0
100
AcDbLine
 62
7
  6
CONTINUOUS
 10
4.3501998868
 20
5.3355182457
 11
4.3362796958
 21
5.325234773
  0
LINE
  5
21A
100
AcDbEntity
  8
0
100
AcDbLine
 62
7
  6
CONTINUOUS
 10
4.3408293621
 20
5.3285809798
 11
4.3298122868
 21
5.3205055957
  0
LINE
  5
21B
100
AcDbEntity
  8
0
100
AcDbLine
 62
7
  6
CONTINUOUS
 10
4.3305322863
 20
5.3210303757
 11
4.3164793682
 21
5.3108566939
  0
LINE
  5
21C
100
AcDbEntity
  8
0
100
AcDbLine
 62
7
  6
CONTINUOUS
 10
4.3172576385
 20
5.3114166022
 11
4.3013958466
 21
5.3001116213
  0
LINE
  5
21D
100
AcDbEntity
  8
0
100
AcDbLine
 62
7
  6
CONTINUOUS
 10
4.3088813533
 20
5.3054213018
 11
4.3005931448
 21
5.2995453836
  0
LINE
  5
21E
100
AcDbEntity
  8
0
100
AcDbLine
 62
7
  6
CONTINUOUS
 10
4.3013958466
 20
5.3001116213
 11
4.2916349065
 21
5.2932594019
  0
LINE
  5
21F
100
AcDbEntity
  8
0
100
AcDbLine
 62
7
  6
CONTINUOUS
 10
4.2924363942
 20
5.2938191472
 11
4.282073715
 21
5.2866278062
  0
LINE
  5
220
100
AcDbEntity
  8
0
100
AcDbLine
 62
7
  6
CONTINUOUS
 10
4.2828664972
 20
5.2871750125
 11
4.2718855056
 21
5.2796523935
  0
LINE
  5
221
100
AcDbEntity
  8
0
100
AcDbLine
 62
7
  6
CONTINUOUS
 10
4.27266119
 20
5.2801798857
 11
4.2610956409
 21
5.2723706509
  0
LINE
  5
222
100
AcDbEntity
  8
0
100
AcDbLine
 62
7
  6
CONTINUOUS
 10
4.2618442952
 20
5.2728717111
 11
4.2498799544
 21
5.2649208972
  0
LINE
  5
223
100
AcDbEntity
  8
0
100
AcDbLine
 62
7
  6
CONTINUOUS
 10
4.2505962778
 20
5.2653933259
 11
4.2382809432
 21
5.2573511242
  0
LINE
  5
224
100
AcDbEntity
  8
0
100
AcDbLine
 62
7
  6
CONTINUOUS
 10
4.2389640229
 20
5.2577944308
 11
4.2262945017
 21
5.2496790508
  0
LINE
  5
225
100
AcDbEntity
  8
0
100
AcDbLine
 62
7
  6
CONTINUOUS
 10
4.2269464494
 20
5.2500931036
 11
4.2140558855
 21
5.2420099727
  0
LINE
  5
226
100
AcDbEntity
  8
0
100
AcDbLine
 62
7
  6
CONTINUOUS
 10
4.2146853443
 20
5.2423988876
 11
4.2016235332
 21
5.2343959149
  0
LINE
  5
227
100
AcDbEntity
  8
0
100
AcDbLine
 62
7
  6
CONTINUOUS
 10
4.2022411082
 20
5.2347677288
 11
4.1889949202
 21
5.226851626
  0
LINE
  5
228
100
AcDbEntity
  8
0
100
AcDbLine
 62
7
  6
CONTINUOUS
 10
4.1896061918
 20
5.2272121559
 11
4.1762251261
 21
5.2194288148
  0
LINE
  5
229
100
AcDbEntity
  8
0
100
AcDbLine
 62
7
  6
CONTINUOUS
 10
4.1768302142
 20
5.2197779637
 11
4.1633438193
 21
5.2121615768
  0
LINE
  5
22A
100
AcDbEntity
  8
0
100
AcDbLine
 62
7
  6
CONTINUOUS
 10
4.1639441684
 20
5.2124973247
 11
4.150366266
 21
5.2050738124
  0
LINE
  5
22B
100
AcDbEntity
  8
0
100
AcDbLine
 62
7
  6
CONTINUOUS
 10
4.1509655085
 20
5.2053947829
 11
4.1373288734
 21
5.1981989333
  0
LINE
  5
22C
100
AcDbEntity
  8
0
100
AcDbLine
 62
7
  6
CONTINUOUS
 10
4.1379245333
 20
5.1985042628
 11
4.1242695254
 21
5.1915696056
  0
LINE
  5
22D
100
AcDbEntity
  8
0
100
AcDbLine
 62
7
  6
CONTINUOUS
 10
5.3910934247
 20
3.5663485616
 11
5.2957812984
 21
3.5663485616
  0
LINE
  5
22E
100
AcDbEntity
  8
0
100
AcDbLine
 62
7
  6
CONTINUOUS
 10
5.4283804176
 20
3.6050085616
 11
5.4297429665
 21
3.6050085616
  0
LINE
  5
22F
100
AcDbEntity
  8
0
100
AcDbLine
 62
7
  6
CONTINUOUS
 10
6.6207534247
 20
3.6225085616
 11
6.9107534247
 21
3.6225085616
  0
LINE
  5
230
100
AcDbEntity
  8
0
100
AcDbLine
 62
7
  6
CONTINUOUS
 10
4.6504134247
 20
3.7529638273
 11
4.6122265923
 21
3.7750391672
  0
LINE
  5
231
100
AcDbEntity
  8
0
100
AcDbLine
 62
7
  6
CONTINUOUS
 10
4.6504134247
 20
3.8243938273
 11
4.6321782328
 21
3.8349360575
  0
LWPOLYLINE
  5
232
100
AcDbEntity
  8
0
100
AcDbPolyline
 62
7
  6
CONTINUOUS
 90
11
 70
0
 10
4.32158514
 20
4.0075894323
 10
4.3236445427
 20
4.0061963651
 10
4.3257865169
 20
4.0049339347
 10
4.328002787
 20
4.0038070188
 10
4.3302847903
 20
4.0028199717
 10
4.3326237103
 20
4.0019766072
 10
4.3350105111
 20
4.0012801838
 10
4.3374359713
 20
4.0007333926
 10
4.3398907198
 20
4.0003383469
 10
4.3423652725
 20
4.0000965735
 10
4.3450157542
 20
4.0000086637
  0
LINE
  5
233
100
AcDbEntity
  8
0
100
AcDbLine
 62
7
  6
CONTINUOUS
 10
4.2774114338
 20
4.0387011252
 11
4.2902757562
 21
4.0298131604
  0
LINE
  5
234
100
AcDbEntity
  8
0
100
AcDbLine
 62
7
  6
CONTINUOUS
 10
4.2902757562
 20
4.0298131604
 11
4.3007316081
 21
4.0224820337
  0
LINE
  5
235
100
AcDbEntity
  8
0
100
AcDbLine
 62
7
  6
CONTINUOUS
 10
4.3007316081
 20
4.0224820337
 11
4.3123124792
 21
4.0142549618
  0
LINE
  5
236
100
AcDbEntity
  8
0
100
AcDbLine
 62
7
  6
CONTINUOUS
 10
4.3123124792
 20
4.0142549618
 11
4.32158514
 21
4.0075894323
  0
LINE
  5
237
100
AcDbEntity
  8
0
100
AcDbLine
 62
7
  6
CONTINUOUS
 10
4.1248560917
 20
5.1918594151
 11
4.111192077
 21
5.1852026074
  0
LINE
  5
238
100
AcDbEntity
  8
0
100
AcDbLine
 62
7
  6
CONTINUOUS
 10
4.111765653
 20
5.1854762109
 11
4.0980807411
 21
5.179105107
  0
LINE
  5
239
100
AcDbEntity
  8
0
100
AcDbLine
 62
7
  6
CONTINUOUS
 10
4.0986378432
 20
5.1793599752
 11
4.0849553757
 21
5.1733002943
  0
LINE
  5
23A
100
AcDbEntity
  8
0
100
AcDbLine
 62
7
  6
CONTINUOUS
 10
4.08549209
 20
5.1735324939
 11
4.071829115
 21
5.1678062042
  0
LINE
  5
23B
100
AcDbEntity
  8
0
100
AcDbLine
 62
7
  6
CONTINUOUS
 10
4.0723440611
 20
5.1680149036
 11
4.0586739188
 21
5.1626243089
  0
LINE
  5
23C
100
AcDbEntity
  8
0
100
AcDbLine
 62
7
  6
CONTINUOUS
 10
4.0591690482
 20
5.1628118404
 11
4.045503765
 21
5.1577751853
  0
LINE
  5
23D
100
AcDbEntity
  8
0
100
AcDbLine
 62
7
  6
CONTINUOUS
 10
4.0459799305
 20
5.1579433889
 11
4.0323386409
 21
5.1532798953
  0
LINE
  5
23E
100
AcDbEntity
  8
0
100
AcDbLine
 62
7
  6
CONTINUOUS
 10
4.0327944009
 20
5.153429615
 11
4.0191594087
 21
5.1491454655
  0
LINE
  5
23F
100
AcDbEntity
  8
0
100
AcDbLine
 62
7
  6
CONTINUOUS
 10
5.4297534247
 20
3.8150085616
 11
5.3873618606
 21
3.8150085616
  0
LINE
  5
240
100
AcDbEntity
  8
0
100
AcDbLine
 62
7
  6
CONTINUOUS
 10
4.0195930174
 20
5.1492770863
 11
4.0059735712
 21
5.1453881452
  0
LINE
  5
241
100
AcDbEntity
  8
0
100
AcDbLine
 62
7
  6
CONTINUOUS
 10
5.3278525568
 20
3.8536685616
 11
5.3910934247
 21
3.8536685616
  0
LINE
  5
242
100
AcDbEntity
  8
0
100
AcDbLine
 62
7
  6
CONTINUOUS
 10
5.3897534247
 20
3.8550085616
 11
4.6517534247
 21
3.8550085616
  0
LINE
  5
243
100
AcDbEntity
  8
0
100
AcDbLine
 62
7
  6
CONTINUOUS
 10
5.4457534247
 20
3.9350085616
 11
4.5957534247
 21
3.9350085616
  0
LINE
  5
244
100
AcDbEntity
  8
0
100
AcDbLine
 62
7
  6
CONTINUOUS
 10
5.3912242312
 20
3.6284869463
 11
5.429280257
 21
3.6064872333
  0
LINE
  5
245
100
AcDbEntity
  8
0
100
AcDbLine
 62
7
  6
CONTINUOUS
 10
5.3912242312
 20
3.6999169463
 11
5.429280257
 21
3.6779172333
  0
LINE
  5
246
100
AcDbEntity
  8
0
100
AcDbLine
 62
7
  6
CONTINUOUS
 10
5.4293246965
 20
3.6064609414
 11
5.42928031
 21
3.6064872336
  0
LINE
  5
247
100
AcDbEntity
  8
0
100
AcDbLine
 62
7
  6
CONTINUOUS
 10
5.4293208617
 20
3.606460941
 11
5.429280257
 21
3.6064872333
  0
LINE
  5
248
100
AcDbEntity
  8
0
100
AcDbLine
 62
7
  6
CONTINUOUS
 10
4.5957534247
 20
4.0080107465
 11
4.5957534247
 21
3.9350085616
  0
LINE
  5
249
100
AcDbEntity
  8
0
100
AcDbLine
 62
7
  6
CONTINUOUS
 10
4.6117534247
 20
3.7845153388
 11
4.6117534247
 21
3.7755860616
  0
LINE
  5
24A
100
AcDbEntity
  8
0
100
AcDbLine
 62
7
  6
CONTINUOUS
 10
4.6117534247
 20
3.7130853388
 11
4.6117534247
 21
3.7041560616
  0
LINE
  5
24B
100
AcDbEntity
  8
0
100
AcDbLine
 62
7
  6
CONTINUOUS
 10
4.6117534247
 20
3.6416553388
 11
4.6117534247
 21
3.6327260616
  0
LINE
  5
24C
100
AcDbEntity
  8
0
100
AcDbLine
 62
7
  6
CONTINUOUS
 10
4.3450157544
 20
4.0000085616
 11
4.5832534247
 21
4.0000085616
  0
LINE
  5
24D
100
AcDbEntity
  8
0
100
AcDbLine
 62
7
  6
CONTINUOUS
 10
5.4582534247
 20
4.0000085616
 11
6.5907534247
 21
4.0000085616
  0
LINE
  5
24E
100
AcDbEntity
  8
0
100
AcDbLine
 62
7
  6
CONTINUOUS
 10
3.4357534247
 20
4.0946530972
 11
3.5906254127
 21
4.0946530972
  0
LINE
  5
24F
100
AcDbEntity
  8
0
100
AcDbLine
 62
7
  6
CONTINUOUS
 10
3.4357534247
 20
4.1005915778
 11
3.5906254132
 21
4.1005915778
  0
LINE
  5
250
100
AcDbEntity
  8
0
100
AcDbLine
 62
7
  6
CONTINUOUS
 10
5.3912242312
 20
3.7713469463
 11
5.429280257
 21
3.7493472333
  0
LINE
  5
251
100
AcDbEntity
  8
0
100
AcDbLine
 62
7
  6
CONTINUOUS
 10
5.3912242312
 20
3.8427769463
 11
5.4155703507
 21
3.8287021367
  0
LINE
  5
252
100
AcDbEntity
  8
0
100
AcDbLine
 62
7
  6
CONTINUOUS
 10
4.6504134247
 20
3.5928475734
 11
4.6504134247
 21
3.6104057002
  0
LINE
  5
253
100
AcDbEntity
  8
0
100
AcDbLine
 62
7
  6
CONTINUOUS
 10
4.6504134247
 20
3.6642775734
 11
4.6504134247
 21
3.6818357002
  0
LINE
  5
254
100
AcDbEntity
  8
0
100
AcDbLine
 62
7
  6
CONTINUOUS
 10
4.6504134247
 20
3.7357075734
 11
4.6504134247
 21
3.7532657002
  0
LINE
  5
255
100
AcDbEntity
  8
0
100
AcDbLine
 62
7
  6
CONTINUOUS
 10
4.6504134247
 20
3.8071375734
 11
4.6504134247
 21
3.8246957002
  0
LINE
  5
256
100
AcDbEntity
  8
0
100
AcDbLine
 62
7
  6
CONTINUOUS
 10
4.6557534247
 20
3.9350085616
 11
4.6557534247
 21
3.8550085616
  0
LINE
  5
257
100
AcDbEntity
  8
0
100
AcDbLine
 62
7
  6
CONTINUOUS
 10
3.6106657098
 20
4.1000353778
 11
3.6106794589
 21
4.1000433451
  0
LWPOLYLINE
  5
258
100
AcDbEntity
  8
0
100
AcDbPolyline
 62
7
  6
CONTINUOUS
 90
57
 70
0
 10
3.6106651573
 20
4.1000350575
 10
3.6205821248
 20
4.1057119852
 10
3.6324392196
 20
4.1123251582
 10
3.6444536452
 20
4.1188232909
 10
3.6565962562
 20
4.1251743893
 10
3.6688473236
 20
4.1313532876
 10
3.6811968445
 20
4.1373404744
 10
3.6936263598
 20
4.1431104624
 10
3.7061162003
 20
4.1486380014
 10
3.7186567078
 20
4.1539040447
 10
3.7312316187
 20
4.1588881812
 10
3.7438228192
 20
4.1635707911
 10
3.7564150495
 20
4.16793427
 10
3.7689836193
 20
4.1719596
 10
3.7815143675
 20
4.1756333548
 10
3.79400745
 20
4.178947442
 10
3.8064225821
 20
4.1818871638
 10
3.8187582814
 20
4.1844513061
 10
3.8310728992
 20
4.1866481265
 10
3.8433420589
 20
4.1884672658
 10
3.8555545186
 20
4.1899049273
 10
3.8677897408
 20
4.1909696118
 10
3.8800326906
 20
4.1916556564
 10
3.8922624318
 20
4.1919580843
 10
3.9045501707
 20
4.1918731581
 10
3.9168891577
 20
4.1913985022
 10
3.9292491659
 20
4.1905352582
 10
3.9416654336
 20
4.1892795707
 10
3.9541201705
 20
4.1876304686
 10
3.9665925486
 20
4.1855946476
 10
3.9791126121
 20
4.1831732499
 10
3.9916625372
 20
4.1803744078
 10
4.0042197534
 20
4.1772088901
 10
4.0168081494
 20
4.1736778566
 10
4.0294164149
 20
4.1697935697
 10
4.0420197597
 20
4.1655742364
 10
4.054623352
 20
4.1610293512
 10
4.0672104826
 20
4.1561765642
 10
4.0797618618
 20
4.1510363932
 10
4.0922782574
 20
4.1456225125
 10
4.104738821
 20
4.1399584239
 10
4.1171269632
 20
4.1340661414
 10
4.1294475518
 20
4.127958247
 10
4.1416770402
 20
4.1216614311
 10
4.1537952722
 20
4.1152008743
 10
4.1658080923
 20
4.1085886614
 10
4.177707818
 20
4.1018430736
 10
4.1894431551
 20
4.0950076452
 10
4.2009536127
 20
4.088134307
 10
4.2122615196
 20
4.0812253478
 10
4.2232742181
 20
4.0743537073
 10
4.2337819137
 20
4.0676707946
 10
4.2437672762
 20
4.0612098443
 10
4.2532191358
 20
4.0549988945
 10
4.2619843526
 20
4.0491589918
 10
4.2700269667
 20
4.0437349867
 10
4.2774114338
 20
4.0387011252
  0
LINE
  5
259
100
AcDbEntity
  8
0
100
AcDbLine
 62
7
  6
CONTINUOUS
 10
3.620294728
 20
5.2165762785
 11
3.607692626
 21
5.223817226
  0
LINE
  5
25A
100
AcDbEntity
  8
0
100
AcDbLine
 62
7
  6
CONTINUOUS
 10
3.6077692421
 20
5.2237720594
 11
3.5970632172
 21
5.2300834563
  0
LINE
  5
25B
100
AcDbEntity
  8
0
100
AcDbLine
 62
7
  6
CONTINUOUS
 10
3.5970632564
 20
5.2300834326
 11
3.5970719699
 21
5.2300782334
  0
LINE
  5
25C
100
AcDbEntity
  8
0
100
AcDbLine
 62
7
  6
CONTINUOUS
 10
5.3910934247
 20
3.8536685616
 11
5.3897534247
 21
3.8550085616
  0
LINE
  5
25D
100
AcDbEntity
  8
0
100
AcDbLine
 62
7
  6
CONTINUOUS
 10
5.4173985672
 20
3.8273634191
 11
5.4297534247
 21
3.8150085616
  0
LINE
  5
25E
100
AcDbEntity
  8
0
100
AcDbLine
 62
7
  6
CONTINUOUS
 10
3.6715138125
 20
5.1894583283
 11
3.6585063692
 21
5.1959727805
  0
LINE
  5
25F
100
AcDbEntity
  8
0
100
AcDbLine
 62
7
  6
CONTINUOUS
 10
3.6585748527
 20
5.1959377228
 11
3.6456300314
 21
5.2026783969
  0
LINE
  5
260
100
AcDbEntity
  8
0
100
AcDbLine
 62
7
  6
CONTINUOUS
 10
3.645715909
 20
5.2026328208
 11
3.6328480293
 21
5.2095769516
  0
LINE
  5
261
100
AcDbEntity
  8
0
100
AcDbLine
 62
7
  6
CONTINUOUS
 10
3.6329505509
 20
5.2095207468
 11
3.6201764137
 21
5.216643371
  0
LWPOLYLINE
  5
262
100
AcDbEntity
  8
0
100
AcDbPolyline
 62
7
  6
CONTINUOUS
 90
4
 70
0
 10
3.7499426121
 20
5.1563926465
 10
3.7368584251
 20
5.1611053851
 10
3.7237553157
 20
5.1661643431
 10
3.7106530952
 20
5.1715499215
  0
LWPOLYLINE
  5
263
100
AcDbEntity
  8
0
100
AcDbPolyline
 62
7
  6
CONTINUOUS
 90
4
 70
0
 10
3.7106530566
 20
5.1715499148
 10
3.6975518268
 20
5.1772491997
 10
3.6844833844
 20
5.1832343232
 10
3.6714628665
 20
5.1894832453
  0
LINE
  5
264
100
AcDbEntity
  8
0
100
AcDbLine
 62
7
  6
CONTINUOUS
 10
3.8018261221
 20
5.1412833851
 11
3.7889023911
 21
5.1444892426
  0
LINE
  5
265
100
AcDbEntity
  8
0
100
AcDbLine
 62
7
  6
CONTINUOUS
 10
3.7890019957
 20
5.144462988
 11
3.7759806469
 21
5.148071993
  0
LINE
  5
266
100
AcDbEntity
  8
0
100
AcDbLine
 62
7
  6
CONTINUOUS
 10
3.7760638334
 20
5.1480477953
 11
3.7629883594
 21
5.1520436134
  0
LINE
  5
267
100
AcDbEntity
  8
0
100
AcDbLine
 62
7
  6
CONTINUOUS
 10
3.7630549324
 20
5.152022381
 11
3.749992641
 21
5.1563752401
  0
LINE
  5
268
100
AcDbEntity
  8
0
100
AcDbLine
 62
7
  6
CONTINUOUS
 10
5.3857534247
 20
3.9350085616
 11
5.3857534247
 21
3.8550085616
  0
LINE
  5
269
100
AcDbEntity
  8
0
100
AcDbLine
 62
7
  6
CONTINUOUS
 10
5.3910934247
 20
3.8536685616
 11
5.3910934247
 21
3.8425507002
  0
LINE
  5
26A
100
AcDbEntity
  8
0
100
AcDbLine
 62
7
  6
CONTINUOUS
 10
5.3910934247
 20
3.7886788273
 11
5.3910934247
 21
3.7711207002
  0
LINE
  5
26B
100
AcDbEntity
  8
0
100
AcDbLine
 62
7
  6
CONTINUOUS
 10
5.3910934247
 20
3.7172488273
 11
5.3910934247
 21
3.6996907002
  0
LINE
  5
26C
100
AcDbEntity
  8
0
100
AcDbLine
 62
7
  6
CONTINUOUS
 10
5.3910934247
 20
3.6458188273
 11
5.3910934247
 21
3.6282607002
  0
LINE
  5
26D
100
AcDbEntity
  8
0
100
AcDbLine
 62
7
  6
CONTINUOUS
 10
5.3910934247
 20
3.5743888273
 11
5.3910934247
 21
3.5663485616
  0
LINE
  5
26E
100
AcDbEntity
  8
0
100
AcDbLine
 62
7
  6
CONTINUOUS
 10
5.4297534247
 20
3.7488003388
 11
5.4297534247
 21
3.7398710616
  0
LINE
  5
26F
100
AcDbEntity
  8
0
100
AcDbLine
 62
7
  6
CONTINUOUS
 10
5.4297534247
 20
3.6773703388
 11
5.4297534247
 21
3.6684410616
  0
LINE
  5
270
100
AcDbEntity
  8
0
100
AcDbLine
 62
7
  6
CONTINUOUS
 10
5.4297534247
 20
3.6050085616
 11
5.4297534247
 21
3.6059403388
  0
LINE
  5
271
100
AcDbEntity
  8
0
100
AcDbLine
 62
7
  6
CONTINUOUS
 10
5.4297534247
 20
3.8113010616
 11
5.4297534247
 21
3.8150085616
  0
LINE
  5
272
100
AcDbEntity
  8
0
100
AcDbLine
 62
7
  6
CONTINUOUS
 10
5.4457534247
 20
4.0080107461
 11
5.4457534247
 21
3.9350085616
  0
LINE
  5
273
100
AcDbEntity
  8
0
100
AcDbLine
 62
7
  6
CONTINUOUS
 10
4.6320453665
 20
3.8353005035
 11
4.6517534247
 21
3.8550085616
  0
LINE
  5
274
100
AcDbEntity
  8
0
100
AcDbLine
 62
7
  6
CONTINUOUS
 10
3.8397947426
 20
5.1341463503
 11
3.8270612166
 21
5.136152326
  0
LINE
  5
275
100
AcDbEntity
  8
0
100
AcDbLine
 62
7
  6
CONTINUOUS
 10
3.8272108923
 20
5.1361271713
 11
3.8144110764
 21
5.1385351788
  0
LINE
  5
276
100
AcDbEntity
  8
0
100
AcDbLine
 62
7
  6
CONTINUOUS
 10
3.8145433548
 20
5.1385086172
 11
3.8017102942
 21
5.1413104615
  0
LINE
  5
277
100
AcDbEntity
  8
0
100
AcDbLine
 62
7
  6
CONTINUOUS
 10
3.8773462662
 20
5.1305889002
 11
3.8646116265
 21
5.1313952749
  0
LINE
  5
278
100
AcDbEntity
  8
0
100
AcDbLine
 62
7
  6
CONTINUOUS
 10
3.8648161658
 20
5.1313786049
 11
3.8521078897
 21
5.1325871492
  0
LINE
  5
279
100
AcDbEntity
  8
0
100
AcDbLine
 62
7
  6
CONTINUOUS
 10
3.8522937413
 20
5.1325663418
 11
3.8396269943
 21
5.134169512
  0
LINE
  5
27A
100
AcDbEntity
  8
0
100
AcDbLine
 62
7
  6
CONTINUOUS
 10
4.6122265923
 20
3.7850622333
 11
4.6509357876
 21
3.8074395831
  0
LINE
  5
27B
100
AcDbEntity
  8
0
100
AcDbLine
 62
7
  6
CONTINUOUS
 10
4.6122265923
 20
3.7136322333
 11
4.6509357876
 21
3.7360095831
  0
LINE
  5
27C
100
AcDbEntity
  8
0
100
AcDbLine
 62
7
  6
CONTINUOUS
 10
3.9279918332
 20
5.1314845569
 11
3.9149212062
 21
5.1306243524
  0
LINE
  5
27D
100
AcDbEntity
  8
0
100
AcDbLine
 62
7
  6
CONTINUOUS
 10
3.915206917
 20
5.130636993
 11
3.9022207477
 21
5.1302052294
  0
LINE
  5
27E
100
AcDbEntity
  8
0
100
AcDbLine
 62
7
  6
CONTINUOUS
 10
3.9024857143
 20
5.1302105361
 11
3.889622675
 21
5.1302006452
  0
LINE
  5
27F
100
AcDbEntity
  8
0
100
AcDbLine
 62
7
  6
CONTINUOUS
 10
3.8898671462
 20
5.1301986922
 11
3.8771220428
 21
5.1305987328
  0
LINE
  5
280
100
AcDbEntity
  8
0
100
AcDbLine
 62
7
  6
CONTINUOUS
 10
4.6122265923
 20
3.6422022333
 11
4.6509357876
 21
3.6645795831
  0
LINE
  5
281
100
AcDbEntity
  8
0
100
AcDbLine
 62
7
  6
CONTINUOUS
 10
4.6339385678
 20
3.5833229795
 11
4.6509357876
 21
3.5931495831
  0
LINE
  5
282
100
AcDbEntity
  8
0
100
AcDbLine
 62
7
  6
CONTINUOUS
 10
3.9800432273
 20
5.1391455415
 11
3.966564334
 21
5.1365242784
  0
LINE
  5
283
100
AcDbEntity
  8
0
100
AcDbLine
 62
7
  6
CONTINUOUS
 10
3.966926885
 20
5.1365887559
 11
3.953526533
 21
5.1344072074
  0
LINE
  5
284
100
AcDbEntity
  8
0
100
AcDbLine
 62
7
  6
CONTINUOUS
 10
3.9538707257
 20
5.1344594562
 11
3.9405552064
 21
5.132719316
  0
LINE
  5
285
100
AcDbEntity
  8
0
100
AcDbLine
 62
7
  6
CONTINUOUS
 10
3.9408809431
 20
5.1327575612
 11
3.9276856376
 21
5.1314603642
  0
LINE
  5
286
100
AcDbEntity
  8
0
100
AcDbLine
 62
7
  6
CONTINUOUS
 10
3.5765791185
 20
5.2282421158
 11
3.4357534247
 21
5.2282421157
  0
LINE
  5
287
100
AcDbEntity
  8
0
100
AcDbLine
 62
7
  6
CONTINUOUS
 10
3.5765791182
 20
5.2357264815
 11
3.4357534247
 21
5.2357264815
  0
LINE
  5
288
100
AcDbEntity
  8
0
100
AcDbLine
 62
7
  6
CONTINUOUS
 10
4.3895392484
 20
5.3550085616
 11
6.5907534247
 21
5.3550085616
  0
LINE
  5
289
100
AcDbEntity
  8
0
100
AcDbLine
 62
7
  6
CONTINUOUS
 10
4.0063872468
 20
5.1455015985
 11
3.9928058982
 21
5.1420253989
  0
LINE
  5
28A
100
AcDbEntity
  8
0
100
AcDbLine
 62
7
  6
CONTINUOUS
 10
3.9932025301
 20
5.1421208473
 11
3.979663191
 21
5.1390669002
  0
LWPOLYLINE
  5
28B
100
AcDbEntity
  8
0
100
AcDbPolyline
 62
7
  6
CONTINUOUS
 90
11
 70
0
 10
4.3895392411
 20
5.3550077512
 10
4.3874018964
 20
5.3549506072
 10
4.3847742063
 20
5.3547229181
 10
4.3821672476
 20
5.3543225558
 10
4.3795923838
 20
5.3537512713
 10
4.377060857
 20
5.353011573
 10
4.3745836182
 20
5.3521066749
 10
4.3721713214
 20
5.3510404651
 10
4.3698344254
 20
5.3498175437
 10
4.3675831355
 20
5.3484432272
 10
4.3654272465
 20
5.346923475
  0
LINE
  5
28C
100
AcDbEntity
  8
0
100
AcDbLine
 62
7
  6
CONTINUOUS
 10
5.3897534247
 20
3.5650085616
 11
5.3910934247
 21
3.5663485616
  0
LINE
  5
28D
100
AcDbEntity
  8
0
100
AcDbLine
 62
7
  6
CONTINUOUS
 10
5.4108311365
 20
3.5860862735
 11
5.4297534247
 21
3.6050085616
  0
LINE
  5
28E
100
AcDbEntity
  8
0
100
AcDbLine
 62
7
  6
CONTINUOUS
 10
5.429280257
 20
3.8107541672
 11
5.3905710618
 21
3.7883768174
  0
LINE
  5
28F
100
AcDbEntity
  8
0
100
AcDbLine
 62
7
  6
CONTINUOUS
 10
5.429280257
 20
3.7393241672
 11
5.3905710618
 21
3.7169468174
  0
LINE
  5
290
100
AcDbEntity
  8
0
100
AcDbLine
 62
7
  6
CONTINUOUS
 10
5.429280257
 20
3.6678941672
 11
5.3905710618
 21
3.6455168174
  0
LINE
  5
291
100
AcDbEntity
  8
0
100
AcDbLine
 62
7
  6
CONTINUOUS
 10
5.408971995
 20
3.5847248982
 11
5.3905710618
 21
3.5740868174
  0
LINE
  5
292
100
AcDbEntity
  8
0
100
AcDbLine
 62
7
  6
CONTINUOUS
 10
6.6207534247
 20
5.7325085616
 11
6.9107534247
 21
5.7325085616
  0
LINE
  5
293
100
AcDbEntity
  8
0
100
AcDbLine
 62
7
  6
CONTINUOUS
 10
6.5907534247
 20
3.6525085616
 11
6.5907534247
 21
5.7025085616
  0
LINE
  5
294
100
AcDbEntity
  8
0
100
AcDbLine
 62
7
  6
CONTINUOUS
 10
6.6207534247
 20
3.6225085616
 11
6.6207534247
 21
5.7325085616
  0
LINE
  5
295
100
AcDbEntity
  8
0
100
AcDbLine
 62
7
  6
CONTINUOUS
 10
6.9107534247
 20
5.7325085616
 11
6.9107534247
 21
3.6225085616
  0
ARC
  5
296
100
AcDbEntity
  8
0
100
AcDbCircle
 62
7
  6
CONTINUOUS
 10
3.5906254127
 20
4.1346530971
 40
0.04
100
AcDbArc
 50
270.0000000011
 51
300.0884951409
  0
ARC
  5
297
100
AcDbEntity
  8
0
100
AcDbCircle
 62
7
  6
CONTINUOUS
 10
3.5765791179
 20
5.1957264817
 40
0.04
100
AcDbArc
 50
59.1814509907
 51
89.999999999
  0
ARC
  5
298
100
AcDbEntity
  8
0
100
AcDbCircle
 62
7
  6
CONTINUOUS
 10
3.4357534247
 20
5.1957264815
 40
0.04
100
AcDbArc
 50
90.0
 51
179.9999999801
  0
ARC
  5
299
100
AcDbEntity
  8
0
100
AcDbCircle
 62
7
  6
CONTINUOUS
 10
3.4357534247
 20
4.1346530972
 40
0.04
100
AcDbArc
 50
180.0000000199
 51
270.0
  0
ARC
  5
29A
100
AcDbEntity
  8
0
100
AcDbCircle
 62
7
  6
CONTINUOUS
 10
6.6207534247
 20
5.7025085616
 40
0.03
100
AcDbArc
 50
90.0
 51
180.0
  0
ARC
  5
29B
100
AcDbEntity
  8
0
100
AcDbCircle
 62
7
  6
CONTINUOUS
 10
6.6207534247
 20
3.6525085616
 40
0.03
100
AcDbArc
 50
180.0
 51
270.0
  0
ARC
  5
29C
100
AcDbEntity
  8
0
100
AcDbCircle
 62
7
  6
CONTINUOUS
 10
3.4221981768
 20
5.1957249063
 40
0.0264447522
100
AcDbArc
 50
176.2090982773
 51
179.9965871823
  0
ARC
  5
29D
100
AcDbEntity
  8
0
100
AcDbCircle
 62
7
  6
CONTINUOUS
 10
3.6026741374
 20
4.113843426
 40
0.0159538172
100
AcDbArc
 50
298.6851186458
 51
300.0583377847
  0
LINE
  5
29E
100
AcDbEntity
  8
0
100
AcDbLine
 62
7
  6
CONTINUOUS
 10
5.4297532253
 20
3.8113010622
 11
5.4292802334
 21
3.8107541669
  0
SPLINE
  5
29F
100
AcDbEntity
  8
0
100
AcDbSpline
 62
7
  6
CONTINUOUS
 70
0
 71
3
 72
51
 73
47
 74
0
 42
0.0000001
 43
0.0000001
 44
0.0000000001
 40
0.0
 40
0.0
 40
0.0
 40
0.0
 40
0.0112116454
 40
0.0435226909
 40
0.0666160941
 40
0.0796917531
 40
0.0937072546
 40
0.1243311984
 40
0.1408321348
 40
0.1580591371
 40
0.1759650664
 40
0.1945067966
 40
0.2136437859
 40
0.2333374443
 40
0.2535516037
 40
0.2742525454
 40
0.3169739979
 40
0.3612331491
 40
0.3838523745
 40
0.4067398165
 40
0.4298517124
 40
0.4531355415
 40
0.4765379605
 40
0.4999999925
 40
0.5234620291
 40
0.5468644542
 40
0.5701482846
 40
0.5932601782
 40
0.6161476179
 40
0.6387668409
 40
0.6830259905
 40
0.725747447
 40
0.7464483912
 40
0.7666625512
 40
0.7863562085
 40
0.8054931953
 40
0.8240349228
 40
0.8419408503
 40
0.8591678517
 40
0.875668788
 40
0.9062927337
 40
0.9203082362
 40
0.9333838964
 40
0.9564773017
 40
0.9887883522
 40
1.0
 40
1.0
 40
1.0
 40
1.0
 10
4.5832534247
 20
4.0000085616
 30
0.0
 10
4.5862198915
 20
4.0019241643
 30
0.0
 10
4.5977556312
 20
4.0093294198
 30
0.0
 10
4.6155353209
 20
4.0204718451
 30
0.0
 10
4.6339857338
 20
4.0316438695
 30
0.0
 10
4.6475947737
 20
4.0396835021
 30
0.0
 10
4.6633232455
 20
4.0487973267
 30
0.0
 10
4.6801265045
 20
4.0582071011
 30
0.0
 10
4.6979777332
 20
4.0678069787
 30
0.0
 10
4.712400347
 20
4.0753222949
 30
0.0
 10
4.72750283
 20
4.0829203623
 30
0.0
 10
4.743265666
 20
4.0905398888
 30
0.0
 10
4.7596698625
 20
4.0981205633
 30
0.0
 10
4.7766980052
 20
4.1055992093
 30
0.0
 10
4.794335215
 20
4.1129065824
 30
0.0
 10
4.8188977128
 20
4.1224303934
 30
0.0
 10
4.8509789582
 20
4.133485663
 30
0.0
 10
4.8842485618
 20
4.1427884872
 30
0.0
 10
4.9118361168
 20
4.1489990503
 30
0.0
 10
4.9330849494
 20
4.1529743083
 30
0.0
 10
4.9546794917
 20
4.1561525909
 30
0.0
 10
4.9765462301
 20
4.1584772811
 30
0.0
 10
4.9986016476
 20
4.1598894842
 30
0.0
 10
5.020753419
 20
4.1603672739
 30
0.0
 10
5.0429051922
 20
4.1598894824
 30
0.0
 10
5.0649606137
 20
4.1584772822
 30
0.0
 10
5.0868273537
 20
4.156152592
 30
0.0
 10
5.1084218949
 20
4.152974309
 30
0.0
 10
5.1296707254
 20
4.1489990516
 30
0.0
 10
5.1572582787
 20
4.1427884899
 30
0.0
 10
5.1905278824
 20
4.1334856658
 30
0.0
 10
5.2226091293
 20
4.1224303959
 30
0.0
 10
5.2471716293
 20
4.1129065845
 30
0.0
 10
5.2648088397
 20
4.1055992113
 30
0.0
 10
5.2818369814
 20
4.0981205654
 30
0.0
 10
5.2982411764
 20
4.0905398923
 30
0.0
 10
5.3140040101
 20
4.0829203662
 30
0.0
 10
5.329106492
 20
4.0753223003
 30
0.0
 10
5.3435291052
 20
4.0678069849
 30
0.0
 10
5.3613803338
 20
4.0582071065
 30
0.0
 10
5.3781835939
 20
4.0487973323
 30
0.0
 10
5.3939120669
 20
4.0396835071
 30
0.0
 10
5.4075211081
 20
4.0316438741
 30
0.0
 10
5.4259715233
 20
4.0204718485
 30
0.0
 10
5.4437512155
 20
4.0093294215
 30
0.0
 10
5.4552869572
 20
4.0019241647
 30
0.0
 10
5.4582534247
 20
4.0000085616
 30
0.0
  0
LINE
  5
2A0
100
AcDbEntity
  8
0
100
AcDbLine
 62
7
  6
CONTINUOUS
 10
5.4173985339
 20
3.8273634182
 11
5.4155702
 21
3.828702135
  0
LINE
  5
2A1
100
AcDbEntity
  8
0
100
AcDbLine
 62
7
  6
CONTINUOUS
 10
5.4108311153
 20
3.5860862741
 11
5.4089718305
 21
3.5847249003
  0
LINE
  5
2A2
100
AcDbEntity
  8
0
100
AcDbLine
 62
7
  6
CONTINUOUS
 10
5.4292798032
 20
3.7393241675
 11
5.4297534247
 21
3.7398710616
  0
SPLINE
  5
2A3
100
AcDbEntity
  8
0
100
AcDbSpline
 62
7
  6
CONTINUOUS
 70
0
 71
3
 72
14
 73
10
 74
0
 42
0.0000001
 43
0.0000001
 44
0.0000000001
 40
0.0
 40
0.0
 40
0.0
 40
0.0
 40
0.331421336
 40
0.4602333509
 40
0.5700967019
 40
0.6687290778
 40
0.7665560382
 40
0.874248529
 40
1.0
 40
1.0
 40
1.0
 40
1.0
 10
4.6321787116
 20
3.8349360576
 30
0.0
 10
4.6321336923
 20
3.8349620679
 30
0.0
 10
4.6320726497
 20
3.835002477
 30
0.0
 10
4.6320121436
 20
3.8350689956
 30
0.0
 10
4.6319858937
 20
3.835115659
 30
0.0
 10
4.6319759388
 20
3.835163621
 30
0.0
 10
4.631983395
 20
3.8352117249
 30
0.0
 10
4.6320073812
 20
3.8352585652
 30
0.0
 10
4.6320314169
 20
3.8352865539
 30
0.0
 10
4.6320453665
 20
3.8353005035
 30
0.0
  0
LINE
  5
2A4
100
AcDbEntity
  8
0
100
AcDbLine
 62
7
  6
CONTINUOUS
 10
4.6122270462
 20
3.7750391675
 11
4.6117534247
 21
3.7755860616
  0
LINE
  5
2A5
100
AcDbEntity
  8
0
100
AcDbLine
 62
7
  6
CONTINUOUS
 10
4.6122270212
 20
3.7036091675
 11
4.6117534247
 21
3.7041560616
  0
LINE
  5
2A6
100
AcDbEntity
  8
0
100
AcDbLine
 62
7
  6
CONTINUOUS
 10
5.4292798032
 20
3.749347233
 11
5.4297534247
 21
3.7488003388
  0
LINE
  5
2A7
100
AcDbEntity
  8
0
100
AcDbLine
 62
7
  6
CONTINUOUS
 10
5.4292798032
 20
3.677917233
 11
5.4297534247
 21
3.6773703388
  0
LINE
  5
2A8
100
AcDbEntity
  8
0
100
AcDbLine
 62
7
  6
CONTINUOUS
 10
4.6122270592
 20
3.785062233
 11
4.6117534247
 21
3.7845153388
  0
LINE
  5
2A9
100
AcDbEntity
  8
0
100
AcDbLine
 62
7
  6
CONTINUOUS
 10
4.6122270461
 20
3.713632233
 11
4.6117534247
 21
3.7130853388
  0
LINE
  5
2AA
100
AcDbEntity
  8
0
100
AcDbLine
 62
7
  6
CONTINUOUS
 10
4.6122270461
 20
3.642202233
 11
4.6117534247
 21
3.6416553388
  0
LINE
  5
2AB
100
AcDbEntity
  8
0
100
AcDbLine
 62
7
  6
CONTINUOUS
 10
5.4292798032
 20
3.6678941675
 11
5.4297534247
 21
3.6684410616
  0
LINE
  5
2AC
100
AcDbEntity
  8
0
100
AcDbLine
 62
7
  6
CONTINUOUS
 10
4.6122270591
 20
3.6321791675
 11
4.6117534247
 21
3.6327260616
  0
SPLINE
  5
2AD
100
AcDbEntity
  8
0
100
AcDbSpline
 62
7
  6
CONTINUOUS
 70
0
 71
3
 72
14
 73
10
 74
0
 42
0.0000001
 43
0.0000001
 44
0.0000000001
 40
0.0
 40
0.0
 40
0.0
 40
0.0
 40
0.3314180517
 40
0.4602293204
 40
0.5700925526
 40
0.6687254326
 40
0.7665533932
 40
0.8742471556
 40
1.0
 40
1.0
 40
1.0
 40
1.0
 10
4.6339390466
 20
3.5833229794
 30
0.0
 10
4.6338938243
 20
3.5832968513
 30
0.0
 10
4.6338325065
 20
3.5832562591
 30
0.0
 10
4.633771728
 20
3.5831894392
 30
0.0
 10
4.6337453602
 20
3.5831425643
 30
0.0
 10
4.633735361
 20
3.583094385
 30
0.0
 10
4.6337428515
 20
3.5830460631
 30
0.0
 10
4.6337669467
 20
3.5829990106
 30
0.0
 10
4.6337910914
 20
3.5829708949
 30
0.0
 10
4.6338051043
 20
3.582956882
 30
0.0
  0
LINE
  5
2AE
100
AcDbEntity
  8
0
100
AcDbLine
 62
7
  6
CONTINUOUS
 10
5.4297530035
 20
3.6059403382
 11
5.4294616758
 21
3.6063697611
  0
LINE
  5
2AF
100
AcDbEntity
  8
0
100
AcDbLine
 62
7
  6
CONTINUOUS
 10
5.4294616758
 20
3.6063697611
 11
5.4293246965
 21
3.6064609414
  0
SPLINE
  5
2B0
100
AcDbEntity
  8
0
100
AcDbSpline
 62
7
  6
CONTINUOUS
 70
0
 71
3
 72
49
 73
45
 74
0
 42
0.0000001
 43
0.0000001
 44
0.0000000001
 40
0.0
 40
0.0
 40
0.0
 40
0.0
 40
0.0001619934
 40
0.0003680331
 40
0.000621463
 40
0.0009240427
 40
0.0016801726
 40
0.0026409669
 40
0.0038082836
 40
0.0051830231
 40
0.0067655875
 40
0.0085558336
 40
0.0105533388
 40
0.012757589
 40
0.0177839637
 40
0.0236296493
 40
0.030286445
 40
0.0377448506
 40
0.0459950132
 40
0.0550247363
 40
0.0648204898
 40
0.0753685408
 40
0.0866531024
 40
0.1113626305
 40
0.1388015613
 40
0.1688040034
 40
0.2011868654
 40
0.2357523718
 40
0.2722873506
 40
0.3105652845
 40
0.3503483137
 40
0.3913872518
 40
0.4334240582
 40
0.4761934555
 40
0.5628396634
 40
0.6491149005
 40
0.7327974667
 40
0.8117124481
 40
0.8487291369
 40
0.88378906
 40
0.9166582465
 40
0.9471158815
 40
0.9749627386
 40
1.0
 40
1.0
 40
1.0
 40
1.0
 10
4.6320453665
 20
3.8353005035
 30
0.0
 10
4.632071949
 20
3.835327086
 30
0.0
 10
4.6321407787
 20
3.8353788602
 30
0.0
 10
4.6322677431
 20
3.8354476773
 30
0.0
 10
4.6324307701
 20
3.835516784
 30
0.0
 10
4.6327185561
 20
3.8356167038
 30
0.0
 10
4.6331720059
 20
3.8357371763
 30
0.0
 10
4.6338271771
 20
3.8358746993
 30
0.0
 10
4.634628381
 20
3.8360129499
 30
0.0
 10
4.6355754974
 20
3.8361518512
 30
0.0
 10
4.6366684606
 20
3.8362911146
 30
0.0
 10
4.6379069248
 20
3.8364306714
 30
0.0
 10
4.6392904478
 20
3.8365704622
 30
0.0
 10
4.6414230892
 20
3.836765742
 30
0.0
 10
4.6444482056
 20
3.8370063836
 30
0.0
 10
4.648506553
 20
3.8372851133
 30
0.0
 10
4.6531304049
 20
3.8375646333
 30
0.0
 10
4.658313111
 20
3.8378448438
 30
0.0
 10
4.6640471907
 20
3.8381255403
 30
0.0
 10
4.6703242581
 20
3.8384066818
 30
0.0
 10
4.6771350608
 20
3.8386882246
 30
0.0
 10
4.6844695351
 20
3.8389701084
 30
0.0
 10
4.6952634346
 20
3.839358223
 30
0.0
 10
4.7099762751
 20
3.839839483
 30
0.0
 10
4.7290324376
 20
3.8404026939
 30
0.0
 10
4.7498699899
 20
3.8409673656
 30
0.0
 10
4.7723619029
 20
3.8415333952
 30
0.0
 10
4.7963702163
 20
3.8421006187
 30
0.0
 10
4.8217469111
 20
3.8426689672
 30
0.0
 10
4.8483346829
 20
3.8432383814
 30
0.0
 10
4.8759678808
 20
3.8438088009
 30
0.0
 10
4.9044735464
 20
3.8443801987
 30
0.0
 10
4.9336723643
 20
3.8449525478
 30
0.0
 10
4.973453299
 20
3.8457201915
 30
0.0
 10
5.0234988265
 20
3.846672767
 30
0.0
 10
5.0830370509
 20
3.8478142028
 30
0.0
 10
5.1407807322
 20
3.8489581356
 30
0.0
 10
5.1870942687
 20
3.8499321102
 30
0.0
 10
5.2221254203
 20
3.8507230569
 30
0.0
 10
5.2464728861
 20
3.8513041735
 30
0.0
 10
5.2692977453
 20
3.851885752
 30
0.0
 10
5.2904481058
 20
3.8524676942
 30
0.0
 10
5.3097801854
 20
3.8530498269
 30
0.0
 10
5.3220459817
 20
3.8534603604
 30
0.0
 10
5.3278525568
 20
3.8536685616
 30
0.0
  0
LINE
  5
2B1
100
AcDbEntity
  8
0
100
AcDbLine
 62
7
  6
CONTINUOUS
 10
5.4283804176
 20
3.6050085616
 11
5.4293915356
 21
3.6054623117
  0
LINE
  5
2B2
100
AcDbEntity
  8
0
100
AcDbLine
 62
7
  6
CONTINUOUS
 10
5.4293915356
 20
3.6054623117
 11
5.4297530035
 21
3.6059403382
  0
SPLINE
  5
2B3
100
AcDbEntity
  8
0
100
AcDbSpline
 62
7
  6
CONTINUOUS
 70
0
 71
3
 72
69
 73
65
 74
0
 42
0.0000001
 43
0.0000001
 44
0.0000000001
 40
0.0
 40
0.0
 40
0.0
 40
0.0
 40
0.000188466
 40
0.0004031594
 40
0.0006624129
 40
0.0009768312
 40
0.0013523504
 40
0.0017924209
 40
0.0022991583
 40
0.002873927
 40
0.0042307941
 40
0.0058673667
 40
0.0077851694
 40
0.0099846597
 40
0.0124657242
 40
0.0152279092
 40
0.0182702509
 40
0.0215911516
 40
0.0290615467
 40
0.0376243153
 40
0.0472605636
 40
0.0579482239
 40
0.0696639077
 40
0.0823799627
 40
0.0960675203
 40
0.1106952102
 40
0.1426323677
 40
0.1778957957
 40
0.2161585912
 40
0.2570653651
 40
0.300235878
 40
0.3452689475
 40
0.3917460584
 40
0.4392350624
 40
0.4872942673
 40
0.5354768162
 40
0.5833347263
 40
0.6304229059
 40
0.6763034662
 40
0.7205499513
 40
0.7627511397
 40
0.8025147373
 40
0.839471219
 40
0.8732777451
 40
0.8889008478
 40
0.9036210786
 40
0.9174048283
 40
0.9302204177
 40
0.942037683
 40
0.95283045
 40
0.9625735211
 40
0.9712451539
 40
0.9788268073
 40
0.9853016264
 40
0.9881203439
 40
0.990658401
 40
0.9929148955
 40
0.9948892992
 40
0.9965821228
 40
0.9979950433
 40
0.9985976143
 40
0.9991317912
 40
0.9995986814
 40
1.0
 40
1.0
 40
1.0
 40
1.0
 10
4.6504134677
 20
3.6104057004
 30
0.0
 10
4.6504134876
 20
3.6104522966
 30
0.0
 10
4.6504347967
 20
3.6105526004
 30
0.0
 10
4.6505229983
 20
3.6106931806
 30
0.0
 10
4.6506630992
 20
3.6108303541
 30
0.0
 10
4.6508551335
 20
3.6109663728
 30
0.0
 10
4.6510996935
 20
3.6111022357
 30
0.0
 10
4.6513972769
 20
3.6112382009
 30
0.0
 10
4.6517481398
 20
3.6113743554
 30
0.0
 10
4.6523195908
 20
3.6115668978
 30
0.0
 10
4.6531703787
 20
3.6118023902
 30
0.0
 10
4.6543543206
 20
3.6120730049
 30
0.0
 10
4.6557509772
 20
3.6123444293
 30
0.0
 10
4.6573596124
 20
3.6126165315
 30
0.0
 10
4.6591795425
 20
3.612889074
 30
0.0
 10
4.6612098726
 20
3.6131619314
 30
0.0
 10
4.6634494917
 20
3.6134350322
 30
0.0
 10
4.6668486403
 20
3.613814483
 30
0.0
 10
4.6716109328
 20
3.6142829314
 30
0.0
 10
4.6779341794
 20
3.6148267102
 30
0.0
 10
4.6850553805
 20
3.6153713919
 30
0.0
 10
4.6929580723
 20
3.6159168609
 30
0.0
 10
4.7016238228
 20
3.616462782
 30
0.0
 10
4.7110325821
 20
3.6170091421
 30
0.0
 10
4.7211624058
 20
3.6175558143
 30
0.0
 10
4.7360402152
 20
3.6183071917
 30
0.0
 10
4.7562500701
 20
3.6192372262
 30
0.0
 10
4.7823020825
 20
3.6203251266
 30
0.0
 10
4.8105734531
 20
3.6214143136
 30
0.0
 10
4.8408010671
 20
3.6225045116
 30
0.0
 10
4.8727035562
 20
3.6235954109
 30
0.0
 10
4.9059839988
 20
3.6246868176
 30
0.0
 10
4.9403326823
 20
3.6257785727
 30
0.0
 10
4.9754299049
 20
3.6268705538
 30
0.0
 10
5.0109489749
 20
3.6279626588
 30
0.0
 10
5.0465592948
 20
3.6290547899
 30
0.0
 10
5.0819294286
 20
3.6301468507
 30
0.0
 10
5.1167301523
 20
3.6312387439
 30
0.0
 10
5.1506375517
 20
3.6323303601
 30
0.0
 10
5.1833360658
 20
3.6334215592
 30
0.0
 10
5.2145213722
 20
3.6345121739
 30
0.0
 10
5.2439031798
 20
3.6356019476
 30
0.0
 10
5.2712080167
 20
3.63669065
 30
0.0
 10
5.292545914
 20
3.6376192677
 30
0.0
 10
5.3083885714
 20
3.6383685829
 30
0.0
 10
5.319284809
 20
3.63891552
 30
0.0
 10
5.3294860049
 20
3.6394622039
 30
0.0
 10
5.3389683929
 20
3.6400085633
 30
0.0
 10
5.3477099934
 20
3.6405545927
 30
0.0
 10
5.355690381
 20
3.6411000572
 30
0.0
 10
5.3628911028
 20
3.6416448713
 30
0.0
 10
5.3692954939
 20
3.6421887004
 30
0.0
 10
5.374888666
 20
3.6427312069
 30
0.0
 10
5.3790347004
 20
3.6432005921
 30
0.0
 10
5.3819349911
 20
3.6435823706
 30
0.0
 10
5.3837975254
 20
3.6438549889
 30
0.0
 10
5.3854489033
 20
3.6441271622
 30
0.0
 10
5.3868882697
 20
3.6443987445
 30
0.0
 10
5.3881149402
 20
3.6446696024
 30
0.0
 10
5.3890015753
 20
3.6449049949
 30
0.0
 10
5.3896020897
 20
3.6450971444
 30
0.0
 10
5.3899745969
 20
3.6452333624
 30
0.0
 10
5.3902937117
 20
3.6453693793
 30
0.0
 10
5.3904851421
 20
3.6454671605
 30
0.0
 10
5.390571044
 20
3.6455168173
 30
0.0
  0
SPLINE
  5
2B4
100
AcDbEntity
  8
0
100
AcDbSpline
 62
7
  6
CONTINUOUS
 70
0
 71
3
 72
31
 73
27
 74
0
 42
0.0000001
 43
0.0000001
 44
0.0000000001
 40
0.0
 40
0.0
 40
0.0
 40
0.0
 40
0.1221369195
 40
0.2358344996
 40
0.3409977227
 40
0.4375392194
 40
0.5253873107
 40
0.6045187568
 40
0.6749472175
 40
0.7367229589
 40
0.764401065
 40
0.7899664156
 40
0.8134525718
 40
0.8349048588
 40
0.8543848429
 40
0.8719770734
 40
0.8877989178
 40
0.9020144829
 40
0.9148527582
 40
0.926627169
 40
0.937745058
 40
0.9486885878
 40
0.9599632252
 40
0.9720337604
 40
0.9852822516
 40
1.0
 40
1.0
 40
1.0
 40
1.0
 10
5.3873618606
 20
3.8150085616
 30
0.0
 10
5.388793804
 20
3.8152535518
 30
0.0
 10
5.3915561306
 20
3.8157421385
 30
0.0
 10
5.3955403626
 20
3.8165023736
 30
0.0
 10
5.3992140072
 20
3.8172637634
 30
0.0
 10
5.402572896
 20
3.8180260974
 30
0.0
 10
5.405613323
 20
3.8187893037
 30
0.0
 10
5.4083323821
 20
3.8195531387
 30
0.0
 10
5.4107276776
 20
3.8203174729
 30
0.0
 10
5.4125126164
 20
3.8209765118
 30
0.0
 10
5.4137727053
 20
3.8215098808
 30
0.0
 10
5.4146001768
 20
3.8218954255
 30
0.0
 10
5.415345076
 20
3.8222812559
 30
0.0
 10
5.4160073017
 20
3.8226674375
 30
0.0
 10
5.4165867986
 20
3.823054053
 30
0.0
 10
5.4170835403
 20
3.8234412828
 30
0.0
 10
5.4174975002
 20
3.8238294614
 30
0.0
 10
5.4178285407
 20
3.8242191613
 30
0.0
 10
5.4180761569
 20
3.8246112181
 30
0.0
 10
5.4182390741
 20
3.8250064391
 30
0.0
 10
5.4183153234
 20
3.8254046945
 30
0.0
 10
5.4183032723
 20
3.8258042333
 30
0.0
 10
5.418203185
 20
3.8262025906
 30
0.0
 10
5.4180168541
 20
3.8265985072
 30
0.0
 10
5.4177459882
 20
3.826992197
 30
0.0
 10
5.4175223101
 20
3.8272396231
 30
0.0
 10
5.4173985339
 20
3.8273634182
 30
0.0
  0
SPLINE
  5
2B5
100
AcDbEntity
  8
0
100
AcDbSpline
 62
7
  6
CONTINUOUS
 70
0
 71
3
 72
51
 73
47
 74
0
 42
0.0000001
 43
0.0000001
 44
0.0000000001
 40
0.0
 40
0.0
 40
0.0
 40
0.0
 40
0.0001689561
 40
0.0003543979
 40
0.0005690503
 40
0.0008212558
 40
0.0011161884
 40
0.0014570829
 40
0.0018460167
 40
0.0022843392
 40
0.003312382
 40
0.0045459516
 40
0.0059873645
 40
0.007637859
 40
0.0094980767
 40
0.011568259
 40
0.0138480948
 40
0.0163369728
 40
0.0219388641
 40
0.028367503
 40
0.0356143681
 40
0.0436680962
 40
0.0525168161
 40
0.0621475323
 40
0.0836919483
 40
0.1081678352
 40
0.1354206984
 40
0.1652790747
 40
0.1975548873
 40
0.2320434986
 40
0.2685272552
 40
0.3067752929
 40
0.3465451942
 40
0.3875855905
 40
0.4296363695
 40
0.4724312303
 40
0.559166395
 40
0.6455972099
 40
0.7295376716
 40
0.808864736
 40
0.8461655202
 40
0.8815731119
 40
0.9148628971
 40
0.9458240441
 40
0.9742667713
 40
1.0
 40
1.0
 40
1.0
 40
1.0
 10
4.650413656
 20
3.8246957002
 30
0.0
 10
4.6504136533
 20
3.824733917
 30
0.0
 10
4.6504274031
 20
3.8248145285
 30
0.0
 10
4.6504863888
 20
3.8249305197
 30
0.0
 10
4.6505816227
 20
3.8250443939
 30
0.0
 10
4.6507125607
 20
3.8251572198
 30
0.0
 10
4.6508793737
 20
3.8252697196
 30
0.0
 10
4.6510823194
 20
3.8253821592
 30
0.0
 10
4.6513215671
 20
3.8254946582
 30
0.0
 10
4.6517102406
 20
3.8256532961
 30
0.0
 10
4.6522897609
 20
3.8258476878
 30
0.0
 10
4.6530972161
 20
3.8260712138
 30
0.0
 10
4.6540498037
 20
3.8262953244
 30
0.0
 10
4.655147308
 20
3.8265199351
 30
0.0
 10
4.6563895555
 20
3.8267448803
 30
0.0
 10
4.6577761663
 20
3.8269700612
 30
0.0
 10
4.65930662
 20
3.8271954479
 30
0.0
 10
4.6616314275
 20
3.8275086541
 30
0.0
 10
4.6648929759
 20
3.827895369
 30
0.0
 10
4.6692303434
 20
3.8283442014
 30
0.0
 10
4.6741248447
 20
3.8287937252
 30
0.0
 10
4.67956874
 20
3.8292438909
 30
0.0
 10
4.6855534746
 20
3.8296945054
 30
0.0
 10
4.6945850683
 20
3.830319312
 30
0.0
 10
4.7071495046
 20
3.8310904766
 30
0.0
 10
4.7236992394
 20
3.8319871169
 30
0.0
 10
4.7421319208
 20
3.8328853185
 30
0.0
 10
4.7623307225
 20
3.8337847341
 30
0.0
 10
4.784167657
 20
3.8346849673
 30
0.0
 10
4.8075043649
 20
3.835585857
 30
0.0
 10
4.832192879
 20
3.836487209
 30
0.0
 10
4.8580767286
 20
3.8373889181
 30
0.0
 10
4.8849918489
 20
3.8382909128
 30
0.0
 10
4.9127675839
 20
3.8391931014
 30
0.0
 10
4.9412278905
 20
3.8400954498
 30
0.0
 10
4.9800195344
 20
3.84130407
 30
0.0
 10
5.0288455491
 20
3.8428005864
 30
0.0
 10
5.0869738758
 20
3.8445883977
 30
0.0
 10
5.1434257702
 20
3.8463749674
 30
0.0
 10
5.1887677442
 20
3.8478907446
 30
0.0
 10
5.223135284
 20
3.8491180584
 30
0.0
 10
5.2470944585
 20
3.8500192024
 30
0.0
 10
5.2696186017
 20
3.8509197292
 30
0.0
 10
5.2905660304
 20
3.8518195462
 30
0.0
 10
5.3098025511
 20
3.8527184199
 30
0.0
 10
5.3220406271
 20
3.8533493439
 30
0.0
 10
5.3278525568
 20
3.8536685616
 30
0.0
  0
LINE
  5
2B6
100
AcDbEntity
  8
0
100
AcDbLine
 62
7
  6
CONTINUOUS
 10
5.4292802334
 20
3.8107541669
 11
5.4286802142
 21
3.8104773707
  0
SPLINE
  5
2B7
100
AcDbEntity
  8
0
100
AcDbSpline
 62
7
  6
CONTINUOUS
 70
0
 71
3
 72
67
 73
63
 74
0
 42
0.0000001
 43
0.0000001
 44
0.0000000001
 40
0.0
 40
0.0
 40
0.0
 40
0.0
 40
0.0004982963
 40
0.0010645287
 40
0.0024033129
 40
0.0040199038
 40
0.0059158285
 40
0.0080912976
 40
0.0105457605
 40
0.0132783839
 40
0.0162881607
 40
0.0231339231
 40
0.0310686166
 40
0.0400753749
 40
0.0501346309
 40
0.0612231517
 40
0.073316676
 40
0.086387125
 40
0.1004048884
 40
0.1311523723
 40
0.1652778994
 40
0.2024685574
 40
0.2423831776
 40
0.2846555326
 40
0.3288976657
 40
0.3747033456
 40
0.421651833
 40
0.4693119448
 40
0.517245993
 40
0.565013737
 40
0.6121763881
 40
0.6583008004
 40
0.7029634609
 40
0.7457542959
 40
0.7862803822
 40
0.8241696565
 40
0.8590746419
 40
0.890675515
 40
0.9051453238
 40
0.9186830733
 40
0.93125784
 40
0.9428414756
 40
0.9534069517
 40
0.9629312532
 40
0.9713927166
 40
0.9787728467
 40
0.9820527256
 40
0.9850567439
 40
0.9877833263
 40
0.9902315437
 40
0.9924007858
 40
0.9942907221
 40
0.9959014993
 40
0.997234269
 40
0.9977974554
 40
0.9982927317
 40
0.9987212395
 40
0.9990847805
 40
0.99938636
 40
0.9996313201
 40
0.9998296884
 40
1.0
 40
1.0
 40
1.0
 40
1.0
 10
5.4286802142
 20
3.8104773707
 30
0.0
 10
5.4285533241
 20
3.8104286557
 30
0.0
 10
5.4282792188
 20
3.810332424
 30
0.0
 10
5.427652097
 20
3.8101410427
 30
0.0
 10
5.4267198914
 20
3.8099070561
 30
0.0
 10
5.42542401
 20
3.8096381612
 30
0.0
 10
5.4238959261
 20
3.8093684851
 30
0.0
 10
5.422136419
 20
3.8090981227
 30
0.0
 10
5.4201464004
 20
3.8088273153
 30
0.0
 10
5.4179269949
 20
3.8085561476
 30
0.0
 10
5.4145141754
 20
3.8081778341
 30
0.0
 10
5.4096837368
 20
3.8077118687
 30
0.0
 10
5.4032176878
 20
3.8071720952
 30
0.0
 10
5.3958725068
 20
3.8066312587
 30
0.0
 10
5.3876650651
 20
3.806089582
 30
0.0
 10
5.37861404
 20
3.8055472564
 30
0.0
 10
5.3687403374
 20
3.8050045347
 30
0.0
 10
5.3580665388
 20
3.8044614152
 30
0.0
 10
5.3423084311
 20
3.8037136693
 30
0.0
 10
5.3208092192
 20
3.8027887443
 30
0.0
 10
5.2929902942
 20
3.8017080457
 30
0.0
 10
5.262669186
 20
3.8006259475
 30
0.0
 10
5.2301246072
 20
3.7995427502
 30
0.0
 10
5.1956556274
 20
3.7984587985
 30
0.0
 10
5.1595790101
 20
3.7973742966
 30
0.0
 10
5.122226345
 20
3.7962894096
 30
0.0
 10
5.083940986
 20
3.7952042613
 30
0.0
 10
5.045074849
 20
3.7941189604
 30
0.0
 10
5.0059851594
 20
3.7930336032
 30
0.0
 10
4.9670312129
 20
3.7919482817
 30
0.0
 10
4.9285710692
 20
3.7908630873
 30
0.0
 10
4.8909582334
 20
3.7897781238
 30
0.0
 10
4.8545383939
 20
3.7886935129
 30
0.0
 10
4.819646292
 20
3.7876094111
 30
0.0
 10
4.7866026744
 20
3.7865260075
 30
0.0
 10
4.755711262
 20
3.7854436099
 30
0.0
 10
4.7272559369
 20
3.7843624972
 30
0.0
 10
4.7051875026
 20
3.7834382072
 30
0.0
 10
4.6889452763
 20
3.7826914547
 30
0.0
 10
4.6778889721
 20
3.7821482102
 30
0.0
 10
4.6676209281
 20
3.781605267
 30
0.0
 10
4.6581648236
 20
3.7810627637
 30
0.0
 10
4.6495422522
 20
3.7805207186
 30
0.0
 10
4.6417730971
 20
3.7799794567
 30
0.0
 10
4.6348750934
 20
3.7794390826
 30
0.0
 10
4.6296799768
 20
3.7789735529
 30
0.0
 10
4.6259719301
 20
3.7785964529
 30
0.0
 10
4.6235291313
 20
3.7783250756
 30
0.0
 10
4.6213146798
 20
3.7780539476
 30
0.0
 10
4.6193297557
 20
3.77778315
 30
0.0
 10
4.6175753411
 20
3.7775127942
 30
0.0
 10
4.6160522499
 20
3.7772431255
 30
0.0
 10
4.6147613175
 20
3.7769742698
 30
0.0
 10
4.6138333141
 20
3.7767402178
 30
0.0
 10
4.6132096469
 20
3.7765487374
 30
0.0
 10
4.6128271022
 20
3.7764134863
 30
0.0
 10
4.6125027002
 20
3.7762784815
 30
0.0
 10
4.612236184
 20
3.7761436764
 30
0.0
 10
4.6120269604
 20
3.7760088814
 30
0.0
 10
4.6118742648
 20
3.7758731082
 30
0.0
 10
4.6117773443
 20
3.7757337115
 30
0.0
 10
4.6117534247
 20
3.7756325175
 30
0.0
 10
4.6117534247
 20
3.7755860616
 30
0.0
  0
SPLINE
  5
2B8
100
AcDbEntity
  8
0
100
AcDbSpline
 62
7
  6
CONTINUOUS
 70
0
 71
3
 72
69
 73
65
 74
0
 42
0.0000001
 43
0.0000001
 44
0.0000000001
 40
0.0
 40
0.0
 40
0.0
 40
0.0
 40
0.0001884622
 40
0.0004031576
 40
0.0006624254
 40
0.0009768675
 40
0.001352414
 40
0.001792508
 40
0.0022992576
 40
0.00287402
 40
0.0042308026
 40
0.0058673442
 40
0.007785188
 40
0.0099847359
 40
0.0124658185
 40
0.0152279297
 40
0.0182702244
 40
0.0215911579
 40
0.0290616403
 40
0.0376242941
 40
0.0472606235
 40
0.0579482863
 40
0.0696639117
 40
0.0823800562
 40
0.0960675187
 40
0.1106952451
 40
0.1426323495
 40
0.1778957948
 40
0.2161586461
 40
0.2570654115
 40
0.3002359048
 40
0.3452689716
 40
0.3917460939
 40
0.4392350797
 40
0.4872942713
 40
0.5354768372
 40
0.5833347696
 40
0.6304229353
 40
0.6763034883
 40
0.7205499868
 40
0.7627511836
 40
0.8025147332
 40
0.83947121
 40
0.8732777877
 40
0.8889008493
 40
0.9036211674
 40
0.9174048352
 40
0.9302204655
 40
0.9420377387
 40
0.952830428
 40
0.9625736037
 40
0.9712451635
 40
0.9788268194
 40
0.9853017009
 40
0.9881203676
 40
0.9906583847
 40
0.9929149006
 40
0.9948893855
 40
0.9965822096
 40
0.9979950822
 40
0.9985976272
 40
0.9991317851
 40
0.9995986692
 40
1.0
 40
1.0
 40
1.0
 40
1.0
 10
4.6504134349
 20
3.7532657003
 30
0.0
 10
4.6504134463
 20
3.7533122956
 30
0.0
 10
4.6504347468
 20
3.7534126031
 30
0.0
 10
4.650522956
 20
3.7535531835
 30
0.0
 10
4.6506630727
 20
3.753690355
 30
0.0
 10
4.6508551279
 20
3.7538263722
 30
0.0
 10
4.6510997094
 20
3.753962234
 30
0.0
 10
4.6513973102
 20
3.7540981985
 30
0.0
 10
4.6517481809
 20
3.7542343526
 30
0.0
 10
4.6523196126
 20
3.7544268909
 30
0.0
 10
4.653170365
 20
3.7546623984
 30
0.0
 10
4.6543542895
 20
3.754933009
 30
0.0
 10
4.6557509638
 20
3.755204429
 30
0.0
 10
4.6573596289
 20
3.7554765282
 30
0.0
 10
4.6591795598
 20
3.7557490679
 30
0.0
 10
4.6612098632
 20
3.756021933
 30
0.0
 10
4.6634494603
 20
3.7562950352
 30
0.0
 10
4.6668486275
 20
3.7566744822
 30
0.0
 10
4.6716109221
 20
3.7571429218
 30
0.0
 10
4.6779341804
 20
3.7576867189
 30
0.0
 10
4.6850553748
 20
3.7582313876
 30
0.0
 10
4.6929580726
 20
3.7587768596
 30
0.0
 10
4.7016238311
 20
3.7593227867
 30
0.0
 10
4.7110325751
 20
3.7598691365
 30
0.0
 10
4.7211624059
 20
3.7604158184
 30
0.0
 10
4.7360401881
 20
3.7611671875
 30
0.0
 10
4.7562500428
 20
3.7620972281
 30
0.0
 10
4.7823020603
 20
3.763185126
 30
0.0
 10
4.8105734469
 20
3.7642743119
 30
0.0
 10
4.8408010677
 20
3.7653645114
 30
0.0
 10
4.8727035491
 20
3.7664554112
 30
0.0
 10
4.905983989
 20
3.7675468178
 30
0.0
 10
4.9403326702
 20
3.7686385718
 30
0.0
 10
4.9754298878
 20
3.7697305531
 30
0.0
 10
5.0109489542
 20
3.7708226584
 30
0.0
 10
5.0465592806
 20
3.7719147894
 30
0.0
 10
5.0819294207
 20
3.7730068501
 30
0.0
 10
5.1167301446
 20
3.7740987442
 30
0.0
 10
5.150637542
 20
3.7751903602
 30
0.0
 10
5.1833360597
 20
3.7762815587
 30
0.0
 10
5.2145213596
 20
3.7773721722
 30
0.0
 10
5.2439031561
 20
3.7784619471
 30
0.0
 10
5.2712079926
 20
3.7795506517
 30
0.0
 10
5.2925458915
 20
3.7804792639
 30
0.0
 10
5.3083885728
 20
3.7812285866
 30
0.0
 10
5.319284802
 20
3.7817755152
 30
0.0
 10
5.3294860089
 20
3.7823222073
 30
0.0
 10
5.3389683889
 20
3.7828685626
 30
0.0
 10
5.3477099825
 20
3.7834145884
 30
0.0
 10
5.355690378
 20
3.783960064
 30
0.0
 10
5.3628910894
 20
3.7845048633
 30
0.0
 10
5.3692954882
 20
3.7850487019
 30
0.0
 10
5.3748886579
 20
3.7855912111
 30
0.0
 10
5.3790346974
 20
3.7860605838
 30
0.0
 10
5.38193498
 20
3.7864423703
 30
0.0
 10
5.3837974965
 20
3.7867149913
 30
0.0
 10
5.3854488895
 20
3.7869871677
 30
0.0
 10
5.3868882841
 20
3.7872587377
 30
0.0
 10
5.388114963
 20
3.7875295972
 30
0.0
 10
5.3890015785
 20
3.7877649935
 30
0.0
 10
5.3896020683
 20
3.7879571447
 30
0.0
 10
5.3899745616
 20
3.7880933637
 30
0.0
 10
5.3902936723
 20
3.788229382
 30
0.0
 10
5.3904851047
 20
3.7883271619
 30
0.0
 10
5.390571011
 20
3.7883768172
 30
0.0
  0
LINE
  5
2B9
100
AcDbEntity
  8
0
100
AcDbLine
 62
7
  6
CONTINUOUS
 10
4.6509358308
 20
3.5931495833
 11
4.6515596826
 21
3.5934403138
  0
SPLINE
  5
2BA
100
AcDbEntity
  8
0
100
AcDbSpline
 62
7
  6
CONTINUOUS
 70
0
 71
3
 72
66
 73
62
 74
0
 42
0.0000001
 43
0.0000001
 44
0.0000000001
 40
0.0
 40
0.0
 40
0.0
 40
0.0
 40
0.001143248
 40
0.0025588585
 40
0.0042501609
 40
0.0062187679
 40
0.0084650028
 40
0.0109883405
 40
0.0137879497
 40
0.0168628117
 40
0.023833195
 40
0.0318853231
 40
0.0410019442
 40
0.0511638665
 40
0.062347612
 40
0.0745286888
 40
0.0876795073
 40
0.1017698178
 40
0.1326403418
 40
0.1668590007
 40
0.2041135597
 40
0.2440639566
 40
0.2863453562
 40
0.3305712053
 40
0.3763370406
 40
0.4232244312
 40
0.4708046675
 40
0.5186425412
 40
0.5663004794
 40
0.6133426876
 40
0.6593390045
 40
0.7038687115
 40
0.7465246295
 40
0.7869169868
 40
0.8246767777
 40
0.8594590479
 40
0.8909462635
 40
0.9053635647
 40
0.9188519015
 40
0.9313813576
 40
0.9429227885
 40
0.9534507878
 40
0.9629418715
 40
0.9713745329
 40
0.9787315599
 40
0.982001696
 40
0.9849972384
 40
0.9877171171
 40
0.9901604609
 40
0.9923266102
 40
0.9942152447
 40
0.9958267929
 40
0.9971632637
 40
0.9977296405
 40
0.9982291518
 40
0.9986631282
 40
0.9990336483
 40
0.9993441179
 40
0.9996004088
 40
0.9998130102
 40
1.0
 40
1.0
 40
1.0
 40
1.0
 10
4.6515596826
 20
3.5934403138
 30
0.0
 10
4.6518227365
 20
3.5935430195
 30
0.0
 10
4.6524239682
 20
3.5937407028
 30
0.0
 10
4.6534394335
 20
3.594008192
 30
0.0
 10
4.6546643315
 20
3.594276803
 30
0.0
 10
4.6560982595
 20
3.5945462201
 30
0.0
 10
4.657740731
 20
3.5948161827
 30
0.0
 10
4.6595908136
 20
3.5950865587
 30
0.0
 10
4.6616474714
 20
3.5953572552
 30
0.0
 10
4.6647978298
 20
3.5957344388
 30
0.0
 10
4.6692440489
 20
3.5961993288
 30
0.0
 10
4.6751823622
 20
3.5967381886
 30
0.0
 10
4.6819117728
 20
3.5972780903
 30
0.0
 10
4.6894168593
 20
3.5978187562
 30
0.0
 10
4.6976806206
 20
3.5983600488
 30
0.0
 10
4.7066840826
 20
3.5989017397
 30
0.0
 10
4.7164066683
 20
3.5994437785
 30
0.0
 10
4.730741424
 20
3.6001897631
 30
0.0
 10
4.7502778293
 20
3.601112639
 30
0.0
 10
4.7755347342
 20
3.6021912777
 30
0.0
 10
4.8030362642
 20
3.6032712743
 30
0.0
 10
4.832530741
 20
3.6043523434
 30
0.0
 10
4.8637482507
 20
3.6054341443
 30
0.0
 10
4.8964030282
 20
3.6065164842
 30
0.0
 10
4.9301961163
 20
3.6075992038
 30
0.0
 10
4.9648181741
 20
3.6086821767
 30
0.0
 10
4.9999522856
 20
3.6097652951
 30
0.0
 10
5.0352768174
 20
3.6108484665
 30
0.0
 10
5.0704683899
 20
3.6119316023
 30
0.0
 10
5.1052048677
 20
3.6130146081
 30
0.0
 10
5.1391682689
 20
3.6140973786
 30
0.0
 10
5.1720476618
 20
3.615179797
 30
0.0
 10
5.2035420646
 20
3.6162617112
 30
0.0
 10
5.233363226
 20
3.617342929
 30
0.0
 10
5.2612382108
 20
3.6184231379
 30
0.0
 10
5.286911816
 20
3.6195020579
 30
0.0
 10
5.3068209548
 20
3.620424506
 30
0.0
 10
5.3214726339
 20
3.6211697412
 30
0.0
 10
5.3314457818
 20
3.6217119106
 30
0.0
 10
5.340707462
 20
3.6222537099
 30
0.0
 10
5.3492365872
 20
3.6227951619
 30
0.0
 10
5.3570135987
 20
3.6233360925
 30
0.0
 10
5.3640207465
 20
3.6238762543
 30
0.0
 10
5.3702421061
 20
3.6244155903
 30
0.0
 10
5.3749272867
 20
3.6248801198
 30
0.0
 10
5.3782711621
 20
3.625256437
 30
0.0
 10
5.3804741368
 20
3.6255273025
 30
0.0
 10
5.3824712397
 20
3.6257979072
 30
0.0
 10
5.3842614647
 20
3.6260681829
 30
0.0
 10
5.3858438356
 20
3.6263380201
 30
0.0
 10
5.3872175579
 20
3.6266071856
 30
0.0
 10
5.3883819439
 20
3.6268756068
 30
0.0
 10
5.3892186194
 20
3.6271091685
 30
0.0
 10
5.3897806358
 20
3.6273000896
 30
0.0
 10
5.3901258047
 20
3.6274351212
 30
0.0
 10
5.390418587
 20
3.6275699684
 30
0.0
 10
5.3906592135
 20
3.6277047199
 30
0.0
 10
5.3908481472
 20
3.6278396373
 30
0.0
 10
5.3909859463
 20
3.6279757116
 30
0.0
 10
5.3910725632
 20
3.6281151658
 30
0.0
 10
5.3910933679
 20
3.6282145122
 30
0.0
 10
5.3910933456
 20
3.6282607005
 30
0.0
  0
SPLINE
  5
2BB
100
AcDbEntity
  8
0
100
AcDbSpline
 62
7
  6
CONTINUOUS
 70
0
 71
3
 72
69
 73
65
 74
0
 42
0.0000001
 43
0.0000001
 44
0.0000000001
 40
0.0
 40
0.0
 40
0.0
 40
0.0
 40
0.0678337047
 40
0.0857190205
 40
0.1039416465
 40
0.1224888529
 40
0.1413477535
 40
0.1605029559
 40
0.1799411139
 40
0.2196068729
 40
0.2602237216
 40
0.2808449916
 40
0.3016448242
 40
0.322595139
 40
0.3331179141
 40
0.3436674901
 40
0.3648273316
 40
0.3754292938
 40
0.3860395325
 40
0.3966534986
 40
0.4072663773
 40
0.4284679821
 40
0.4496077349
 40
0.4706515405
 40
0.5123130465
 40
0.5328848804
 40
0.5532499578
 40
0.5733909627
 40
0.5932876989
 40
0.6322899184
 40
0.6701454426
 40
0.6886109653
 40
0.70674835
 40
0.7245429293
 40
0.7419799234
 40
0.759043284
 40
0.7757157641
 40
0.7919791461
 40
0.8078144855
 40
0.8381200976
 40
0.8664584854
 40
0.8926411735
 40
0.916464186
 40
0.9377152227
 40
0.9473082417
 40
0.956177263
 40
0.9642961081
 40
0.9716387566
 40
0.9781816119
 40
0.9839026505
 40
0.9887802898
 40
0.9908972927
 40
0.9927972855
 40
0.9944784254
 40
0.9959388691
 40
0.9971768328
 40
0.9981912213
 40
0.9989813799
 40
0.9992921706
 40
0.999546661
 40
0.9997447701
 40
0.9998864169
 40
0.9999715206
 40
1.0
 40
1.0
 40
1.0
 40
1.0
 10
3.5906254132
 20
4.1005915778
 30
0.0
 10
3.6065827637
 20
4.1104091395
 30
0.0
 10
3.6270421861
 20
4.1223538959
 30
0.0
 10
3.6523587845
 20
4.1358922334
 30
0.0
 10
3.6657908584
 20
4.142783192
 30
0.0
 10
3.6795894367
 20
4.1495431991
 30
0.0
 10
3.6937539668
 20
4.1561350552
 30
0.0
 10
3.708285122
 20
4.1625141742
 30
0.0
 10
3.7282792945
 20
4.1707309803
 30
0.0
 10
3.754154132
 20
4.1802122812
 30
0.0
 10
3.7808736086
 20
4.1882108158
 30
0.0
 10
3.8028910981
 20
4.1935814315
 30
0.0
 10
3.8197706062
 20
4.1970441523
 30
0.0
 10
3.8340195686
 20
4.1993963384
 30
0.0
 10
3.8455240662
 20
4.2009380907
 30
0.0
 10
3.8571155786
 20
4.2022465354
 30
0.0
 10
3.8687679079
 20
4.2031909474
 30
0.0
 10
3.8804578168
 20
4.2037609065
 30
0.0
 10
3.8892457084
 20
4.2039975528
 30
0.0
 10
3.8980396673
 20
4.2040420651
 30
0.0
 10
3.9097574796
 20
4.2038473169
 30
0.0
 10
3.9243707117
 20
4.2031304744
 30
0.0
 10
3.9418088791
 20
4.2015216436
 30
0.0
 10
3.964766086
 20
4.1984396001
 30
0.0
 10
3.9873627724
 20
4.194002794
 30
0.0
 10
4.0094788473
 20
4.1883921302
 30
0.0
 10
4.0256828035
 20
4.183687962
 30
0.0
 10
4.0415511951
 20
4.1785296241
 30
0.0
 10
4.0621070825
 20
4.1711708683
 30
0.0
 10
4.0868902018
 20
4.1611405473
 30
0.0
 10
4.1108200387
 20
4.1501423883
 30
0.0
 10
4.1292427596
 20
4.1410004966
 30
0.0
 10
4.1425801938
 20
4.1340815169
 30
0.0
 10
4.1555513319
 20
4.127078108
 30
0.0
 10
4.168154861
 20
4.1200219799
 30
0.0
 10
4.1803902152
 20
4.1129456885
 30
0.0
 10
4.19225598
 20
4.1058801927
 30
0.0
 10
4.2037478315
 20
4.0988516267
 30
0.0
 10
4.2183529509
 20
4.0896985477
 30
0.0
 10
4.2356235209
 20
4.0785204562
 30
0.0
 10
4.2550749684
 20
4.0654590193
 30
0.0
 10
4.2728678505
 20
4.0531437632
 30
0.0
 10
4.2889161214
 20
4.0417503432
 30
0.0
 10
4.3011408791
 20
4.0328880326
 30
0.0
 10
4.3099806332
 20
4.0263940792
 30
0.0
 10
4.3158813516
 20
4.0220259137
 30
0.0
 10
4.3212691266
 20
4.0180095564
 30
0.0
 10
4.3261313371
 20
4.0143632104
 30
0.0
 10
4.330455442
 20
4.011103206
 30
0.0
 10
4.3342293877
 20
4.0082444416
 30
0.0
 10
4.3370250638
 20
4.0061187138
 30
0.0
 10
4.338978848
 20
4.0046294087
 30
0.0
 10
4.3402297943
 20
4.0036744047
 30
0.0
 10
4.3413360493
 20
4.002828716
 30
0.0
 10
4.3422966223
 20
4.002093535
 30
0.0
 10
4.3431107161
 20
4.0014699665
 30
0.0
 10
4.3437776719
 20
4.0009587562
 30
0.0
 10
4.3442412794
 20
4.0006031999
 30
0.0
 10
4.3445382587
 20
4.0003752611
 30
0.0
 10
4.3447055457
 20
4.0002469175
 30
0.0
 10
4.3448356236
 20
4.00014683
 30
0.0
 10
4.3449289024
 20
4.0000756216
 30
0.0
 10
4.3449844103
 20
4.0000321802
 30
0.0
 10
4.3450096849
 20
4.0000135662
 30
0.0
 10
4.3450157536
 20
4.0000085618
 30
0.0
  0
SPLINE
  5
2BC
100
AcDbEntity
  8
0
100
AcDbSpline
 62
7
  6
CONTINUOUS
 70
0
 71
3
 72
69
 73
65
 74
0
 42
0.0000001
 43
0.0000001
 44
0.0000000001
 40
0.0
 40
0.0
 40
0.0
 40
0.0
 40
0.0001884374
 40
0.0004030422
 40
0.0006621903
 40
0.0009765474
 40
0.001352104
 40
0.0017923026
 40
0.0022992089
 40
0.0028741319
 40
0.0042310481
 40
0.0058673317
 40
0.0077848729
 40
0.0099844771
 40
0.0124658831
 40
0.0152281899
 40
0.0182702788
 40
0.0215908913
 40
0.0290616552
 40
0.0376244043
 40
0.0472603279
 40
0.0579485047
 40
0.0696637572
 40
0.0823799672
 40
0.0960676918
 40
0.1106949759
 40
0.1426323218
 40
0.1778959988
 40
0.2161587255
 40
0.2570653053
 40
0.3002358598
 40
0.345269077
 40
0.3917461831
 40
0.4392351081
 40
0.4872943566
 40
0.5354769661
 40
0.5833348262
 40
0.6304229931
 40
0.6763036829
 40
0.7205502079
 40
0.7627512286
 40
0.802514736
 40
0.8394714526
 40
0.8732781816
 40
0.8889008795
 40
0.9036213124
 40
0.9174051819
 40
0.9302203685
 40
0.9420381305
 40
0.9528305501
 40
0.962573651
 40
0.9712456187
 40
0.9788267336
 40
0.985302035
 40
0.988120854
 40
0.9906586309
 40
0.9929148399
 40
0.9948893364
 40
0.9965824849
 40
0.9979955681
 40
0.9985980604
 40
0.999132086
 40
0.9995988094
 40
1.0
 40
1.0
 40
1.0
 40
1.0
 10
4.6504136444
 20
3.6818357001
 30
0.0
 10
4.6504136344
 20
3.6818822892
 30
0.0
 10
4.6504348485
 20
3.6819825806
 30
0.0
 10
4.6505229198
 20
3.6821231829
 30
0.0
 10
4.6506629251
 20
3.6822603689
 30
0.0
 10
4.650854919
 20
3.6823963931
 30
0.0
 10
4.6510995146
 20
3.6825322475
 30
0.0
 10
4.6513971935
 20
3.6826682025
 30
0.0
 10
4.6517481785
 20
3.6828043501
 30
0.0
 10
4.652319734
 20
3.6829968687
 30
0.0
 10
4.6531704975
 20
3.6832323619
 30
0.0
 10
4.6543543039
 20
3.6835030128
 30
0.0
 10
4.6557508469
 20
3.6837744567
 30
0.0
 10
4.6573595337
 20
3.6840465419
 30
0.0
 10
4.6591796114
 20
3.6843190585
 30
0.0
 10
4.6612099937
 20
3.6845919126
 30
0.0
 10
4.6634495055
 20
3.6848650323
 30
0.0
 10
4.6668486066
 20
3.6852445186
 30
0.0
 10
4.6716109195
 20
3.6857129055
 30
0.0
 10
4.6779341687
 20
3.6862567024
 30
0.0
 10
4.6850554082
 20
3.6868014229
 30
0.0
 10
4.6929580432
 20
3.6873468259
 30
0.0
 10
4.7016238475
 20
3.6878928042
 30
0.0
 10
4.7110325792
 20
3.6884391393
 30
0.0
 10
4.7211623802
 20
3.6889858011
 30
0.0
 10
4.736040172
 20
3.6897372126
 30
0.0
 10
4.7562500312
 20
3.6906672208
 30
0.0
 10
4.7823021287
 20
3.6917551223
 30
0.0
 10
4.8105734892
 20
3.6928443116
 30
0.0
 10
4.8408010411
 20
3.6939345157
 30
0.0
 10
4.8727035217
 20
3.6950254122
 30
0.0
 10
4.9059840023
 20
3.6961168154
 30
0.0
 10
4.9403326935
 20
3.6972085712
 30
0.0
 10
4.9754298979
 20
3.6983005549
 30
0.0
 10
5.0109489659
 20
3.6993926588
 30
0.0
 10
5.046559291
 20
3.7004847885
 30
0.0
 10
5.0819294159
 20
3.7015768514
 30
0.0
 10
5.116730148
 20
3.7026687462
 30
0.0
 10
5.1506375783
 20
3.7037603589
 30
0.0
 10
5.1833360852
 20
3.7048515556
 30
0.0
 10
5.2145213303
 20
3.7059421746
 30
0.0
 10
5.2439031252
 20
3.7070319515
 30
0.0
 10
5.2712080417
 20
3.7081206553
 30
0.0
 10
5.2925459433
 20
3.7090492474
 30
0.0
 10
5.3083885955
 20
3.7097985965
 30
0.0
 10
5.3192848106
 20
3.7103455204
 30
0.0
 10
5.3294859852
 20
3.7108921858
 30
0.0
 10
5.338968421
 20
3.7114385936
 30
0.0
 10
5.3477099603
 20
3.7119845639
 30
0.0
 10
5.355690388
 20
3.712530067
 30
0.0
 10
5.3628911113
 20
3.7130748906
 30
0.0
 10
5.369295464
 20
3.7136186528
 30
0.0
 10
5.374888694
 20
3.7141612601
 30
0.0
 10
5.3790347447
 20
3.7146305872
 30
0.0
 10
5.381935113
 20
3.7150123484
 30
0.0
 10
5.3837975285
 20
3.7152849848
 30
0.0
 10
5.3854487824
 20
3.7155571876
 30
0.0
 10
5.3868881819
 20
3.7158287667
 30
0.0
 10
5.3881150043
 20
3.7160995966
 30
0.0
 10
5.3890017512
 20
3.7163349663
 30
0.0
 10
5.3896022428
 20
3.7165271339
 30
0.0
 10
5.3899746438
 20
3.7166633572
 30
0.0
 10
5.3902936359
 20
3.7167993814
 30
0.0
 10
5.3904849832
 20
3.7168971643
 30
0.0
 10
5.3905708505
 20
3.7169468176
 30
0.0
  0
SPLINE
  5
2BD
100
AcDbEntity
  8
0
100
AcDbSpline
 62
7
  6
CONTINUOUS
 70
0
 71
3
 72
70
 73
66
 74
0
 42
0.0000001
 43
0.0000001
 44
0.0000000001
 40
0.0
 40
0.0
 40
0.0
 40
0.0
 40
0.0001715827
 40
0.0003718318
 40
0.0006195895
 40
0.0009249909
 40
0.0012934128
 40
0.001727872
 40
0.0022301737
 40
0.00280146
 40
0.0041536496
 40
0.0057881307
 40
0.0077060239
 40
0.0099074344
 40
0.01239199
 40
0.0151590385
 40
0.0182076152
 40
0.0215360907
 40
0.0290252555
 40
0.0376110982
 40
0.0472745654
 40
0.0579932658
 40
0.069743484
 40
0.082497367
 40
0.0962258594
 40
0.1108971587
 40
0.1429290468
 40
0.1782951968
 40
0.2166663925
 40
0.2576851071
 40
0.3009687323
 40
0.3461135155
 40
0.3926983674
 40
0.4402887273
 40
0.4884405477
 40
0.5367044756
 40
0.5846302018
 40
0.631770612
 40
0.6776858664
 40
0.7219474907
 40
0.7641426571
 40
0.8038779803
 40
0.8407830899
 40
0.8745140611
 40
0.8900896449
 40
0.9047567939
 40
0.9184809839
 40
0.9312304312
 40
0.942976084
 40
0.9536901036
 40
0.9633487887
 40
0.9719297526
 40
0.9794139649
 40
0.9827399387
 40
0.9857859975
 40
0.9885505165
 40
0.9910325358
 40
0.9932314052
 40
0.9951467558
 40
0.9967786983
 40
0.9981283679
 40
0.9986984096
 40
0.9991994831
 40
0.9996327396
 40
1.0
 40
1.0
 40
1.0
 40
1.0
 10
4.6117534247
 20
3.6327260616
 30
0.0
 10
4.6117534247
 20
3.632772902
 30
0.0
 10
4.6117777916
 20
3.6328750399
 30
0.0
 10
4.6118763165
 20
3.6330155079
 30
0.0
 10
4.6120314286
 20
3.63315231
 30
0.0
 10
4.6122439613
 20
3.6332881418
 30
0.0
 10
4.6125146983
 20
3.6334239981
 30
0.0
 10
4.612844246
 20
3.6335600631
 30
0.0
 10
4.6132328627
 20
3.6336963809
 30
0.0
 10
4.6138664757
 20
3.633889388
 30
0.0
 10
4.6148092287
 20
3.634125294
 30
0.0
 10
4.6161206252
 20
3.6343962747
 30
0.0
 10
4.6176678463
 20
3.6346680767
 30
0.0
 10
4.6194500245
 20
3.6349405734
 30
0.0
 10
4.6214663117
 20
3.6352135158
 30
0.0
 10
4.6237156924
 20
3.6354867924
 30
0.0
 10
4.6261969501
 20
3.6357603199
 30
0.0
 10
4.6299631983
 20
3.6361404023
 30
0.0
 10
4.6352395074
 20
3.6366096125
 30
0.0
 10
4.6422448013
 20
3.6371542685
 30
0.0
 10
4.6501340109
 20
3.6376998156
 30
0.0
 10
4.6588888445
 20
3.6382461558
 30
0.0
 10
4.6684887883
 20
3.6387929562
 30
0.0
 10
4.6789115674
 20
3.6393401993
 30
0.0
 10
4.6901327708
 20
3.6398877488
 30
0.0
 10
4.7066128483
 20
3.6406403406
 30
0.0
 10
4.7289976548
 20
3.6415718553
 30
0.0
 10
4.7578510541
 20
3.642661504
 30
0.0
 10
4.7891593203
 20
3.6437524457
 30
0.0
 10
4.8226301555
 20
3.644844398
 30
0.0
 10
4.8579510139
 20
3.6459370509
 30
0.0
 10
4.8947920471
 20
3.6470302121
 30
0.0
 10
4.9328092629
 20
3.6481237232
 30
0.0
 10
4.9716476929
 20
3.6492174596
 30
0.0
 10
5.0109446687
 20
3.6503113156
 30
0.0
 10
5.0503332305
 20
3.6514051965
 30
0.0
 10
5.0894455831
 20
3.6524990062
 30
0.0
 10
5.1279165235
 20
3.6535926432
 30
0.0
 10
5.1653867978
 20
3.6546859934
 30
0.0
 10
5.2015064923
 20
3.6557789205
 30
0.0
 10
5.2359383436
 20
3.6568712567
 30
0.0
 10
5.2683609096
 20
3.657962734
 30
0.0
 10
5.2984714765
 20
3.6590531193
 30
0.0
 10
5.3219880597
 20
3.6599833262
 30
0.0
 10
5.3394361004
 20
3.6607340666
 30
0.0
 10
5.3514261314
 20
3.6612818451
 30
0.0
 10
5.3626438129
 20
3.6618293747
 30
0.0
 10
5.3730629552
 20
3.6623766205
 30
0.0
 10
5.3826591581
 20
3.6629234178
 30
0.0
 10
5.3914101549
 20
3.6634697557
 30
0.0
 10
5.3992954405
 20
3.6640152986
 30
0.0
 10
5.4062967336
 20
3.6645599499
 30
0.0
 10
5.4115696626
 20
3.6650291645
 30
0.0
 10
5.4153331738
 20
3.6654092568
 30
0.0
 10
5.4178123585
 20
3.6656827824
 30
0.0
 10
5.4200596541
 20
3.6659560565
 30
0.0
 10
5.4220738465
 20
3.6662289954
 30
0.0
 10
5.4238539212
 20
3.6665014873
 30
0.0
 10
5.4253990322
 20
3.6667732821
 30
0.0
 10
5.4267083109
 20
3.667044253
 30
0.0
 10
5.4276492961
 20
3.6672801643
 30
0.0
 10
5.4282814731
 20
3.6674731878
 30
0.0
 10
5.4286690448
 20
3.6676095047
 30
0.0
 10
5.4289974869
 20
3.6677455566
 30
0.0
 10
5.4291929936
 20
3.6678440094
 30
0.0
 10
5.4292798032
 20
3.6678941675
 30
0.0
  0
SPLINE
  5
2BE
100
AcDbEntity
  8
0
100
AcDbSpline
 62
7
  6
CONTINUOUS
 70
0
 71
3
 72
70
 73
66
 74
0
 42
0.0000001
 43
0.0000001
 44
0.0000000001
 40
0.0
 40
0.0
 40
0.0
 40
0.0
 40
0.0001715827
 40
0.0003718318
 40
0.0006195895
 40
0.0009249909
 40
0.0012934128
 40
0.001727872
 40
0.0022301737
 40
0.0028014601
 40
0.0041536496
 40
0.0057881307
 40
0.0077060239
 40
0.0099074344
 40
0.01239199
 40
0.0151590385
 40
0.0182076152
 40
0.0215360907
 40
0.0290252555
 40
0.0376110981
 40
0.0472745654
 40
0.0579932657
 40
0.0697434838
 40
0.0824973668
 40
0.0962258592
 40
0.1108971585
 40
0.1429290467
 40
0.1782951967
 40
0.2166663926
 40
0.2576851072
 40
0.3009687325
 40
0.3461135157
 40
0.3926983676
 40
0.4402887276
 40
0.488440548
 40
0.5367044759
 40
0.5846302022
 40
0.6317706123
 40
0.6776858667
 40
0.7219474911
 40
0.7641426575
 40
0.8038779806
 40
0.8407830902
 40
0.8745140614
 40
0.8900896451
 40
0.9047567941
 40
0.9184809841
 40
0.9312304313
 40
0.9429760842
 40
0.9536901037
 40
0.9633487889
 40
0.9719297527
 40
0.979413965
 40
0.9827399388
 40
0.9857859976
 40
0.9885505166
 40
0.9910325359
 40
0.9932314053
 40
0.9951467558
 40
0.9967786983
 40
0.9981283679
 40
0.9986984096
 40
0.9991994831
 40
0.9996327396
 40
1.0
 40
1.0
 40
1.0
 40
1.0
 10
5.4297534247
 20
3.6773703388
 30
0.0
 10
5.4297534247
 20
3.6773234985
 30
0.0
 10
5.4297290577
 20
3.6772213606
 30
0.0
 10
5.4296305328
 20
3.6770808926
 30
0.0
 10
5.4294754207
 20
3.6769440904
 30
0.0
 10
5.429262888
 20
3.6768082587
 30
0.0
 10
5.4289921511
 20
3.6766724024
 30
0.0
 10
5.4286626033
 20
3.6765363374
 30
0.0
 10
5.4282739866
 20
3.6764000196
 30
0.0
 10
5.4276403736
 20
3.6762070124
 30
0.0
 10
5.4266976206
 20
3.6759711065
 30
0.0
 10
5.4253862241
 20
3.6757001258
 30
0.0
 10
5.423839003
 20
3.6754283238
 30
0.0
 10
5.4220568248
 20
3.6751558271
 30
0.0
 10
5.4200405376
 20
3.6748828847
 30
0.0
 10
5.4177911569
 20
3.6746096081
 30
0.0
 10
5.4153098992
 20
3.6743360806
 30
0.0
 10
5.411543651
 20
3.6739559982
 30
0.0
 10
5.4062673419
 20
3.673486788
 30
0.0
 10
5.399262048
 20
3.672942132
 30
0.0
 10
5.3913728384
 20
3.6723965848
 30
0.0
 10
5.3826180049
 20
3.6718502446
 30
0.0
 10
5.3730180611
 20
3.6713034443
 30
0.0
 10
5.3625952821
 20
3.6707562012
 30
0.0
 10
5.3513740787
 20
3.6702086517
 30
0.0
 10
5.3348940011
 20
3.6694560599
 30
0.0
 10
5.3125091946
 20
3.6685245451
 30
0.0
 10
5.2836557953
 20
3.6674348965
 30
0.0
 10
5.252347529
 20
3.6663439548
 30
0.0
 10
5.2188766938
 20
3.6652520025
 30
0.0
 10
5.1835558353
 20
3.6641593496
 30
0.0
 10
5.146714802
 20
3.6630661883
 30
0.0
 10
5.1086975862
 20
3.6619726773
 30
0.0
 10
5.0698591561
 20
3.6608789408
 30
0.0
 10
5.0305621804
 20
3.6597850848
 30
0.0
 10
4.9911736185
 20
3.658691204
 30
0.0
 10
4.9520612659
 20
3.6575973943
 30
0.0
 10
4.9135903255
 20
3.6565037573
 30
0.0
 10
4.8761200512
 20
3.655410407
 30
0.0
 10
4.8400003567
 20
3.6543174799
 30
0.0
 10
4.8055685054
 20
3.6532251437
 30
0.0
 10
4.7731459395
 20
3.6521336665
 30
0.0
 10
4.7430353726
 20
3.6510432812
 30
0.0
 10
4.7195187894
 20
3.6501130743
 30
0.0
 10
4.7020707487
 20
3.6493623338
 30
0.0
 10
4.6900807177
 20
3.6488145554
 30
0.0
 10
4.6788630362
 20
3.6482670258
 30
0.0
 10
4.6684438939
 20
3.64771978
 30
0.0
 10
4.658847691
 20
3.6471729827
 30
0.0
 10
4.6500966942
 20
3.6466266448
 30
0.0
 10
4.6422114087
 20
3.6460811019
 30
0.0
 10
4.6352101156
 20
3.6455364506
 30
0.0
 10
4.6299371866
 20
3.645067236
 30
0.0
 10
4.6261736755
 20
3.6446871437
 30
0.0
 10
4.6236944908
 20
3.644413618
 30
0.0
 10
4.6214471951
 20
3.6441403439
 30
0.0
 10
4.6194330027
 20
3.643867405
 30
0.0
 10
4.617652928
 20
3.6435949132
 30
0.0
 10
4.616107817
 20
3.6433231183
 30
0.0
 10
4.6147985384
 20
3.6430521475
 30
0.0
 10
4.6138575532
 20
3.6428162362
 30
0.0
 10
4.6132253762
 20
3.6426232127
 30
0.0
 10
4.6128378045
 20
3.6424868957
 30
0.0
 10
4.6125093624
 20
3.6423508439
 30
0.0
 10
4.6123138557
 20
3.6422523911
 30
0.0
 10
4.6122270461
 20
3.642202233
 30
0.0
  0
SPLINE
  5
2BF
100
AcDbEntity
  8
0
100
AcDbSpline
 62
7
  6
CONTINUOUS
 70
0
 71
3
 72
70
 73
66
 74
0
 42
0.0000001
 43
0.0000001
 44
0.0000000001
 40
0.0
 40
0.0
 40
0.0
 40
0.0
 40
0.0001715827
 40
0.0003718318
 40
0.0006195895
 40
0.0009249909
 40
0.0012934129
 40
0.0017278721
 40
0.0022301738
 40
0.0028014601
 40
0.0041536497
 40
0.0057881307
 40
0.0077060239
 40
0.0099074344
 40
0.01239199
 40
0.0151590385
 40
0.0182076151
 40
0.0215360906
 40
0.0290252553
 40
0.0376110978
 40
0.0472745648
 40
0.0579932647
 40
0.0697434824
 40
0.0824973648
 40
0.096225857
 40
0.1108971561
 40
0.1429290442
 40
0.1782951938
 40
0.2166663888
 40
0.2576851017
 40
0.3009687247
 40
0.3461135068
 40
0.3926983596
 40
0.4402887219
 40
0.4884405439
 40
0.5367044726
 40
0.5846301995
 40
0.6317706101
 40
0.6776858648
 40
0.7219474902
 40
0.7641426574
 40
0.803877981
 40
0.8407830907
 40
0.8745140617
 40
0.8900896453
 40
0.9047567942
 40
0.9184809841
 40
0.9312304314
 40
0.9429760842
 40
0.9536901038
 40
0.9633487889
 40
0.9719297528
 40
0.979413965
 40
0.9827399388
 40
0.9857859976
 40
0.9885505166
 40
0.9910325359
 40
0.9932314053
 40
0.9951467558
 40
0.9967786983
 40
0.9981283679
 40
0.9986984096
 40
0.9991994831
 40
0.9996327396
 40
1.0
 40
1.0
 40
1.0
 40
1.0
 10
5.4297534247
 20
3.7488003388
 30
0.0
 10
5.4297534247
 20
3.7487534985
 30
0.0
 10
5.4297290577
 20
3.7486513606
 30
0.0
 10
5.4296305328
 20
3.7485108926
 30
0.0
 10
5.4294754207
 20
3.7483740904
 30
0.0
 10
5.4292628879
 20
3.7482382586
 30
0.0
 10
5.428992151
 20
3.7481024024
 30
0.0
 10
5.4286626033
 20
3.7479663374
 30
0.0
 10
5.4282739865
 20
3.7478300196
 30
0.0
 10
5.4276403736
 20
3.7476370124
 30
0.0
 10
5.4266976206
 20
3.7474011065
 30
0.0
 10
5.4253862241
 20
3.7471301258
 30
0.0
 10
5.423839003
 20
3.7468583238
 30
0.0
 10
5.4220568248
 20
3.7465858271
 30
0.0
 10
5.4200405376
 20
3.7463128847
 30
0.0
 10
5.4177911569
 20
3.7460396081
 30
0.0
 10
5.4153098992
 20
3.7457660806
 30
0.0
 10
5.4115436511
 20
3.7453859982
 30
0.0
 10
5.4062673421
 20
3.744916788
 30
0.0
 10
5.3992620483
 20
3.744372132
 30
0.0
 10
5.3913728389
 20
3.7438265849
 30
0.0
 10
5.3826180057
 20
3.7432802447
 30
0.0
 10
5.3730180623
 20
3.7427334443
 30
0.0
 10
5.3625952836
 20
3.7421862013
 30
0.0
 10
5.3513740805
 20
3.7416386518
 30
0.0
 10
5.334894003
 20
3.7408860599
 30
0.0
 10
5.3125091968
 20
3.7399545452
 30
0.0
 10
5.2836557978
 20
3.7388648965
 30
0.0
 10
5.2523475323
 20
3.7377739549
 30
0.0
 10
5.2188766984
 20
3.7366820026
 30
0.0
 10
5.1835558413
 20
3.7355893498
 30
0.0
 10
5.1467148087
 20
3.7344961885
 30
0.0
 10
5.1086975923
 20
3.7334026774
 30
0.0
 10
5.069859161
 20
3.732308941
 30
0.0
 10
5.0305621839
 20
3.7312150849
 30
0.0
 10
4.9911736212
 20
3.7301212041
 30
0.0
 10
4.9520612681
 20
3.7290273943
 30
0.0
 10
4.9135903273
 20
3.7279337573
 30
0.0
 10
4.8761200526
 20
3.7268404071
 30
0.0
 10
4.8400003574
 20
3.72574748
 30
0.0
 10
4.8055685055
 20
3.7246551437
 30
0.0
 10
4.7731459392
 20
3.7235636665
 30
0.0
 10
4.7430353723
 20
3.7224732812
 30
0.0
 10
4.7195187891
 20
3.7215430743
 30
0.0
 10
4.7020707485
 20
3.7207923338
 30
0.0
 10
4.6900807177
 20
3.7202445554
 30
0.0
 10
4.6788630362
 20
3.7196970258
 30
0.0
 10
4.6684438939
 20
3.71914978
 30
0.0
 10
4.658847691
 20
3.7186029827
 30
0.0
 10
4.6500966942
 20
3.7180566448
 30
0.0
 10
4.6422114087
 20
3.7175111019
 30
0.0
 10
4.6352101156
 20
3.7169664506
 30
0.0
 10
4.6299371866
 20
3.716497236
 30
0.0
 10
4.6261736755
 20
3.7161171437
 30
0.0
 10
4.6236944908
 20
3.715843618
 30
0.0
 10
4.6214471951
 20
3.7155703439
 30
0.0
 10
4.6194330027
 20
3.715297405
 30
0.0
 10
4.617652928
 20
3.7150249132
 30
0.0
 10
4.616107817
 20
3.7147531183
 30
0.0
 10
4.6147985384
 20
3.7144821475
 30
0.0
 10
4.6138575532
 20
3.7142462362
 30
0.0
 10
4.6132253762
 20
3.7140532127
 30
0.0
 10
4.6128378045
 20
3.7139168957
 30
0.0
 10
4.6125093624
 20
3.7137808439
 30
0.0
 10
4.6123138557
 20
3.7136823911
 30
0.0
 10
4.6122270461
 20
3.713632233
 30
0.0
  0
SPLINE
  5
2C0
100
AcDbEntity
  8
0
100
AcDbSpline
 62
7
  6
CONTINUOUS
 70
0
 71
3
 72
70
 73
66
 74
0
 42
0.0000001
 43
0.0000001
 44
0.0000000001
 40
0.0
 40
0.0
 40
0.0
 40
0.0
 40
0.0001715827
 40
0.0003718318
 40
0.0006195895
 40
0.0009249909
 40
0.0012934129
 40
0.0017278721
 40
0.0022301738
 40
0.0028014601
 40
0.0041536497
 40
0.0057881307
 40
0.0077060239
 40
0.0099074344
 40
0.01239199
 40
0.0151590385
 40
0.0182076151
 40
0.0215360906
 40
0.0290252553
 40
0.0376110978
 40
0.0472745648
 40
0.0579932647
 40
0.0697434823
 40
0.0824973648
 40
0.0962258569
 40
0.1108971561
 40
0.1429290442
 40
0.1782951938
 40
0.2166663889
 40
0.2576851018
 40
0.3009687247
 40
0.3461135069
 40
0.3926983598
 40
0.4402887214
 40
0.4884405424
 40
0.5367044701
 40
0.5846301952
 40
0.6317706037
 40
0.6776858579
 40
0.7219474844
 40
0.7641426529
 40
0.8038779772
 40
0.8407830873
 40
0.8745140588
 40
0.8900896426
 40
0.9047567917
 40
0.9184809819
 40
0.9312304297
 40
0.9429760831
 40
0.953690103
 40
0.9633487884
 40
0.9719297524
 40
0.9794139648
 40
0.9827399387
 40
0.9857859975
 40
0.9885505165
 40
0.9910325358
 40
0.9932314052
 40
0.9951467558
 40
0.9967786983
 40
0.9981283679
 40
0.9986984096
 40
0.9991994831
 40
0.9996327396
 40
1.0
 40
1.0
 40
1.0
 40
1.0
 10
4.6117534247
 20
3.7041560616
 30
0.0
 10
4.6117534247
 20
3.704202902
 30
0.0
 10
4.6117777916
 20
3.7043050399
 30
0.0
 10
4.6118763165
 20
3.7044455079
 30
0.0
 10
4.6120314286
 20
3.70458231
 30
0.0
 10
4.6122439614
 20
3.7047181418
 30
0.0
 10
4.6125146983
 20
3.7048539981
 30
0.0
 10
4.612844246
 20
3.7049900631
 30
0.0
 10
4.6132328628
 20
3.7051263809
 30
0.0
 10
4.6138664757
 20
3.705319388
 30
0.0
 10
4.6148092287
 20
3.705555294
 30
0.0
 10
4.6161206253
 20
3.7058262747
 30
0.0
 10
4.6176678463
 20
3.7060980767
 30
0.0
 10
4.6194500245
 20
3.7063705734
 30
0.0
 10
4.6214663117
 20
3.7066435158
 30
0.0
 10
4.6237156924
 20
3.7069167924
 30
0.0
 10
4.6261969501
 20
3.7071903199
 30
0.0
 10
4.6299631982
 20
3.7075704023
 30
0.0
 10
4.6352395072
 20
3.7080396125
 30
0.0
 10
4.642244801
 20
3.7085842685
 30
0.0
 10
4.6501340104
 20
3.7091298156
 30
0.0
 10
4.6588888436
 20
3.7096761558
 30
0.0
 10
4.668488787
 20
3.7102229562
 30
0.0
 10
4.6789115657
 20
3.7107701992
 30
0.0
 10
4.6901327688
 20
3.7113177487
 30
0.0
 10
4.7066128463
 20
3.7120703405
 30
0.0
 10
4.7289976526
 20
3.7130018552
 30
0.0
 10
4.7578510516
 20
3.7140915039
 30
0.0
 10
4.7891593171
 20
3.7151824456
 30
0.0
 10
4.8226301509
 20
3.7162743979
 30
0.0
 10
4.857951008
 20
3.7173670507
 30
0.0
 10
4.8947920407
 20
3.7184602119
 30
0.0
 10
4.9328092569
 20
3.719553723
 30
0.0
 10
4.9716476878
 20
3.7206474595
 30
0.0
 10
5.0109446642
 20
3.7217413155
 30
0.0
 10
5.0503332258
 20
3.7228351963
 30
0.0
 10
5.0894455776
 20
3.723929006
 30
0.0
 10
5.1279165171
 20
3.725022643
 30
0.0
 10
5.1653867915
 20
3.7261159932
 30
0.0
 10
5.2015064872
 20
3.7272089204
 30
0.0
 10
5.2359383399
 20
3.7283012566
 30
0.0
 10
5.2683609069
 20
3.7293927339
 30
0.0
 10
5.2984714743
 20
3.7304831192
 30
0.0
 10
5.3219880577
 20
3.7314133261
 30
0.0
 10
5.3394360985
 20
3.7321640666
 30
0.0
 10
5.3514261296
 20
3.732711845
 30
0.0
 10
5.3626438113
 20
3.7332593746
 30
0.0
 10
5.373062954
 20
3.7338066204
 30
0.0
 10
5.3826591573
 20
3.7343534178
 30
0.0
 10
5.3914101544
 20
3.7348997556
 30
0.0
 10
5.3992954402
 20
3.7354452985
 30
0.0
 10
5.4062967334
 20
3.7359899498
 30
0.0
 10
5.4115696625
 20
3.7364591645
 30
0.0
 10
5.4153331737
 20
3.7368392568
 30
0.0
 10
5.4178123585
 20
3.7371127824
 30
0.0
 10
5.4200596541
 20
3.7373860565
 30
0.0
 10
5.4220738465
 20
3.7376589954
 30
0.0
 10
5.4238539212
 20
3.7379314873
 30
0.0
 10
5.4253990323
 20
3.7382032822
 30
0.0
 10
5.4267083109
 20
3.738474253
 30
0.0
 10
5.4276492961
 20
3.7387101643
 30
0.0
 10
5.4282814732
 20
3.7389031878
 30
0.0
 10
5.4286690448
 20
3.7390395047
 30
0.0
 10
5.4289974869
 20
3.7391755566
 30
0.0
 10
5.4291929936
 20
3.7392740094
 30
0.0
 10
5.4292798032
 20
3.7393241675
 30
0.0
  0
SPLINE
  5
2C1
100
AcDbEntity
  8
0
100
AcDbSpline
 62
7
  6
CONTINUOUS
 70
0
 71
3
 72
26
 73
22
 74
0
 42
0.0000001
 43
0.0000001
 44
0.0000000001
 40
0.0
 40
0.0
 40
0.0
 40
0.0
 40
0.2110584742
 40
0.3997851265
 40
0.4853043339
 40
0.564731569
 40
0.637928233
 40
0.7047696809
 40
0.7651344941
 40
0.8189140613
 40
0.8660259854
 40
0.9063951595
 40
0.9240326683
 40
0.9399670686
 40
0.9541967612
 40
0.9667221814
 40
0.9775470912
 40
0.9866813589
 40
0.9941485596
 40
0.9972717721
 40
1.0
 40
1.0
 40
1.0
 40
1.0
 10
5.2957812984
 20
3.5663485616
 30
0.0
 10
5.3024752478
 20
3.566655397
 30
0.0
 10
5.3151537153
 20
3.5672622696
 30
0.0
 10
5.3305400192
 20
3.5680842213
 30
0.0
 10
5.341749261
 20
3.5687489834
 30
0.0
 10
5.3492948268
 20
3.5692307403
 30
0.0
 10
5.3562461046
 20
3.5697121974
 30
0.0
 10
5.3625906233
 20
3.5701932062
 30
0.0
 10
5.3683167677
 20
3.5706736367
 30
0.0
 10
5.3734141589
 20
3.5711532893
 30
0.0
 10
5.3778736314
 20
3.5716318688
 30
0.0
 10
5.3811856325
 20
3.5720455957
 30
0.0
 10
5.3835090838
 20
3.5723818543
 30
0.0
 10
5.3850076573
 20
3.5726223166
 30
0.0
 10
5.3863416925
 20
3.5728624272
 30
0.0
 10
5.3875106513
 20
3.5731021079
 30
0.0
 10
5.3885142131
 20
3.5733411103
 30
0.0
 10
5.3893520303
 20
3.5735793662
 30
0.0
 10
5.3899435814
 20
3.573787327
 30
0.0
 10
5.3903307699
 20
3.5739577758
 30
0.0
 10
5.3904958481
 20
3.5740434602
 30
0.0
 10
5.3905708353
 20
3.5740868175
 30
0.0
  0
SPLINE
  5
2C2
100
AcDbEntity
  8
0
100
AcDbSpline
 62
7
  6
CONTINUOUS
 70
0
 71
3
 72
15
 73
11
 74
0
 42
0.0000001
 43
0.0000001
 44
0.0000000001
 40
0.0
 40
0.0
 40
0.0
 40
0.0
 40
0.142627202
 40
0.2794863247
 40
0.4105125996
 40
0.536071887
 40
0.6568293077
 40
0.773661775
 40
0.8876331919
 40
1.0
 40
1.0
 40
1.0
 40
1.0
 10
3.5906254128
 20
4.1005915778
 30
0.0
 10
3.5915044713
 20
4.1001741701
 30
0.0
 10
3.593262479
 20
4.0994279924
 30
0.0
 10
3.5959342948
 20
4.0985738276
 30
0.0
 10
3.5985654622
 20
4.0980171183
 30
0.0
 10
3.601133109
 20
4.0977629865
 30
0.0
 10
3.603616621
 20
4.0978148932
 30
0.0
 10
3.6059955973
 20
4.0981730408
 30
0.0
 10
3.6082489439
 20
4.0988353783
 30
0.0
 10
3.60965933
 20
4.0994796111
 30
0.0
 10
3.6103319004
 20
4.099847607
 30
0.0
  0
SPLINE
  5
2C3
100
AcDbEntity
  8
0
100
AcDbSpline
 62
7
  6
CONTINUOUS
 70
0
 71
3
 72
48
 73
44
 74
0
 42
0.0000001
 43
0.0000001
 44
0.0000000001
 40
0.0
 40
0.0
 40
0.0
 40
0.0
 40
0.0100309109
 40
0.0208475734
 40
0.0447538519
 40
0.0715501076
 40
0.1010607022
 40
0.133085559
 40
0.1674078109
 40
0.2037962231
 40
0.2420043468
 40
0.3228355477
 40
0.4077179427
 40
0.4943580076
 40
0.5804145059
 40
0.6224948063
 40
0.6635620226
 40
0.7033381391
 40
0.7415539933
 40
0.7779514426
 40
0.8122841141
 40
0.8443198149
 40
0.8738426304
 40
0.900653034
 40
0.9129837939
 40
0.9245702275
 40
0.9353932881
 40
0.9454342068
 40
0.9546765674
 40
0.9631054639
 40
0.9707063885
 40
0.9774675083
 40
0.9833786761
 40
0.9884305535
 40
0.9906323605
 40
0.992617464
 40
0.9943856056
 40
0.9959367737
 40
0.9972713839
 40
0.9983908588
 40
0.9992982352
 40
0.9996742399
 40
1.0
 40
1.0
 40
1.0
 40
1.0
 10
5.3873618606
 20
3.8150085616
 30
0.0
 10
5.3847724626
 20
3.8148462168
 30
0.0
 10
5.3793899205
 20
3.8145232502
 30
0.0
 10
5.3678322675
 20
3.8138797636
 30
0.0
 10
5.3519401905
 20
3.8130840924
 30
0.0
 10
5.3312138577
 20
3.812156341
 30
0.0
 10
5.3083858202
 20
3.8112273215
 30
0.0
 10
5.2836097682
 20
3.8102972434
 30
0.0
 10
5.2570536428
 20
3.8093664506
 30
0.0
 10
5.2288973232
 20
3.8084350938
 30
0.0
 10
5.1887160702
 20
3.8071689181
 30
0.0
 10
5.1359951215
 20
3.8056053542
 30
0.0
 10
5.0707502618
 20
3.8037598092
 30
0.0
 10
5.0041533878
 20
3.8019133276
 30
0.0
 10
4.9486232439
 20
3.8003636081
 30
0.0
 10
4.9048767686
 20
3.7991110175
 30
0.0
 10
4.8730963968
 20
3.7981787199
 30
0.0
 10
4.8423159933
 20
3.7972466604
 30
0.0
 10
4.8127439825
 20
3.7963148997
 30
0.0
 10
4.7845806263
 20
3.7953835609
 30
0.0
 10
4.7580166599
 20
3.7944527616
 30
0.0
 10
4.733231938
 20
3.7935227005
 30
0.0
 10
4.7103942791
 20
3.7925935898
 30
0.0
 10
4.6926520935
 20
3.7917999971
 30
0.0
 10
4.6795470795
 20
3.7911597294
 30
0.0
 10
4.670573661
 20
3.790693171
 30
0.0
 10
4.6621933454
 20
3.7902268579
 30
0.0
 10
4.654420312
 20
3.7897607678
 30
0.0
 10
4.6472677056
 20
3.7892949906
 30
0.0
 10
4.6407476185
 20
3.7888296813
 30
0.0
 10
4.6348710542
 20
3.7883648879
 30
0.0
 10
4.6296478681
 20
3.7879009242
 30
0.0
 10
4.6250868314
 20
3.7874380579
 30
0.0
 10
4.6217051025
 20
3.7870376803
 30
0.0
 10
4.6193377081
 20
3.7867121517
 30
0.0
 10
4.6178150324
 20
3.7864795779
 30
0.0
 10
4.616462744
 20
3.786247359
 30
0.0
 10
4.6152814068
 20
3.7860155803
 30
0.0
 10
4.614271288
 20
3.7857844799
 30
0.0
 10
4.6134326474
 20
3.7855541682
 30
0.0
 10
4.6128437702
 20
3.7853529034
 30
0.0
 10
4.6124616091
 20
3.7851875547
 30
0.0
 10
4.6123000146
 20
3.7851043854
 30
0.0
 10
4.6122270592
 20
3.785062233
 30
0.0
  0
SPLINE
  5
2C4
100
AcDbEntity
  8
0
100
AcDbSpline
 62
7
  6
CONTINUOUS
 70
0
 71
3
 72
21
 73
17
 74
0
 42
0.0000001
 43
0.0000001
 44
0.0000000001
 40
0.0
 40
0.0
 40
0.0
 40
0.0
 40
0.0673883754
 40
0.1346735127
 40
0.2678329851
 40
0.3335488909
 40
0.3984836183
 40
0.5254837061
 40
0.5875945397
 40
0.6487279579
 40
0.7089296785
 40
0.7682828386
 40
0.8269012472
 40
0.8849389876
 40
0.9425890628
 40
1.0
 40
1.0
 40
1.0
 40
1.0
 10
3.4357534247
 20
4.1005915778
 30
0.0
 10
3.4344455836
 20
4.1005915778
 30
0.0
 10
3.43183034
 20
4.1007014757
 30
0.0
 10
3.4266690358
 20
4.1013515706
 30
0.0
 10
3.4216367584
 20
4.1026450162
 30
0.0
 10
3.4168820083
 20
4.1045590289
 30
0.0
 10
3.4124223693
 20
4.1068317663
 30
0.0
 10
3.4083452963
 20
4.1096655679
 30
0.0
 10
3.4047993982
 20
4.1129934643
 30
0.0
 10
3.4024550975
 20
4.1156814336
 30
0.0
 10
3.400431055
 20
4.1185528254
 30
0.0
 10
3.3987470667
 20
4.1215806749
 30
0.0
 10
3.3974192218
 20
4.1247354503
 30
0.0
 10
3.3964610694
 20
4.1279873886
 30
0.0
 10
3.3958827753
 20
4.1313037432
 30
0.0
 10
3.3957534247
 20
4.1335388935
 30
0.0
 10
3.3957534247
 20
4.1346530972
 30
0.0
  0
SPLINE
  5
2C5
100
AcDbEntity
  8
0
100
AcDbSpline
 62
7
  6
CONTINUOUS
 70
0
 71
3
 72
19
 73
15
 74
0
 42
0.0000001
 43
0.0000001
 44
0.0000000001
 40
0.0
 40
0.0
 40
0.0
 40
0.0
 40
0.0685034452
 40
0.1368760355
 40
0.2720222726
 40
0.4040477293
 40
0.5318553987
 40
0.6548674008
 40
0.7146510333
 40
0.7733297957
 40
0.8310237096
 40
0.8878902917
 40
0.9441401229
 40
1.0
 40
1.0
 40
1.0
 40
1.0
 10
3.4357534247
 20
5.2282421157
 30
0.0
 10
3.4344904491
 20
5.2282421157
 30
0.0
 10
3.4319656858
 20
5.2281443482
 30
0.0
 10
3.4269802139
 20
5.2275656847
 30
0.0
 10
3.4209323427
 20
5.2261368334
 30
0.0
 10
3.4141751733
 20
5.2233354542
 30
0.0
 10
3.4081766503
 20
5.2195483501
 30
0.0
 10
3.4039446411
 20
5.2156335785
 30
0.0
 10
3.401161604
 20
5.2121501793
 30
0.0
 10
3.3994031074
 20
5.2094123719
 30
0.0
 10
3.3979710468
 20
5.2065504765
 30
0.0
 10
3.3968787885
 20
5.2035896597
 30
0.0
 10
3.3961364464
 20
5.2005573525
 30
0.0
 10
3.3958793565
 20
5.1985009313
 30
0.0
 10
3.3958112863
 20
5.1974733131
 30
0.0
  0
SPLINE
  5
2C6
100
AcDbEntity
  8
0
100
AcDbSpline
 62
7
  6
CONTINUOUS
 70
0
 71
3
 72
61
 73
57
 74
0
 42
0.0000001
 43
0.0000001
 44
0.0000000001
 40
0.0
 40
0.0
 40
0.0
 40
0.0
 40
0.0013207545
 40
0.0029067943
 40
0.0047579226
 40
0.0068736406
 40
0.0092532832
 40
0.0118960528
 40
0.0179658485
 40
0.0250714487
 40
0.0332003063
 40
0.0423360865
 40
0.0524601999
 40
0.0635528926
 40
0.075590714
 40
0.1024021691
 40
0.1326722789
 40
0.1661481021
 40
0.2025479046
 40
0.2415627883
 40
0.282859691
 40
0.3260843037
 40
0.3708637833
 40
0.416809556
 40
0.4635208518
 40
0.510588292
 40
0.5575972429
 40
0.6041313381
 40
0.6497763919
 40
0.6941241143
 40
0.7367756408
 40
0.7773451281
 40
0.815463744
 40
0.8507830449
 40
0.8829780909
 40
0.8978094481
 40
0.9117505616
 40
0.9247681517
 40
0.9368321674
 40
0.9479142778
 40
0.9579877411
 40
0.9670295447
 40
0.9750175436
 40
0.9819331082
 40
0.9849837694
 40
0.9877604224
 40
0.9902613602
 40
0.9924854673
 40
0.9944318296
 40
0.9960997124
 40
0.997488706
 40
0.9985991957
 40
0.9990507344
 40
0.9994338574
 40
0.9997496254
 40
1.0
 40
1.0
 40
1.0
 40
1.0
 10
5.4283804176
 20
3.6050085616
 30
0.0
 10
5.4280358294
 20
3.6049474926
 30
0.0
 10
5.427274645
 20
3.6048288992
 30
0.0
 10
5.4260244344
 20
3.6046660911
 30
0.0
 10
5.4245621345
 20
3.6045026533
 30
0.0
 10
5.4228884872
 20
3.6043387411
 30
0.0
 10
5.4210042265
 20
3.6041744845
 30
0.0
 10
5.4180741358
 20
3.6039444112
 30
0.0
 10
5.4138922799
 20
3.6036613999
 30
0.0
 10
5.4082567856
 20
3.6033339341
 30
0.0
 10
5.4018077622
 20
3.6030054921
 30
0.0
 10
5.3945580654
 20
3.6026761472
 30
0.0
 10
5.3865223509
 20
3.6023461129
 30
0.0
 10
5.3777171228
 20
3.6020155229
 30
0.0
 10
5.3644920088
 20
3.6015574173
 30
0.0
 10
5.3461862659
 20
3.6009912826
 30
0.0
 10
5.3222004963
 20
3.6003311244
 30
0.0
 10
5.2956733102
 20
3.599668809
 30
0.0
 10
5.266828428
 20
3.5990045519
 30
0.0
 10
5.2359107365
 20
3.5983386178
 30
0.0
 10
5.2031843264
 20
3.5976711493
 30
0.0
 10
5.1689302082
 20
3.5970022633
 30
0.0
 10
5.1334440875
 20
3.596332045
 30
0.0
 10
5.0970339706
 20
3.5956605576
 30
0.0
 10
5.0600175382
 20
3.5949878546
 30
0.0
 10
5.0227193725
 20
3.5943139861
 30
0.0
 10
4.9854681872
 20
3.5936389996
 30
0.0
 10
4.9485939707
 20
3.5929629416
 30
0.0
 10
4.9124250339
 20
3.5922858663
 30
0.0
 10
4.8772850568
 20
3.591607839
 30
0.0
 10
4.8434902188
 20
3.5909289443
 30
0.0
 10
4.8113462591
 20
3.5902492806
 30
0.0
 10
4.7811455758
 20
3.5895690207
 30
0.0
 10
4.7531644667
 20
3.5888883141
 30
0.0
 10
4.7313532106
 20
3.5883062676
 30
0.0
 10
4.7152056072
 20
3.5878357288
 30
0.0
 10
4.7041378885
 20
3.5874923985
 30
0.0
 10
4.6938038074
 20
3.5871489232
 30
0.0
 10
4.6842277224
 20
3.586805359
 30
0.0
 10
4.6754322788
 20
3.5864617917
 30
0.0
 10
4.6674382901
 20
3.5861182489
 30
0.0
 10
4.6602649585
 20
3.5857749774
 30
0.0
 10
4.6539294286
 20
3.5854320317
 30
0.0
 10
4.6491812671
 20
3.5851358929
 30
0.0
 10
4.6458133581
 20
3.5848954804
 30
0.0
 10
4.6436133748
 20
3.584722877
 30
0.0
 10
4.6416331321
 20
3.5845503983
 30
0.0
 10
4.6398737907
 20
3.5843781254
 30
0.0
 10
4.6383363466
 20
3.5842061527
 30
0.0
 10
4.6370216509
 20
3.5840347642
 30
0.0
 10
4.6359306018
 20
3.5838640523
 30
0.0
 10
4.6351626627
 20
3.5837147076
 30
0.0
 10
4.6346621642
 20
3.5835912355
 30
0.0
 10
4.6343695098
 20
3.583505381
 30
0.0
 10
4.6341328076
 20
3.5834199201
 30
0.0
 10
4.6339964894
 20
3.5833561681
 30
0.0
 10
4.6339390466
 20
3.5833229794
 30
0.0
  0
LINE
  5
2C7
100
AcDbEntity
  8
0
100
AcDbLine
 62
7
  6
CONTINUOUS
 10
4.6509360228
 20
3.8074395831
 11
4.6515069072
 21
3.8077094582
  0
SPLINE
  5
2C8
100
AcDbEntity
  8
0
100
AcDbSpline
 62
7
  6
CONTINUOUS
 70
0
 71
3
 72
66
 73
62
 74
0
 42
0.0000001
 43
0.0000001
 44
0.0000000001
 40
0.0
 40
0.0
 40
0.0
 40
0.0
 40
0.0011230197
 40
0.0025186031
 40
0.0041903005
 40
0.0061393565
 40
0.0083660443
 40
0.0108701287
 40
0.0136510703
 40
0.0167079839
 40
0.0236431969
 40
0.0316615441
 40
0.0407470013
 40
0.0508789048
 40
0.0620349098
 40
0.0741904128
 40
0.0873171247
 40
0.101386024
 40
0.1322189709
 40
0.1664085353
 40
0.2036422402
 40
0.2435795587
 40
0.2858552825
 40
0.3300827128
 40
0.3758568968
 40
0.4227586746
 40
0.4703586908
 40
0.5182211366
 40
0.5659076503
 40
0.6129815933
 40
0.6590120498
 40
0.7035775761
 40
0.746270043
 40
0.786698848
 40
0.8244942925
 40
0.8593107655
 40
0.8908299443
 40
0.9052620569
 40
0.9187645654
 40
0.9313072938
 40
0.9428609834
 40
0.9534003875
 40
0.9629017135
 40
0.9713435871
 40
0.9787087192
 40
0.9819824181
 40
0.9849812397
 40
0.9877041208
 40
0.9901501705
 40
0.9923187102
 40
0.9942094007
 40
0.9958226872
 40
0.9971605917
 40
0.9977275692
 40
0.9982276029
 40
0.9986620228
 40
0.9990329074
 40
0.9993436629
 40
0.999600164
 40
0.9998129089
 40
1.0
 40
1.0
 40
1.0
 40
1.0
 10
4.6515069072
 20
3.8077094582
 30
0.0
 10
4.6517644957
 20
3.807812457
 30
0.0
 10
4.6523552399
 20
3.8080104897
 30
0.0
 10
4.6533554881
 20
3.8082780141
 30
0.0
 10
4.6545655185
 20
3.8085466627
 30
0.0
 10
4.6559847845
 20
3.808816191
 30
0.0
 10
4.6576127557
 20
3.8090862964
 30
0.0
 10
4.6594486151
 20
3.8093568194
 30
0.0
 10
4.6614914941
 20
3.8096276623
 30
0.0
 10
4.6646242041
 20
3.8100051254
 30
0.0
 10
4.669049152
 20
3.8104703501
 30
0.0
 10
4.6749630637
 20
3.8110095247
 30
0.0
 10
4.6816694422
 20
3.8115496455
 30
0.0
 10
4.6891530582
 20
3.8120906576
 30
0.0
 10
4.6973968065
 20
3.8126322417
 30
0.0
 10
4.706381783
 20
3.8131742225
 30
0.0
 10
4.7160875071
 20
3.8137166094
 30
0.0
 10
4.7304027837
 20
3.8144630728
 30
0.0
 10
4.7499188753
 20
3.8153865813
 30
0.0
 10
4.7751560509
 20
3.8164658166
 30
0.0
 10
4.8026440835
 20
3.817546432
 30
0.0
 10
4.8321310072
 20
3.818628127
 30
0.0
 10
4.8633466423
 20
3.8197105645
 30
0.0
 10
4.8960049523
 20
3.8207935398
 30
0.0
 10
4.9298066194
 20
3.8218768958
 30
0.0
 10
4.9644418174
 20
3.8229605089
 30
0.0
 10
4.9995931178
 20
3.8240442703
 30
0.0
 10
5.0349383598
 20
3.825128084
 30
0.0
 10
5.0701535869
 20
3.8262118627
 30
0.0
 10
5.1049160489
 20
3.827295513
 30
0.0
 10
5.1389071656
 20
3.8283789295
 30
0.0
 10
5.1718153813
 20
3.8294619904
 30
0.0
 10
5.2033390717
 20
3.8305445487
 30
0.0
 10
5.2331893524
 20
3.8316264123
 30
0.0
 10
5.2610927287
 20
3.8327072667
 30
0.0
 10
5.2867934498
 20
3.8337868307
 30
0.0
 10
5.3067241159
 20
3.834709816
 30
0.0
 10
5.3213919714
 20
3.8354555013
 30
0.0
 10
5.3313763212
 20
3.8359979906
 30
0.0
 10
5.3406485183
 20
3.8365401116
 30
0.0
 10
5.3491874204
 20
3.8370818956
 30
0.0
 10
5.3569734041
 20
3.83762314
 30
0.0
 10
5.3639887117
 20
3.8381636318
 30
0.0
 10
5.3702173564
 20
3.8387032906
 30
0.0
 10
5.3749080555
 20
3.8391680913
 30
0.0
 10
5.3782558799
 20
3.8395446383
 30
0.0
 10
5.3804614559
 20
3.8398156666
 30
0.0
 10
5.3824609331
 20
3.8400864326
 30
0.0
 10
5.3842532971
 20
3.8403568693
 30
0.0
 10
5.3858375577
 20
3.8406268663
 30
0.0
 10
5.3872129143
 20
3.8408961938
 30
0.0
 10
5.3883786823
 20
3.8411647767
 30
0.0
 10
5.3892163555
 20
3.8413984775
 30
0.0
 10
5.389779048
 20
3.8415895133
 30
0.0
 10
5.3901246315
 20
3.8417246252
 30
0.0
 10
5.3904177661
 20
3.8418595523
 30
0.0
 10
5.3906586823
 20
3.8419943829
 30
0.0
 10
5.3908478435
 20
3.8421293787
 30
0.0
 10
5.3909858092
 20
3.8422655312
 30
0.0
 10
5.3910725348
 20
3.8424050682
 30
0.0
 10
5.3910933668
 20
3.8425044837
 30
0.0
 10
5.3910933436
 20
3.8425507005
 30
0.0
  0
SPLINE
  5
2C9
100
AcDbEntity
  8
0
100
AcDbSpline
 62
7
  6
CONTINUOUS
 70
0
 71
3
 72
81
 73
77
 74
0
 42
0.0000001
 43
0.0000001
 44
0.0000000001
 40
0.0
 40
0.0
 40
0.0
 40
0.0
 40
0.0000078681
 40
0.0000303114
 40
0.0000673175
 40
0.000118874
 40
0.0001849686
 40
0.0002655888
 40
0.0004703565
 40
0.0007330779
 40
0.0010536537
 40
0.0014319848
 40
0.0018679719
 40
0.0029125171
 40
0.004186464
 40
0.0056883877
 40
0.007416328
 40
0.0093683063
 40
0.0115423447
 40
0.0139364656
 40
0.0165485105
 40
0.0224145862
 40
0.029116068
 40
0.0366280868
 40
0.0449233159
 40
0.0539727623
 40
0.0637473893
 40
0.0742175802
 40
0.0853533949
 40
0.1095030795
 40
0.1359642308
 40
0.1499914951
 40
0.1645155515
 40
0.1795116856
 40
0.1949557263
 40
0.2108254735
 40
0.2270998579
 40
0.2437583474
 40
0.2607815099
 40
0.2781516242
 40
0.2958520423
 40
0.3321798684
 40
0.369647801
 40
0.3887779132
 40
0.4081523375
 40
0.4277593706
 40
0.4475862735
 40
0.467616086
 40
0.4878357425
 40
0.5287614085
 40
0.549433779
 40
0.5702085314
 40
0.5910588426
 40
0.6015033769
 40
0.6119547884
 40
0.6224090856
 40
0.6328624156
 40
0.6433108258
 40
0.6537501923
 40
0.6641762444
 40
0.6745848449
 40
0.6953356678
 40
0.7159765219
 40
0.7364811352
 40
0.756830408
 40
0.7770019847
 40
0.8167476425
 40
0.836295225
 40
0.8556074388
 40
0.8746714532
 40
0.8934722905
 40
0.91199815
 40
0.9302368441
 40
0.948174188
 40
0.9657933735
 40
1.0
 40
1.0
 40
1.0
 40
1.0
 10
4.3895392347
 20
5.3550085563
 30
0.0
 10
4.3895372872
 20
5.3550072144
 30
0.0
 10
4.3895303653
 20
5.355001259
 30
0.0
 10
4.3895143624
 20
5.3549888921
 30
0.0
 10
4.3894884087
 20
5.3549679085
 30
0.0
 10
4.3894520584
 20
5.3549389337
 30
0.0
 10
4.3894055407
 20
5.3549016747
 30
0.0
 10
4.3893230407
 20
5.3548356746
 30
0.0
 10
4.3891944132
 20
5.3547327195
 30
0.0
 10
4.3890094637
 20
5.354584706
 30
0.0
 10
4.3887837805
 20
5.3544040943
 30
0.0
 10
4.3885174236
 20
5.3541909529
 30
0.0
 10
4.3880811357
 20
5.353841866
 30
0.0
 10
4.3874345898
 20
5.3533246498
 30
0.0
 10
4.3865377619
 20
5.3526073794
 30
0.0
 10
4.3854802747
 20
5.3517620976
 30
0.0
 10
4.384263118
 20
5.3507901486
 30
0.0
 10
4.3828874373
 20
5.349692949
 30
0.0
 10
4.3813543721
 20
5.3484719319
 30
0.0
 10
4.3796651072
 20
5.3471285611
 30
0.0
 10
4.3771056131
 20
5.3450964657
 30
0.0
 10
4.3735281369
 20
5.3422642893
 30
0.0
 10
4.3687880128
 20
5.3385278089
 30
0.0
 10
4.3634648903
 20
5.3343514514
 30
0.0
 10
4.3575743373
 20
5.3297549763
 30
0.0
 10
4.3511324708
 20
5.3247595341
 30
0.0
 10
4.3441562334
 20
5.3193864021
 30
0.0
 10
4.3366617793
 20
5.3136584194
 30
0.0
 10
4.3256994946
 20
5.3053521523
 30
0.0
 10
4.3108278948
 20
5.2942464123
 30
0.0
 10
4.2951334944
 20
5.2827915295
 30
0.0
 10
4.2816850564
 20
5.2731691765
 30
0.0
 10
4.2709852662
 20
5.265628324
 30
0.0
 10
4.2598771839
 20
5.2579282149
 30
0.0
 10
4.2483706074
 20
5.2500937472
 30
0.0
 10
4.2364726731
 20
5.2421523632
 30
0.0
 10
4.2241895648
 20
5.2341317506
 30
0.0
 10
4.2115275286
 20
5.2260588413
 30
0.0
 10
4.198491253
 20
5.2179621226
 30
0.0
 10
4.185082094
 20
5.209874423
 30
0.0
 10
4.1665479767
 20
5.1990524737
 30
0.0
 10
4.1424776462
 20
5.1857364248
 30
0.0
 10
4.1175425628
 20
5.173129011
 30
0.0
 10
4.0968344273
 20
5.163497529
 30
0.0
 10
4.0808200611
 20
5.1565168339
 30
0.0
 10
4.0644327246
 20
5.149882205
 30
0.0
 10
4.0476773505
 20
5.1436502502
 30
0.0
 10
4.030560289
 20
5.137884929
 30
0.0
 10
4.0071833766
 20
5.1308808144
 30
0.0
 10
3.9832453147
 20
5.1251120473
 30
0.0
 10
3.9588554394
 20
5.1208089642
 30
0.0
 10
3.9402853592
 20
5.1183499778
 30
0.0
 10
3.9246865146
 20
5.11699592
 30
0.0
 10
3.9121541625
 20
5.1163412345
 30
0.0
 10
3.902733681
 20
5.1160671556
 30
0.0
 10
3.8933067494
 20
5.1160134605
 30
0.0
 10
3.8838820613
 20
5.1161814512
 30
0.0
 10
3.8744683202
 20
5.1165680267
 30
0.0
 10
3.8650741856
 20
5.1171707754
 30
0.0
 10
3.8557081694
 20
5.1179870751
 30
0.0
 10
3.8432822183
 20
5.1193555578
 30
0.0
 10
3.8278651505
 20
5.1215754105
 30
0.0
 10
3.8095741089
 20
5.1250099171
 30
0.0
 10
3.791556282
 20
5.1291596783
 30
0.0
 10
3.7738461557
 20
5.1339553932
 30
0.0
 10
3.7507933147
 20
5.1410889999
 30
0.0
 10
3.728334457
 20
5.1492750551
 30
0.0
 10
3.7064950368
 20
5.158297555
 30
0.0
 10
3.690578273
 20
5.1653602121
 30
0.0
 10
3.6750366976
 20
5.1727016008
 30
0.0
 10
3.6598678972
 20
5.1802691685
 30
0.0
 10
3.6450719713
 20
5.1880206269
 30
0.0
 10
3.6306474225
 20
5.1959153646
 30
0.0
 10
3.6165918265
 20
5.2039117522
 30
0.0
 10
3.598522675
 20
5.2145548816
 30
0.0
 10
3.5852644824
 20
5.2227386863
 30
0.0
 10
3.5765791185
 20
5.2282421158
 30
0.0
  0
LINE
  5
2CA
100
AcDbEntity
  8
0
100
AcDbLine
 62
7
  6
CONTINUOUS
 10
4.6509359015
 20
3.7360095834
 11
4.6512402214
 21
3.7361654085
  0
SPLINE
  5
2CB
100
AcDbEntity
  8
0
100
AcDbSpline
 62
7
  6
CONTINUOUS
 70
0
 71
3
 72
68
 73
64
 74
0
 42
0.0000001
 43
0.0000001
 44
0.0000000001
 40
0.0
 40
0.0
 40
0.0
 40
0.0
 40
0.0004738921
 40
0.0010146548
 40
0.002300489
 40
0.0038627464
 40
0.005703822
 40
0.007824493
 40
0.0102245015
 40
0.0129031964
 40
0.0158596929
 40
0.0226014489
 40
0.0304363833
 40
0.0393476263
 40
0.0493165077
 40
0.0603198423
 40
0.0723332794
 40
0.0853296345
 40
0.0992786125
 40
0.1141491225
 40
0.1299064647
 40
0.1639355751
 40
0.2010531695
 40
0.2409179106
 40
0.2831629154
 40
0.3273988644
 40
0.3732181224
 40
0.4201985619
 40
0.4679072768
 40
0.51590446
 40
0.5637477365
 40
0.6109962405
 40
0.6572144823
 40
0.7019764008
 40
0.7448696706
 40
0.7854992981
 40
0.8234910794
 40
0.8584951092
 40
0.8901897117
 40
0.9047041065
 40
0.9182842183
 40
0.9308996226
 40
0.9425215081
 40
0.9531229552
 40
0.9626810035
 40
0.9711736565
 40
0.9785827975
 40
0.9818763956
 40
0.9848936234
 40
0.9876329644
 40
0.9900935982
 40
0.9922750451
 40
0.9941771625
 40
0.9958003788
 40
0.9971462455
 40
0.9977164487
 40
0.9982192405
 40
0.9986559784
 40
0.999028769
 40
0.9993410473
 40
0.9995987193
 40
0.9998123169
 40
1.0
 40
1.0
 40
1.0
 40
1.0
 10
4.6512402214
 20
3.7361654085
 30
0.0
 10
4.6513466306
 20
3.7362143163
 30
0.0
 10
4.6515782178
 20
3.7363109074
 30
0.0
 10
4.6521134596
 20
3.7365029949
 30
0.0
 10
4.6529181127
 20
3.7367375727
 30
0.0
 10
4.6540454607
 20
3.7370067973
 30
0.0
 10
4.655383841
 20
3.7372768411
 30
0.0
 10
4.656932624
 20
3.7375475991
 30
0.0
 10
4.6586910704
 20
3.7378188279
 30
0.0
 10
4.6606581725
 20
3.7380904359
 30
0.0
 10
4.6636932849
 20
3.7384697311
 30
0.0
 10
4.668001209
 20
3.7389366814
 30
0.0
 10
4.6737805679
 20
3.7394772719
 30
0.0
 10
4.6803603743
 20
3.7400190159
 30
0.0
 10
4.6877254353
 20
3.7405615966
 30
0.0
 10
4.6958589456
 20
3.7411048494
 30
0.0
 10
4.7047421051
 20
3.7416485494
 30
0.0
 10
4.7143544376
 20
3.7421925857
 30
0.0
 10
4.7246738534
 20
3.7427369366
 30
0.0
 10
4.735676454
 20
3.7432814795
 30
0.0
 10
4.7516374214
 20
3.7440270433
 30
0.0
 10
4.7730937638
 20
3.7449512179
 30
0.0
 10
4.8005060822
 20
3.746035302
 30
0.0
 10
4.829950184
 20
3.7471204024
 30
0.0
 10
4.8611544966
 20
3.7482062969
 30
0.0
 10
4.8938311452
 20
3.749292748
 30
0.0
 10
4.9276786452
 20
3.7503795975
 30
0.0
 10
4.9623847729
 20
3.7514667109
 30
0.0
 10
4.997629374
 20
3.7525539786
 30
0.0
 10
5.0330873021
 20
3.7536413079
 30
0.0
 10
5.0684314481
 20
3.7547286064
 30
0.0
 10
5.1033357679
 20
3.7558157773
 30
0.0
 10
5.1374782393
 20
3.7569027162
 30
0.0
 10
5.1705438755
 20
3.7579893069
 30
0.0
 10
5.2022276709
 20
3.7590753907
 30
0.0
 10
5.2322373918
 20
3.7601607755
 30
0.0
 10
5.2602961765
 20
3.7612451479
 30
0.0
 10
5.2861451703
 20
3.7623282366
 30
0.0
 10
5.3061936693
 20
3.7632542116
 30
0.0
 10
5.3209501295
 20
3.764002288
 30
0.0
 10
5.3309958592
 20
3.7645465495
 30
0.0
 10
5.3403256753
 20
3.7650904735
 30
0.0
 10
5.3489180698
 20
3.7656339821
 30
0.0
 10
5.3567533043
 20
3.7661770357
 30
0.0
 10
5.363813261
 20
3.7667192877
 30
0.0
 10
5.3700817946
 20
3.7672606759
 30
0.0
 10
5.3748026734
 20
3.7677270417
 30
0.0
 10
5.3781721573
 20
3.7681048081
 30
0.0
 10
5.3803921393
 20
3.7683766988
 30
0.0
 10
5.382404625
 20
3.7686483536
 30
0.0
 10
5.3842085558
 20
3.7689196852
 30
0.0
 10
5.3858030579
 20
3.7691905789
 30
0.0
 10
5.3871874261
 20
3.7694607982
 30
0.0
 10
5.3883609173
 20
3.7697302127
 30
0.0
 10
5.3892041509
 20
3.769964675
 30
0.0
 10
5.3897705102
 20
3.7701563546
 30
0.0
 10
5.3901182797
 20
3.7702919085
 30
0.0
 10
5.3904132504
 20
3.7704272762
 30
0.0
 10
5.3906556723
 20
3.770562546
 30
0.0
 10
5.3908460327
 20
3.7706979771
 30
0.0
 10
5.3909849084
 20
3.7708345633
 30
0.0
 10
5.391072304
 20
3.7709745265
 30
0.0
 10
5.3910933922
 20
3.7710743189
 30
0.0
 10
5.3910934067
 20
3.7711207001
 30
0.0
  0
SPLINE
  5
2CC
100
AcDbEntity
  8
0
100
AcDbSpline
 62
7
  6
CONTINUOUS
 70
0
 71
3
 72
69
 73
65
 74
0
 42
0.0000001
 43
0.0000001
 44
0.0000000001
 40
0.0
 40
0.0
 40
0.0
 40
0.0
 40
0.0004012643
 40
0.0008681391
 40
0.0014023317
 40
0.0020049396
 40
0.0034179544
 40
0.0051108248
 40
0.0070851381
 40
0.0093415264
 40
0.0118796236
 40
0.0146984403
 40
0.0211732635
 40
0.0287548065
 40
0.0374266129
 40
0.0471695078
 40
0.0579623534
 40
0.0697796945
 40
0.0825951116
 40
0.096379019
 40
0.1110991432
 40
0.1267222476
 40
0.1605287312
 40
0.1974853275
 40
0.2372489864
 40
0.2794501083
 40
0.3236965357
 40
0.3695771174
 40
0.4166653379
 40
0.4645232319
 40
0.5127057931
 40
0.5607650387
 40
0.6082540125
 40
0.654731064
 40
0.6997641642
 40
0.7429347625
 40
0.7838415181
 40
0.8221041864
 40
0.8573676571
 40
0.8893049526
 40
0.9039324192
 40
0.9176202383
 40
0.9303361379
 40
0.9420517505
 40
0.9527396487
 40
0.9623756205
 40
0.970938623
 40
0.9784089636
 40
0.9817297036
 40
0.9847720136
 40
0.9875344123
 40
0.9900156014
 40
0.9922149836
 40
0.9941326122
 40
0.9957691146
 40
0.9971261596
 40
0.997701047
 40
0.9982078337
 40
0.9986478885
 40
0.9990233513
 40
0.9993376965
 40
0.9995968845
 40
0.9998115403
 40
1.0
 40
1.0
 40
1.0
 40
1.0
 10
4.6509357906
 20
3.664579583
 30
0.0
 10
4.6510216753
 20
3.6646292427
 30
0.0
 10
4.6512130848
 20
3.664727028
 30
0.0
 10
4.6515321865
 20
3.6648630419
 30
0.0
 10
4.6519047042
 20
3.664999258
 30
0.0
 10
4.6525052573
 20
3.6651914057
 30
0.0
 10
4.6533919394
 20
3.6654267922
 30
0.0
 10
4.6546186236
 20
3.6656976449
 30
0.0
 10
4.6560579498
 20
3.665969239
 30
0.0
 10
4.6577092871
 20
3.6662414214
 30
0.0
 10
4.6595718306
 20
3.666514032
 30
0.0
 10
4.6624721583
 20
3.6668957996
 30
0.0
 10
4.6666181899
 20
3.6673651903
 30
0.0
 10
4.6722113769
 20
3.6679077139
 30
0.0
 10
4.678615742
 20
3.668451514
 30
0.0
 10
4.68581648
 20
3.6689963551
 30
0.0
 10
4.6937968627
 20
3.6695418066
 30
0.0
 10
4.7025384586
 20
3.6700878302
 30
0.0
 10
4.7120208602
 20
3.6706342066
 30
0.0
 10
4.7222220264
 20
3.6711808722
 30
0.0
 10
4.7331182758
 20
3.6717278212
 30
0.0
 10
4.7489608961
 20
3.67247713
 30
0.0
 10
4.77029881
 20
3.6734057542
 30
0.0
 10
4.7976036785
 20
3.6744944517
 30
0.0
 10
4.8269855113
 20
3.6755842254
 30
0.0
 10
4.8581708001
 20
3.676674842
 30
0.0
 10
4.8908692867
 20
3.6777660415
 30
0.0
 10
4.9247766852
 20
3.6788576565
 30
0.0
 10
4.9595774182
 20
3.6799495486
 30
0.0
 10
4.9949475589
 20
3.6810416109
 30
0.0
 10
5.0305578858
 20
3.6821337424
 30
0.0
 10
5.0660769592
 20
3.6832258463
 30
0.0
 10
5.1011741676
 20
3.6843178277
 30
0.0
 10
5.1355228343
 20
3.6854095839
 30
0.0
 10
5.1688032889
 20
3.6865009901
 30
0.0
 10
5.2007058003
 20
3.6875918871
 30
0.0
 10
5.2309333975
 20
3.6886820851
 30
0.0
 10
5.2592047408
 20
3.6897712757
 30
0.0
 10
5.2852567646
 20
3.6908591811
 30
0.0
 10
5.3054666088
 20
3.6917891938
 30
0.0
 10
5.3203444594
 20
3.6925405996
 30
0.0
 10
5.3304742548
 20
3.6930872466
 30
0.0
 10
5.3398830216
 20
3.693633619
 30
0.0
 10
5.3485487734
 20
3.6941795522
 30
0.0
 10
5.35645144
 20
3.6947249865
 30
0.0
 10
5.3635726857
 20
3.6952697119
 30
0.0
 10
5.3698959105
 20
3.6958134582
 30
0.0
 10
5.3746582076
 20
3.6962819064
 30
0.0
 10
5.3780572928
 20
3.6966613728
 30
0.0
 10
5.3802969158
 20
3.6969344836
 30
0.0
 10
5.3823273245
 20
3.6972073233
 30
0.0
 10
5.3841473139
 20
3.6974798543
 30
0.0
 10
5.3857559081
 20
3.6977519658
 30
0.0
 10
5.387152474
 20
3.6980234001
 30
0.0
 10
5.3883363941
 20
3.6982940356
 30
0.0
 10
5.3891872423
 20
3.6985295148
 30
0.0
 10
5.3897587902
 20
3.6987220374
 30
0.0
 10
5.3901096943
 20
3.6988581907
 30
0.0
 10
5.3904072714
 20
3.698994157
 30
0.0
 10
5.3906517898
 20
3.6991300219
 30
0.0
 10
5.3908437632
 20
3.6992660446
 30
0.0
 10
5.3909837984
 20
3.6994032245
 30
0.0
 10
5.3910719383
 20
3.6995438114
 30
0.0
 10
5.3910932222
 20
3.6996441054
 30
0.0
 10
5.3910932411
 20
3.6996907
 30
0.0
  0
SPLINE
  5
2CD
100
AcDbEntity
  8
0
100
AcDbSpline
 62
7
  6
CONTINUOUS
 70
0
 71
3
 72
15
 73
11
 74
0
 42
0.0000001
 43
0.0000001
 44
0.0000000001
 40
0.0
 40
0.0
 40
0.0
 40
0.0
 40
0.1485488836
 40
0.2895795707
 40
0.4228756716
 40
0.5488151316
 40
0.6681703323
 40
0.7820832369
 40
0.892069152
 40
1.0
 40
1.0
 40
1.0
 40
1.0
 10
3.576579118
 20
5.2282421157
 30
0.0
 10
3.5775060378
 20
5.2287694596
 30
0.0
 10
3.5793572406
 20
5.2297225067
 30
0.0
 10
3.5821793589
 20
5.2308544184
 30
0.0
 10
3.5849501078
 20
5.2316383097
 30
0.0
 10
3.5876413005
 20
5.2320661452
 30
0.0
 10
3.5902275384
 20
5.2321310123
 30
0.0
 10
3.5926833958
 20
5.231831398
 30
0.0
 10
3.5949815617
 20
5.2311660908
 30
0.0
 10
3.5963976845
 20
5.2304802345
 30
0.0
 10
3.5970632172
 20
5.2300834561
 30
0.0
  0
SPLINE
  5
2CE
100
AcDbEntity
  8
0
100
AcDbSpline
 62
7
  6
CONTINUOUS
 70
0
 71
3
 72
26
 73
22
 74
0
 42
0.0000001
 43
0.0000001
 44
0.0000000001
 40
0.0
 40
0.0
 40
0.0
 40
0.0
 40
0.010388389
 40
0.0220945752
 40
0.0351482618
 40
0.0495701499
 40
0.065373987
 40
0.0825670289
 40
0.1011532168
 40
0.1211343518
 40
0.1652800015
 40
0.2149856059
 40
0.270201114
 40
0.3308664057
 40
0.396902575
 40
0.4682091226
 40
0.5446812883
 40
0.6262030261
 40
0.7126492243
 40
0.8038876164
 40
1.0
 40
1.0
 40
1.0
 40
1.0
 10
5.4089718305
 20
3.5847249003
 30
0.0
 10
5.4086270718
 20
3.5845256163
 30
0.0
 10
5.4078771328
 20
3.5841304605
 30
0.0
 10
5.4066507591
 20
3.5835713318
 30
0.0
 10
5.4052567795
 20
3.5830110324
 30
0.0
 10
5.4036953301
 20
3.5824496317
 30
0.0
 10
5.40196662
 20
3.5818871689
 30
0.0
 10
5.4000711333
 20
3.5813236382
 30
0.0
 10
5.3980094701
 20
3.5807590481
 30
0.0
 10
5.3949362508
 20
3.579978734
 30
0.0
 10
5.3906810493
 20
3.5790097539
 30
0.0
 10
5.3850798838
 20
3.5778773778
 30
0.0
 10
5.3788348985
 20
3.5767403336
 30
0.0
 10
5.3719553982
 20
3.575598949
 30
0.0
 10
5.3644520339
 20
3.5744534671
 30
0.0
 10
5.3563368886
 20
3.5733038575
 30
0.0
 10
5.3476231657
 20
3.5721503643
 30
0.0
 10
5.3383248671
 20
3.5709929672
 30
0.0
 10
5.3284569168
 20
3.569831523
 30
0.0
 10
5.3142170675
 20
3.5682392758
 30
0.0
 10
5.3032611742
 20
3.5670993119
 30
0.0
 10
5.2957812984
 20
3.5663485616
 30
0.0
  0
ENDSEC
  0
SECTION
  2
OBJECTS
  0
DICTIONARY
  5
C
100
AcDbDictionary
280
0
281
1
  3
ACAD_GROUP
350
D
  3
ACAD_MLINESTYLE
350
17
  3
ACAD_LAYOUT
350
1A
  3
ACAD_PLOTSETTINGS
350
19
  3
ACAD_PLOTSTYLENAME
350
E
  0
DICTIONARY
  5
D
102
{ACAD_REACTORS
330
C
102
}
100
AcDbDictionary
280
0
281
1
  0
ACDBDICTIONARYWDFLT
  5
E
102
{ACAD_REACTORS
330
C
102
}
100
AcDbDictionary
281
1
  3
Normal
350
F
100
AcDbDictionaryWithDefault
340
F
  0
DICTIONARY
  5
17
102
{ACAD_REACTORS
330
C
102
}
100
AcDbDictionary
280
0
281
1
  3
Standard
350
18
  0
DICTIONARY
  5
19
102
{ACAD_REACTORS
330
C
102
}
100
AcDbDictionary
281
1
  0
DICTIONARY
  5
1A
102
{ACAD_REACTORS
330
C
102
}
100
AcDbDictionary
281
1
  3
Model
350
2CF
  3
Layout1
350
2D0
  0
ACDBPLACEHOLDER
  5
F
102
{ACAD_REACTORS
330
E
102
}
  0
MLINESTYLE
  5
18
102
{ACAD_REACTORS
330
17
102
}
100
AcDbMlineStyle
  2
STANDARD
 70
0
  3

 62
256
 51
90.0
 52
90.0
 71
2
 49
0.5
 62
256
  6
BYLAYER
 49
-0.5
 62
256
  6
BYLAYER
  0
LAYOUT
  5
2CF
102
{ACAD_REACTORS
330
1A
102
}
100
AcDbPlotSettings
  1

  2
none_device
  4
ANSI_A_(11.00_x_8.50_Inches)
  6

 40
0.0
 41
0.0
 42
0.0
 43
0.0
 44
279.4
 45
215.9
 46
0.0
 47
0.0
 48
0.0
 49
0.0
140
0.0
141
0.0
142
1.0
143
1.0
 70
1024
 72
0
 73
0
 74
0
  7

 75
0
147
1.0
148
0.0
149
0.0
100
AcDbLayout
  1
Model
 70
0
 71
0
 10
0.0
 20
0.0
 11
11.0
 21
8.5
 12
0.0
 22
0.0
 32
0.0
 14
0.0
 24
0.0
 34
0.0
 15
0.0
 25
0.0
 35
0.0
146
0.0
 13
0.0
 23
0.0
 33
0.0
 16
1.0
 26
0.0
 36
0.0
 17
0.0
 27
1.0
 37
0.0
 76
0
330
203
345
0
346
0
  0
LAYOUT
  5
2D0
102
{ACAD_REACTORS
330
1A
102
}
100
AcDbPlotSettings
  1

  2
none_device
  4
ANSI_A_(11.00_x_8.50_Inches)
  6

 40
0.0
 41
0.0
 42
0.0
 43
0.0
 44
279.4
 45
215.9
 46
0.0
 47
0.0
 48
0.0
 49
0.0
140
0.0
141
0.0
142
1.0
143
1.0
 70
0
 72
0
 73
0
 74
0
  7

 75
0
147
1.0
148
0.0
149
0.0
100
AcDbLayout
  1
Layout1
 70
0
 71
1
 10
0.0
 20
0.0
 11
11.0
 21
8.5
 12
0.0
 22
0.0
 32
0.0
 14
0.0
 24
0.0
 34
0.0
 15
0.0
 25
0.0
 35
0.0
146
0.0
 13
0.0
 23
0.0
 33
0.0
 16
1.0
 26
0.0
 36
0.0
 17
0.0
 27
1.0
 37
0.0
 76
0
330
204
345
0
346
0
  0
ENDSEC
  0
EOF
