999
DXF file: 3-672_top.dxf
999
Pro/ENGINEER 2023134 by Parametric Technology Corporation
  0
SECTION
  2
HEADER
  9
$ACADVER
  1
AC1032
  9
$DWGCODEPAGE
  3
ANSI_1252
  9
$EXTMAX
 10
11.0
 20
8.5
 30
0.0
  9
$EXTMIN
 10
0.0
 20
0.0
 30
0.0
  9
$LIMMIN
 10
0.0
 20
0.0
  9
$LIMMAX
 10
11.0
 20
8.5
  9
$VIEWCTR
 10
5.5
 20
4.25
  9
$VIEWSIZE
 40
8.5
  9
$CLAYER
  8
0
  9
$LTSCALE
 40
0.605
  9
$CELTYPE
  6
BYLAYER
  9
$DIMSCALE
 40
1.0
  9
$DIMASZ
 40
0.1
  9
$DIMEXO
 40
0.03125
  9
$DIMDLI
 40
0.418
  9
$DIMEXE
 40
0.0625
  9
$DIMCEN
 40
0.099
  9
$DIMLFAC
 40
1.0
  9
$DIMBLK
  1
_FILLED
  9
$DIMALT
 70
1
  9
$DIMALTD
 70
2
  9
$DIMALTTD
 70
2
  9
$DIMALTF
 40
25.4
  9
$DIMTXT
 40
0.08
  9
$DIMTOL
 70
1
  9
$DIMLIM
 70
0
  9
$DIMTFAC
 40
1.0
  9
$DIMTP
 40
0.001
  9
$DIMTM
 40
0.001
  9
$DIMGAP
 40
0.09
  9
$DIMDSEP
 70
46
  9
$AUNITS
 70
0
  9
$PDMODE
 70
3
  9
$PDSIZE
 40
0.06
  9
$HANDSEED
  5
253
  9
$TILEMODE
 70
1
  9
$MEASUREMENT
 70
0
  9
$INSUNITS
 70
1
  0
ENDSEC
  0
SECTION
  2
CLASSES
  0
CLASS
  1
ACDBDICTIONARYWDFLT
  2
AcDbDictionaryWithDefault
  3
AutoCAD 2000
 90
0
 91
1
280
0
281
0
  0
CLASS
  1
ACDBPLACEHOLDER
  2
AcDbPlaceHolder
  3
AutoCAD 2000
 90
0
 91
1
280
0
281
0
  0
CLASS
  1
LAYOUT
  2
AcDbLayout
  3
AutoCAD 2000
 90
0
 91
0
280
0
281
0
  0
ENDSEC
  0
SECTION
  2
TABLES
  0
TABLE
  2
VPORT
  5
8
100
AcDbSymbolTable
 70
2
  0
VPORT
  5
1F4
100
AcDbSymbolTableRecord
100
AcDbViewportTableRecord
  2
*ACTIVE
 70
0
 10
0.0
 20
0.0
 11
1.0
 21
1.0
 12
5.5
 22
4.25
 13
0.0
 23
0.0
 14
1.0
 24
1.0
 15
0.0
 25
0.0
 16
0.0
 26
0.0
 36
1.0
 17
0.0
 27
0.0
 37
0.0
 40
8.5
 41
1.2941176471
 42
50.0
 43
0.0
 44
0.0
 50
0.0
 51
0.0
 71
0
 72
100
 73
1
 74
1
 75
0
 76
0
 77
0
 78
0
  0
ENDTAB
  0
TABLE
  2
LTYPE
  5
5
100
AcDbSymbolTable
 70
6
  0
LTYPE
  5
14
100
AcDbSymbolTableRecord
100
AcDbLinetypeTableRecord
  2
BYBLOCK
 70
0
  3

 72
65
 73
0
 40
0.0
  0
LTYPE
  5
15
100
AcDbSymbolTableRecord
100
AcDbLinetypeTableRecord
  2
BYLAYER
 70
0
  3

 72
65
 73
0
 40
0.0
  0
LTYPE
  5
16
100
AcDbSymbolTableRecord
100
AcDbLinetypeTableRecord
  2
CONTINUOUS
 70
64
  3
Solid line
 72
65
 73
0
 40
0.0
  0
LTYPE
  5
1F5
100
AcDbSymbolTableRecord
100
AcDbLinetypeTableRecord
  2
CENTER
 70
64
  3
____ _ ____ _ ____ _ ____ _ ____ _ ____ _ ____
 72
65
 73
4
 40
0.6
 49
0.375
 74
0
 49
-0.075
 74
0
 49
0.075
 74
0
 49
-0.075
 74
0
  0
LTYPE
  5
1F6
100
AcDbSymbolTableRecord
100
AcDbLinetypeTableRecord
  2
HIDDEN
 70
64
  3
- - - - - - - - - - - - - - - - - - - -
 72
65
 73
2
 40
0.2
 49
0.1
 74
0
 49
-0.1
 74
0
  0
LTYPE
  5
1F7
100
AcDbSymbolTableRecord
100
AcDbLinetypeTableRecord
  2
PHANTOM
 70
64
  3
_____ _ _ _____ _ _ _____ _ _ _____
 72
65
 73
6
 40
0.8
 49
0.45
 74
0
 49
-0.05
 74
0
 49
0.1
 74
0
 49
-0.05
 74
0
 49
0.1
 74
0
 49
-0.05
 74
0
  0
LTYPE
  5
1F8
100
AcDbSymbolTableRecord
100
AcDbLinetypeTableRecord
  2
DOT
 70
64
  3
. . . . . . . . . . . . . . . . . . . .
 72
65
 73
2
 40
0.2
 49
0.1
 74
0
 49
-0.1
 74
0
  0
LTYPE
  5
1F9
100
AcDbSymbolTableRecord
100
AcDbLinetypeTableRecord
  2
DASHED
 70
64
  3
- - - - - - - - - - - - - - - - - - - -
 72
65
 73
2
 40
0.2
 49
0.1
 74
0
 49
-0.1
 74
0
  0
ENDTAB
  0
TABLE
  2
LAYER
  5
2
100
AcDbSymbolTable
 70
36
  0
LAYER
  5
10
100
AcDbSymbolTableRecord
100
AcDbLayerTableRecord
  2
0
 70
0
 62
7
  6
CONTINUOUS
370
-3
390
F
  0
LAYER
  5
1FA
100
AcDbSymbolTableRecord
100
AcDbLayerTableRecord
  2
DEFAULT_1
 70
0
 62
7
  6
CENTER
370
-3
390
F
  0
LAYER
  5
1FB
100
AcDbSymbolTableRecord
100
AcDbLayerTableRecord
  2
DEFAULT_2
 70
0
 62
8
  6
HIDDEN
370
-3
390
F
  0
LAYER
  5
1FC
100
AcDbSymbolTableRecord
100
AcDbLayerTableRecord
  2
DEFAULT_3
 70
0
 62
7
  6
PHANTOM
370
-3
390
F
  0
LAYER
  5
1FD
100
AcDbSymbolTableRecord
100
AcDbLayerTableRecord
  2
DEFAULT_COORDINATE_SYSTEM
 70
0
 62
7
  6
CONTINUOUS
370
-3
390
F
  0
LAYER
  5
1FE
100
AcDbSymbolTableRecord
100
AcDbLayerTableRecord
  2
DEFAULT_DATUM_AXES
 70
0
 62
7
  6
CONTINUOUS
370
-3
390
F
  0
LAYER
  5
1FF
100
AcDbSymbolTableRecord
100
AcDbLayerTableRecord
  2
DEFAULT_DATUM_CURVES
 70
0
 62
7
  6
CONTINUOUS
370
-3
390
F
  0
LAYER
  5
200
100
AcDbSymbolTableRecord
100
AcDbLayerTableRecord
  2
DEFAULT_DATUM_PLANES
 70
0
 62
7
  6
CONTINUOUS
370
-3
390
F
  0
ENDTAB
  0
TABLE
  2
STYLE
  5
3
100
AcDbSymbolTable
 70
1
  0
STYLE
  5
11
100
AcDbSymbolTableRecord
100
AcDbTextStyleTableRecord
  2
STANDARD
 70
0
 40
0.0
 41
0.8
 50
0.0
 71
0
 42
0.2
  3
txt
  4

  0
STYLE
  5
201
100
AcDbSymbolTableRecord
100
AcDbTextStyleTableRecord
  2
TEXTSTYLE_1
 70
0
 40
0.0
 41
0.8
 50
0.0
 71
0
 42
0.2
  3
gdt
  4

  0
ENDTAB
  0
TABLE
  2
VIEW
  5
6
100
AcDbSymbolTable
 70
0
  0
ENDTAB
  0
TABLE
  2
UCS
  5
7
100
AcDbSymbolTable
 70
0
  0
ENDTAB
  0
TABLE
  2
APPID
  5
9
100
AcDbSymbolTable
 70
1
  0
APPID
  5
202
100
AcDbSymbolTableRecord
100
AcDbRegAppTableRecord
  2
ACAD
 70
0
  0
ENDTAB
  0
TABLE
  2
BLOCK_RECORD
  5
1
100
AcDbSymbolTable
 70
0
  0
BLOCK_RECORD
  5
203
100
AcDbSymbolTableRecord
100
AcDbBlockTableRecord
  2
*Model_Space
  0
BLOCK_RECORD
  5
204
100
AcDbSymbolTableRecord
100
AcDbBlockTableRecord
  2
*Paper_Space
  0
BLOCK_RECORD
  5
205
100
AcDbSymbolTableRecord
100
AcDbBlockTableRecord
  2
_FILLED
  0
ENDTAB
  0
TABLE
  2
DIMSTYLE
  5
A
100
AcDbSymbolTable
 70
1
100
AcDbDimStyleTable
 71
0
  0
DIMSTYLE
105
206
100
AcDbSymbolTableRecord
100
AcDbDimStyleTableRecord
  2
STANDARD
 70
0
  3

  4

 40
1.0
 41
0.1
 42
0.03125
 43
0.38
 44
0.0625
 45
0.0
 46
0.0
 47
0.001
 48
0.001
140
0.08
141
0.09
142
0.0
143
25.4
144
1.0
145
0.0
146
1.0
147
0.09
 71
1
 72
0
 73
1
 74
1
 75
0
 76
0
 77
0
 78
4
 79
1
170
1
171
2
172
0
173
0
174
0
175
0
176
0
177
0
178
0
270
2
179
3
271
3
272
3
273
2
274
2
275
0
280
0
281
0
282
0
283
1
284
4
285
0
286
0
287
3
288
0
340
11
278
46
341
205
342
205
343
205
344
205
  0
ENDTAB
  0
ENDSEC
  0
SECTION
  2
BLOCKS
  0
BLOCK
  5
20
100
AcDbEntity
  8
0
100
AcDbBlockBegin
  2
*Model_Space
 70
0
 10
0.0
 20
0.0
 30
0.0
  3
*Model_Space
  1

  0
ENDBLK
  5
21
100
AcDbEntity
  8
0
100
AcDbBlockEnd
  0
BLOCK
  5
1C
100
AcDbEntity
  8
0
100
AcDbBlockBegin
  2
*Paper_Space
 70
0
 10
0.0
 20
0.0
 30
0.0
  3
*Paper_Space
  1

  0
ENDBLK
  5
1D
100
AcDbEntity
  8
0
100
AcDbBlockEnd
  0
BLOCK
  5
207
100
AcDbEntity
  8
0
100
AcDbBlockBegin
  2
_FILLED
 70
64
 10
0.0
 20
0.0
  3
_FILLED
  1

  0
SOLID
  5
208
100
AcDbEntity
  8
0
  6
BYBLOCK
 62
0
100
AcDbTrace
 10
0.0
 20
0.0
 11
-1.0
 21
0.2
 12
-1.0
 22
-0.2
 13
-1.0
 23
-0.2
  0
ENDBLK
  5
209
100
AcDbEntity
  8
0
  6
BYBLOCK
 62
0
100
AcDbBlockEnd
  0
ENDSEC
  0
SECTION
  2
ENTITIES
  0
MTEXT
  5
20A
100
AcDbEntity
  8
0
100
AcDbMText
 62
2
  6
CONTINUOUS
  7
STANDARD
 71
3
 72
1
 10
5.5083219178
 20
1.8050256849
 30
0.0
 11
1.0
 21
0.0
 31
0.0
 73
2
 44
0.9
  1
SCALE 1.000
 40
0.08
 41
0.704
  0
LINE
  5
20B
100
AcDbEntity
  8
0
100
AcDbLine
 62
7
  6
CONTINUOUS
 10
0.0
 20
0.0
 11
0.0
 21
8.5
  0
LINE
  5
20C
100
AcDbEntity
  8
0
100
AcDbLine
 62
7
  6
CONTINUOUS
 10
0.0
 20
0.0
 11
11.0
 21
0.0
  0
LINE
  5
20D
100
AcDbEntity
  8
0
100
AcDbLine
 62
7
  6
CONTINUOUS
 10
0.0
 20
8.5
 11
11.0
 21
8.5
  0
LINE
  5
20E
100
AcDbEntity
  8
0
100
AcDbLine
 62
7
  6
CONTINUOUS
 10
11.0
 20
0.0
 11
11.0
 21
8.5
  0
LINE
  5
20F
100
AcDbEntity
  8
0
100
AcDbLine
 62
7
  6
CONTINUOUS
 10
5.7907534246
 20
2.8912585616
 11
5.4874901592
 21
2.8912585616
  0
LINE
  5
210
100
AcDbEntity
  8
0
100
AcDbLine
 62
7
  6
CONTINUOUS
 10
4.8190166901
 20
2.8912585616
 11
4.5157534248
 21
2.8912585616
  0
LINE
  5
211
100
AcDbEntity
  8
0
100
AcDbLine
 62
7
  6
CONTINUOUS
 10
4.4757534247
 20
2.9312585616
 11
4.8589923232
 21
2.9312585616
  0
LINE
  5
212
100
AcDbEntity
  8
0
100
AcDbLine
 62
7
  6
CONTINUOUS
 10
5.4475145261
 20
2.9312585616
 11
5.8307534247
 21
2.9312585616
  0
LINE
  5
213
100
AcDbEntity
  8
0
100
AcDbLine
 62
7
  6
CONTINUOUS
 10
5.5478403002
 20
3.072084255
 11
5.4845680252
 21
3.072084255
  0
LINE
  5
214
100
AcDbEntity
  8
0
100
AcDbLine
 62
7
  6
CONTINUOUS
 10
4.7586665491
 20
3.072084255
 11
4.8219388241
 21
3.072084255
  0
LINE
  5
215
100
AcDbEntity
  8
0
100
AcDbLine
 62
7
  6
CONTINUOUS
 10
5.4474901592
 20
3.0861305498
 11
5.4475145261
 21
3.0861305498
  0
LINE
  5
216
100
AcDbEntity
  8
0
100
AcDbLine
 62
7
  6
CONTINUOUS
 10
4.8590166901
 20
3.0861305498
 11
4.8589923232
 21
3.0861305498
  0
LINE
  5
217
100
AcDbEntity
  8
0
100
AcDbLine
 62
7
  6
CONTINUOUS
 10
5.4579667695
 20
3.1130827434
 11
5.4581327424
 21
3.1130127552
  0
LINE
  5
218
100
AcDbEntity
  8
0
100
AcDbLine
 62
7
  6
CONTINUOUS
 10
4.848131086
 20
3.1135171083
 11
4.8485400798
 21
3.1130827434
  0
LINE
  5
219
100
AcDbEntity
  8
0
100
AcDbLine
 62
7
  6
CONTINUOUS
 10
4.83912727
 20
3.1234523933
 11
4.8485400798
 21
3.1130827434
  0
LINE
  5
21A
100
AcDbEntity
  8
0
100
AcDbLine
 62
7
  6
CONTINUOUS
 10
4.8481536967
 20
3.1135355649
 11
4.8485400796
 21
3.1130827432
  0
LWPOLYLINE
  5
21B
100
AcDbEntity
  8
0
100
AcDbPolyline
 62
7
  6
CONTINUOUS
 90
45
 70
0
 10
4.83912727
 20
3.1234523933
 10
4.829263894
 20
3.1350726305
 10
4.8199902696
 20
3.1468469845
 10
4.8112945441
 20
3.1587479373
 10
4.8031593505
 20
3.1707554449
 10
4.7955633189
 20
3.1828581433
 10
4.7884934875
 20
3.1950395092
 10
4.7819393958
 20
3.2072809264
 10
4.7758860004
 20
3.2195716473
 10
4.7703206417
 20
3.2318963251
 10
4.765231106
 20
3.2442382454
 10
4.760606575
 20
3.2565814639
 10
4.7564406748
 20
3.2688988525
 10
4.7527216997
 20
3.2811762089
 10
4.7494332889
 20
3.2934179712
 10
4.7465708969
 20
3.3055826448
 10
4.7441183007
 20
3.3176652464
 10
4.7420503387
 20
3.3297314651
 10
4.7403641171
 20
3.3417549888
 10
4.7390544405
 20
3.353720946
 10
4.7381065488
 20
3.3657153426
 10
4.7375192263
 20
3.3777166298
 10
4.737291517
 20
3.3896977246
 10
4.7374248074
 20
3.401735589
 10
4.7379256783
 20
3.4138182909
 10
4.7387943932
 20
3.425911646
 10
4.740037724
 20
3.4380577948
 10
4.7416608985
 20
3.4502340783
 10
4.7436679579
 20
3.4624119906
 10
4.7460718793
 20
3.4746270733
 10
4.748877106
 20
3.4868605539
 10
4.7520870076
 20
3.4990908356
 10
4.7557203106
 20
3.511346809
 10
4.7597851388
 20
3.5236099068
 10
4.7642882383
 20
3.5358616277
 10
4.7692537632
 20
3.5481269529
 10
4.7746914419
 20
3.5603869281
 10
4.7806111043
 20
3.5726219287
 10
4.7870448353
 20
3.5848518833
 10
4.7940168686
 20
3.597072962
 10
4.801533552
 20
3.609248845
 10
4.8096042302
 20
3.6213483836
 10
4.8182579495
 20
3.6333684664
 10
4.8274990473
 20
3.6452695447
 10
4.8372942877
 20
3.6569697868
  0
LINE
  5
21C
100
AcDbEntity
  8
0
100
AcDbLine
 62
7
  6
CONTINUOUS
 10
4.0982534247
 20
6.4062585616
 11
4.0982534247
 21
6.1162585616
  0
LINE
  5
21D
100
AcDbEntity
  8
0
100
AcDbLine
 62
7
  6
CONTINUOUS
 10
4.4757534247
 20
6.0862585616
 11
4.4757534247
 21
2.9312585616
  0
LINE
  5
21E
100
AcDbEntity
  8
0
100
AcDbLine
 62
7
  6
CONTINUOUS
 10
4.758666549
 20
2.9312585616
 11
4.7586665491
 21
3.0720842555
  0
LWPOLYLINE
  5
21F
100
AcDbEntity
  8
0
100
AcDbPolyline
 62
7
  6
CONTINUOUS
 90
46
 70
0
 10
5.4662304292
 20
3.6603635645
 10
5.4762442382
 20
3.6486602412
 10
5.4857081619
 20
3.6367311874
 10
5.4945774807
 20
3.6246685987
 10
5.5028568215
 20
3.6125126621
 10
5.5105750332
 20
3.600266725
 10
5.5177331882
 20
3.5879742575
 10
5.52433772
 20
3.5756767442
 10
5.5304161835
 20
3.5633749885
 10
5.5360005589
 20
3.5510499045
 10
5.5411024915
 20
3.5387201149
 10
5.5457339297
 20
3.5264035187
 10
5.5499195754
 20
3.5140760394
 10
5.5536655983
 20
3.5017584764
 10
5.5569806869
 20
3.4894660184
 10
5.5598854814
 20
3.477164832
 10
5.5623838444
 20
3.4648801833
 10
5.5644807595
 20
3.4526342978
 10
5.5661890819
 20
3.4403888617
 10
5.5675103135
 20
3.4281669087
 10
5.5684509018
 20
3.4159925357
 10
5.5690201009
 20
3.4038243667
 10
5.5692189377
 20
3.3916977226
 10
5.5690495937
 20
3.3796259586
 10
5.5685127948
 20
3.367532553
 10
5.5676097154
 20
3.3554437658
 10
5.5663412701
 20
3.3433802569
 10
5.5646924312
 20
3.3312598924
 10
5.5626559556
 20
3.3191024966
 10
5.5602292727
 20
3.3069316406
 10
5.5573877449
 20
3.2946769496
 10
5.5541159225
 20
3.2823426274
 10
5.5504095981
 20
3.2699753398
 10
5.5462509696
 20
3.257568239
 10
5.5416270607
 20
3.2451334883
 10
5.5365307905
 20
3.232697841
 10
5.5309515917
 20
3.2202771132
 10
5.5248786897
 20
3.2078902544
 10
5.5182987744
 20
3.1955530937
 10
5.5111958962
 20
3.1832765212
 10
5.5035587723
 20
3.1710795305
 10
5.495374066
 20
3.1589782514
 10
5.4866199749
 20
3.1469836859
 10
5.4772785423
 20
3.1351163974
 10
5.4673375727
 20
3.1234047909
 10
5.4579667695
 20
3.1130827434
  0
LINE
  5
220
100
AcDbEntity
  8
0
100
AcDbLine
 62
7
  6
CONTINUOUS
 10
4.8219388241
 20
2.9312585616
 11
4.8219388241
 21
3.072084255
  0
LINE
  5
221
100
AcDbEntity
  8
0
100
AcDbLine
 62
7
  6
CONTINUOUS
 10
4.8589923232
 20
3.0861305498
 11
4.8589923232
 21
2.9312585616
  0
LINE
  5
222
100
AcDbEntity
  8
0
100
AcDbLine
 62
7
  6
CONTINUOUS
 10
5.4474901592
 20
2.9312585616
 11
5.4474901592
 21
3.0861305497
  0
LINE
  5
223
100
AcDbEntity
  8
0
100
AcDbLine
 62
7
  6
CONTINUOUS
 10
5.4845680252
 20
3.072084255
 11
5.4845680252
 21
2.9312585616
  0
LINE
  5
224
100
AcDbEntity
  8
0
100
AcDbLine
 62
7
  6
CONTINUOUS
 10
5.5478403002
 20
3.0720842555
 11
5.5478403004
 21
2.9312585616
  0
LINE
  5
225
100
AcDbEntity
  8
0
100
AcDbLine
 62
7
  6
CONTINUOUS
 10
4.8372942877
 20
3.6569697868
 11
4.8476651117
 21
3.6684610704
  0
LWPOLYLINE
  5
226
100
AcDbEntity
  8
0
100
AcDbPolyline
 62
7
  6
CONTINUOUS
 90
48
 70
0
 10
4.8476651117
 20
3.6684610704
 10
4.8586134848
 20
3.6797105154
 10
4.8700606582
 20
3.6906115675
 10
4.8820330544
 20
3.7011701387
 10
4.8945078392
 20
3.7113446067
 10
4.9073036111
 20
3.7209840432
 10
4.9203894652
 20
3.7300777691
 10
4.9337575536
 20
3.7386315694
 10
4.9472276312
 20
3.7465517616
 10
4.9606990306
 20
3.7538163785
 10
4.9742028281
 20
3.7604782148
 10
4.9877461463
 20
3.7665685962
 10
5.0012823833
 20
3.772092468
 10
5.0147978781
 20
3.7770697619
 10
5.028356814
 20
3.7815432249
 10
5.0419413691
 20
3.7855205371
 10
5.0555193819
 20
3.7890060544
 10
5.0691399778
 20
3.7920232824
 10
5.082786804
 20
3.7945753542
 10
5.096430471
 20
3.7966646431
 10
5.1101056389
 20
3.7983017481
 10
5.123790212
 20
3.7994876845
 10
5.1374620512
 20
3.8002243289
 10
5.1511568828
 20
3.8005156488
 10
5.1648527714
 20
3.8003609503
 10
5.1785279648
 20
3.7997606718
 10
5.1922183357
 20
3.7987120778
 10
5.2059013835
 20
3.7972125821
 10
5.2195551451
 20
3.7952615829
 10
5.2332143634
 20
3.7928492504
 10
5.2468507231
 20
3.789972601
 10
5.2604463664
 20
3.7866288028
 10
5.2740471963
 20
3.7827969166
 10
5.2876199776
 20
3.7784728087
 10
5.3011477521
 20
3.7736492578
 10
5.3146927882
 20
3.7682866154
 10
5.3282357712
 20
3.7623685343
 10
5.3417364468
 20
3.7558886685
 10
5.3552159797
 20
3.7488101634
 10
5.3687010305
 20
3.7410834457
 10
5.3820954789
 20
3.7327268987
 10
5.3952412937
 20
3.7238159686
 10
5.4081341247
 20
3.7143379238
 10
5.4207347064
 20
3.7043045428
 10
5.4328610853
 20
3.6938597585
 10
5.4444923048
 20
3.6830367447
 10
5.4556465167
 20
3.6718330181
 10
5.4662304292
 20
3.6603635645
  0
LINE
  5
227
100
AcDbEntity
  8
0
100
AcDbLine
 62
7
  6
CONTINUOUS
 10
5.8307534247
 20
6.0862585616
 11
5.8307534247
 21
2.9312585616
  0
LINE
  5
228
100
AcDbEntity
  8
0
100
AcDbLine
 62
7
  6
CONTINUOUS
 10
6.2082534247
 20
6.4062585616
 11
6.2082534247
 21
6.1162585616
  0
LINE
  5
229
100
AcDbEntity
  8
0
100
AcDbLine
 62
7
  6
CONTINUOUS
 10
5.4583531519
 20
3.113535564
 11
5.4579667698
 21
3.1130827432
  0
LINE
  5
22A
100
AcDbEntity
  8
0
100
AcDbLine
 62
7
  6
CONTINUOUS
 10
5.4579667695
 20
3.1130827434
 11
5.458375766
 21
3.1135171112
  0
LINE
  5
22B
100
AcDbEntity
  8
0
100
AcDbLine
 62
7
  6
CONTINUOUS
 10
4.8485400798
 20
3.1130827434
 11
4.8483741345
 21
3.1130125785
  0
LINE
  5
22C
100
AcDbEntity
  8
0
100
AcDbLine
 62
7
  6
CONTINUOUS
 10
6.1782534247
 20
6.0862585616
 11
4.1282534247
 21
6.0862585616
  0
LINE
  5
22D
100
AcDbEntity
  8
0
100
AcDbLine
 62
7
  6
CONTINUOUS
 10
6.2082534247
 20
6.1162585616
 11
4.0982534247
 21
6.1162585616
  0
LINE
  5
22E
100
AcDbEntity
  8
0
100
AcDbLine
 62
7
  6
CONTINUOUS
 10
4.0982534247
 20
6.4062585616
 11
6.2082534247
 21
6.4062585616
  0
ARC
  5
22F
100
AcDbEntity
  8
0
100
AcDbCircle
 62
7
  6
CONTINUOUS
 10
6.398624937
 20
5.5392214961
 40
2.6310199932
100
AcDbArc
 50
248.8077326983
 51
249.670688195
  0
ARC
  5
230
100
AcDbEntity
  8
0
100
AcDbCircle
 62
7
  6
CONTINUOUS
 10
3.9078819536
 20
5.5392213885
 40
2.631019878
100
AcDbArc
 50
290.3293117777
 51
291.1922673122
  0
ARC
  5
231
100
AcDbEntity
  8
0
100
AcDbCircle
 62
7
  6
CONTINUOUS
 10
6.2902036925
 20
5.0817317278
 40
2.1373341341
100
AcDbArc
 50
247.0888517453
 51
248.135391043
  0
ARC
  5
232
100
AcDbEntity
  8
0
100
AcDbCircle
 62
7
  6
CONTINUOUS
 10
4.0163031741
 20
5.0817316863
 40
2.1373340891
100
AcDbArc
 50
291.8646089394
 51
292.9111482555
  0
ARC
  5
233
100
AcDbEntity
  8
0
100
AcDbCircle
 62
7
  6
CONTINUOUS
 10
5.1503389887
 20
3.384853764
 40
0.414811673
100
AcDbArc
 50
136.9951237518
 51
137.3524949203
  0
ARC
  5
234
100
AcDbEntity
  8
0
100
AcDbCircle
 62
7
  6
CONTINUOUS
 10
5.1564065871
 20
3.3974398193
 40
0.4144846067
100
AcDbArc
 50
316.7642500641
 51
317.5070376059
  0
ARC
  5
235
100
AcDbEntity
  8
0
100
AcDbCircle
 62
7
  6
CONTINUOUS
 10
5.1500958907
 20
3.3974357659
 40
0.4144786453
100
AcDbArc
 50
222.4737877531
 51
223.2357562044
  0
ARC
  5
236
100
AcDbEntity
  8
0
100
AcDbCircle
 62
7
  6
CONTINUOUS
 10
5.1500247777
 20
3.3851419068
 40
0.414385347
100
AcDbArc
 50
137.3523657428
 51
138.3713787058
  0
ARC
  5
237
100
AcDbEntity
  8
0
100
AcDbCircle
 62
7
  6
CONTINUOUS
 10
5.1568294835
 20
3.3854536528
 40
0.4139185907
100
AcDbArc
 50
41.6220344479
 51
42.0228737216
  0
ARC
  5
238
100
AcDbEntity
  8
0
100
AcDbCircle
 62
7
  6
CONTINUOUS
 10
5.1571560052
 20
3.3857436407
 40
0.4134818878
100
AcDbArc
 50
41.1027055691
 51
41.6220485544
  0
ARC
  5
239
100
AcDbEntity
  8
0
100
AcDbCircle
 62
7
  6
CONTINUOUS
 10
4.7819128236
 20
3.0720655816
 40
0.0400260052
100
AcDbArc
 50
0.0267302947
 51
40.6567973766
  0
ARC
  5
23A
100
AcDbEntity
  8
0
100
AcDbCircle
 62
7
  6
CONTINUOUS
 10
5.5245940258
 20
3.0720655818
 40
0.0400260051
100
AcDbArc
 50
139.3432029363
 51
179.9732700783
  0
ARC
  5
23B
100
AcDbEntity
  8
0
100
AcDbCircle
 62
7
  6
CONTINUOUS
 10
5.7907534247
 20
2.9312585616
 40
0.04
100
AcDbArc
 50
270.0
 51
360.0
  0
ARC
  5
23C
100
AcDbEntity
  8
0
100
AcDbCircle
 62
7
  6
CONTINUOUS
 10
4.5157534247
 20
2.9312585616
 40
0.04
100
AcDbArc
 50
180.0
 51
270.0
  0
ARC
  5
23D
100
AcDbEntity
  8
0
100
AcDbCircle
 62
7
  6
CONTINUOUS
 10
5.487490159
 20
3.0861305497
 40
0.04
100
AcDbArc
 50
136.7644413189
 51
180.0
  0
ARC
  5
23E
100
AcDbEntity
  8
0
100
AcDbCircle
 62
7
  6
CONTINUOUS
 10
5.5245572423
 20
2.931244984
 40
0.0399878221
100
AcDbArc
 50
179.9805462677
 51
269.9805356237
  0
ARC
  5
23F
100
AcDbEntity
  8
0
100
AcDbCircle
 62
7
  6
CONTINUOUS
 10
4.819003106
 20
2.931244984
 40
0.0399878221
100
AcDbArc
 50
270.0194643763
 51
0.0194537323
  0
ARC
  5
240
100
AcDbEntity
  8
0
100
AcDbCircle
 62
7
  6
CONTINUOUS
 10
4.781949607
 20
2.931244984
 40
0.0399878221
100
AcDbArc
 50
270.0194643763
 51
0.0194537323
  0
ARC
  5
241
100
AcDbEntity
  8
0
100
AcDbCircle
 62
7
  6
CONTINUOUS
 10
5.4874901592
 20
2.9312585616
 40
0.04
100
AcDbArc
 50
180.0
 51
269.9999994305
  0
ARC
  5
242
100
AcDbEntity
  8
0
100
AcDbCircle
 62
7
  6
CONTINUOUS
 10
4.8190166902
 20
3.0861305499
 40
0.04
100
AcDbArc
 50
0.0
 51
43.2355519497
  0
ARC
  5
243
100
AcDbEntity
  8
0
100
AcDbCircle
 62
7
  6
CONTINUOUS
 10
5.4874911997
 20
2.9311193355
 40
0.0398607739
100
AcDbArc
 50
266.2693212507
 51
269.9985043015
  0
ARC
  5
244
100
AcDbEntity
  8
0
100
AcDbCircle
 62
7
  6
CONTINUOUS
 10
6.1782534247
 20
6.1162585616
 40
0.03
100
AcDbArc
 50
270.0
 51
360.0
  0
ARC
  5
245
100
AcDbEntity
  8
0
100
AcDbCircle
 62
7
  6
CONTINUOUS
 10
4.1282534247
 20
6.1162585616
 40
0.03
100
AcDbArc
 50
180.0
 51
270.0
  0
SPLINE
  5
246
100
AcDbEntity
  8
0
100
AcDbSpline
 62
7
  6
CONTINUOUS
 70
0
 71
3
 72
29
 73
25
 74
0
 42
0.0000001
 43
0.0000001
 44
0.0000000001
 40
0.0
 40
0.0
 40
0.0
 40
0.0
 40
0.0730726537
 40
0.1488530261
 40
0.2263056231
 40
0.3044815257
 40
0.3823822937
 40
0.4590020752
 40
0.5333758381
 40
0.6045966738
 40
0.6718339335
 40
0.7343792048
 40
0.7637179943
 40
0.7916926217
 40
0.818263589
 40
0.8434130565
 40
0.8671447985
 40
0.889481858
 40
0.910479857
 40
0.930233493
 40
0.9488726394
 40
0.966567868
 40
0.9835286324
 40
1.0
 40
1.0
 40
1.0
 40
1.0
 10
4.758666549
 20
3.072084255
 30
0.0
 10
4.7596326655
 20
3.0733009455
 30
0.0
 10
4.7616798438
 20
3.0757173619
 30
0.0
 10
4.7649946004
 20
3.0792080778
 30
0.0
 10
4.7685711733
 20
3.0825900685
 30
0.0
 10
4.7723531562
 20
3.0858104506
 30
0.0
 10
4.7762824253
 20
3.0888204208
 30
0.0
 10
4.7802986517
 20
3.0915729594
 30
0.0
 10
4.7843395372
 20
3.0940258462
 30
0.0
 10
4.7883427657
 20
3.0961418189
 30
0.0
 10
4.7922469133
 20
3.0978879073
 30
0.0
 10
4.795433253
 20
3.0990372554
 30
0.0
 10
4.7978838704
 20
3.0997391841
 30
0.0
 10
4.7996208281
 20
3.1001473031
 30
0.0
 10
4.8012895242
 20
3.1004464813
 30
0.0
 10
4.8028835968
 20
3.100635587
 30
0.0
 10
4.8043969819
 20
3.1007142278
 30
0.0
 10
4.8058240337
 20
3.1006816999
 30
0.0
 10
4.8071594324
 20
3.1005376658
 30
0.0
 10
4.8083983486
 20
3.1002826468
 30
0.0
 10
4.8095360628
 20
3.0999167444
 30
0.0
 10
4.8105675884
 20
3.0994403136
 30
0.0
 10
4.8114880457
 20
3.0988559062
 30
0.0
 10
4.8120298037
 20
3.0983910658
 30
0.0
 10
4.8122775846
 20
3.0981435872
 30
0.0
  0
SPLINE
  5
247
100
AcDbEntity
  8
0
100
AcDbSpline
 62
7
  6
CONTINUOUS
 70
0
 71
3
 72
23
 73
19
 74
0
 42
0.0000001
 43
0.0000001
 44
0.0000000001
 40
0.0
 40
0.0
 40
0.0
 40
0.0
 40
0.0775620239
 40
0.1547172006
 40
0.2308650096
 40
0.3055448626
 40
0.3783497966
 40
0.4488888421
 40
0.516809514
 40
0.5818429672
 40
0.6437978845
 40
0.7025808956
 40
0.7582147372
 40
0.810854796
 40
0.860806417
 40
0.9085410593
 40
0.9546988381
 40
1.0
 40
1.0
 40
1.0
 40
1.0
 10
4.758666549
 20
2.9312585616
 30
0.0
 10
4.758666549
 20
2.9299513311
 30
0.0
 10
4.7587413518
 20
2.9273431241
 30
0.0
 10
4.7590749294
 20
2.9234643775
 30
0.0
 10
4.75962852
 20
2.919659726
 30
0.0
 10
4.7603956265
 20
2.9159670757
 30
0.0
 10
4.761369571
 20
2.9124212558
 30
0.0
 10
4.7625401341
 20
2.9090555191
 30
0.0
 10
4.7638972288
 20
2.9059023145
 30
0.0
 10
4.7654273222
 20
2.9029913592
 30
0.0
 10
4.7671166592
 20
2.9003502696
 30
0.0
 10
4.7689495997
 20
2.8980038965
 30
0.0
 10
4.7709096568
 20
2.8959745682
 30
0.0
 10
4.7729796544
 20
2.8942824961
 30
0.0
 10
4.7751406362
 20
2.8929446433
 30
0.0
 10
4.7773734924
 20
2.8919762783
 30
0.0
 10
4.7796552234
 20
2.8913901868
 30
0.0
 10
4.7811996852
 20
2.8912585616
 30
0.0
 10
4.7819631911
 20
2.8912585616
 30
0.0
  0
SPLINE
  5
248
100
AcDbEntity
  8
0
100
AcDbSpline
 62
7
  6
CONTINUOUS
 70
0
 71
3
 72
41
 73
37
 74
0
 42
0.0000001
 43
0.0000001
 44
0.0000000001
 40
0.0
 40
0.0
 40
0.0
 40
0.0
 40
0.0298730801
 40
0.0597905698
 40
0.0897921052
 40
0.1199189913
 40
0.150214825
 40
0.1807222226
 40
0.2425096839
 40
0.2738705781
 40
0.3055660079
 40
0.3376023491
 40
0.3699612076
 40
0.4026095125
 40
0.4190236506
 40
0.4354858982
 40
0.4519854794
 40
0.4685099493
 40
0.4850469345
 40
0.5015841909
 40
0.5181094023
 40
0.534610099
 40
0.5510737608
 40
0.5674896334
 40
0.6001422644
 40
0.6325063851
 40
0.69623364
 40
0.7586357584
 40
0.7893972115
 40
0.8199081832
 40
0.8502061999
 40
0.880335169
 40
0.9103406854
 40
0.940264621
 40
0.9701407274
 40
1.0
 40
1.0
 40
1.0
 40
1.0
 10
5.5607326947
 20
3.6952536701
 30
0.0
 10
5.5650018377
 20
3.6900171227
 30
0.0
 10
5.5733325372
 20
3.6793596825
 30
0.0
 10
5.5851720394
 20
3.6628533712
 30
0.0
 10
5.5963501736
 20
3.6458228924
 30
0.0
 10
5.6068489968
 20
3.6282657459
 30
0.0
 10
5.6166511069
 20
3.6101792965
 30
0.0
 10
5.628814834
 20
3.5852572032
 30
0.0
 10
5.6394377678
 20
3.5593406233
 30
0.0
 10
5.6484071134
 20
3.5325603904
 30
0.0
 10
5.6543207567
 20
3.5118747029
 30
0.0
 10
5.6593446062
 20
3.490723342
 30
0.0
 10
5.6634347656
 20
3.4691521778
 30
0.0
 10
5.666024229
 20
3.4509131696
 30
0.0
 10
5.6675953561
 20
3.436176166
 30
0.0
 10
5.6685187019
 20
3.4250461896
 30
0.0
 10
5.6691821794
 20
3.4138727695
 30
0.0
 10
5.669583914
 20
3.4026699442
 30
0.0
 10
5.669721755
 20
3.3914522325
 30
0.0
 10
5.6695936551
 20
3.3802342376
 30
0.0
 10
5.6692015631
 20
3.3690305874
 30
0.0
 10
5.6685474716
 20
3.3578558726
 30
0.0
 10
5.6676330649
 20
3.346724179
 30
0.0
 10
5.6660732582
 20
3.3319843114
 30
0.0
 10
5.6634970725
 20
3.3137405131
 30
0.0
 10
5.6580934642
 20
3.2851203429
 30
0.0
 10
5.6490412493
 20
3.2503820871
 30
0.0
 10
5.6370428556
 20
3.2169369675
 30
0.0
 10
5.6258859828
 20
3.1912795306
 30
0.0
 10
5.6168125964
 20
3.172655484
 30
0.0
 10
5.6070233944
 20
3.1545606308
 30
0.0
 10
5.5965369284
 20
3.1369937389
 30
0.0
 10
5.5853698924
 20
3.119952738
 30
0.0
 10
5.5735398366
 20
3.1034354578
 30
0.0
 10
5.5610593942
 20
3.0874463973
 30
0.0
 10
5.5523141076
 20
3.0771428987
 30
0.0
 10
5.5478403002
 20
3.0720842555
 30
0.0
  0
SPLINE
  5
249
100
AcDbEntity
  8
0
100
AcDbSpline
 62
7
  6
CONTINUOUS
 70
0
 71
3
 72
23
 73
19
 74
0
 42
0.0000001
 43
0.0000001
 44
0.0000000001
 40
0.0
 40
0.0
 40
0.0
 40
0.0
 40
0.0775613307
 40
0.1547157647
 40
0.2308642129
 40
0.3055456847
 40
0.3783519975
 40
0.4488921965
 40
0.5168135814
 40
0.5818474494
 40
0.6438025753
 40
0.7025860158
 40
0.7582204868
 40
0.8108616706
 40
0.8608147354
 40
0.9085483485
 40
0.9547015439
 40
1.0
 40
1.0
 40
1.0
 40
1.0
 10
5.5478403004
 20
2.9312585616
 30
0.0
 10
5.5478403004
 20
2.9299513427
 30
0.0
 10
5.5477655048
 20
2.9273431596
 30
0.0
 10
5.5474319287
 20
2.9234644259
 30
0.0
 10
5.5468783265
 20
2.9196597503
 30
0.0
 10
5.5461112183
 20
2.9159670374
 30
0.0
 10
5.5451372441
 20
2.9124211526
 30
0.0
 10
5.5439666558
 20
2.9090553664
 30
0.0
 10
5.5426095322
 20
2.9059021322
 30
0.0
 10
5.5410794198
 20
2.9029911608
 30
0.0
 10
5.5393900441
 20
2.9003500745
 30
0.0
 10
5.5375570795
 20
2.8980036935
 30
0.0
 10
5.5355969735
 20
2.8959743582
 30
0.0
 10
5.5335268985
 20
2.8942822981
 30
0.0
 10
5.5313658787
 20
2.8929444486
 30
0.0
 10
5.5291330445
 20
2.891976222
 30
0.0
 10
5.5268514663
 20
2.8913901001
 30
0.0
 10
5.5253071186
 20
2.8912585616
 30
0.0
 10
5.5245436583
 20
2.8912585616
 30
0.0
  0
SPLINE
  5
24A
100
AcDbEntity
  8
0
100
AcDbSpline
 62
7
  6
CONTINUOUS
 70
0
 71
3
 72
37
 73
33
 74
0
 42
0.0000001
 43
0.0000001
 44
0.0000000001
 40
0.0
 40
0.0
 40
0.0
 40
0.0
 40
0.0299399821
 40
0.0598962783
 40
0.0899104504
 40
0.1200246541
 40
0.1502827501
 40
0.1807299155
 40
0.2114061539
 40
0.2423505057
 40
0.2735976333
 40
0.3051655609
 40
0.3692763002
 40
0.4018003089
 40
0.4345672987
 40
0.467505703
 40
0.5005245372
 40
0.5335267627
 40
0.5664156496
 40
0.5991052844
 40
0.6315319589
 40
0.663649897
 40
0.6954392926
 40
0.7268938039
 40
0.7580340032
 40
0.7888829708
 40
0.8194770326
 40
0.84985465
 40
0.8800567707
 40
0.9401099574
 40
0.9700601508
 40
1.0
 40
1.0
 40
1.0
 40
1.0
 10
4.8402856781
 20
3.6604179609
 30
0.0
 10
4.8363388085
 20
3.6559769118
 30
0.0
 10
4.8286333083
 20
3.6469210305
 30
0.0
 10
4.8176665303
 20
3.6328403351
 30
0.0
 10
4.8072994179
 20
3.6182695545
 30
0.0
 10
4.7975436165
 20
3.6032111452
 30
0.0
 10
4.7884154666
 20
3.5876643191
 30
0.0
 10
4.7799301626
 20
3.5716311045
 30
0.0
 10
4.7721104187
 20
3.5551118908
 30
0.0
 10
4.7649835538
 20
3.5381098483
 30
0.0
 10
4.7585784385
 20
3.5206335273
 30
0.0
 10
4.7510117985
 20
3.4966021186
 30
0.0
 10
4.7450924514
 20
3.4718119263
 30
0.0
 10
4.740934061
 20
3.4464641154
 30
0.0
 10
4.7387116286
 20
3.4270898141
 30
0.0
 10
4.7374346078
 20
3.4075324186
 30
0.0
 10
4.7371158494
 20
3.3878890405
 30
0.0
 10
4.7377651927
 20
3.3682636977
 30
0.0
 10
4.739368278
 20
3.3487587981
 30
0.0
 10
4.7419076493
 20
3.3294689239
 30
0.0
 10
4.7453473424
 20
3.3104747731
 30
0.0
 10
4.7496527075
 20
3.2918414844
 30
0.0
 10
4.7547799287
 20
3.2736180043
 30
0.0
 10
4.7606910377
 20
3.2558380792
 30
0.0
 10
4.7673477176
 20
3.2385237303
 30
0.0
 10
4.774715301
 20
3.221686124
 30
0.0
 10
4.7827661065
 20
3.2053331456
 30
0.0
 10
4.7914743366
 20
3.1894665174
 30
0.0
 10
4.8039075798
 20
3.1690027182
 30
0.0
 10
4.8176259624
 20
3.1494435621
 30
0.0
 10
4.8325323138
 20
3.1308805429
 30
0.0
 10
4.8403701577
 20
3.1219401955
 30
0.0
 10
4.8443821056
 20
3.1175578836
 30
0.0
  0
SPLINE
  5
24B
100
AcDbEntity
  8
0
100
AcDbSpline
 62
7
  6
CONTINUOUS
 70
0
 71
3
 72
40
 73
36
 74
0
 42
0.0000001
 43
0.0000001
 44
0.0000000001
 40
0.0
 40
0.0
 40
0.0
 40
0.0
 40
0.0297277086
 40
0.0595017363
 40
0.089365603
 40
0.1193644082
 40
0.149543046
 40
0.179944289
 40
0.2106121178
 40
0.2415858579
 40
0.2728946365
 40
0.3045655826
 40
0.3366006191
 40
0.3689900998
 40
0.4016970859
 40
0.4181526631
 40
0.4346645315
 40
0.4678059539
 40
0.5010231448
 40
0.5342097474
 40
0.5672591787
 40
0.6000839027
 40
0.6326095452
 40
0.6647961566
 40
0.6966166536
 40
0.7280754951
 40
0.7591862543
 40
0.7899763154
 40
0.8204841583
 40
0.8507481317
 40
0.8808146722
 40
0.9107318186
 40
0.9405441719
 40
0.9702885214
 40
1.0
 40
1.0
 40
1.0
 40
1.0
 10
5.5010448664
 20
3.6759559369
 30
0.0
 10
5.5048800308
 20
3.6711001823
 30
0.0
 10
5.5123563757
 20
3.6612212691
 30
0.0
 10
5.5229650951
 20
3.645936181
 30
0.0
 10
5.5329644863
 20
3.6301783702
 30
0.0
 10
5.5423463534
 20
3.6139480207
 30
0.0
 10
5.5511026358
 20
3.5972452992
 30
0.0
 10
5.5592162705
 20
3.5800668664
 30
0.0
 10
5.5666695452
 20
3.5624119247
 30
0.0
 10
5.5734418808
 20
3.5442828105
 30
0.0
 10
5.5795048034
 20
3.5256843615
 30
0.0
 10
5.5848278043
 20
3.5066311913
 30
0.0
 10
5.5893779056
 20
3.4871474905
 30
0.0
 10
5.5931163102
 20
3.4672724419
 30
0.0
 10
5.5955224992
 20
3.4504633086
 30
0.0
 10
5.5970118526
 20
3.436873991
 30
0.0
 10
5.5982071712
 20
3.4231648913
 30
0.0
 10
5.5991347713
 20
3.4059347016
 30
0.0
 10
5.5993257636
 20
3.3852091855
 30
0.0
 10
5.5985976814
 20
3.3645145541
 30
0.0
 10
5.5969559548
 20
3.3439543716
 30
0.0
 10
5.5944262648
 20
3.3236232114
 30
0.0
 10
5.5910345773
 20
3.3036002348
 30
0.0
 10
5.5868186706
 20
3.2839483838
 30
0.0
 10
5.58181331
 20
3.264712144
 30
0.0
 10
5.576053857
 20
3.2459223658
 30
0.0
 10
5.5695739847
 20
3.2275962163
 30
0.0
 10
5.5624011059
 20
3.2097433262
 30
0.0
 10
5.5545591965
 20
3.1923673863
 30
0.0
 10
5.5460705657
 20
3.1754665256
 30
0.0
 10
5.5369476411
 20
3.1590399695
 30
0.0
 10
5.5272020497
 20
3.1430851979
 30
0.0
 10
5.5168458557
 20
3.1276003844
 30
0.0
 10
5.5058853234
 20
3.1125906364
 30
0.0
 10
5.4981783137
 20
3.1029027948
 30
0.0
 10
5.4942292643
 20
3.0981435875
 30
0.0
  0
SPLINE
  5
24C
100
AcDbEntity
  8
0
100
AcDbSpline
 62
7
  6
CONTINUOUS
 70
0
 71
3
 72
29
 73
25
 74
0
 42
0.0000001
 43
0.0000001
 44
0.0000000001
 40
0.0
 40
0.0
 40
0.0
 40
0.0
 40
0.0730727063
 40
0.1488531303
 40
0.2263057676
 40
0.304481718
 40
0.3823825388
 40
0.459002378
 40
0.5333762021
 40
0.6045971005
 40
0.6718344229
 40
0.7343797583
 40
0.763718579
 40
0.7916932337
 40
0.8182642207
 40
0.8434137044
 40
0.867145472
 40
0.8894825828
 40
0.9104806469
 40
0.9302343007
 40
0.948873338
 40
0.9665683018
 40
0.9835287752
 40
1.0
 40
1.0
 40
1.0
 40
1.0
 10
5.5478403003
 20
3.072084255
 30
0.0
 10
5.546874182
 20
3.0733009442
 30
0.0
 10
5.5448270078
 20
3.0757173642
 30
0.0
 10
5.5415122538
 20
3.079208083
 30
0.0
 10
5.537935673
 20
3.0825900653
 30
0.0
 10
5.5341536854
 20
3.0858104415
 30
0.0
 10
5.5302244128
 20
3.0888204076
 30
0.0
 10
5.5262081821
 20
3.0915729411
 30
0.0
 10
5.5221672926
 20
3.0940258231
 30
0.0
 10
5.5181640607
 20
3.0961417915
 30
0.0
 10
5.5142599101
 20
3.0978878765
 30
0.0
 10
5.5110735679
 20
3.0990372214
 30
0.0
 10
5.5086229488
 20
3.0997391479
 30
0.0
 10
5.5068859902
 20
3.1001472657
 30
0.0
 10
5.5052172939
 20
3.1004464437
 30
0.0
 10
5.503623221
 20
3.1006355497
 30
0.0
 10
5.5021098347
 20
3.1007141899
 30
0.0
 10
5.5006827808
 20
3.100681659
 30
0.0
 10
5.4993473806
 20
3.1005376209
 30
0.0
 10
5.498108466
 20
3.1002826014
 30
0.0
 10
5.4969707584
 20
3.0999167065
 30
0.0
 10
5.4959392423
 20
3.0994402908
 30
0.0
 10
5.4950187944
 20
3.0988558972
 30
0.0
 10
5.4944770433
 20
3.0983910635
 30
0.0
 10
5.4942292646
 20
3.0981435872
 30
0.0
  0
SPLINE
  5
24D
100
AcDbEntity
  8
0
100
AcDbSpline
 62
7
  6
CONTINUOUS
 70
0
 71
3
 72
70
 73
66
 74
0
 42
0.0000001
 43
0.0000001
 44
0.0000000001
 40
0.0
 40
0.0
 40
0.0
 40
0.0
 40
0.0148774301
 40
0.0297680249
 40
0.044693614
 40
0.0596801242
 40
0.074758479
 40
0.0899595468
 40
0.1053098129
 40
0.1208350163
 40
0.1365508565
 40
0.1524673743
 40
0.168575624
 40
0.1848531284
 40
0.1930426957
 40
0.2012573718
 40
0.2177266799
 40
0.23419391
 40
0.2424061518
 40
0.2505925506
 40
0.2587468422
 40
0.2668631825
 40
0.2829606119
 40
0.2988656217
 40
0.3145705022
 40
0.3300852977
 40
0.3454260526
 40
0.3606194104
 40
0.3756923185
 40
0.390674529
 40
0.4055954292
 40
0.4204828835
 40
0.4353638882
 40
0.4502638623
 40
0.4652051656
 40
0.4802093428
 40
0.4952946557
 40
0.5104767291
 40
0.5257699873
 40
0.5411839869
 40
0.5567274273
 40
0.5724039824
 40
0.588214927
 40
0.6041574024
 40
0.6202244941
 40
0.652678027
 40
0.6854574502
 40
0.6936867229
 40
0.7019225538
 40
0.7101618106
 40
0.7184013983
 40
0.7348680047
 40
0.7512987007
 40
0.7676704151
 40
0.7839618579
 40
0.816226226
 40
0.8321827774
 40
0.8480085043
 40
0.8792489644
 40
0.8946768609
 40
0.9099830565
 40
0.9251767511
 40
0.9402718604
 40
0.9702228859
 40
1.0
 40
1.0
 40
1.0
 40
1.0
 10
4.7586665491
 20
3.0720842555
 30
0.0
 10
4.75338585
 20
3.0780552561
 30
0.0
 10
4.7431049778
 20
3.0902583942
 30
0.0
 10
4.7285764841
 20
3.1093049981
 30
0.0
 10
4.7149596305
 20
3.1290855266
 30
0.0
 10
4.7022792379
 20
3.1495975696
 30
0.0
 10
4.6905647219
 20
3.1708451589
 30
0.0
 10
4.679845208
 20
3.192829081
 30
0.0
 10
4.670166684
 20
3.2155516834
 30
0.0
 10
4.6615786502
 20
3.239002833
 30
0.0
 10
4.6541419749
 20
3.2631622559
 30
0.0
 10
4.6479256708
 20
3.287986822
 30
0.0
 10
4.6429978961
 20
3.3134056295
 30
0.0
 10
4.6400299429
 20
3.3349537479
 30
0.0
 10
4.6383578576
 20
3.3523860784
 30
0.0
 10
4.6371642406
 20
3.3699607487
 30
0.0
 10
4.6365853804
 20
3.3920134536
 30
0.0
 10
4.6372359066
 20
3.4140628887
 30
0.0
 10
4.6384850179
 20
3.4316294648
 30
0.0
 10
4.6397816571
 20
3.4447222568
 30
0.0
 10
4.64143187
 20
3.4577233717
 30
0.0
 10
4.644086361
 20
3.4748631673
 30
0.0
 10
4.6482463475
 20
3.4959636402
 30
0.0
 10
4.6545362001
 20
3.5207507892
 30
0.0
 10
4.6620387389
 20
3.5448714159
 30
0.0
 10
4.6706886356
 20
3.5682821588
 30
0.0
 10
4.680428128
 20
3.5909626033
 30
0.0
 10
4.6912065696
 20
3.6129041313
 30
0.0
 10
4.7029771023
 20
3.6341099969
 30
0.0
 10
4.7157105478
 20
3.6545800416
 30
0.0
 10
4.7293774888
 20
3.6743179301
 30
0.0
 10
4.743957168
 20
3.6933230993
 30
0.0
 10
4.7594339113
 20
3.7115902642
 30
0.0
 10
4.7757899418
 20
3.729113876
 30
0.0
 10
4.7930145539
 20
3.7458792084
 30
0.0
 10
4.8110932998
 20
3.7618699354
 30
0.0
 10
4.8300127182
 20
3.7770635623
 30
0.0
 10
4.8497593409
 20
3.7914303731
 30
0.0
 10
4.8703142634
 20
3.8049383125
 30
0.0
 10
4.8916558133
 20
3.8175507948
 30
0.0
 10
4.91375619
 20
3.8292271891
 30
0.0
 10
4.9365814116
 20
3.8399257532
 30
0.0
 10
4.9600905045
 20
3.8496003154
 30
0.0
 10
4.9842345466
 20
3.8582059001
 30
0.0
 10
5.0173001433
 20
3.8682235344
 30
0.0
 10
5.0598658574
 20
3.8778065539
 30
0.0
 10
5.0989899273
 20
3.882700638
 30
0.0
 10
5.1253222944
 20
3.8843789265
 30
0.0
 10
5.1385497821
 20
3.884899032
 30
0.0
 10
5.1517914141
 20
3.8850964679
 30
0.0
 10
5.16944375
 20
3.8849276177
 30
0.0
 10
5.1914704105
 20
3.8839109825
 30
0.0
 10
5.2177594261
 20
3.8814111524
 30
0.0
 10
5.2438041489
 20
3.8776499659
 30
0.0
 10
5.2779620958
 20
3.8710093482
 30
0.0
 10
5.3113866984
 20
3.8619554288
 30
0.0
 10
5.3437810017
 20
3.8506026773
 30
0.0
 10
5.3750848191
 20
3.8379155764
 30
0.0
 10
5.4051921589
 20
3.8231246138
 30
0.0
 10
5.4338742395
 20
3.8063749896
 30
0.0
 10
5.4545172003
 20
3.7929632207
 30
0.0
 10
5.4743547409
 20
3.7786903256
 30
0.0
 10
5.4996356815
 20
3.7586090011
 30
0.0
 10
5.5292179568
 20
3.7314592858
 30
0.0
 10
5.5506515896
 20
3.7076191927
 30
0.0
 10
5.5607326947
 20
3.6952536701
 30
0.0
  0
SPLINE
  5
24E
100
AcDbEntity
  8
0
100
AcDbSpline
 62
7
  6
CONTINUOUS
 70
0
 71
3
 72
37
 73
33
 74
0
 42
0.0000001
 43
0.0000001
 44
0.0000000001
 40
0.0
 40
0.0
 40
0.0
 40
0.0
 40
0.0299323757
 40
0.0598746415
 40
0.1199085631
 40
0.1500974866
 40
0.180458675
 40
0.2110330927
 40
0.2418588419
 40
0.2729726355
 40
0.3043971044
 40
0.3361525599
 40
0.3682356338
 40
0.4332697618
 40
0.4496818723
 40
0.4661362459
 40
0.4991222439
 40
0.5321355326
 40
0.5650803791
 40
0.5978644813
 40
0.6304163507
 40
0.6946036308
 40
0.7262135994
 40
0.757501813
 40
0.7884859872
 40
0.81919743
 40
0.8496749648
 40
0.87995693
 40
0.910087514
 40
0.940110452
 40
0.9700675955
 40
1.0
 40
1.0
 40
1.0
 40
1.0
 10
5.4620310867
 20
3.1174556154
 30
0.0
 10
5.4660188121
 20
3.1218085421
 30
0.0
 10
5.4738105936
 20
3.130687864
 30
0.0
 10
5.488634753
 20
3.1491201609
 30
0.0
 10
5.5022866373
 20
3.1685360709
 30
0.0
 10
5.5146710667
 20
3.1888457307
 30
0.0
 10
5.5233509066
 20
3.2045896873
 30
0.0
 10
5.5313829398
 20
3.220813727
 30
0.0
 10
5.5387418204
 20
3.237516625
 30
0.0
 10
5.5454006717
 20
3.2546908841
 30
0.0
 10
5.5513259023
 20
3.2723254764
 30
0.0
 10
5.5564801667
 20
3.2904004395
 30
0.0
 10
5.5622996956
 20
3.315148822
 30
0.0
 10
5.5658589912
 20
3.3372986636
 30
0.0
 10
5.5677705362
 20
3.3565127927
 30
0.0
 10
5.5687411347
 20
3.3694654343
 30
0.0
 10
5.5693648384
 20
3.3857222499
 30
0.0
 10
5.569157067
 20
3.4052429578
 30
0.0
 10
5.5680018707
 20
3.4246906384
 30
0.0
 10
5.5659105529
 20
3.443968946
 30
0.0
 10
5.5619356264
 20
3.4692103842
 30
0.0
 10
5.556212916
 20
3.4939150127
 30
0.0
 10
5.5488530527
 20
3.5178813144
 30
0.0
 10
5.542605713
 20
3.5353187421
 30
0.0
 10
5.5356405749
 20
3.5522898025
 30
0.0
 10
5.5279869571
 20
3.5687855912
 30
0.0
 10
5.519671512
 20
3.5848016964
 30
0.0
 10
5.5107182234
 20
3.6003379527
 30
0.0
 10
5.5011425185
 20
3.6153922243
 30
0.0
 10
5.4909601206
 20
3.6299648236
 30
0.0
 10
5.480184268
 20
3.6440545809
 30
0.0
 10
5.472608931
 20
3.653122714
 30
0.0
 10
5.4687279836
 20
3.6575711114
 30
0.0
  0
SPLINE
  5
24F
100
AcDbEntity
  8
0
100
AcDbSpline
 62
7
  6
CONTINUOUS
 70
0
 71
3
 72
40
 73
36
 74
0
 42
0.0000001
 43
0.0000001
 44
0.0000000001
 40
0.0
 40
0.0
 40
0.0
 40
0.0
 40
0.0297167544
 40
0.0595157254
 40
0.0894423276
 40
0.119537783
 40
0.1498354685
 40
0.180367858
 40
0.2111557741
 40
0.2422173677
 40
0.273559407
 40
0.3051813612
 40
0.3370722031
 40
0.3692105438
 40
0.4015650766
 40
0.417812065
 40
0.4340973691
 40
0.4667522019
 40
0.4994766268
 40
0.5322116239
 40
0.5648968075
 40
0.5974757362
 40
0.629895297
 40
0.6621127734
 40
0.6940914035
 40
0.7258084468
 40
0.7572470396
 40
0.788405488
 40
0.8192858245
 40
0.8499043895
 40
0.8802797789
 40
0.9104411673
 40
0.9404220319
 40
0.9702599149
 40
1.0
 40
1.0
 40
1.0
 40
1.0
 10
5.4643203472
 20
3.6625420294
 30
0.0
 10
5.4597203736
 20
3.6676467236
 30
0.0
 10
5.4502518478
 20
3.6776429893
 30
0.0
 10
5.4352930373
 20
3.691937026
 30
0.0
 10
5.4195731304
 20
3.7055247058
 30
0.0
 10
5.4031033307
 20
3.7183812613
 30
0.0
 10
5.385893221
 20
3.7304741971
 30
0.0
 10
5.3679587803
 20
3.7417680261
 30
0.0
 10
5.3493190613
 20
3.7522219369
 30
0.0
 10
5.3300000068
 20
3.7617897898
 30
0.0
 10
5.3100357538
 20
3.7704247084
 30
0.0
 10
5.2894688984
 20
3.778074945
 30
0.0
 10
5.268353198
 20
3.784691428
 30
0.0
 10
5.2467531196
 20
3.7902240213
 30
0.0
 10
5.2284369355
 20
3.7938897414
 30
0.0
 10
5.21361696
 20
3.7962424986
 30
0.0
 10
5.1986702167
 20
3.798204843
 30
0.0
 10
5.1798536214
 20
3.799907967
 30
0.0
 10
5.1571704657
 20
3.8007307296
 30
0.0
 10
5.1344685711
 20
3.8003303202
 30
0.0
 10
5.1118551456
 20
3.7987065991
 30
0.0
 10
5.0894340096
 20
3.7958798395
 30
0.0
 10
5.0673035654
 20
3.7918725854
 30
0.0
 10
5.0455530823
 20
3.7867249726
 30
0.0
 10
5.024262471
 20
3.7804762435
 30
0.0
 10
5.003499663
 20
3.7731775166
 30
0.0
 10
4.9833222033
 20
3.7648760829
 30
0.0
 10
4.9637763871
 20
3.7556246977
 30
0.0
 10
4.9448989646
 20
3.745471071
 30
0.0
 10
4.9267189072
 20
3.7344620301
 30
0.0
 10
4.9092569488
 20
3.7226405508
 30
0.0
 10
4.8925303896
 20
3.7100435519
 30
0.0
 10
4.8765507901
 20
3.6967047196
 30
0.0
 10
4.8613282494
 20
3.6826521133
 30
0.0
 10
4.8516794812
 20
3.6728095132
 30
0.0
 10
4.8469890139
 20
3.6677804629
 30
0.0
  0
SPLINE
  5
250
100
AcDbEntity
  8
0
100
AcDbSpline
 62
7
  6
CONTINUOUS
 70
0
 71
3
 72
68
 73
64
 74
0
 42
0.0000001
 43
0.0000001
 44
0.0000000001
 40
0.0
 40
0.0
 40
0.0
 40
0.0
 40
0.014817081
 40
0.0296555642
 40
0.0445381679
 40
0.05949027
 40
0.0745420606
 40
0.0897243472
 40
0.1050630892
 40
0.120582845
 40
0.1363008114
 40
0.1522257028
 40
0.1683535671
 40
0.1764880326
 40
0.1846646866
 40
0.2011177852
 40
0.2176597578
 40
0.2259440307
 40
0.2342248635
 40
0.2424939104
 40
0.2507431784
 40
0.2833882179
 40
0.3152843646
 40
0.3309287343
 40
0.3463814721
 40
0.3616610067
 40
0.376793041
 40
0.391805859
 40
0.4067277633
 40
0.421588305
 40
0.4364163348
 40
0.4512381137
 40
0.4660791163
 40
0.4809638009
 40
0.495913434
 40
0.5260812485
 40
0.5567265068
 40
0.5722634278
 40
0.5879509445
 40
0.6037900809
 40
0.6197793407
 40
0.6359108235
 40
0.6521725518
 40
0.668546559
 40
0.6850106409
 40
0.7015378291
 40
0.7180984115
 40
0.7346610039
 40
0.7511939888
 40
0.7676675763
 40
0.7840541157
 40
0.800331266
 40
0.8164800539
 40
0.8324879735
 40
0.8483459401
 40
0.8640524778
 40
0.8796079672
 40
0.9102871078
 40
0.940481664
 40
0.9554412332
 40
0.9703329732
 40
0.9851777934
 40
1.0
 40
1.0
 40
1.0
 40
1.0
 10
4.812277585
 20
3.0981435875
 30
0.0
 10
4.8077844701
 20
3.1035584676
 30
0.0
 10
4.7990446598
 20
3.1146088242
 30
0.0
 10
4.7867138717
 20
3.1318015482
 30
0.0
 10
4.775167147
 20
3.1496073897
 30
0.0
 10
4.7644164888
 20
3.1680222593
 30
0.0
 10
4.7544810405
 20
3.1870502944
 30
0.0
 10
4.7453770724
 20
3.2066925336
 30
0.0
 10
4.7371339569
 20
3.2269516941
 30
0.0
 10
4.72978747
 20
3.2478230222
 30
0.0
 10
4.7233780126
 20
3.2692919113
 30
0.0
 10
4.7179565469
 20
3.2913288537
 30
0.0
 10
4.7143144865
 20
3.3100706598
 30
0.0
 10
4.7119407802
 20
3.3252925436
 30
0.0
 10
4.7099294043
 20
3.3407223362
 30
0.0
 10
4.7081322781
 20
3.3601998126
 30
0.0
 10
4.7073206189
 20
3.3797944699
 30
0.0
 10
4.7072645113
 20
3.3955175038
 30
0.0
 10
4.7075216001
 20
3.4073091038
 30
0.0
 10
4.7080766274
 20
3.4190739259
 30
0.0
 10
4.7097637083
 20
3.4423605556
 30
0.0
 10
4.7144227524
 20
3.4766765157
 30
0.0
 10
4.7232727883
 20
3.5137780781
 30
0.0
 10
4.7323328814
 20
3.5422973747
 30
0.0
 10
4.7400087159
 20
3.5629489344
 30
0.0
 10
4.7485652585
 20
3.5829864094
 30
0.0
 10
4.7579731679
 20
3.6024066284
 30
0.0
 10
4.7682053823
 20
3.6212120815
 30
0.0
 10
4.7792419085
 20
3.6394063983
 30
0.0
 10
4.7910728231
 20
3.6569887175
 30
0.0
 10
4.8036849116
 20
3.6739601129
 30
0.0
 10
4.8170742416
 20
3.690313454
 30
0.0
 10
4.8312374633
 20
3.70603741
 30
0.0
 10
4.8461698941
 20
3.7211191699
 30
0.0
 10
4.8671651805
 20
3.7403959096
 30
0.0
 10
4.8953957596
 20
3.7627949064
 30
0.0
 10
4.925910756
 20
3.782490734
 30
0.0
 10
4.9517176471
 20
3.7965553109
 30
0.0
 10
4.9718631484
 20
3.8062554951
 30
0.0
 10
4.9926723159
 20
3.8150051061
 30
0.0
 10
5.0141017833
 20
3.8227470356
 30
0.0
 10
5.036095239
 20
3.8294286747
 30
0.0
 10
5.0585857078
 20
3.83499468
 30
0.0
 10
5.081493151
 20
3.8393998475
 30
0.0
 10
5.1047272274
 20
3.8425997854
 30
0.0
 10
5.1281870505
 20
3.8445667799
 30
0.0
 10
5.1517653541
 20
3.8452764508
 30
0.0
 10
5.1753506766
 20
3.8447259982
 30
0.0
 10
5.1988314077
 20
3.8429162299
 30
0.0
 10
5.222099577
 20
3.8398706794
 30
0.0
 10
5.2450533724
 20
3.8356149608
 30
0.0
 10
5.267601193
 20
3.8301932283
 30
0.0
 10
5.2896614376
 20
3.8236490631
 30
0.0
 10
5.3111654312
 20
3.8160381608
 30
0.0
 10
5.3320553167
 20
3.8074123863
 30
0.0
 10
5.3522864229
 20
3.7978291932
 30
0.0
 10
5.3782114333
 20
3.7839115728
 30
0.0
 10
5.4088801039
 20
3.7643853565
 30
0.0
 10
5.4372730791
 20
3.7421378875
 30
0.0
 10
5.458399512
 20
3.7229740656
 30
0.0
 10
5.4734289875
 20
3.7079748448
 30
0.0
 10
5.4876887657
 20
3.6923316477
 30
0.0
 10
5.4966822046
 20
3.6814795632
 30
0.0
 10
5.5010448664
 20
3.6759559369
 30
0.0
  0
ENDSEC
  0
SECTION
  2
OBJECTS
  0
DICTIONARY
  5
C
100
AcDbDictionary
280
0
281
1
  3
ACAD_GROUP
350
D
  3
ACAD_MLINESTYLE
350
17
  3
ACAD_LAYOUT
350
1A
  3
ACAD_PLOTSETTINGS
350
19
  3
ACAD_PLOTSTYLENAME
350
E
  0
DICTIONARY
  5
D
102
{ACAD_REACTORS
330
C
102
}
100
AcDbDictionary
280
0
281
1
  0
ACDBDICTIONARYWDFLT
  5
E
102
{ACAD_REACTORS
330
C
102
}
100
AcDbDictionary
281
1
  3
Normal
350
F
100
AcDbDictionaryWithDefault
340
F
  0
DICTIONARY
  5
17
102
{ACAD_REACTORS
330
C
102
}
100
AcDbDictionary
280
0
281
1
  3
Standard
350
18
  0
DICTIONARY
  5
19
102
{ACAD_REACTORS
330
C
102
}
100
AcDbDictionary
281
1
  0
DICTIONARY
  5
1A
102
{ACAD_REACTORS
330
C
102
}
100
AcDbDictionary
281
1
  3
Model
350
251
  3
Layout1
350
252
  0
ACDBPLACEHOLDER
  5
F
102
{ACAD_REACTORS
330
E
102
}
  0
MLINESTYLE
  5
18
102
{ACAD_REACTORS
330
17
102
}
100
AcDbMlineStyle
  2
STANDARD
 70
0
  3

 62
256
 51
90.0
 52
90.0
 71
2
 49
0.5
 62
256
  6
BYLAYER
 49
-0.5
 62
256
  6
BYLAYER
  0
LAYOUT
  5
251
102
{ACAD_REACTORS
330
1A
102
}
100
AcDbPlotSettings
  1

  2
none_device
  4
ANSI_A_(11.00_x_8.50_Inches)
  6

 40
0.0
 41
0.0
 42
0.0
 43
0.0
 44
279.4
 45
215.9
 46
0.0
 47
0.0
 48
0.0
 49
0.0
140
0.0
141
0.0
142
1.0
143
1.0
 70
1024
 72
0
 73
0
 74
0
  7

 75
0
147
1.0
148
0.0
149
0.0
100
AcDbLayout
  1
Model
 70
0
 71
0
 10
0.0
 20
0.0
 11
11.0
 21
8.5
 12
0.0
 22
0.0
 32
0.0
 14
0.0
 24
0.0
 34
0.0
 15
0.0
 25
0.0
 35
0.0
146
0.0
 13
0.0
 23
0.0
 33
0.0
 16
1.0
 26
0.0
 36
0.0
 17
0.0
 27
1.0
 37
0.0
 76
0
330
203
345
0
346
0
  0
LAYOUT
  5
252
102
{ACAD_REACTORS
330
1A
102
}
100
AcDbPlotSettings
  1

  2
none_device
  4
ANSI_A_(11.00_x_8.50_Inches)
  6

 40
0.0
 41
0.0
 42
0.0
 43
0.0
 44
279.4
 45
215.9
 46
0.0
 47
0.0
 48
0.0
 49
0.0
140
0.0
141
0.0
142
1.0
143
1.0
 70
0
 72
0
 73
0
 74
0
  7

 75
0
147
1.0
148
0.0
149
0.0
100
AcDbLayout
  1
Layout1
 70
0
 71
1
 10
0.0
 20
0.0
 11
11.0
 21
8.5
 12
0.0
 22
0.0
 32
0.0
 14
0.0
 24
0.0
 34
0.0
 15
0.0
 25
0.0
 35
0.0
146
0.0
 13
0.0
 23
0.0
 33
0.0
 16
1.0
 26
0.0
 36
0.0
 17
0.0
 27
1.0
 37
0.0
 76
0
330
204
345
0
346
0
  0
ENDSEC
  0
EOF
