999
DXF file: 3-921_right.dxf
999
Pro/ENGINEER 2018400 by Parametric Technology Corporation
  0
SECTION
  2
HEADER
  9
$ACADVER
  1
AC1027
  9
$DWGCODEPAGE
  3
ANSI_1252
  9
$EXTMAX
 10
11.0
 20
8.5
 30
0.0
  9
$EXTMIN
 10
0.0
 20
0.0
 30
0.0
  9
$LIMMIN
 10
0.0
 20
0.0
  9
$LIMMAX
 10
11.0
 20
8.5
  9
$VIEWCTR
 10
5.5
 20
4.25
  9
$VIEWSIZE
 40
8.5
  9
$CLAYER
  8
0
  9
$LTSCALE
 40
0.605
  9
$CELTYPE
  6
BYLAYER
  9
$DIMSCALE
 40
1.0
  9
$DIMASZ
 40
0.1
  9
$DIMEXO
 40
0.0625
  9
$DIMDLI
 40
0.418
  9
$DIMEXE
 40
0.125
  9
$DIMCEN
 40
0.099
  9
$DIMLFAC
 40
1.0
  9
$DIMBLK
  1
_FILLED
  9
$DIMALT
 70
1
  9
$DIMALTD
 70
2
  9
$DIMALTTD
 70
2
  9
$DIMALTF
 40
25.4
  9
$DIMTXT
 40
0.08
  9
$DIMTOL
 70
1
  9
$DIMLIM
 70
0
  9
$DIMTFAC
 40
1.0
  9
$DIMTP
 40
0.001
  9
$DIMTM
 40
0.001
  9
$DIMGAP
 40
0.09
  9
$DIMDSEP
 70
46
  9
$AUNITS
 70
0
  9
$PDMODE
 70
3
  9
$PDSIZE
 40
0.3125
  9
$HANDSEED
  5
351
  9
$TILEMODE
 70
1
  9
$MEASUREMENT
 70
0
  9
$INSUNITS
 70
1
  0
ENDSEC
  0
SECTION
  2
CLASSES
  0
CLASS
  1
ACDBDICTIONARYWDFLT
  2
AcDbDictionaryWithDefault
  3
AutoCAD 2000
 90
0
 91
1
280
0
281
0
  0
CLASS
  1
ACDBPLACEHOLDER
  2
AcDbPlaceHolder
  3
AutoCAD 2000
 90
0
 91
1
280
0
281
0
  0
CLASS
  1
LAYOUT
  2
AcDbLayout
  3
AutoCAD 2000
 90
0
 91
0
280
0
281
0
  0
ENDSEC
  0
SECTION
  2
TABLES
  0
TABLE
  2
VPORT
  5
8
100
AcDbSymbolTable
 70
2
  0
VPORT
  5
1F4
100
AcDbSymbolTableRecord
100
AcDbViewportTableRecord
  2
*ACTIVE
 70
0
 10
0.0
 20
0.0
 11
1.0
 21
1.0
 12
5.5
 22
4.25
 13
0.0
 23
0.0
 14
1.0
 24
1.0
 15
0.0
 25
0.0
 16
0.0
 26
0.0
 36
1.0
 17
0.0
 27
0.0
 37
0.0
 40
8.5
 41
1.2941176471
 42
50.0
 43
0.0
 44
0.0
 50
0.0
 51
0.0
 71
0
 72
100
 73
1
 74
1
 75
0
 76
0
 77
0
 78
0
  0
ENDTAB
  0
TABLE
  2
LTYPE
  5
5
100
AcDbSymbolTable
 70
6
  0
LTYPE
  5
14
100
AcDbSymbolTableRecord
100
AcDbLinetypeTableRecord
  2
BYBLOCK
 70
0
  3

 72
65
 73
0
 40
0.0
  0
LTYPE
  5
15
100
AcDbSymbolTableRecord
100
AcDbLinetypeTableRecord
  2
BYLAYER
 70
0
  3

 72
65
 73
0
 40
0.0
  0
LTYPE
  5
16
100
AcDbSymbolTableRecord
100
AcDbLinetypeTableRecord
  2
CONTINUOUS
 70
64
  3
Solid line
 72
65
 73
0
 40
0.0
  0
LTYPE
  5
1F5
100
AcDbSymbolTableRecord
100
AcDbLinetypeTableRecord
  2
CENTER
 70
64
  3
____ _ ____ _ ____ _ ____ _ ____ _ ____ _ ____
 72
65
 73
4
 40
0.6
 49
0.375
 74
0
 49
-0.075
 74
0
 49
0.075
 74
0
 49
-0.075
 74
0
  0
LTYPE
  5
1F6
100
AcDbSymbolTableRecord
100
AcDbLinetypeTableRecord
  2
HIDDEN
 70
64
  3
- - - - - - - - - - - - - - - - - - - -
 72
65
 73
2
 40
0.2
 49
0.1
 74
0
 49
-0.1
 74
0
  0
LTYPE
  5
1F7
100
AcDbSymbolTableRecord
100
AcDbLinetypeTableRecord
  2
PHANTOM
 70
64
  3
_____ _ _ _____ _ _ _____ _ _ _____
 72
65
 73
6
 40
0.8
 49
0.45
 74
0
 49
-0.05
 74
0
 49
0.1
 74
0
 49
-0.05
 74
0
 49
0.1
 74
0
 49
-0.05
 74
0
  0
LTYPE
  5
1F8
100
AcDbSymbolTableRecord
100
AcDbLinetypeTableRecord
  2
DOT
 70
64
  3
. . . . . . . . . . . . . . . . . . . .
 72
65
 73
2
 40
0.2
 49
0.1
 74
0
 49
-0.1
 74
0
  0
LTYPE
  5
1F9
100
AcDbSymbolTableRecord
100
AcDbLinetypeTableRecord
  2
DASHED
 70
64
  3
- - - - - - - - - - - - - - - - - - - -
 72
65
 73
2
 40
0.2
 49
0.1
 74
0
 49
-0.1
 74
0
  0
ENDTAB
  0
TABLE
  2
LAYER
  5
2
100
AcDbSymbolTable
 70
36
  0
LAYER
  5
10
100
AcDbSymbolTableRecord
100
AcDbLayerTableRecord
  2
0
 70
0
 62
7
  6
CONTINUOUS
370
-3
390
F
  0
LAYER
  5
1FA
100
AcDbSymbolTableRecord
100
AcDbLayerTableRecord
  2
DEFAULT_1
 70
0
 62
7
  6
CENTER
370
-3
390
F
  0
LAYER
  5
1FB
100
AcDbSymbolTableRecord
100
AcDbLayerTableRecord
  2
DEFAULT_2
 70
0
 62
8
  6
HIDDEN
370
-3
390
F
  0
LAYER
  5
1FC
100
AcDbSymbolTableRecord
100
AcDbLayerTableRecord
  2
DEFAULT_3
 70
0
 62
7
  6
PHANTOM
370
-3
390
F
  0
LAYER
  5
1FD
100
AcDbSymbolTableRecord
100
AcDbLayerTableRecord
  2
2-141_ASSY_DATUMS
 70
0
 62
7
  6
CONTINUOUS
370
-3
390
F
  0
LAYER
  5
1FE
100
AcDbSymbolTableRecord
100
AcDbLayerTableRecord
  2
2-142_ASSY_DATUMS
 70
0
 62
7
  6
CONTINUOUS
370
-3
390
F
  0
LAYER
  5
1FF
100
AcDbSymbolTableRecord
100
AcDbLayerTableRecord
  2
3-163C
 70
0
 62
7
  6
CONTINUOUS
370
-3
390
F
  0
LAYER
  5
200
100
AcDbSymbolTableRecord
100
AcDbLayerTableRecord
  2
3-163H
 70
0
 62
7
  6
CONTINUOUS
370
-3
390
F
  0
LAYER
  5
201
100
AcDbSymbolTableRecord
100
AcDbLayerTableRecord
  2
ALL_ASSEMBLY_MEMBERS
 70
0
 62
7
  6
CONTINUOUS
370
-3
390
F
  0
LAYER
  5
202
100
AcDbSymbolTableRecord
100
AcDbLayerTableRecord
  2
ALL_FEATURES
 70
0
 62
7
  6
CONTINUOUS
370
-3
390
F
  0
LAYER
  5
203
100
AcDbSymbolTableRecord
100
AcDbLayerTableRecord
  2
AXES_FEATURES
 70
0
 62
7
  6
CONTINUOUS
370
-3
390
F
  0
LAYER
  5
204
100
AcDbSymbolTableRecord
100
AcDbLayerTableRecord
  2
CHAMFER_FEATURES
 70
0
 62
7
  6
CONTINUOUS
370
-3
390
F
  0
LAYER
  5
205
100
AcDbSymbolTableRecord
100
AcDbLayerTableRecord
  2
CURVE
 70
0
 62
7
  6
CONTINUOUS
370
-3
390
F
  0
LAYER
  5
206
100
AcDbSymbolTableRecord
100
AcDbLayerTableRecord
  2
CUT_FEATURES
 70
0
 62
7
  6
CONTINUOUS
370
-3
390
F
  0
LAYER
  5
207
100
AcDbSymbolTableRecord
100
AcDbLayerTableRecord
  2
DATUM_CURVES
 70
0
 62
7
  6
CONTINUOUS
370
-3
390
F
  0
LAYER
  5
208
100
AcDbSymbolTableRecord
100
AcDbLayerTableRecord
  2
DATUM_PLANES
 70
0
 62
7
  6
CONTINUOUS
370
-3
390
F
  0
LAYER
  5
209
100
AcDbSymbolTableRecord
100
AcDbLayerTableRecord
  2
DATUM_SHAPER
 70
0
 62
7
  6
CONTINUOUS
370
-3
390
F
  0
LAYER
  5
20A
100
AcDbSymbolTableRecord
100
AcDbLayerTableRecord
  2
DEFAULT_COORDINATE_SYSTEM
 70
0
 62
7
  6
CONTINUOUS
370
-3
390
F
  0
LAYER
  5
20B
100
AcDbSymbolTableRecord
100
AcDbLayerTableRecord
  2
DEFAULT_DATUM_AXES
 70
0
 62
7
  6
CONTINUOUS
370
-3
390
F
  0
LAYER
  5
20C
100
AcDbSymbolTableRecord
100
AcDbLayerTableRecord
  2
DEFAULT_DATUM_CURVES
 70
0
 62
7
  6
CONTINUOUS
370
-3
390
F
  0
LAYER
  5
20D
100
AcDbSymbolTableRecord
100
AcDbLayerTableRecord
  2
DEFAULT_DATUM_PLANES
 70
0
 62
7
  6
CONTINUOUS
370
-3
390
F
  0
LAYER
  5
20E
100
AcDbSymbolTableRecord
100
AcDbLayerTableRecord
  2
DEFAULT_SURFACES
 70
0
 62
7
  6
CONTINUOUS
370
-3
390
F
  0
LAYER
  5
20F
100
AcDbSymbolTableRecord
100
AcDbLayerTableRecord
  2
DIMENSIONS
 70
0
 62
7
  6
CONTINUOUS
370
-3
390
F
  0
LAYER
  5
210
100
AcDbSymbolTableRecord
100
AcDbLayerTableRecord
  2
LAY0001
 70
0
 62
7
  6
CONTINUOUS
370
-3
390
F
  0
LAYER
  5
211
100
AcDbSymbolTableRecord
100
AcDbLayerTableRecord
  2
PART_REFERENCE_DIMENSIONS
 70
0
 62
7
  6
CONTINUOUS
370
-3
390
F
  0
LAYER
  5
212
100
AcDbSymbolTableRecord
100
AcDbLayerTableRecord
  2
PLATED_SURAFCE
 70
0
 62
7
  6
CONTINUOUS
370
-3
390
F
  0
LAYER
  5
213
100
AcDbSymbolTableRecord
100
AcDbLayerTableRecord
  2
PLATED_SURFACE_AREA
 70
0
 62
7
  6
CONTINUOUS
370
-3
390
F
  0
LAYER
  5
214
100
AcDbSymbolTableRecord
100
AcDbLayerTableRecord
  2
PROTRUSION_FEATURES
 70
0
 62
7
  6
CONTINUOUS
370
-3
390
F
  0
LAYER
  5
215
100
AcDbSymbolTableRecord
100
AcDbLayerTableRecord
  2
QUILT
 70
0
 62
7
  6
CONTINUOUS
370
-3
390
F
  0
LAYER
  5
216
100
AcDbSymbolTableRecord
100
AcDbLayerTableRecord
  2
QUILTS
 70
0
 62
7
  6
CONTINUOUS
370
-3
390
F
  0
LAYER
  5
217
100
AcDbSymbolTableRecord
100
AcDbLayerTableRecord
  2
REFERENCE_DIMENSIONS
 70
0
 62
7
  6
CONTINUOUS
370
-3
390
F
  0
LAYER
  5
218
100
AcDbSymbolTableRecord
100
AcDbLayerTableRecord
  2
ROUND_FEATURES
 70
0
 62
7
  6
CONTINUOUS
370
-3
390
F
  0
LAYER
  5
219
100
AcDbSymbolTableRecord
100
AcDbLayerTableRecord
  2
XSEC_DATUMS
 70
0
 62
7
  6
CONTINUOUS
370
-3
390
F
  0
ENDTAB
  0
TABLE
  2
STYLE
  5
3
100
AcDbSymbolTable
 70
1
  0
STYLE
  5
11
100
AcDbSymbolTableRecord
100
AcDbTextStyleTableRecord
  2
STANDARD
 70
0
 40
0.0
 41
0.8
 50
0.0
 71
0
 42
0.2
  3
txt
  4

  0
STYLE
  5
21A
100
AcDbSymbolTableRecord
100
AcDbTextStyleTableRecord
  2
TEXTSTYLE_1
 70
0
 40
0.0
 41
0.8
 50
0.0
 71
0
 42
0.2
  3
gdt
  4

  0
ENDTAB
  0
TABLE
  2
VIEW
  5
6
100
AcDbSymbolTable
 70
0
  0
ENDTAB
  0
TABLE
  2
UCS
  5
7
100
AcDbSymbolTable
 70
0
  0
ENDTAB
  0
TABLE
  2
APPID
  5
9
100
AcDbSymbolTable
 70
1
  0
APPID
  5
21B
100
AcDbSymbolTableRecord
100
AcDbRegAppTableRecord
  2
ACAD
 70
0
  0
ENDTAB
  0
TABLE
  2
BLOCK_RECORD
  5
1
100
AcDbSymbolTable
 70
0
  0
BLOCK_RECORD
  5
21C
100
AcDbSymbolTableRecord
100
AcDbBlockTableRecord
  2
*Model_Space
  0
BLOCK_RECORD
  5
21D
100
AcDbSymbolTableRecord
100
AcDbBlockTableRecord
  2
*Paper_Space
  0
BLOCK_RECORD
  5
21E
100
AcDbSymbolTableRecord
100
AcDbBlockTableRecord
  2
_FILLED
  0
ENDTAB
  0
TABLE
  2
DIMSTYLE
  5
A
100
AcDbSymbolTable
 70
1
100
AcDbDimStyleTable
 71
0
  0
DIMSTYLE
105
21F
100
AcDbSymbolTableRecord
100
AcDbDimStyleTableRecord
  2
STANDARD
 70
0
  3

  4

 40
1.0
 41
0.1
 42
0.0625
 43
0.38
 44
0.125
 45
0.0
 46
0.0
 47
0.001
 48
0.001
140
0.08
141
0.09
142
0.0
143
25.4
144
1.0
145
0.0
146
1.0
147
0.09
 71
1.0
 72
0.0
 73
1
 74
1
 75
0
 76
0
 77
0
 78
4
 79
1
170
1
171
2
172
0
173
0
174
0
175
0
176
0
177
0
178
0
270
2
179
3
271
3
272
3
273
2
274
2
275
0
280
0
281
0
282
0
283
1
284
4
285
0
286
0
287
3
288
0
340
11
278
46
341
21E
342
21E
343
21E
344
21E
  0
ENDTAB
  0
ENDSEC
  0
SECTION
  2
BLOCKS
  0
BLOCK
  5
20
100
AcDbEntity
  8
0
100
AcDbBlockBegin
  2
*Model_Space
 70
0
 10
0.0
 20
0.0
 30
0.0
  3
*Model_Space
  1

  0
ENDBLK
  5
21
100
AcDbEntity
  8
0
100
AcDbBlockEnd
  0
BLOCK
  5
1C
100
AcDbEntity
  8
0
100
AcDbBlockBegin
  2
*Paper_Space
 70
0
 10
0.0
 20
0.0
 30
0.0
  3
*Paper_Space
  1

  0
ENDBLK
  5
1D
100
AcDbEntity
  8
0
100
AcDbBlockEnd
  0
BLOCK
  5
220
100
AcDbEntity
  8
0
100
AcDbBlockBegin
  2
_FILLED
 70
64
 10
0.0
 20
0.0
  3
_FILLED
  1

  0
SOLID
  5
221
100
AcDbEntity
  8
0
  6
BYBLOCK
 62
0
100
AcDbTrace
 10
0.0
 20
0.0
 11
-1.0
 21
0.2
 12
-1.0
 22
-0.2
 13
-1.0
 23
-0.2
  0
ENDBLK
  5
222
100
AcDbEntity
  8
0
  6
BYBLOCK
 62
0
100
AcDbBlockEnd
  0
ENDSEC
  0
SECTION
  2
ENTITIES
  0
MTEXT
  5
223
100
AcDbEntity
  8
0
100
AcDbMText
 62
2
  6
CONTINUOUS
  7
STANDARD
 71
3
 72
1
 10
2.2190568362
 20
0.6764635093
 30
0.0
 11
1.0
 21
0.0
 31
0.0
 73
2
 44
0.9
  1
SCALE  .500
 40
0.08
 41
0.704
  0
LINE
  5
224
100
AcDbEntity
  8
0
100
AcDbLine
 62
7
  6
CONTINUOUS
 10
0.0
 20
0.0
 11
0.0
 21
8.5
  0
LINE
  5
225
100
AcDbEntity
  8
0
100
AcDbLine
 62
7
  6
CONTINUOUS
 10
0.0
 20
0.0
 11
11.0
 21
0.0
  0
LINE
  5
226
100
AcDbEntity
  8
0
100
AcDbLine
 62
7
  6
CONTINUOUS
 10
0.0
 20
8.5
 11
11.0
 21
8.5
  0
LINE
  5
227
100
AcDbEntity
  8
0
100
AcDbLine
 62
7
  6
CONTINUOUS
 10
11.0
 20
0.0
 11
11.0
 21
8.5
  0
LINE
  5
228
100
AcDbEntity
  8
0
100
AcDbLine
 62
7
  6
CONTINUOUS
 10
3.1751593207
 20
3.8086763286
 11
3.1751593207
 21
3.5961763731
  0
LINE
  5
229
100
AcDbEntity
  8
0
100
AcDbLine
 62
7
  6
CONTINUOUS
 10
3.2076478419
 20
3.8085978567
 11
3.2076478419
 21
3.5960979012
  0
LINE
  5
22A
100
AcDbEntity
  8
0
100
AcDbLine
 62
7
  6
CONTINUOUS
 10
3.4176590023
 20
3.8085193847
 11
3.4176590023
 21
3.5960194292
  0
LINE
  5
22B
100
AcDbEntity
  8
0
100
AcDbLine
 62
7
  6
CONTINUOUS
 10
3.6276701627
 20
3.8085978567
 11
3.6276701627
 21
3.5960979012
  0
LINE
  5
22C
100
AcDbEntity
  8
0
100
AcDbLine
 62
7
  6
CONTINUOUS
 10
3.6601586839
 20
3.5961763731
 11
3.6601586839
 21
3.8086763286
  0
LWPOLYLINE
  5
22D
100
AcDbEntity
  8
0
100
AcDbPolyline
 62
7
  6
CONTINUOUS
 90
22
 70
0
 10
3.6601586839
 20
3.8086763289
 10
3.6602407959
 20
3.8137495188
 10
3.6611313124
 20
3.8261297533
 10
3.6630021627
 20
3.8384592693
 10
3.66584807
 20
3.8506535266
 10
3.6696575196
 20
3.8626337527
 10
3.6744147587
 20
3.8743269946
 10
3.6800963009
 20
3.8856559747
 10
3.6866710229
 20
3.8965437975
 10
3.6941042238
 20
3.9069208613
 10
3.7023546204
 20
3.9167188062
 10
3.7113735205
 20
3.9258710453
 10
3.7211074533
 20
3.9343164208
 10
3.7315006977
 20
3.9420005799
 10
3.7424900662
 20
3.9488716769
 10
3.754004048
 20
3.9548818389
 10
3.7659725664
 20
3.9599929566
 10
3.7783273538
 20
3.9641744822
 10
3.7909958342
 20
3.9674003197
 10
3.8039054523
 20
3.969650918
 10
3.8169845247
 20
3.9709125099
 10
3.8265724554
 20
3.9711044817
  0
LINE
  5
22E
100
AcDbEntity
  8
0
100
AcDbLine
 62
7
  6
CONTINUOUS
 10
3.8301590023
 20
3.9710828806
 11
3.8301590023
 21
4.4710827759
  0
LINE
  5
22F
100
AcDbEntity
  8
0
100
AcDbLine
 62
7
  6
CONTINUOUS
 10
3.6601586839
 20
3.5961763731
 11
3.6276701627
 21
3.5960979012
  0
LINE
  5
230
100
AcDbEntity
  8
0
100
AcDbLine
 62
7
  6
CONTINUOUS
 10
3.6276701627
 20
3.5960979012
 11
3.5138601289
 21
3.5960324656
  0
LINE
  5
231
100
AcDbEntity
  8
0
100
AcDbLine
 62
7
  6
CONTINUOUS
 10
3.5138601289
 20
3.5960324656
 11
3.4551590081
 21
3.5960214361
  0
LINE
  5
232
100
AcDbEntity
  8
0
100
AcDbLine
 62
7
  6
CONTINUOUS
 10
7.1676590023
 20
3.6274262422
 11
6.9314567324
 21
3.6274262422
  0
LINE
  5
233
100
AcDbEntity
  8
0
100
AcDbLine
 62
7
  6
CONTINUOUS
 10
3.3718818871
 20
3.5960223424
 11
3.3214578757
 21
3.5960324656
  0
LINE
  5
234
100
AcDbEntity
  8
0
100
AcDbLine
 62
7
  6
CONTINUOUS
 10
3.3753413651
 20
3.5960218466
 11
3.3718818871
 21
3.5960223424
  0
LINE
  5
235
100
AcDbEntity
  8
0
100
AcDbLine
 62
7
  6
CONTINUOUS
 10
3.3801589965
 20
3.5960214361
 11
3.3753413651
 21
3.5960218466
  0
LINE
  5
236
100
AcDbEntity
  8
0
100
AcDbLine
 62
7
  6
CONTINUOUS
 10
3.4551590081
 20
3.5960214361
 11
3.3801589965
 21
3.5960214361
  0
LINE
  5
237
100
AcDbEntity
  8
0
100
AcDbLine
 62
7
  6
CONTINUOUS
 10
3.3214578757
 20
3.5960324656
 11
3.2076478419
 21
3.5960979012
  0
LINE
  5
238
100
AcDbEntity
  8
0
100
AcDbLine
 62
7
  6
CONTINUOUS
 10
3.2076478419
 20
3.5960979012
 11
3.1751593207
 21
3.5961763731
  0
LINE
  5
239
100
AcDbEntity
  8
0
100
AcDbLine
 62
7
  6
CONTINUOUS
 10
3.6601586839
 20
3.8086763286
 11
3.6276701627
 21
3.8085978567
  0
LINE
  5
23A
100
AcDbEntity
  8
0
100
AcDbLine
 62
7
  6
CONTINUOUS
 10
3.6276701627
 20
3.8085978567
 11
3.4176590023
 21
3.8085193847
  0
LINE
  5
23B
100
AcDbEntity
  8
ALL_ASSEMBLY_MEMBERS
100
AcDbLine
 62
7
  6
CONTINUOUS
 10
5.8489005962
 20
3.7087930022
 11
6.0747924084
 21
3.7087930022
  0
LINE
  5
23C
100
AcDbEntity
  8
ALL_ASSEMBLY_MEMBERS
100
AcDbLine
 62
7
  6
CONTINUOUS
 10
5.8776403545
 20
3.7498376307
 11
6.0460526501
 21
3.7498376307
  0
LINE
  5
23D
100
AcDbEntity
  8
ALL_ASSEMBLY_MEMBERS
100
AcDbLine
 62
7
  6
CONTINUOUS
 10
6.0565400026
 20
3.7624262422
 11
6.0567044471
 21
3.7624262422
  0
LINE
  5
23E
100
AcDbEntity
  8
ALL_ASSEMBLY_MEMBERS
100
AcDbLine
 62
7
  6
CONTINUOUS
 10
5.8669885574
 20
3.7624262422
 11
6.0560794471
 21
3.7624262422
  0
LINE
  5
23F
100
AcDbEntity
  8
ALL_ASSEMBLY_MEMBERS
100
AcDbLine
 62
7
  6
CONTINUOUS
 10
5.8660753557
 20
3.7748578215
 11
6.0576176489
 21
3.7748578215
  0
LINE
  5
240
100
AcDbEntity
  8
0
100
AcDbLine
 62
7
  6
CONTINUOUS
 10
3.4176590023
 20
3.8085193847
 11
3.2076478419
 21
3.8085978567
  0
LINE
  5
241
100
AcDbEntity
  8
0
100
AcDbLine
 62
7
  6
CONTINUOUS
 10
3.2076478419
 20
3.8085978567
 11
3.1751593207
 21
3.8086763286
  0
LINE
  5
242
100
AcDbEntity
  8
ALL_ASSEMBLY_MEMBERS
100
AcDbLine
 62
7
  6
CONTINUOUS
 10
6.9491590023
 20
3.8506762422
 11
6.9801590023
 21
3.8506762422
  0
LINE
  5
243
100
AcDbEntity
  8
ALL_ASSEMBLY_MEMBERS
100
AcDbLine
 62
7
  6
CONTINUOUS
 10
6.9491590023
 20
3.85506094
 11
6.8241867313
 21
3.85506094
  0
LINE
  5
244
100
AcDbEntity
  8
ALL_ASSEMBLY_MEMBERS
100
AcDbLine
 62
7
  6
CONTINUOUS
 10
5.8839996275
 20
3.9555932318
 11
6.039068219
 21
3.955593231
  0
LINE
  5
245
100
AcDbEntity
  8
0
100
AcDbLine
 62
7
  6
CONTINUOUS
 10
3.8301590023
 20
3.9710828806
 11
3.8275850965
 21
3.9711944248
  0
LINE
  5
246
100
AcDbEntity
  8
ALL_ASSEMBLY_MEMBERS
100
AcDbLine
 62
7
  6
CONTINUOUS
 10
5.8035340023
 20
3.9574262422
 11
5.7678919537
 21
3.9574262422
  0
LINE
  5
247
100
AcDbEntity
  8
ALL_ASSEMBLY_MEMBERS
100
AcDbLine
 62
7
  6
CONTINUOUS
 10
5.9129165816
 20
3.9666732537
 11
6.0101512664
 21
3.966673252
  0
LINE
  5
248
100
AcDbEntity
  8
ALL_ASSEMBLY_MEMBERS
100
AcDbLine
 62
7
  6
CONTINUOUS
 10
6.3085340023
 20
4.0494262422
 11
6.1290340023
 21
4.0494262422
  0
LINE
  5
249
100
AcDbEntity
  8
0
100
AcDbLine
 62
7
  6
CONTINUOUS
 10
6.4641715463
 20
3.8662037846
 11
6.4672752449
 21
3.8657759598
  0
LWPOLYLINE
  5
24A
100
AcDbEntity
  8
0
100
AcDbPolyline
 62
7
  6
CONTINUOUS
 90
60
 70
0
 10
6.4672752449
 20
3.8657759598
 10
6.4703009229
 20
3.8653441132
 10
6.4720785978
 20
3.8650837532
 10
6.4740338759
 20
3.8647917906
 10
6.4761867442
 20
3.8644636126
 10
6.4786651926
 20
3.8640771642
 10
6.4814490138
 20
3.8636321495
 10
6.4845562817
 20
3.8631218206
 10
6.4881706921
 20
3.8625102156
 10
6.4923172034
 20
3.8617848253
 10
6.4969668726
 20
3.8609412892
 10
6.5022206651
 20
3.8599498575
 10
6.5081658336
 20
3.8587789269
 10
6.5147089651
 20
3.8574299501
 10
6.5216798831
 20
3.855923104
 10
6.5290784743
 20
3.8542449076
 10
6.5368997164
 20
3.8523821263
 10
6.5449679297
 20
3.8503645262
 10
6.5532684915
 20
3.848186554
 10
6.5618127503
 20
3.8458357052
 10
6.570466035
 20
3.8433415717
 10
6.5791963719
 20
3.8407090012
 10
6.5880341774
 20
3.8379243826
 10
6.5969395869
 20
3.8349959374
 10
6.6058947132
 20
3.8319263227
 10
6.6149163487
 20
3.8287065197
 10
6.6240168724
 20
3.8253281613
 10
6.6332048574
 20
3.8217835813
 10
6.6424703291
 20
3.8180720823
 10
6.6517978769
 20
3.8141957698
 10
6.6611866832
 20
3.810151206
 10
6.6706363825
 20
3.8059347276
 10
6.6801324487
 20
3.801549274
 10
6.6896748436
 20
3.7969916016
 10
6.6992625968
 20
3.7922588808
 10
6.7088799969
 20
3.787355923
 10
6.7185270891
 20
3.782280096
 10
6.7282030295
 20
3.7770292136
 10
6.7378910084
 20
3.7716101689
 10
6.7475902235
 20
3.7660215928
 10
6.7573009235
 20
3.760261512
 10
6.7670081134
 20
3.7543373452
 10
6.7767098092
 20
3.7482492461
 10
6.7864076717
 20
3.7419951101
 10
6.7960923588
 20
3.7355800883
 10
6.8057639612
 20
3.7290034802
 10
6.8154221974
 20
3.7222648342
 10
6.825057316
 20
3.715370572
 10
6.8346691942
 20
3.7083206603
 10
6.8442579181
 20
3.7011149141
 10
6.8538142009
 20
3.6937604399
 10
6.8633379862
 20
3.6862576645
 10
6.8728294419
 20
3.6786068398
 10
6.8822797623
 20
3.6708156899
 10
6.8916889605
 20
3.662885079
 10
6.9010572766
 20
3.6548156801
 10
6.9103763852
 20
3.6466157734
 10
6.91964367
 20
3.6382890842
 10
6.928862149
 20
3.6298343244
 10
6.9313871927
 20
3.6274883729
  0
LINE
  5
24B
100
AcDbEntity
  8
ALL_ASSEMBLY_MEMBERS
100
AcDbLine
 62
7
  6
CONTINUOUS
 10
6.2194869969
 20
4.1027358564
 11
6.2425810077
 21
4.1027358564
  0
LINE
  5
24C
100
AcDbEntity
  8
ALL_ASSEMBLY_MEMBERS
100
AcDbLine
 62
7
  6
CONTINUOUS
 10
6.9491590023
 20
4.1230759427
 11
6.8241869743
 21
4.1230759427
  0
LINE
  5
24D
100
AcDbEntity
  8
ALL_ASSEMBLY_MEMBERS
100
AcDbLine
 62
7
  6
CONTINUOUS
 10
6.2194869969
 20
4.1292523607
 11
6.2425810077
 21
4.1292523607
  0
LINE
  5
24E
100
AcDbEntity
  8
ALL_ASSEMBLY_MEMBERS
100
AcDbLine
 62
7
  6
CONTINUOUS
 10
6.2425810077
 20
4.1310201276
 11
6.2194869969
 21
4.1310201276
  0
LINE
  5
24F
100
AcDbEntity
  8
ALL_ASSEMBLY_MEMBERS
100
AcDbLine
 62
7
  6
CONTINUOUS
 10
5.7163172009
 20
4.1786762422
 11
5.7122158442
 21
4.1786762422
  0
LINE
  5
250
100
AcDbEntity
  8
ALL_ASSEMBLY_MEMBERS
100
AcDbLine
 62
7
  6
CONTINUOUS
 10
5.7244631355
 20
4.1786762422
 11
5.7180506358
 21
4.1786762422
  0
LINE
  5
251
100
AcDbEntity
  8
ALL_ASSEMBLY_MEMBERS
100
AcDbLine
 62
7
  6
CONTINUOUS
 10
5.7131939402
 20
4.1900615646
 11
5.7145461006
 21
4.1900615646
  0
LINE
  5
252
100
AcDbEntity
  8
ALL_ASSEMBLY_MEMBERS
100
AcDbLine
 62
7
  6
CONTINUOUS
 10
5.7121506692
 20
4.1906762422
 11
5.7116502713
 21
4.1906762422
  0
LINE
  5
253
100
AcDbEntity
  8
ALL_ASSEMBLY_MEMBERS
100
AcDbLine
 62
7
  6
CONTINUOUS
 10
5.7179849659
 20
4.1906762422
 11
5.7174807709
 21
4.1906762422
  0
LINE
  5
254
100
AcDbEntity
  8
ALL_ASSEMBLY_MEMBERS
100
AcDbLine
 62
7
  6
CONTINUOUS
 10
5.7211638109
 20
4.1906762422
 11
5.7240078833
 21
4.1906762422
  0
LINE
  5
255
100
AcDbEntity
  8
ALL_ASSEMBLY_MEMBERS
100
AcDbLine
 62
7
  6
CONTINUOUS
 10
5.7154056115
 20
4.1972946794
 11
5.7149031022
 21
4.1972946794
  0
LINE
  5
256
100
AcDbEntity
  8
ALL_ASSEMBLY_MEMBERS
100
AcDbLine
 62
7
  6
CONTINUOUS
 10
5.7183417729
 20
4.1987385
 11
5.7178373438
 21
4.1987385
  0
LINE
  5
257
100
AcDbEntity
  8
ALL_ASSEMBLY_MEMBERS
100
AcDbLine
 62
7
  6
CONTINUOUS
 10
5.711861719
 20
4.2050615646
 11
5.7113615076
 21
4.2050615646
  0
LINE
  5
258
100
AcDbEntity
  8
ALL_ASSEMBLY_MEMBERS
100
AcDbLine
 62
7
  6
CONTINUOUS
 10
5.7279118637
 20
4.2070844055
 11
5.7274010741
 21
4.2070844055
  0
LINE
  5
259
100
AcDbEntity
  8
0
100
AcDbLine
 62
7
  6
CONTINUOUS
 10
5.7110339949
 20
4.2209448049
 11
3.8301590023
 21
4.2209894142
  0
LINE
  5
25A
100
AcDbEntity
  8
ALL_ASSEMBLY_MEMBERS
100
AcDbLine
 62
7
  6
CONTINUOUS
 10
5.7279624346
 20
4.237768079
 11
5.7274516109
 21
4.237768079
  0
LINE
  5
25B
100
AcDbEntity
  8
ALL_ASSEMBLY_MEMBERS
100
AcDbLine
 62
7
  6
CONTINUOUS
 10
5.7119177717
 20
4.2397909199
 11
5.7114175241
 21
4.2397909199
  0
LINE
  5
25C
100
AcDbEntity
  8
0
100
AcDbLine
 62
7
  6
CONTINUOUS
 10
6.3241590023
 20
4.2209194827
 11
6.3085339892
 21
4.2209202848
  0
LINE
  5
25D
100
AcDbEntity
  8
ALL_ASSEMBLY_MEMBERS
100
AcDbLine
 62
7
  6
CONTINUOUS
 10
6.2294339979
 20
4.0949875241
 11
6.2293972818
 21
4.0949887938
  0
LINE
  5
25E
100
AcDbEntity
  8
ALL_ASSEMBLY_MEMBERS
100
AcDbLine
 62
7
  6
CONTINUOUS
 10
5.7580743263
 20
4.4777933184
 11
5.7678919537
 21
4.4849262422
  0
LINE
  5
25F
100
AcDbEntity
  8
ALL_ASSEMBLY_MEMBERS
100
AcDbLine
 62
7
  6
CONTINUOUS
 10
5.7184188826
 20
4.2461139845
 11
5.7179144029
 21
4.2461139845
  0
LINE
  5
260
100
AcDbEntity
  8
ALL_ASSEMBLY_MEMBERS
100
AcDbLine
 62
7
  6
CONTINUOUS
 10
5.7241120077
 20
4.2541762422
 11
5.7212675482
 21
4.2541762422
  0
LINE
  5
261
100
AcDbEntity
  8
ALL_ASSEMBLY_MEMBERS
100
AcDbLine
 62
7
  6
CONTINUOUS
 10
5.7122531988
 20
4.2541762422
 11
5.7117527346
 21
4.2541762422
  0
LINE
  5
262
100
AcDbEntity
  8
ALL_ASSEMBLY_MEMBERS
100
AcDbLine
 62
7
  6
CONTINUOUS
 10
5.7180882741
 20
4.2541762422
 11
5.7175840113
 21
4.2541762422
  0
LINE
  5
263
100
AcDbEntity
  8
ALL_ASSEMBLY_MEMBERS
100
AcDbLine
 62
7
  6
CONTINUOUS
 10
5.7180231412
 20
4.2631762422
 11
5.7244354094
 21
4.2631762422
  0
LINE
  5
264
100
AcDbEntity
  8
ALL_ASSEMBLY_MEMBERS
100
AcDbLine
 62
7
  6
CONTINUOUS
 10
5.7121885568
 20
4.2631762422
 11
5.7134523753
 21
4.2631762422
  0
LINE
  5
265
100
AcDbEntity
  8
ALL_ASSEMBLY_MEMBERS
100
AcDbLine
 62
7
  6
CONTINUOUS
 10
5.7580743263
 20
3.9645591661
 11
5.7678919537
 21
3.9574262422
  0
LINE
  5
266
100
AcDbEntity
  8
0
100
AcDbLine
 62
7
  6
CONTINUOUS
 10
6.472409475
 20
4.5773177278
 11
6.4688817316
 21
4.5768040272
  0
LINE
  5
267
100
AcDbEntity
  8
0
100
AcDbLine
 62
7
  6
CONTINUOUS
 10
6.4688817316
 20
4.5768040272
 11
6.4659902911
 21
4.5763975086
  0
LINE
  5
268
100
AcDbEntity
  8
0
100
AcDbLine
 62
7
  6
CONTINUOUS
 10
6.4659902911
 20
4.5763975086
 11
6.4641683742
 21
4.5761482706
  0
LINE
  5
269
100
AcDbEntity
  8
0
100
AcDbLine
 62
7
  6
CONTINUOUS
 10
6.4176590023
 20
4.5710453893
 11
6.2790128179
 21
4.5613446242
  0
LINE
  5
26A
100
AcDbEntity
  8
ALL_ASSEMBLY_MEMBERS
100
AcDbLine
 62
7
  6
CONTINUOUS
 10
6.3085340023
 20
4.3929262422
 11
6.1290340023
 21
4.3929262422
  0
LINE
  5
26B
100
AcDbEntity
  8
ALL_ASSEMBLY_MEMBERS
100
AcDbLine
 62
7
  6
CONTINUOUS
 10
6.0101513922
 20
4.4756792308
 11
5.9129166355
 21
4.4756792324
  0
LINE
  5
26C
100
AcDbEntity
  8
ALL_ASSEMBLY_MEMBERS
100
AcDbLine
 62
7
  6
CONTINUOUS
 10
5.8035340023
 20
4.4849262422
 11
5.7678919537
 21
4.4849262422
  0
LINE
  5
26D
100
AcDbEntity
  8
ALL_ASSEMBLY_MEMBERS
100
AcDbLine
 62
7
  6
CONTINUOUS
 10
6.0390682932
 20
4.4867592526
 11
5.8839996414
 21
4.4867592535
  0
LINE
  5
26E
100
AcDbEntity
  8
ALL_ASSEMBLY_MEMBERS
100
AcDbLine
 62
7
  6
CONTINUOUS
 10
6.9491590023
 20
4.4891912449
 11
6.8241867313
 21
4.4891912449
  0
LINE
  5
26F
100
AcDbEntity
  8
ALL_ASSEMBLY_MEMBERS
100
AcDbLine
 62
7
  6
CONTINUOUS
 10
5.8190340023
 20
4.4849262422
 11
5.8112840023
 21
4.4715028485
  0
LINE
  5
270
100
AcDbEntity
  8
0
100
AcDbLine
 62
7
  6
CONTINUOUS
 10
3.8333490647
 20
4.4712341252
 11
3.8301590023
 21
4.4710827759
  0
LWPOLYLINE
  5
271
100
AcDbEntity
  8
0
100
AcDbPolyline
 62
7
  6
CONTINUOUS
 90
31
 70
0
 10
3.8269246876
 20
4.4710340566
 10
3.7952099836
 20
4.4696405047
 10
3.7604169521
 20
4.4662963525
 10
3.725873566
 20
4.4611549822
 10
3.6916701877
 20
4.4542321062
 10
3.6578978576
 20
4.4455481936
 10
3.6246480275
 20
4.4351287543
 10
3.5920082099
 20
4.4230032602
 10
3.5600649872
 20
4.4092057946
 10
3.5289057995
 20
4.3937762163
 10
3.4986131151
 20
4.3767576413
 10
3.4692667189
 20
4.3581970621
 10
3.4409462381
 20
4.3381471186
 10
3.4137264501
 20
4.3166631963
 10
3.3876790364
 20
4.2938042402
 10
3.3628742357
 20
4.2696343994
 10
3.3393775562
 20
4.2442202388
 10
3.3172505188
 20
4.2176310048
 10
3.296551893
 20
4.1899400789
 10
3.2773360585
 20
4.1612231147
 10
3.2596533651
 20
4.1315582931
 10
3.2435504713
 20
4.1010269679
 10
3.2290695383
 20
4.0697123932
 10
3.2162482721
 20
4.037699576
 10
3.2051201006
 20
4.00507566
 10
3.19571393
 20
3.9719294471
 10
3.1880539867
 20
3.9383508326
 10
3.1821598454
 20
3.9044306873
 10
3.1780464546
 20
3.8702610243
 10
3.1757240296
 20
3.8359347703
 10
3.1751593207
 20
3.8086763286
  0
LINE
  5
272
100
AcDbEntity
  8
ALL_ASSEMBLY_MEMBERS
100
AcDbLine
 62
7
  6
CONTINUOUS
 10
6.9491590023
 20
4.5872915445
 11
6.8241867313
 21
4.5872915445
  0
LINE
  5
273
100
AcDbEntity
  8
ALL_ASSEMBLY_MEMBERS
100
AcDbLine
 62
7
  6
CONTINUOUS
 10
6.9491590023
 20
4.5916762422
 11
6.9801590023
 21
4.5916762422
  0
LINE
  5
274
100
AcDbEntity
  8
ALL_ASSEMBLY_MEMBERS
100
AcDbLine
 62
7
  6
CONTINUOUS
 10
5.8190340023
 20
3.9574262422
 11
5.8112840023
 21
3.970849636
  0
LINE
  5
275
100
AcDbEntity
  8
ALL_ASSEMBLY_MEMBERS
100
AcDbLine
 62
7
  6
CONTINUOUS
 10
5.711861719
 20
4.2050615646
 11
5.7121506692
 21
4.1906762422
  0
LINE
  5
276
100
AcDbEntity
  8
ALL_ASSEMBLY_MEMBERS
100
AcDbLine
 62
7
  6
CONTINUOUS
 10
5.7116502713
 20
4.1906762422
 11
5.7113615076
 21
4.2050615646
  0
LINE
  5
277
100
AcDbEntity
  8
ALL_ASSEMBLY_MEMBERS
100
AcDbLine
 62
7
  6
CONTINUOUS
 10
5.7366293557
 20
4.023603914
 11
5.7366293557
 21
4.4187485705
  0
LINE
  5
278
100
AcDbEntity
  8
ALL_ASSEMBLY_MEMBERS
100
AcDbLine
 62
7
  6
CONTINUOUS
 10
5.7485340023
 20
3.9939212642
 11
5.7485340023
 21
4.4484312203
  0
LINE
  5
279
100
AcDbEntity
  8
ALL_ASSEMBLY_MEMBERS
100
AcDbLine
 62
7
  6
CONTINUOUS
 10
5.7122531988
 20
4.2541762422
 11
5.7119433068
 21
4.2408547979
  0
LINE
  5
27A
100
AcDbEntity
  8
ALL_ASSEMBLY_MEMBERS
100
AcDbLine
 62
7
  6
CONTINUOUS
 10
5.7114175241
 20
4.2397909199
 11
5.7117527346
 21
4.2541762422
  0
LINE
  5
27B
100
AcDbEntity
  8
ALL_ASSEMBLY_MEMBERS
100
AcDbLine
 62
7
  6
CONTINUOUS
 10
5.711993653
 20
4.2429614099
 11
5.7119177717
 21
4.2397909199
  0
LINE
  5
27C
100
AcDbEntity
  8
ALL_ASSEMBLY_MEMBERS
100
AcDbLine
 62
7
  6
CONTINUOUS
 10
5.7156484967
 20
4.2045961742
 11
5.715712513
 21
4.2061528432
  0
LINE
  5
27D
100
AcDbEntity
  8
ALL_ASSEMBLY_MEMBERS
100
AcDbLine
 62
7
  6
CONTINUOUS
 10
5.7580743263
 20
4.4777933184
 11
5.7485340023
 21
4.4484312203
  0
LINE
  5
27E
100
AcDbEntity
  8
ALL_ASSEMBLY_MEMBERS
100
AcDbLine
 62
7
  6
CONTINUOUS
 10
6.0741674084
 20
4.7335594822
 11
6.0454276501
 21
4.6925148537
  0
LINE
  5
27F
100
AcDbEntity
  8
ALL_ASSEMBLY_MEMBERS
100
AcDbLine
 62
7
  6
CONTINUOUS
 10
6.0747924084
 20
4.7335594822
 11
6.0460526501
 21
4.6925148537
  0
LINE
  5
280
100
AcDbEntity
  8
ALL_ASSEMBLY_MEMBERS
100
AcDbLine
 62
7
  6
CONTINUOUS
 10
6.4913507829
 20
4.4914262422
 11
6.5443095965
 21
4.5284932393
  0
LINE
  5
281
100
AcDbEntity
  8
ALL_ASSEMBLY_MEMBERS
100
AcDbLine
 62
7
  6
CONTINUOUS
 10
6.0576176489
 20
4.6674946629
 11
5.8660753557
 21
4.6674946629
  0
LINE
  5
282
100
AcDbEntity
  8
ALL_ASSEMBLY_MEMBERS
100
AcDbLine
 62
7
  6
CONTINUOUS
 10
6.0567044471
 20
4.6799262422
 11
5.8669885574
 21
4.6799262422
  0
LINE
  5
283
100
AcDbEntity
  8
ALL_ASSEMBLY_MEMBERS
100
AcDbLine
 62
7
  6
CONTINUOUS
 10
6.0460526501
 20
4.6925148537
 11
5.8776403545
 21
4.6925148537
  0
LINE
  5
284
100
AcDbEntity
  8
ALL_ASSEMBLY_MEMBERS
100
AcDbLine
 62
7
  6
CONTINUOUS
 10
6.0747924084
 20
4.7335594822
 11
5.8489005962
 21
4.7335594822
  0
LINE
  5
285
100
AcDbEntity
  8
ALL_ASSEMBLY_MEMBERS
100
AcDbLine
 62
7
  6
CONTINUOUS
 10
6.4913507829
 20
3.9509262422
 11
6.5443095965
 21
3.9138592451
  0
LINE
  5
286
100
AcDbEntity
  8
ALL_ASSEMBLY_MEMBERS
100
AcDbLine
 62
7
  6
CONTINUOUS
 10
6.0741674084
 20
3.7087930022
 11
6.0454276501
 21
3.7498376307
  0
LINE
  5
287
100
AcDbEntity
  8
ALL_ASSEMBLY_MEMBERS
100
AcDbLine
 62
7
  6
CONTINUOUS
 10
6.0747924084
 20
3.7087930022
 11
6.0460526501
 21
3.7498376307
  0
LINE
  5
288
100
AcDbEntity
  8
ALL_ASSEMBLY_MEMBERS
100
AcDbLine
 62
7
  6
CONTINUOUS
 10
5.7580743263
 20
3.9645591661
 11
5.7485340023
 21
3.9939212642
  0
LINE
  5
289
100
AcDbEntity
  8
ALL_ASSEMBLY_MEMBERS
100
AcDbLine
 62
7
  6
CONTINUOUS
 10
5.7580743263
 20
3.9645591661
 11
5.7580743263
 21
4.4777933184
  0
LINE
  5
28A
100
AcDbEntity
  8
ALL_ASSEMBLY_MEMBERS
100
AcDbLine
 62
7
  6
CONTINUOUS
 10
5.7678919537
 20
3.9574262422
 11
5.7678919537
 21
4.4849262422
  0
LINE
  5
28B
100
AcDbEntity
  8
ALL_ASSEMBLY_MEMBERS
100
AcDbLine
 62
7
  6
CONTINUOUS
 10
5.8035340023
 20
3.9574262422
 11
5.8035340023
 21
4.4849262422
  0
LINE
  5
28C
100
AcDbEntity
  8
ALL_ASSEMBLY_MEMBERS
100
AcDbLine
 62
7
  6
CONTINUOUS
 10
5.8112840023
 20
3.970849636
 11
5.8112840023
 21
4.4715028485
  0
LINE
  5
28D
100
AcDbEntity
  8
ALL_ASSEMBLY_MEMBERS
100
AcDbLine
 62
7
  6
CONTINUOUS
 10
5.8190340023
 20
3.9574262422
 11
5.8190340023
 21
4.4849262422
  0
LINE
  5
28E
100
AcDbEntity
  8
ALL_ASSEMBLY_MEMBERS
100
AcDbLine
 62
7
  6
CONTINUOUS
 10
5.8590340023
 20
3.9424262422
 11
5.8590340023
 21
4.1295426299
  0
LINE
  5
28F
100
AcDbEntity
  8
ALL_ASSEMBLY_MEMBERS
100
AcDbLine
 62
7
  6
CONTINUOUS
 10
5.8590340023
 20
4.3128098546
 11
5.8590340023
 21
4.4999262422
  0
LINE
  5
290
100
AcDbEntity
  8
ALL_ASSEMBLY_MEMBERS
100
AcDbLine
 62
7
  6
CONTINUOUS
 10
5.8112840023
 20
3.970849636
 11
5.8035340023
 21
3.9574262422
  0
LINE
  5
291
100
AcDbEntity
  8
0
100
AcDbLine
 62
7
  6
CONTINUOUS
 10
7.1676590023
 20
4.8149262422
 11
6.9314567324
 21
4.8149262422
  0
LINE
  5
292
100
AcDbEntity
  8
ALL_ASSEMBLY_MEMBERS
100
AcDbLine
 62
7
  6
CONTINUOUS
 10
5.8112840023
 20
4.4715028485
 11
5.8035340023
 21
4.4849262422
  0
LINE
  5
293
100
AcDbEntity
  8
ALL_ASSEMBLY_MEMBERS
100
AcDbLine
 62
7
  6
CONTINUOUS
 10
5.8489005962
 20
3.7087930022
 11
5.8776403545
 21
3.7498376307
  0
LINE
  5
294
100
AcDbEntity
  8
ALL_ASSEMBLY_MEMBERS
100
AcDbLine
 62
7
  6
CONTINUOUS
 10
6.2194869969
 20
4.1310201276
 11
6.2079399915
 21
4.116877992
  0
LWPOLYLINE
  5
295
100
AcDbEntity
  8
0
100
AcDbPolyline
 62
7
  6
CONTINUOUS
 90
58
 70
0
 10
6.9313871942
 20
4.8148641131
 10
6.9290065179
 20
4.8126519395
 10
6.9199254196
 20
4.8043192606
 10
6.9107884687
 20
4.7961033074
 10
6.9015922513
 20
4.7880028513
 10
6.8923396598
 20
4.7800222828
 10
6.883039977
 20
4.7721711048
 10
6.8736928647
 20
4.764450272
 10
6.864298302
 20
4.7568610068
 10
6.8548662019
 20
4.7494122786
 10
6.8453963079
 20
4.7421045762
 10
6.8358886751
 20
4.7349386325
 10
6.826353847
 20
4.7279227939
 10
6.8167916541
 20
4.7210570546
 10
6.8072022317
 20
4.7143416301
 10
6.7975967519
 20
4.7077841629
 10
6.7879754458
 20
4.7013843318
 10
6.7783382247
 20
4.6951416002
 10
6.7686959517
 20
4.6890622543
 10
6.7590470512
 20
4.6831443188
 10
6.7493933976
 20
4.6773879663
 10
6.7397512358
 20
4.6718014593
 10
6.7301201431
 20
4.6663827487
 10
6.7205010882
 20
4.6611305869
 10
6.7109126639
 20
4.6560528755
 10
6.7013556891
 20
4.6511473561
 10
6.6918301617
 20
4.6464113577
 10
6.682353704
 20
4.6418505934
 10
6.6729272998
 20
4.6374620982
 10
6.6635510169
 20
4.6332425
 10
6.654241342
 20
4.6291954936
 10
6.6449988278
 20
4.6253172743
 10
6.6358241712
 20
4.6216041379
 10
6.6267343009
 20
4.6180586275
 10
6.6177382486
 20
4.6146794801
 10
6.6088284574
 20
4.6114591394
 10
6.5999970383
 20
4.6083904595
 10
6.5912411674
 20
4.6054684735
 10
6.5825649501
 20
4.6026906187
 10
6.5739708914
 20
4.6000537112
 10
6.5654241059
 20
4.5975437792
 10
6.5569606609
 20
4.5951681902
 10
6.5486902963
 20
4.5929518041
 10
6.5405941332
 20
4.5908820836
 10
6.532693657
 20
4.5889572459
 10
6.5251610442
 20
4.5872088596
 10
6.5179977218
 20
4.5856244678
 10
6.5112068311
 20
4.5841926461
 10
6.504965171
 20
4.5829366985
 10
6.4993381135
 20
4.5818536358
 10
6.4942662675
 20
4.5809173807
 10
6.4897397434
 20
4.5801137774
 10
6.4858198111
 20
4.579442274
 10
6.4824499036
 20
4.5788831541
 10
6.4794417974
 20
4.5783983039
 10
6.4767809961
 20
4.5779806893
 10
6.4744845213
 20
4.5776288091
 10
6.472409475
 20
4.5773177278
  0
LINE
  5
296
100
AcDbEntity
  8
0
100
AcDbLine
 62
7
  6
CONTINUOUS
 10
6.9314567221
 20
4.8149262422
 11
6.9313880603
 21
4.8148641129
  0
LINE
  5
297
100
AcDbEntity
  8
0
100
AcDbLine
 62
7
  6
CONTINUOUS
 10
6.9314567221
 20
3.6274262422
 11
6.9313880587
 21
3.6274883731
  0
LINE
  5
298
100
AcDbEntity
  8
ALL_ASSEMBLY_MEMBERS
100
AcDbLine
 62
7
  6
CONTINUOUS
 10
6.2079399915
 20
4.116877992
 11
6.2194869969
 21
4.1027358564
  0
LINE
  5
299
100
AcDbEntity
  8
ALL_ASSEMBLY_MEMBERS
100
AcDbLine
 62
7
  6
CONTINUOUS
 10
6.2187653091
 20
4.1301362442
 11
6.2194869969
 21
4.1292523607
  0
LINE
  5
29A
100
AcDbEntity
  8
ALL_ASSEMBLY_MEMBERS
100
AcDbLine
 62
7
  6
CONTINUOUS
 10
6.2541280131
 20
4.116877992
 11
6.2425810077
 21
4.1310201276
  0
LINE
  5
29B
100
AcDbEntity
  8
ALL_ASSEMBLY_MEMBERS
100
AcDbLine
 62
7
  6
CONTINUOUS
 10
5.8489005962
 20
4.7335594822
 11
5.8776403545
 21
4.6925148537
  0
LINE
  5
29C
100
AcDbEntity
  8
ALL_ASSEMBLY_MEMBERS
100
AcDbLine
 62
7
  6
CONTINUOUS
 10
6.0640340023
 20
3.9424262422
 11
6.0640340023
 21
4.1295426299
  0
LINE
  5
29D
100
AcDbEntity
  8
ALL_ASSEMBLY_MEMBERS
100
AcDbLine
 62
7
  6
CONTINUOUS
 10
6.0640340023
 20
4.3128098546
 11
6.0640340023
 21
4.4999262422
  0
LINE
  5
29E
100
AcDbEntity
  8
ALL_ASSEMBLY_MEMBERS
100
AcDbLine
 62
7
  6
CONTINUOUS
 10
6.1035340023
 20
3.9574262422
 11
6.1035340023
 21
4.4849262422
  0
LINE
  5
29F
100
AcDbEntity
  8
ALL_ASSEMBLY_MEMBERS
100
AcDbLine
 62
7
  6
CONTINUOUS
 10
6.1290340023
 20
4.0359262422
 11
6.1290340023
 21
4.4064262422
  0
LINE
  5
2A0
100
AcDbEntity
  8
ALL_ASSEMBLY_MEMBERS
100
AcDbLine
 62
7
  6
CONTINUOUS
 10
6.1290340023
 20
4.0359262422
 11
6.1035340023
 21
3.9574262422
  0
LINE
  5
2A1
100
AcDbEntity
  8
ALL_ASSEMBLY_MEMBERS
100
AcDbLine
 62
7
  6
CONTINUOUS
 10
6.2425810077
 20
4.1292523607
 11
6.2433026955
 21
4.1301362442
  0
LINE
  5
2A2
100
AcDbEntity
  8
ALL_ASSEMBLY_MEMBERS
100
AcDbLine
 62
7
  6
CONTINUOUS
 10
6.2425810077
 20
4.1027358564
 11
6.2541280131
 21
4.116877992
  0
LINE
  5
2A3
100
AcDbEntity
  8
ALL_ASSEMBLY_MEMBERS
100
AcDbLine
 62
7
  6
CONTINUOUS
 10
6.7659090023
 20
4.5417579621
 11
6.7851012436
 21
4.5610056485
  0
LINE
  5
2A4
100
AcDbEntity
  8
ALL_ASSEMBLY_MEMBERS
100
AcDbLine
 62
7
  6
CONTINUOUS
 10
6.7659090023
 20
3.9005945224
 11
6.7851012436
 21
3.881346836
  0
LINE
  5
2A5
100
AcDbEntity
  8
ALL_ASSEMBLY_MEMBERS
100
AcDbLine
 62
7
  6
CONTINUOUS
 10
6.1290340023
 20
4.4064262422
 11
6.1035340023
 21
4.4849262422
  0
LINE
  5
2A6
100
AcDbEntity
  8
ALL_ASSEMBLY_MEMBERS
100
AcDbLine
 62
7
  6
CONTINUOUS
 10
6.2194869969
 20
4.1027358564
 11
6.2194869969
 21
4.1292523607
  0
LINE
  5
2A7
100
AcDbEntity
  8
ALL_ASSEMBLY_MEMBERS
100
AcDbLine
 62
7
  6
CONTINUOUS
 10
6.2425810077
 20
4.1027358564
 11
6.2425810077
 21
4.1292523607
  0
LINE
  5
2A8
100
AcDbEntity
  8
ALL_ASSEMBLY_MEMBERS
100
AcDbLine
 62
7
  6
CONTINUOUS
 10
6.3085340023
 20
4.0494262422
 11
6.3085340023
 21
4.3929262422
  0
LINE
  5
2A9
100
AcDbEntity
  8
ALL_ASSEMBLY_MEMBERS
100
AcDbLine
 62
7
  6
CONTINUOUS
 10
6.3241590023
 20
4.0217500765
 11
6.3241590023
 21
4.420602408
  0
LINE
  5
2AA
100
AcDbEntity
  8
ALL_ASSEMBLY_MEMBERS
100
AcDbLine
 62
7
  6
CONTINUOUS
 10
6.3383593796
 20
4.0063063786
 11
6.3383593796
 21
4.4360461059
  0
LINE
  5
2AB
100
AcDbEntity
  8
0
100
AcDbLine
 62
7
  6
CONTINUOUS
 10
6.4176590023
 20
3.8710455359
 11
6.4176590023
 21
3.9890393785
  0
LINE
  5
2AC
100
AcDbEntity
  8
0
100
AcDbLine
 62
7
  6
CONTINUOUS
 10
6.4176590023
 20
4.4533131059
 11
6.4176590023
 21
4.5710453893
  0
LINE
  5
2AD
100
AcDbEntity
  8
ALL_ASSEMBLY_MEMBERS
100
AcDbLine
 62
7
  6
CONTINUOUS
 10
6.4913507829
 20
3.9509262422
 11
6.4913507829
 21
4.4914262422
  0
LINE
  5
2AE
100
AcDbEntity
  8
ALL_ASSEMBLY_MEMBERS
100
AcDbLine
 62
7
  6
CONTINUOUS
 10
6.5443095965
 20
3.9138592451
 11
6.5443095965
 21
4.5284932393
  0
LINE
  5
2AF
100
AcDbEntity
  8
ALL_ASSEMBLY_MEMBERS
100
AcDbLine
 62
7
  6
CONTINUOUS
 10
6.6584090023
 20
3.9119262422
 11
6.6584090023
 21
4.5304262422
  0
LINE
  5
2B0
100
AcDbEntity
  8
ALL_ASSEMBLY_MEMBERS
100
AcDbLine
 62
7
  6
CONTINUOUS
 10
6.7659090023
 20
3.9005945224
 11
6.7659090023
 21
4.5417579621
  0
LINE
  5
2B1
100
AcDbEntity
  8
ALL_ASSEMBLY_MEMBERS
100
AcDbLine
 62
7
  6
CONTINUOUS
 10
6.9491590023
 20
3.8506771373
 11
6.9491590023
 21
4.5916753472
  0
LINE
  5
2B2
100
AcDbEntity
  8
ALL_ASSEMBLY_MEMBERS
100
AcDbLine
 62
7
  6
CONTINUOUS
 10
6.9801590023
 20
3.8146756432
 11
6.9801590023
 21
4.6276768412
  0
LINE
  5
2B3
100
AcDbEntity
  8
ALL_ASSEMBLY_MEMBERS
100
AcDbLine
 62
7
  6
CONTINUOUS
 10
7.0741590023
 20
3.7211762422
 11
7.0741590023
 21
4.7211762422
  0
LINE
  5
2B4
100
AcDbEntity
  8
0
100
AcDbLine
 62
7
  6
CONTINUOUS
 10
7.1676590023
 20
3.6274262451
 11
7.1676590023
 21
3.6363800336
  0
LINE
  5
2B5
100
AcDbEntity
  8
ALL_ASSEMBLY_MEMBERS
100
AcDbLine
 62
7
  6
CONTINUOUS
 10
7.1676590023
 20
3.6311772495
 11
7.1676590023
 21
4.811175235
  0
ARC
  5
2B6
100
AcDbEntity
  8
ALL_ASSEMBLY_MEMBERS
100
AcDbCircle
 62
7
  6
CONTINUOUS
 10
5.8424930945
 20
3.8570268518
 40
0.68
100
AcDbArc
 50
67.4255442891
 51
70.9862257999
  0
ARC
  5
2B7
100
AcDbEntity
  8
ALL_ASSEMBLY_MEMBERS
100
AcDbCircle
 62
7
  6
CONTINUOUS
 10
6.0776801193
 20
3.8560365968
 40
0.68
100
AcDbArc
 50
108.7559867836
 51
112.3561036556
  0
ARC
  5
2B8
100
AcDbEntity
  8
ALL_ASSEMBLY_MEMBERS
100
AcDbCircle
 62
7
  6
CONTINUOUS
 10
5.9621590023
 20
3.6299262422
 40
0.1375
100
AcDbArc
 50
269.8697143797
 51
35.0
  0
ARC
  5
2B9
100
AcDbEntity
  8
ALL_ASSEMBLY_MEMBERS
100
AcDbCircle
 62
7
  6
CONTINUOUS
 10
5.9615340023
 20
3.6299262422
 40
0.1375
100
AcDbArc
 50
145.0
 51
35.0
  0
ARC
  5
2BA
100
AcDbEntity
  8
ALL_ASSEMBLY_MEMBERS
100
AcDbCircle
 62
7
  6
CONTINUOUS
 10
6.1429090023
 20
3.8662382628
 40
0.125
100
AcDbArc
 50
166.019029217
 51
226.9739483152
  0
ARC
  5
2BB
100
AcDbEntity
  8
ALL_ASSEMBLY_MEMBERS
100
AcDbCircle
 62
7
  6
CONTINUOUS
 10
6.1422840023
 20
3.8662382628
 40
0.125
100
AcDbArc
 50
137.723361921
 51
226.9739483152
  0
ARC
  5
2BC
100
AcDbEntity
  8
ALL_ASSEMBLY_MEMBERS
100
AcDbCircle
 62
7
  6
CONTINUOUS
 10
5.7807840023
 20
3.8662382628
 40
0.125
100
AcDbArc
 50
313.0260516848
 51
42.2766469898
  0
ARC
  5
2BD
100
AcDbEntity
  8
ALL_ASSEMBLY_MEMBERS
100
AcDbCircle
 62
7
  6
CONTINUOUS
 10
6.0521590023
 20
3.7690094733
 40
0.008
100
AcDbArc
 50
304.6234510997
 51
46.9739483151
  0
ARC
  5
2BE
100
AcDbEntity
  8
ALL_ASSEMBLY_MEMBERS
100
AcDbCircle
 62
7
  6
CONTINUOUS
 10
6.0526058665
 20
3.7544262422
 40
0.008
100
AcDbArc
 50
90.0
 51
215.0
  0
ARC
  5
2BF
100
AcDbEntity
  8
ALL_ASSEMBLY_MEMBERS
100
AcDbCircle
 62
7
  6
CONTINUOUS
 10
5.8715340023
 20
3.7690094733
 40
0.008
100
AcDbArc
 50
133.0260516848
 51
235.3765489003
  0
ARC
  5
2C0
100
AcDbEntity
  8
ALL_ASSEMBLY_MEMBERS
100
AcDbCircle
 62
7
  6
CONTINUOUS
 10
6.0515340023
 20
3.7690094733
 40
0.008
100
AcDbArc
 50
304.6234510997
 51
46.9739483152
  0
ARC
  5
2C1
100
AcDbEntity
  8
ALL_ASSEMBLY_MEMBERS
100
AcDbCircle
 62
7
  6
CONTINUOUS
 10
5.8710871381
 20
3.7544262422
 40
0.008
100
AcDbArc
 50
325.0
 51
90.0
  0
ARC
  5
2C2
100
AcDbEntity
  8
ALL_ASSEMBLY_MEMBERS
100
AcDbCircle
 62
7
  6
CONTINUOUS
 10
6.0519808665
 20
3.7544262422
 40
0.008
100
AcDbArc
 50
90.0
 51
215.0
  0
ARC
  5
2C3
100
AcDbEntity
  8
ALL_ASSEMBLY_MEMBERS
100
AcDbCircle
 62
7
  6
CONTINUOUS
 10
5.4069901661
 20
4.2229541631
 40
0.3208043758
100
AcDbArc
 50
357.1644919923
 51
2.646717907
  0
ARC
  5
2C4
100
AcDbEntity
  8
ALL_ASSEMBLY_MEMBERS
100
AcDbCircle
 62
7
  6
CONTINUOUS
 10
5.4077169934
 20
4.2229541625
 40
0.3205886033
100
AcDbArc
 50
357.1625820847
 51
2.648500664
  0
ARC
  5
2C5
100
AcDbEntity
  8
ALL_ASSEMBLY_MEMBERS
100
AcDbCircle
 62
7
  6
CONTINUOUS
 10
5.7511341758
 20
4.4149262422
 40
0.015
100
AcDbArc
 50
99.9911557833
 51
165.2369687319
  0
ARC
  5
2C6
100
AcDbEntity
  8
ALL_ASSEMBLY_MEMBERS
100
AcDbCircle
 62
7
  6
CONTINUOUS
 10
5.7511341758
 20
4.0274262422
 40
0.015
100
AcDbArc
 50
194.7630312681
 51
260.0088442167
  0
ARC
  5
2C7
100
AcDbEntity
  8
ALL_ASSEMBLY_MEMBERS
100
AcDbCircle
 62
7
  6
CONTINUOUS
 10
5.8424930945
 20
4.5853256326
 40
0.68
100
AcDbArc
 50
289.0137742001
 51
292.5744557109
  0
ARC
  5
2C8
100
AcDbEntity
  8
ALL_ASSEMBLY_MEMBERS
100
AcDbCircle
 62
7
  6
CONTINUOUS
 10
5.7807840023
 20
4.5761142217
 40
0.125
100
AcDbArc
 50
317.7233539518
 51
46.9739483152
  0
ARC
  5
2C9
100
AcDbEntity
  8
ALL_ASSEMBLY_MEMBERS
100
AcDbCircle
 62
7
  6
CONTINUOUS
 10
6.2799167949
 20
4.1821653097
 40
0.5652162308
100
AcDbArc
 50
177.353321328
 51
177.6134275486
  0
ARC
  5
2CA
100
AcDbEntity
  8
ALL_ASSEMBLY_MEMBERS
100
AcDbCircle
 62
7
  6
CONTINUOUS
 10
6.2797556906
 20
4.1821718269
 40
0.5650549949
100
AcDbArc
 50
177.6134075664
 51
178.4663809691
  0
ARC
  5
2CB
100
AcDbEntity
  8
ALL_ASSEMBLY_MEMBERS
100
AcDbCircle
 62
7
  6
CONTINUOUS
 10
6.2798722781
 20
4.1821724078
 40
0.5646691959
100
AcDbArc
 50
177.7241097884
 51
178.465391866
  0
ARC
  5
2CC
100
AcDbEntity
  8
ALL_ASSEMBLY_MEMBERS
100
AcDbCircle
 62
7
  6
CONTINUOUS
 10
5.9278168239
 20
4.2483549304
 40
0.2162616538
100
AcDbArc
 50
190.6830564391
 51
191.3818884309
  0
CIRCLE
  5
2CD
100
AcDbEntity
  8
ALL_ASSEMBLY_MEMBERS
100
AcDbCircle
 62
7
  6
CONTINUOUS
 10
5.9615340023
 20
4.2211762422
 40
0.1375
  0
ARC
  5
2CE
100
AcDbEntity
  8
ALL_ASSEMBLY_MEMBERS
100
AcDbCircle
 62
7
  6
CONTINUOUS
 10
6.2310264688
 20
4.0735390124
 40
0.059814686
100
AcDbArc
 50
85.1916422815
 51
87.2937112554
  0
ARC
  5
2CF
100
AcDbEntity
  8
ALL_ASSEMBLY_MEMBERS
100
AcDbCircle
 62
7
  6
CONTINUOUS
 10
6.2310281098
 20
4.0735591639
 40
0.0597944679
100
AcDbArc
 50
84.9837729426
 51
85.191590623
  0
ARC
  5
2D0
100
AcDbEntity
  8
ALL_ASSEMBLY_MEMBERS
100
AcDbCircle
 62
7
  6
CONTINUOUS
 10
6.2310310062
 20
4.0736422806
 40
0.0597113187
100
AcDbArc
 50
87.2933816273
 51
89.2820615915
  0
ARC
  5
2D1
100
AcDbEntity
  8
ALL_ASSEMBLY_MEMBERS
100
AcDbCircle
 62
7
  6
CONTINUOUS
 10
6.2310359768
 20
4.07366296
 40
0.0596906278
100
AcDbArc
 50
90.2541660004
 51
93.0641328139
  0
ARC
  5
2D2
100
AcDbEntity
  8
ALL_ASSEMBLY_MEMBERS
100
AcDbCircle
 62
7
  6
CONTINUOUS
 10
6.231033719
 20
4.0738214245
 40
0.059532155
100
AcDbArc
 50
89.2825119125
 51
90.252669607
  0
ARC
  5
2D3
100
AcDbEntity
  8
ALL_ASSEMBLY_MEMBERS
100
AcDbCircle
 62
7
  6
CONTINUOUS
 10
6.2262032276
 20
4.0837972249
 40
0.048367212
100
AcDbArc
 50
125.3491053053
 51
126.1222307275
  0
ARC
  5
2D4
100
AcDbEntity
  8
ALL_ASSEMBLY_MEMBERS
100
AcDbCircle
 62
7
  6
CONTINUOUS
 10
6.2310343256
 20
4.1387584044
 40
0.043800724
100
AcDbArc
 50
267.9060862907
 51
269.4325250588
  0
ARC
  5
2D5
100
AcDbEntity
  8
ALL_ASSEMBLY_MEMBERS
100
AcDbCircle
 62
7
  6
CONTINUOUS
 10
6.2310336867
 20
4.1387582624
 40
0.0438005819
100
AcDbArc
 50
270.4684801994
 51
272.0085425337
  0
ARC
  5
2D6
100
AcDbEntity
  8
ALL_ASSEMBLY_MEMBERS
100
AcDbCircle
 62
7
  6
CONTINUOUS
 10
6.2310343039
 20
4.1387399113
 40
0.0437822204
100
AcDbArc
 50
272.0085770228
 51
272.1786288415
  0
ARC
  5
2D7
100
AcDbEntity
  8
ALL_ASSEMBLY_MEMBERS
100
AcDbCircle
 62
7
  6
CONTINUOUS
 10
6.2310340031
 20
4.1387279286
 40
0.0437702465
100
AcDbArc
 50
269.4325519878
 51
270.4683906345
  0
ARC
  5
2D8
100
AcDbEntity
  8
ALL_ASSEMBLY_MEMBERS
100
AcDbCircle
 62
7
  6
CONTINUOUS
 10
6.2218750649
 20
4.0972715773
 40
0.0336262972
100
AcDbArc
 50
130.7536327566
 51
135.0570766849
  0
ARC
  5
2D9
100
AcDbEntity
  8
ALL_ASSEMBLY_MEMBERS
100
AcDbCircle
 62
7
  6
CONTINUOUS
 10
6.2142724871
 20
4.1075364142
 40
0.0242581509
100
AcDbArc
 50
191.5647787694
 51
197.2244317108
  0
ARC
  5
2DA
100
AcDbEntity
  8
ALL_ASSEMBLY_MEMBERS
100
AcDbCircle
 62
7
  6
CONTINUOUS
 10
6.2135724297
 20
4.1073846477
 40
0.0235418816
100
AcDbArc
 50
186.9514652993
 51
191.5444786922
  0
ARC
  5
2DB
100
AcDbEntity
  8
ALL_ASSEMBLY_MEMBERS
100
AcDbCircle
 62
7
  6
CONTINUOUS
 10
6.2122844048
 20
4.1033359083
 40
0.0220959823
100
AcDbArc
 50
176.9986966936
 51
186.1388163911
  0
ARC
  5
2DC
100
AcDbEntity
  8
ALL_ASSEMBLY_MEMBERS
100
AcDbCircle
 62
7
  6
CONTINUOUS
 10
6.2173808185
 20
4.1107773164
 40
0.0188969375
100
AcDbArc
 50
174.6273473593
 51
178.1251970196
  0
ARC
  5
2DD
100
AcDbEntity
  8
ALL_ASSEMBLY_MEMBERS
100
AcDbCircle
 62
7
  6
CONTINUOUS
 10
6.2172756963
 20
4.1107815538
 40
0.0187917329
100
AcDbArc
 50
178.1276240097
 51
180.0072066011
  0
ARC
  5
2DE
100
AcDbEntity
  8
ALL_ASSEMBLY_MEMBERS
100
AcDbCircle
 62
7
  6
CONTINUOUS
 10
6.2163733744
 20
4.1183702453
 40
0.0179391406
100
AcDbArc
 50
199.4907091161
 51
202.6129573965
  0
ARC
  5
2DF
100
AcDbEntity
  8
ALL_ASSEMBLY_MEMBERS
100
AcDbCircle
 62
7
  6
CONTINUOUS
 10
6.215702909
 20
4.1181422828
 40
0.0172310374
100
AcDbArc
 50
192.0899087251
 51
199.5199845333
  0
ARC
  5
2E0
100
AcDbEntity
  8
ALL_ASSEMBLY_MEMBERS
100
AcDbCircle
 62
7
  6
CONTINUOUS
 10
6.2155672748
 20
4.1168799118
 40
0.0155332726
100
AcDbArc
 50
180.0070812946
 51
185.0335337893
  0
ARC
  5
2E1
100
AcDbEntity
  8
ALL_ASSEMBLY_MEMBERS
100
AcDbCircle
 62
7
  6
CONTINUOUS
 10
6.2155561475
 20
4.1168770262
 40
0.0155221453
100
AcDbArc
 50
173.7458876619
 51
179.9964348149
  0
ARC
  5
2E2
100
AcDbEntity
  8
ALL_ASSEMBLY_MEMBERS
100
AcDbCircle
 62
7
  6
CONTINUOUS
 10
6.2489355319
 20
4.116171384
 40
0.0146603934
100
AcDbArc
 50
14.0169886906
 51
15.0944243728
  0
ARC
  5
2E3
100
AcDbEntity
  8
ALL_ASSEMBLY_MEMBERS
100
AcDbCircle
 62
7
  6
CONTINUOUS
 10
6.249330385
 20
4.1162632404
 40
0.0142550504
100
AcDbArc
 50
2.9303936319
 51
14.0431785572
  0
ARC
  5
2E4
100
AcDbEntity
  8
ALL_ASSEMBLY_MEMBERS
100
AcDbCircle
 62
7
  6
CONTINUOUS
 10
6.2494583924
 20
4.1177126239
 40
0.0141262562
100
AcDbArc
 50
346.1071626345
 51
357.0710933227
  0
ARC
  5
2E5
100
AcDbEntity
  8
ALL_ASSEMBLY_MEMBERS
100
AcDbCircle
 62
7
  6
CONTINUOUS
 10
6.2497784053
 20
4.1163029305
 40
0.013805597
100
AcDbArc
 50
0.0022161088
 51
2.8609433045
  0
ARC
  5
2E6
100
AcDbEntity
  8
ALL_ASSEMBLY_MEMBERS
100
AcDbCircle
 62
7
  6
CONTINUOUS
 10
6.0776801193
 20
4.5863158877
 40
0.68
100
AcDbArc
 50
247.6438963444
 51
251.2440132164
  0
ARC
  5
2E7
100
AcDbEntity
  8
ALL_ASSEMBLY_MEMBERS
100
AcDbCircle
 62
7
  6
CONTINUOUS
 10
5.9621590023
 20
4.8124262422
 40
0.1375
100
AcDbArc
 50
325.0
 51
90.1302856203
  0
ARC
  5
2E8
100
AcDbEntity
  8
ALL_ASSEMBLY_MEMBERS
100
AcDbCircle
 62
7
  6
CONTINUOUS
 10
5.9615340023
 20
4.8124262422
 40
0.1375
100
AcDbArc
 50
325.0
 51
215.0
  0
ARC
  5
2E9
100
AcDbEntity
  8
ALL_ASSEMBLY_MEMBERS
100
AcDbCircle
 62
7
  6
CONTINUOUS
 10
6.1429090023
 20
4.5761142217
 40
0.125
100
AcDbArc
 50
133.0260516848
 51
193.980970783
  0
ARC
  5
2EA
100
AcDbEntity
  8
ALL_ASSEMBLY_MEMBERS
100
AcDbCircle
 62
7
  6
CONTINUOUS
 10
6.1422840023
 20
4.5761142217
 40
0.125
100
AcDbArc
 50
133.0260516848
 51
222.2766456847
  0
ARC
  5
2EB
100
AcDbEntity
  8
ALL_ASSEMBLY_MEMBERS
100
AcDbCircle
 62
7
  6
CONTINUOUS
 10
6.0521590023
 20
4.6733430112
 40
0.008
100
AcDbArc
 50
313.0260516849
 51
55.3765489003
  0
ARC
  5
2EC
100
AcDbEntity
  8
ALL_ASSEMBLY_MEMBERS
100
AcDbCircle
 62
7
  6
CONTINUOUS
 10
6.0526058665
 20
4.6879262422
 40
0.008
100
AcDbArc
 50
145.0
 51
270.0
  0
ARC
  5
2ED
100
AcDbEntity
  8
ALL_ASSEMBLY_MEMBERS
100
AcDbCircle
 62
7
  6
CONTINUOUS
 10
6.0515340023
 20
4.6733430112
 40
0.008
100
AcDbArc
 50
313.0260516848
 51
55.3765489003
  0
ARC
  5
2EE
100
AcDbEntity
  8
ALL_ASSEMBLY_MEMBERS
100
AcDbCircle
 62
7
  6
CONTINUOUS
 10
5.8715340023
 20
4.6733430112
 40
0.008
100
AcDbArc
 50
124.6234510997
 51
226.9739483152
  0
ARC
  5
2EF
100
AcDbEntity
  8
ALL_ASSEMBLY_MEMBERS
100
AcDbCircle
 62
7
  6
CONTINUOUS
 10
6.0519808665
 20
4.6879262422
 40
0.008
100
AcDbArc
 50
145.0
 51
270.0
  0
ARC
  5
2F0
100
AcDbEntity
  8
ALL_ASSEMBLY_MEMBERS
100
AcDbCircle
 62
7
  6
CONTINUOUS
 10
5.8710871381
 20
4.6879262422
 40
0.008
100
AcDbArc
 50
270.0
 51
35.0
  0
ARC
  5
2F1
100
AcDbEntity
  8
0
100
AcDbCircle
 62
7
  6
CONTINUOUS
 10
6.3621565273
 20
3.1120245244
 40
0.761047581
100
AcDbArc
 50
82.2965694133
 51
85.8177604805
  0
ARC
  5
2F2
100
AcDbEntity
  8
ALL_ASSEMBLY_MEMBERS
100
AcDbCircle
 62
7
  6
CONTINUOUS
 10
6.312157338
 20
3.6949067912
 40
0.3125
100
AcDbArc
 50
55.0110095298
 51
85.1903004544
  0
ARC
  5
2F3
100
AcDbEntity
  8
ALL_ASSEMBLY_MEMBERS
100
AcDbCircle
 62
7
  6
CONTINUOUS
 10
7.1676590023
 20
3.7247442978
 40
0.0935680556
100
AcDbArc
 50
182.1854050713
 51
270.0
  0
ARC
  5
2F4
100
AcDbEntity
  8
ALL_ASSEMBLY_MEMBERS
100
AcDbCircle
 62
7
  6
CONTINUOUS
 10
7.0736590023
 20
3.8146749053
 40
0.0935
100
AcDbArc
 50
180.0
 51
270.3063960032
  0
ARC
  5
2F5
100
AcDbEntity
  8
ALL_ASSEMBLY_MEMBERS
100
AcDbCircle
 62
7
  6
CONTINUOUS
 10
6.7051785146
 20
3.8400389754
 40
0.0857622668
100
AcDbArc
 50
44.9173576842
 51
123.0478355064
  0
ARC
  5
2F6
100
AcDbEntity
  8
ALL_ASSEMBLY_MEMBERS
100
AcDbCircle
 62
7
  6
CONTINUOUS
 10
6.48636901
 20
4.2211762422
 40
0.7753350077
100
AcDbArc
 50
165.2369687319
 51
176.8946955176
  0
ARC
  5
2F7
100
AcDbEntity
  8
ALL_ASSEMBLY_MEMBERS
100
AcDbCircle
 62
7
  6
CONTINUOUS
 10
6.48636901
 20
4.2211762422
 40
0.7753350077
100
AcDbArc
 50
177.5575809679
 51
181.2302526057
  0
ARC
  5
2F8
100
AcDbEntity
  8
ALL_ASSEMBLY_MEMBERS
100
AcDbCircle
 62
7
  6
CONTINUOUS
 10
6.48636901
 20
4.2211762422
 40
0.7753350077
100
AcDbArc
 50
183.1423092111
 51
194.7630312681
  0
ARC
  5
2F9
100
AcDbEntity
  8
ALL_ASSEMBLY_MEMBERS
100
AcDbCircle
 62
7
  6
CONTINUOUS
 10
6.48636901
 20
4.2211762422
 40
0.7753188855
100
AcDbArc
 50
176.8946954693
 51
177.5605752481
  0
ARC
  5
2FA
100
AcDbEntity
  8
ALL_ASSEMBLY_MEMBERS
100
AcDbCircle
 62
7
  6
CONTINUOUS
 10
6.48636901
 20
4.2211762422
 40
0.7753188855
100
AcDbArc
 50
182.2545204889
 51
183.1423093317
  0
ARC
  5
2FB
100
AcDbEntity
  8
ALL_ASSEMBLY_MEMBERS
100
AcDbCircle
 62
7
  6
CONTINUOUS
 10
6.48636901
 20
4.2211762422
 40
0.7751750201
100
AcDbArc
 50
178.6239946244
 51
181.1911755502
  0
ARC
  5
2FC
100
AcDbEntity
  8
ALL_ASSEMBLY_MEMBERS
100
AcDbCircle
 62
7
  6
CONTINUOUS
 10
6.48636901
 20
4.2211762422
 40
0.7748188751
100
AcDbArc
 50
182.2559761406
 51
183.1443391817
  0
ARC
  5
2FD
100
AcDbEntity
  8
ALL_ASSEMBLY_MEMBERS
100
AcDbCircle
 62
7
  6
CONTINUOUS
 10
6.48636901
 20
4.2211762422
 40
0.7748188751
100
AcDbArc
 50
176.8926895707
 51
177.5590000722
  0
ARC
  5
2FE
100
AcDbEntity
  8
ALL_ASSEMBLY_MEMBERS
100
AcDbCircle
 62
7
  6
CONTINUOUS
 10
6.48636901
 20
4.2211762422
 40
0.7746749168
100
AcDbArc
 50
178.6231061521
 51
181.1919446428
  0
ARC
  5
2FF
100
AcDbEntity
  8
ALL_ASSEMBLY_MEMBERS
100
AcDbCircle
 62
7
  6
CONTINUOUS
 10
6.48636901
 20
4.2211762422
 40
0.7746000979
100
AcDbArc
 50
178.6229731319
 51
181.1920597897
  0
ARC
  5
300
100
AcDbEntity
  8
ALL_ASSEMBLY_MEMBERS
100
AcDbCircle
 62
7
  6
CONTINUOUS
 10
6.48636901
 20
4.2211762422
 40
0.7740569257
100
AcDbArc
 50
176.889627857
 51
177.5565957966
  0
ARC
  5
301
100
AcDbEntity
  8
ALL_ASSEMBLY_MEMBERS
100
AcDbCircle
 62
7
  6
CONTINUOUS
 10
6.48636901
 20
4.2211762422
 40
0.7694929332
100
AcDbArc
 50
182.2715987345
 51
183.1661244052
  0
ARC
  5
302
100
AcDbEntity
  8
ALL_ASSEMBLY_MEMBERS
100
AcDbCircle
 62
7
  6
CONTINUOUS
 10
6.48636901
 20
4.2211762422
 40
0.7694929332
100
AcDbArc
 50
176.871161409
 51
177.5420946835
  0
ARC
  5
303
100
AcDbEntity
  8
ALL_ASSEMBLY_MEMBERS
100
AcDbCircle
 62
7
  6
CONTINUOUS
 10
6.48636901
 20
4.2211762422
 40
0.7689891346
100
AcDbArc
 50
182.2730877396
 51
183.1682007883
  0
ARC
  5
304
100
AcDbEntity
  8
ALL_ASSEMBLY_MEMBERS
100
AcDbCircle
 62
7
  6
CONTINUOUS
 10
6.48636901
 20
4.2211762422
 40
0.7689891346
100
AcDbArc
 50
176.8691095275
 51
177.5404834123
  0
ARC
  5
305
100
AcDbEntity
  8
ALL_ASSEMBLY_MEMBERS
100
AcDbCircle
 62
7
  6
CONTINUOUS
 10
6.48636901
 20
4.2211762422
 40
0.7688591381
100
AcDbArc
 50
178.1413005927
 51
181.6723095547
  0
ARC
  5
306
100
AcDbEntity
  8
ALL_ASSEMBLY_MEMBERS
100
AcDbCircle
 62
7
  6
CONTINUOUS
 10
6.48636901
 20
4.2211762422
 40
0.768354924
100
AcDbArc
 50
178.1400804383
 51
181.6734072789
  0
ARC
  5
307
100
AcDbEntity
  8
ALL_ASSEMBLY_MEMBERS
100
AcDbCircle
 62
7
  6
CONTINUOUS
 10
6.48636901
 20
4.2211762422
 40
0.7662813403
100
AcDbArc
 50
177.7562904206
 51
182.0566497773
  0
ARC
  5
308
100
AcDbEntity
  8
ALL_ASSEMBLY_MEMBERS
100
AcDbCircle
 62
7
  6
CONTINUOUS
 10
6.4631540977
 20
4.2062587477
 40
0.7473460678
100
AcDbArc
 50
180.044658171
 51
182.1151113532
  0
ARC
  5
309
100
AcDbEntity
  8
ALL_ASSEMBLY_MEMBERS
100
AcDbCircle
 62
7
  6
CONTINUOUS
 10
7.206220154
 20
4.2761857151
 40
0.4365662057
100
AcDbArc
 50
160.6449952618
 51
160.9991719235
  0
ARC
  5
30A
100
AcDbEntity
  8
ALL_ASSEMBLY_MEMBERS
100
AcDbCircle
 62
7
  6
CONTINUOUS
 10
6.312157338
 20
4.7474456933
 40
0.3125
100
AcDbArc
 50
274.8096995456
 51
304.9889904702
  0
ARC
  5
30B
100
AcDbEntity
  8
ALL_ASSEMBLY_MEMBERS
100
AcDbCircle
 62
7
  6
CONTINUOUS
 10
6.6027912039
 20
3.9974138028
 40
0.1019875605
100
AcDbArc
 50
235.0110095298
 51
303.0478355064
  0
ARC
  5
30C
100
AcDbEntity
  8
ALL_ASSEMBLY_MEMBERS
100
AcDbCircle
 62
7
  6
CONTINUOUS
 10
6.6027912039
 20
4.4449386817
 40
0.1019875605
100
AcDbArc
 50
56.9521644936
 51
124.9889904702
  0
ARC
  5
30D
100
AcDbEntity
  8
ALL_ASSEMBLY_MEMBERS
100
AcDbCircle
 62
7
  6
CONTINUOUS
 10
7.1676590023
 20
4.7176081867
 40
0.0935680556
100
AcDbArc
 50
90.0
 51
177.8145949287
  0
ARC
  5
30E
100
AcDbEntity
  8
ALL_ASSEMBLY_MEMBERS
100
AcDbCircle
 62
7
  6
CONTINUOUS
 10
7.0736590023
 20
4.6276775791
 40
0.0935
100
AcDbArc
 50
89.6936039968
 51
180.0
  0
ARC
  5
30F
100
AcDbEntity
  8
ALL_ASSEMBLY_MEMBERS
100
AcDbCircle
 62
7
  6
CONTINUOUS
 10
6.7051785146
 20
4.602313509
 40
0.0857622668
100
AcDbArc
 50
236.9521644936
 51
315.0826423158
  0
ARC
  5
310
100
AcDbEntity
  8
ALL_ASSEMBLY_MEMBERS
100
AcDbCircle
 62
7
  6
CONTINUOUS
 10
6.3396590023
 20
4.021751798
 40
0.0155
100
AcDbArc
 50
180.0
 51
265.1903004544
  0
ARC
  5
311
100
AcDbEntity
  8
ALL_ASSEMBLY_MEMBERS
100
AcDbCircle
 62
7
  6
CONTINUOUS
 10
6.3396590023
 20
4.4206006865
 40
0.0155
100
AcDbArc
 50
94.8096995456
 51
180.0
  0
SPLINE
  5
312
100
AcDbEntity
  8
ALL_ASSEMBLY_MEMBERS
100
AcDbSpline
 62
7
  6
CONTINUOUS
 70
0
 71
3
 72
15
 73
11
 74
0
 42
0.0000001
 43
0.0000001
 44
0.0000000001
 40
0.0
 40
0.0
 40
0.0
 40
0.0
 40
0.1150446801
 40
0.232497256
 40
0.3526672349
 40
0.4757927051
 40
0.6020273729
 40
0.7314707597
 40
0.8641665554
 40
1.0
 40
1.0
 40
1.0
 40
1.0
 10
6.199813336
 20
4.1114725722
 30
0.0
 10
6.2000331158
 20
4.1109446086
 30
0.0
 10
6.2005276813
 20
4.1098979216
 30
0.0
 10
6.2014167389
 20
4.1083845246
 30
0.0
 10
6.2024553317
 20
4.1069200257
 30
0.0
 10
6.203638105
 20
4.1055120325
 30
0.0
 10
6.204958875
 20
4.1041673765
 30
0.0
 10
6.2064111065
 20
4.1028927251
 30
0.0
 10
6.2079872471
 20
4.1016946631
 30
0.0
 10
6.2091025322
 20
4.1009591718
 30
0.0
 10
6.2096777086
 20
4.1006054821
 30
0.0
  0
SPLINE
  5
313
100
AcDbEntity
  8
ALL_ASSEMBLY_MEMBERS
100
AcDbSpline
 62
7
  6
CONTINUOUS
 70
0
 71
3
 72
11
 73
7
 74
0
 42
0.0000001
 43
0.0000001
 44
0.0000000001
 40
0.0
 40
0.0
 40
0.0
 40
0.0
 40
0.2534193374
 40
0.5039916686
 40
0.7525854336
 40
1.0
 40
1.0
 40
1.0
 40
1.0
 10
6.2610240158
 20
4.1224277246
 30
0.0
 10
6.2611902254
 20
4.1219786312
 30
0.0
 10
6.2614832347
 20
4.1210710205
 30
0.0
 10
6.2618005006
 20
4.1196829228
 30
0.0
 10
6.2619913417
 20
4.1182833087
 30
0.0
 10
6.2620340023
 20
4.117345509
 30
0.0
 10
6.2620340023
 20
4.116877992
 30
0.0
  0
SPLINE
  5
314
100
AcDbEntity
  8
ALL_ASSEMBLY_MEMBERS
100
AcDbSpline
 62
7
  6
CONTINUOUS
 70
0
 71
3
 72
12
 73
8
 74
0
 42
0.0000001
 43
0.0000001
 44
0.0000000001
 40
0.0
 40
0.0
 40
0.0
 40
0.0
 40
0.2403261911
 40
0.4872636645
 40
0.7406982877
 40
0.8697159056
 40
1.0
 40
1.0
 40
1.0
 40
1.0
 10
6.1986075435
 20
4.1101443246
 30
0.0
 10
6.1993159392
 20
4.10920264
 30
0.0
 10
6.2008622687
 20
4.1073738361
 30
0.0
 10
6.2034943841
 20
4.104862547
 30
0.0
 10
6.2059370513
 20
4.1029672486
 30
0.0
 10
6.208030694
 20
4.1015741044
 30
0.0
 10
6.2091220748
 20
4.1009206981
 30
0.0
 10
6.2096777086
 20
4.1006054821
 30
0.0
  0
SPLINE
  5
315
100
AcDbEntity
  8
ALL_ASSEMBLY_MEMBERS
100
AcDbSpline
 62
7
  6
CONTINUOUS
 70
0
 71
3
 72
17
 73
13
 74
0
 42
0.0000001
 43
0.0000001
 44
0.0000000001
 40
0.0
 40
0.0
 40
0.0
 40
0.0
 40
0.1193114203
 40
0.2392958932
 40
0.2997049324
 40
0.3604634601
 40
0.4216395559
 40
0.4832981491
 40
0.6082723847
 40
0.7358401275
 40
0.8663300424
 40
1.0
 40
1.0
 40
1.0
 40
1.0
 10
6.2620340023
 20
4.116877992
 30
0.0
 10
6.2620340023
 20
4.11636139
 30
0.0
 10
6.2619818861
 20
4.115324587
 30
0.0
 10
6.2617880362
 20
4.1140392545
 30
0.0
 10
6.2615568479
 20
4.1130206541
 30
0.0
 10
6.2613448211
 20
4.1122598052
 30
0.0
 10
6.2610949202
 20
4.1115048502
 30
0.0
 10
6.2607100095
 20
4.1105029318
 30
0.0
 10
6.2601336255
 20
4.1092683382
 30
0.0
 10
6.2592997525
 20
4.1078323483
 30
0.0
 10
6.2583248257
 20
4.1064420792
 30
0.0
 10
6.2575929879
 20
4.1055612393
 30
0.0
 10
6.2572063635
 20
4.1051305431
 30
0.0
  0
SPLINE
  5
316
100
AcDbEntity
  8
ALL_ASSEMBLY_MEMBERS
100
AcDbSpline
 62
7
  6
CONTINUOUS
 70
0
 71
3
 72
19
 73
15
 74
0
 42
0.0000001
 43
0.0000001
 44
0.0000000001
 40
0.0
 40
0.0
 40
0.0
 40
0.0
 40
0.0549264398
 40
0.1110199673
 40
0.168292085
 40
0.2267386459
 40
0.2863407747
 40
0.3470621625
 40
0.471622536
 40
0.5999348818
 40
0.7313144759
 40
0.7979225436
 40
0.8649871719
 40
1.0
 40
1.0
 40
1.0
 40
1.0
 10
6.2572063635
 20
4.1051305431
 30
0.0
 10
6.2568736341
 20
4.1047598853
 30
0.0
 10
6.2561762178
 20
4.1040326705
 30
0.0
 10
6.2550522338
 20
4.102998989
 30
0.0
 10
6.2538435624
 20
4.1020143634
 30
0.0
 10
6.2525544751
 20
4.1010823748
 30
0.0
 10
6.2511894155
 20
4.1002063527
 30
0.0
 10
6.249258587
 20
4.0991076073
 30
0.0
 10
6.2466805354
 20
4.0978950151
 30
0.0
 10
6.243395136
 20
4.096719609
 30
0.0
 10
6.2405258333
 20
4.0959792703
 30
0.0
 10
6.238163553
 20
4.0955320719
 30
0.0
 10
6.2357516926
 20
4.0951823233
 30
0.0
 10
6.2339221477
 20
4.0950358818
 30
0.0
 10
6.2326986887
 20
4.0949893382
 30
0.0
  0
SPLINE
  5
317
100
AcDbEntity
  8
ALL_ASSEMBLY_MEMBERS
100
AcDbSpline
 62
7
  6
CONTINUOUS
 70
0
 71
3
 72
15
 73
11
 74
0
 42
0.0000001
 43
0.0000001
 44
0.0000000001
 40
0.0
 40
0.0
 40
0.0
 40
0.0
 40
0.1308716362
 40
0.2609457923
 40
0.389744481
 40
0.5168123836
 40
0.641731967
 40
0.70327613
 40
0.76414807
 40
1.0
 40
1.0
 40
1.0
 40
1.0
 10
6.2293972437
 20
4.0949882846
 30
0.0
 10
6.2284968895
 20
4.0950219609
 30
0.0
 10
6.2267032261
 20
4.0951444645
 30
0.0
 10
6.2240412258
 20
4.0954941165
 30
0.0
 10
6.2214321762
 20
4.09600632
 30
0.0
 10
6.2188961509
 20
4.0966775949
 30
0.0
 10
6.2168493099
 20
4.0973684496
 30
0.0
 10
6.2152663242
 20
4.0979969419
 30
0.0
 10
6.2130076723
 20
4.0989876499
 30
0.0
 10
6.2112073738
 20
4.0999762302
 30
0.0
 10
6.2098532109
 20
4.1008721688
 30
0.0
  0
SPLINE
  5
318
100
AcDbEntity
  8
ALL_ASSEMBLY_MEMBERS
100
AcDbSpline
 62
7
  6
CONTINUOUS
 70
0
 71
3
 72
22
 73
18
 74
0
 42
0.0000001
 43
0.0000001
 44
0.0000000001
 40
0.0
 40
0.0
 40
0.0
 40
0.0
 40
0.0699297484
 40
0.1387558688
 40
0.2064700461
 40
0.2730712799
 40
0.4029404599
 40
0.4663056964
 40
0.5286626428
 40
0.5900656575
 40
0.6505794212
 40
0.7102776215
 40
0.7692482661
 40
0.8275945976
 40
0.8854278048
 40
0.9428622579
 40
1.0
 40
1.0
 40
1.0
 40
1.0
 10
6.2098532109
 20
4.1008721688
 30
0.0
 10
6.2094992773
 20
4.1011063376
 30
0.0
 10
6.2088069442
 20
4.1015862527
 30
0.0
 10
6.2078100107
 20
4.1023459825
 30
0.0
 10
6.2068647957
 20
4.1031382257
 30
0.0
 10
6.2056865186
 20
4.104226123
 30
0.0
 10
6.2046078549
 20
4.1053809143
 30
0.0
 10
6.2036427753
 20
4.1065960194
 30
0.0
 10
6.2029859914
 20
4.1075232006
 30
0.0
 10
6.2023919175
 20
4.1084713863
 30
0.0
 10
6.2018617594
 20
4.1094384153
 30
0.0
 10
6.2013968189
 20
4.1104221643
 30
0.0
 10
6.2009982271
 20
4.111420493
 30
0.0
 10
6.2006667562
 20
4.1124311832
 30
0.0
 10
6.2004032105
 20
4.1134520868
 30
0.0
 10
6.2002083996
 20
4.1144808078
 30
0.0
 10
6.2001243141
 20
4.1151716223
 30
0.0
 10
6.200093906
 20
4.1155170415
 30
0.0
  0
SPLINE
  5
319
100
AcDbEntity
  8
ALL_ASSEMBLY_MEMBERS
100
AcDbSpline
 62
7
  6
CONTINUOUS
 70
0
 71
3
 72
27
 73
23
 74
0
 42
0.0000001
 43
0.0000001
 44
0.0000000001
 40
0.0
 40
0.0
 40
0.0
 40
0.0
 40
0.1936398007
 40
0.3798373011
 40
0.5514986382
 40
0.6297995458
 40
0.7020695268
 40
0.7676331785
 40
0.825872217
 40
0.8762545217
 40
0.8983531495
 40
0.9183182734
 40
0.9361140888
 40
0.9517105422
 40
0.9650823707
 40
0.9762140637
 40
0.9851207237
 40
0.9918667212
 40
0.9944808781
 40
0.9966421049
 40
0.9984334487
 40
1.0
 40
1.0
 40
1.0
 40
1.0
 10
5.711936554
 20
4.2050615646
 30
0.0
 10
5.7119568708
 20
4.204085192
 30
0.0
 10
5.7120083716
 20
4.2021701906
 30
0.0
 10
5.7121182898
 20
4.1993909184
 30
0.0
 10
5.7122361543
 20
4.1971942884
 30
0.0
 10
5.7123450984
 20
4.1955728071
 30
0.0
 10
5.7124292803
 20
4.194486009
 30
0.0
 10
5.7125175498
 20
4.1935010717
 30
0.0
 10
5.7126090577
 20
4.1926273478
 30
0.0
 10
5.7126902534
 20
4.1919730393
 30
0.0
 10
5.7127572699
 20
4.1915116312
 30
0.0
 10
5.7128055626
 20
4.1912136119
 30
0.0
 10
5.7128539563
 20
4.1909488802
 30
0.0
 10
5.7129023087
 20
4.1907180061
 30
0.0
 10
5.7129504609
 20
4.1905215464
 30
0.0
 10
5.7129982316
 20
4.1903598343
 30
0.0
 10
5.7130454789
 20
4.1902332152
 30
0.0
 10
5.713086949
 20
4.1901504203
 30
0.0
 10
5.7131213673
 20
4.1901034107
 30
0.0
 10
5.7131450061
 20
4.1900799441
 30
0.0
 10
5.7131690068
 20
4.1900651662
 30
0.0
 10
5.7131860396
 20
4.1900615646
 30
0.0
 10
5.7131939402
 20
4.1900615646
 30
0.0
  0
SPLINE
  5
31A
100
AcDbEntity
  8
ALL_ASSEMBLY_MEMBERS
100
AcDbSpline
 62
7
  6
CONTINUOUS
 70
0
 71
3
 72
29
 73
25
 74
0
 42
0.0000001
 43
0.0000001
 44
0.0000000001
 40
0.0
 40
0.0
 40
0.0
 40
0.0
 40
0.0945629305
 40
0.1883462786
 40
0.280299814
 40
0.3695472854
 40
0.45525966
 40
0.536638128
 40
0.6129228288
 40
0.6834577874
 40
0.7476488803
 40
0.8050133414
 40
0.8310072252
 40
0.8551594856
 40
0.8774445744
 40
0.8978440817
 40
0.916354113
 40
0.9329976168
 40
0.9478214483
 40
0.9609061146
 40
0.9723869732
 40
0.9824854841
 40
0.9915347143
 40
1.0
 40
1.0
 40
1.0
 40
1.0
 10
5.7320982432
 20
4.2211762422
 30
0.0
 10
5.7321002096
 20
4.2197798311
 30
0.0
 10
5.7320789617
 20
4.216998421
 30
0.0
 10
5.7319725859
 20
4.2128603743
 30
0.0
 10
5.7317923149
 20
4.2088034302
 30
0.0
 10
5.7315406979
 20
4.2048696891
 30
0.0
 10
5.7312202672
 20
4.2010976271
 30
0.0
 10
5.7308351059
 20
4.1975240488
 30
0.0
 10
5.7303890049
 20
4.1941834968
 30
0.0
 10
5.7298874559
 20
4.1911075938
 30
0.0
 10
5.7293354109
 20
4.18832462
 30
0.0
 10
5.7288234387
 20
4.1862058056
 30
0.0
 10
5.7283874589
 20
4.1846790189
 30
0.0
 10
5.7280623145
 20
4.1836598395
 30
0.0
 10
5.7277290742
 20
4.1827305609
 30
0.0
 10
5.7273885295
 20
4.1818931812
 30
0.0
 10
5.7270413818
 20
4.1811494389
 30
0.0
 10
5.7266884749
 20
4.1805006207
 30
0.0
 10
5.7263304651
 20
4.1799477112
 30
0.0
 10
5.7259677207
 20
4.1794915189
 30
0.0
 10
5.7256000755
 20
4.1791328779
 30
0.0
 10
5.725226976
 20
4.1788725835
 30
0.0
 10
5.7248479133
 20
4.1787129167
 30
0.0
 10
5.7245881425
 20
4.1786762422
 30
0.0
 10
5.7244631355
 20
4.1786762422
 30
0.0
  0
SPLINE
  5
31B
100
AcDbEntity
  8
ALL_ASSEMBLY_MEMBERS
100
AcDbSpline
 62
7
  6
CONTINUOUS
 70
0
 71
3
 72
20
 73
16
 74
0
 42
0.0000001
 43
0.0000001
 44
0.0000000001
 40
0.0
 40
0.0
 40
0.0
 40
0.0
 40
0.0156988561
 40
0.025225271
 40
0.0362905304
 40
0.0636904872
 40
0.0987048164
 40
0.1414523266
 40
0.1917736044
 40
0.2494059832
 40
0.3139231602
 40
0.4613141399
 40
0.6289695795
 40
0.8110070261
 40
1.0
 40
1.0
 40
1.0
 40
1.0
 10
5.7212675482
 20
4.2541762422
 30
0.0
 10
5.7212512191
 20
4.2541762422
 30
0.0
 10
5.7212249762
 20
4.2541667696
 30
0.0
 10
5.7211952623
 20
4.2541435152
 30
0.0
 10
5.7211609563
 20
4.2541069527
 30
0.0
 10
5.721119496
 20
4.2540421929
 30
0.0
 10
5.7210729088
 20
4.2539430792
 30
0.0
 10
5.7210268621
 20
4.2538179209
 30
0.0
 10
5.7209817321
 20
4.2536677414
 30
0.0
 10
5.7209380473
 20
4.2534936921
 30
0.0
 10
5.720879674
 20
4.2532194269
 30
0.0
 10
5.720815011
 20
4.2528297582
 30
0.0
 10
5.7207521811
 20
4.2523164339
 30
0.0
 10
5.7207039319
 20
4.2517580965
 30
0.0
 10
5.7206828428
 20
4.2513726729
 30
0.0
 10
5.7206751466
 20
4.2511762422
 30
0.0
  0
SPLINE
  5
31C
100
AcDbEntity
  8
ALL_ASSEMBLY_MEMBERS
100
AcDbSpline
 62
7
  6
CONTINUOUS
 70
0
 71
3
 72
20
 73
16
 74
0
 42
0.0000001
 43
0.0000001
 44
0.0000000001
 40
0.0
 40
0.0
 40
0.0
 40
0.0
 40
0.1890571392
 40
0.3711525163
 40
0.5388427006
 40
0.6862447672
 40
0.7507572112
 40
0.808376942
 40
0.8586781619
 40
0.9013993126
 40
0.9363824367
 40
0.9637490804
 40
0.9747989228
 40
0.9843124011
 40
1.0
 40
1.0
 40
1.0
 40
1.0
 10
5.7205812833
 20
4.1936762422
 30
0.0
 10
5.7205883366
 20
4.1934798288
 30
0.0
 10
5.7206081643
 20
4.1930944233
 30
0.0
 10
5.7206545821
 20
4.1925360757
 30
0.0
 10
5.7207157312
 20
4.1920227257
 30
0.0
 10
5.7207791192
 20
4.1916330236
 30
0.0
 10
5.7208365967
 20
4.1913587332
 30
0.0
 10
5.7208797105
 20
4.191184683
 30
0.0
 10
5.7209243459
 20
4.1910345095
 30
0.0
 10
5.7209699778
 20
4.1909093625
 30
0.0
 10
5.7210162317
 20
4.1908102633
 30
0.0
 10
5.7210574747
 20
4.1907455099
 30
0.0
 10
5.7210916558
 20
4.1907089553
 30
0.0
 10
5.7211212943
 20
4.1906857018
 30
0.0
 10
5.7211475023
 20
4.1906762422
 30
0.0
 10
5.7211638109
 20
4.1906762422
 30
0.0
  0
SPLINE
  5
31D
100
AcDbEntity
  8
ALL_ASSEMBLY_MEMBERS
100
AcDbSpline
 62
7
  6
CONTINUOUS
 70
0
 71
3
 72
29
 73
25
 74
0
 42
0.0000001
 43
0.0000001
 44
0.0000000001
 40
0.0
 40
0.0
 40
0.0
 40
0.0
 40
0.0084969953
 40
0.0175729177
 40
0.0276892328
 40
0.0391775147
 40
0.0522588666
 40
0.067069078
 40
0.0836897297
 40
0.1021688301
 40
0.122529852
 40
0.1447694918
 40
0.1688708713
 40
0.1948099578
 40
0.2520562753
 40
0.3161263652
 40
0.3865486635
 40
0.4627410574
 40
0.544060631
 40
0.6297603796
 40
0.7190564343
 40
0.811133361
 40
0.9051272545
 40
1.0
 40
1.0
 40
1.0
 40
1.0
 10
5.7244354094
 20
4.2631762422
 30
0.0
 10
5.7245594806
 20
4.2631762422
 30
0.0
 10
5.7248171874
 20
4.2631401534
 30
0.0
 10
5.7251934668
 20
4.2629829526
 30
0.0
 10
5.7255639926
 20
4.2627265655
 30
0.0
 10
5.7259292194
 20
4.262373226
 30
0.0
 10
5.7262896986
 20
4.2619237479
 30
0.0
 10
5.7266456054
 20
4.2613789536
 30
0.0
 10
5.726996577
 20
4.2607396146
 30
0.0
 10
5.7273419691
 20
4.260006679
 30
0.0
 10
5.7276809645
 20
4.2591814042
 30
0.0
 10
5.7280128835
 20
4.2582654833
 30
0.0
 10
5.7283369411
 20
4.2572608431
 30
0.0
 10
5.7287717687
 20
4.2557556105
 30
0.0
 10
5.7292830916
 20
4.253666153
 30
0.0
 10
5.7298355359
 20
4.2509208703
 30
0.0
 10
5.7303387535
 20
4.2478854054
 30
0.0
 10
5.7307878587
 20
4.2445871992
 30
0.0
 10
5.7311774178
 20
4.241056965
 30
0.0
 10
5.7315036621
 20
4.2373282593
 30
0.0
 10
5.731762499
 20
4.2334368604
 30
0.0
 10
5.7319513673
 20
4.2294202089
 30
0.0
 10
5.7320676537
 20
4.2253193652
 30
0.0
 10
5.7320962924
 20
4.2225615513
 30
0.0
 10
5.7320982432
 20
4.2211762422
 30
0.0
  0
SPLINE
  5
31E
100
AcDbEntity
  8
ALL_ASSEMBLY_MEMBERS
100
AcDbSpline
 62
7
  6
CONTINUOUS
 70
0
 71
3
 72
17
 73
13
 74
0
 42
0.0000001
 43
0.0000001
 44
0.0000000001
 40
0.0
 40
0.0
 40
0.0
 40
0.0
 40
0.0273508934
 40
0.0608602406
 40
0.1003167234
 40
0.1454844514
 40
0.2517676334
 40
0.3771117665
 40
0.5183551668
 40
0.6718865663
 40
0.8338375465
 40
1.0
 40
1.0
 40
1.0
 40
1.0
 10
5.7130158409
 20
4.2541762422
 30
0.0
 10
5.7129854399
 20
4.2540482042
 30
0.0
 10
5.7129268537
 20
4.2537611628
 30
0.0
 10
5.7128471683
 20
4.2532850687
 30
0.0
 10
5.7127676322
 20
4.2527222126
 30
0.0
 10
5.7126566913
 20
4.2518103547
 30
0.0
 10
5.712526465
 20
4.2504847882
 30
0.0
 10
5.7123862809
 20
4.2486961515
 30
0.0
 10
5.7122592118
 20
4.2466786952
 30
0.0
 10
5.7121486444
 20
4.2444839125
 30
0.0
 10
5.7120576563
 20
4.2421682433
 30
0.0
 10
5.7120118249
 20
4.2405901728
 30
0.0
 10
5.7119926122
 20
4.2397909199
 30
0.0
  0
SPLINE
  5
31F
100
AcDbEntity
  8
ALL_ASSEMBLY_MEMBERS
100
AcDbSpline
 62
7
  6
CONTINUOUS
 70
0
 71
3
 72
25
 73
21
 74
0
 42
0.0000001
 43
0.0000001
 44
0.0000000001
 40
0.0
 40
0.0
 40
0.0
 40
0.0
 40
0.0052045506
 40
0.0111520132
 40
0.0183812102
 40
0.0271946319
 40
0.0377558929
 40
0.0501565313
 40
0.0644497051
 40
0.0806609022
 40
0.1188552186
 40
0.1647244184
 40
0.2181824866
 40
0.279059088
 40
0.3471222286
 40
0.4221283736
 40
0.5038011619
 40
0.591825298
 40
0.7855900436
 40
1.0
 40
1.0
 40
1.0
 40
1.0
 10
5.7140441506
 20
4.1900615646
 30
0.0
 10
5.7140569389
 20
4.1900615646
 30
0.0
 10
5.7140845317
 20
4.1900676753
 30
0.0
 10
5.7141227337
 20
4.1900929677
 30
0.0
 10
5.7141595548
 20
4.1901329626
 30
0.0
 10
5.7141956506
 20
4.1901876857
 30
0.0
 10
5.7142312587
 20
4.1902572914
 30
0.0
 10
5.7142664021
 20
4.1903418928
 30
0.0
 10
5.7143010468
 20
4.1904415106
 30
0.0
 10
5.7143491796
 20
4.1906033515
 30
0.0
 10
5.714406271
 20
4.190843205
 30
0.0
 10
5.7144692825
 20
4.1911752568
 30
0.0
 10
5.714529505
 20
4.19156433
 30
0.0
 10
5.7145866775
 20
4.1920088824
 30
0.0
 10
5.7146405135
 20
4.1925071355
 30
0.0
 10
5.7146907202
 20
4.1930570934
 30
0.0
 10
5.7147370629
 20
4.1936565926
 30
0.0
 10
5.7147953287
 20
4.1945477856
 30
0.0
 10
5.7148555655
 20
4.1957656059
 30
0.0
 10
5.7148890026
 20
4.1967680315
 30
0.0
 10
5.7149031022
 20
4.1972946794
 30
0.0
  0
SPLINE
  5
320
100
AcDbEntity
  8
ALL_ASSEMBLY_MEMBERS
100
AcDbSpline
 62
7
  6
CONTINUOUS
 70
0
 71
3
 72
25
 73
21
 74
0
 42
0.0000001
 43
0.0000001
 44
0.0000000001
 40
0.0
 40
0.0
 40
0.0
 40
0.0
 40
0.2003672382
 40
0.3852936814
 40
0.4705403563
 40
0.550358403
 40
0.624342695
 40
0.6921267007
 40
0.7533855416
 40
0.8079040213
 40
0.8555322448
 40
0.8962438269
 40
0.9140610182
 40
0.9302359189
 40
0.9448371671
 40
0.9579712126
 40
0.9697959942
 40
0.9805315634
 40
0.9904745133
 40
1.0
 40
1.0
 40
1.0
 40
1.0
 10
5.7274516109
 20
4.237768079
 30
0.0
 10
5.7273966159
 20
4.2389261534
 30
0.0
 10
5.7272575582
 20
4.2411516505
 30
0.0
 10
5.7269940143
 20
4.2438622731
 30
0.0
 10
5.7267332179
 20
4.2458707132
 30
0.0
 10
5.7265225251
 20
4.2472379269
 30
0.0
 10
5.7262929092
 20
4.2484995401
 30
0.0
 10
5.72604601
 20
4.2496483152
 30
0.0
 10
5.7257832425
 20
4.250677745
 30
0.0
 10
5.7255066195
 20
4.2515823659
 30
0.0
 10
5.7252178746
 20
4.2523574901
 30
0.0
 10
5.724958219
 20
4.252915359
 30
0.0
 10
5.724742296
 20
4.2532901282
 30
0.0
 10
5.7245854998
 20
4.2535238421
 30
0.0
 10
5.7244267074
 20
4.2537226405
 30
0.0
 10
5.7242659418
 20
4.2538862771
 30
0.0
 10
5.7241032551
 20
4.2540145992
 30
0.0
 10
5.7239385251
 20
4.2541072564
 30
0.0
 10
5.7237718855
 20
4.2541635345
 30
0.0
 10
5.7236588797
 20
4.2541762422
 30
0.0
 10
5.7236037627
 20
4.2541762422
 30
0.0
  0
SPLINE
  5
321
100
AcDbEntity
  8
ALL_ASSEMBLY_MEMBERS
100
AcDbSpline
 62
7
  6
CONTINUOUS
 70
0
 71
3
 72
25
 73
21
 74
0
 42
0.0000001
 43
0.0000001
 44
0.0000000001
 40
0.0
 40
0.0
 40
0.0
 40
0.0
 40
0.0095236263
 40
0.0194708159
 40
0.0302155539
 40
0.0420530336
 40
0.0552020286
 40
0.0698194292
 40
0.0860108441
 40
0.1038443193
 40
0.1445861521
 40
0.1922394009
 40
0.2467760481
 40
0.3080453799
 40
0.3758316479
 40
0.4498100249
 40
0.5296143336
 40
0.6148400626
 40
0.7997079683
 40
1.0
 40
1.0
 40
1.0
 40
1.0
 10
5.7234997076
 20
4.1906762422
 30
0.0
 10
5.7235548472
 20
4.1906762422
 30
0.0
 10
5.7236679334
 20
4.190688967
 30
0.0
 10
5.7238347437
 20
4.1907452678
 30
0.0
 10
5.7239997599
 20
4.1908379486
 30
0.0
 10
5.7241628511
 20
4.190966298
 30
0.0
 10
5.7243241389
 20
4.1911299673
 30
0.0
 10
5.724483569
 20
4.1913288028
 30
0.0
 10
5.7246411176
 20
4.1915625554
 30
0.0
 10
5.7248582354
 20
4.1919373561
 30
0.0
 10
5.7251196793
 20
4.1924952515
 30
0.0
 10
5.7254109291
 20
4.1932704238
 30
0.0
 10
5.7256904787
 20
4.1941750662
 30
0.0
 10
5.7259565808
 20
4.1952044859
 30
0.0
 10
5.7262072092
 20
4.1963532195
 30
0.0
 10
5.7264409296
 20
4.1976147638
 30
0.0
 10
5.7266560809
 20
4.1989818907
 30
0.0
 10
5.7269234377
 20
4.2009901576
 30
0.0
 10
5.7271958744
 20
4.2037006528
 30
0.0
 10
5.7273422641
 20
4.2059262532
 30
0.0
 10
5.7274010741
 20
4.2070844055
 30
0.0
  0
SPLINE
  5
322
100
AcDbEntity
  8
ALL_ASSEMBLY_MEMBERS
100
AcDbSpline
 62
7
  6
CONTINUOUS
 70
0
 71
3
 72
14
 73
10
 74
0
 42
0.0000001
 43
0.0000001
 44
0.0000000001
 40
0.0
 40
0.0
 40
0.0
 40
0.0
 40
0.0789564664
 40
0.1752102445
 40
0.2870339915
 40
0.4124634773
 40
0.5491421743
 40
0.6945009884
 40
1.0
 40
1.0
 40
1.0
 40
1.0
 10
5.7174807709
 20
4.1906762422
 30
0.0
 10
5.7175243646
 20
4.1908844605
 30
0.0
 10
5.7176016405
 20
4.1913505447
 30
0.0
 10
5.7176918746
 20
4.1921187613
 30
0.0
 10
5.7177654919
 20
4.1930144702
 30
0.0
 10
5.7178208551
 20
4.1940205253
 30
0.0
 10
5.7178567201
 20
4.1951178645
 30
0.0
 10
5.7178775796
 20
4.1967007951
 30
0.0
 10
5.7178613647
 20
4.1979157431
 30
0.0
 10
5.7178373438
 20
4.1987385
 30
0.0
  0
SPLINE
  5
323
100
AcDbEntity
  8
ALL_ASSEMBLY_MEMBERS
100
AcDbSpline
 62
7
  6
CONTINUOUS
 70
0
 71
3
 72
25
 73
21
 74
0
 42
0.0000001
 43
0.0000001
 44
0.0000000001
 40
0.0
 40
0.0
 40
0.0
 40
0.0
 40
0.2144056213
 40
0.4081663834
 40
0.4961892388
 40
0.5778610545
 40
0.6528663113
 40
0.7209286317
 40
0.7818045803
 40
0.8352622691
 40
0.881131446
 40
0.919326211
 40
0.9355378675
 40
0.9498317019
 40
0.96223327
 40
0.9727957825
 40
0.9816108462
 40
0.9888421679
 40
0.9947923129
 40
1.0
 40
1.0
 40
1.0
 40
1.0
 10
5.7154056115
 20
4.1972946794
 30
0.0
 10
5.7153915026
 20
4.1967680315
 30
0.0
 10
5.715358044
 20
4.1957656064
 30
0.0
 10
5.7152977677
 20
4.1945477864
 30
0.0
 10
5.7152394639
 20
4.1936565928
 30
0.0
 10
5.7151930908
 20
4.1930570912
 30
0.0
 10
5.7151428512
 20
4.1925071315
 30
0.0
 10
5.71508898
 20
4.1920088776
 30
0.0
 10
5.7150317701
 20
4.1915643252
 30
0.0
 10
5.7149715084
 20
4.1911752525
 30
0.0
 10
5.714908456
 20
4.1908432012
 30
0.0
 10
5.7148513275
 20
4.1906033488
 30
0.0
 10
5.7148031636
 20
4.1904415094
 30
0.0
 10
5.7147684962
 20
4.1903418919
 30
0.0
 10
5.7147333297
 20
4.1902572903
 30
0.0
 10
5.714697698
 20
4.1901876843
 30
0.0
 10
5.714661578
 20
4.1901329607
 30
0.0
 10
5.7146247319
 20
4.1900929654
 30
0.0
 10
5.7145865047
 20
4.1900676741
 30
0.0
 10
5.7145588969
 20
4.1900615646
 30
0.0
 10
5.7145461006
 20
4.1900615646
 30
0.0
  0
SPLINE
  5
324
100
AcDbEntity
  8
ALL_ASSEMBLY_MEMBERS
100
AcDbSpline
 62
7
  6
CONTINUOUS
 70
0
 71
3
 72
14
 73
10
 74
0
 42
0.0000001
 43
0.0000001
 44
0.0000000001
 40
0.0
 40
0.0
 40
0.0
 40
0.0
 40
0.3054943986
 40
0.4508526459
 40
0.5875300544
 40
0.7129573295
 40
0.8247822988
 40
0.9210399901
 40
1.0
 40
1.0
 40
1.0
 40
1.0
 10
5.7183417729
 20
4.1987385
 30
0.0
 10
5.7183658093
 20
4.1979157532
 30
0.0
 10
5.7183820347
 20
4.1967008149
 30
0.0
 10
5.7183611623
 20
4.1951178965
 30
0.0
 10
5.7183252757
 20
4.1940205652
 30
0.0
 10
5.7182698762
 20
4.1930145149
 30
0.0
 10
5.7181962134
 20
4.1921187984
 30
0.0
 10
5.7181059153
 20
4.1913505631
 30
0.0
 10
5.7180285892
 20
4.1908844648
 30
0.0
 10
5.7179849659
 20
4.1906762422
 30
0.0
  0
SPLINE
  5
325
100
AcDbEntity
  8
ALL_ASSEMBLY_MEMBERS
100
AcDbSpline
 62
7
  6
CONTINUOUS
 70
0
 71
3
 72
14
 73
10
 74
0
 42
0.0000001
 43
0.0000001
 44
0.0000000001
 40
0.0
 40
0.0
 40
0.0
 40
0.0
 40
0.0789335205
 40
0.1751718236
 40
0.2869863079
 40
0.412417974
 40
0.549106318
 40
0.6944780889
 40
1.0
 40
1.0
 40
1.0
 40
1.0
 10
5.7180882741
 20
4.2541762422
 30
0.0
 10
5.7181312329
 20
4.2539679842
 30
0.0
 10
5.7182070581
 20
4.2535018291
 30
0.0
 10
5.7182948669
 20
4.2527335644
 30
0.0
 10
5.7183656227
 20
4.2518378055
 30
0.0
 10
5.7184177499
 20
4.2508317052
 30
0.0
 10
5.7184500664
 20
4.2497343353
 30
0.0
 10
5.7184657805
 20
4.2481514336
 30
0.0
 10
5.7184455958
 20
4.2469366103
 30
0.0
 10
5.7184188826
 20
4.2461139845
 30
0.0
  0
SPLINE
  5
326
100
AcDbEntity
  8
ALL_ASSEMBLY_MEMBERS
100
AcDbSpline
 62
7
  6
CONTINUOUS
 70
0
 71
3
 72
25
 73
21
 74
0
 42
0.0000001
 43
0.0000001
 44
0.0000000001
 40
0.0
 40
0.0
 40
0.0
 40
0.0
 40
0.2002820244
 40
0.3851409645
 40
0.470363045
 40
0.550164105
 40
0.624139698
 40
0.6919237892
 40
0.7531916805
 40
0.807727809
 40
0.8553817222
 40
0.8961256747
 40
0.9139608702
 40
0.9301545156
 40
0.9447747209
 40
0.9579271595
 40
0.9697687517
 40
0.9805182526
 40
0.9904707494
 40
1.0
 40
1.0
 40
1.0
 40
1.0
 10
5.7279118637
 20
4.2070844055
 30
0.0
 10
5.7278530136
 20
4.2059262432
 30
0.0
 10
5.7277065244
 20
4.2037006239
 30
0.0
 10
5.7274339005
 20
4.200990113
 30
0.0
 10
5.7271663619
 20
4.1989818394
 30
0.0
 10
5.7269510639
 20
4.1976147076
 30
0.0
 10
5.7267171846
 20
4.1963531622
 30
0.0
 10
5.7264663863
 20
4.1952044306
 30
0.0
 10
5.7262001046
 20
4.1941750154
 30
0.0
 10
5.7259203665
 20
4.1932703788
 30
0.0
 10
5.7256289207
 20
4.1924952121
 30
0.0
 10
5.7253673033
 20
4.1919373271
 30
0.0
 10
5.7251500442
 20
4.1915625372
 30
0.0
 10
5.7249923904
 20
4.1913287876
 30
0.0
 10
5.7248328534
 20
4.1911299549
 30
0.0
 10
5.7246714577
 20
4.1909662882
 30
0.0
 10
5.7245082576
 20
4.1908379414
 30
0.0
 10
5.7243431327
 20
4.1907452638
 30
0.0
 10
5.7241762148
 20
4.190688966
 30
0.0
 10
5.7240630588
 20
4.1906762422
 30
0.0
 10
5.7240078833
 20
4.1906762422
 30
0.0
  0
SPLINE
  5
327
100
AcDbEntity
  8
ALL_ASSEMBLY_MEMBERS
100
AcDbSpline
 62
7
  6
CONTINUOUS
 70
0
 71
3
 72
14
 73
10
 74
0
 42
0.0000001
 43
0.0000001
 44
0.0000000001
 40
0.0
 40
0.0
 40
0.0
 40
0.0
 40
0.3055146013
 40
0.4508848091
 40
0.5875725354
 40
0.7130049333
 40
0.8248255289
 40
0.9210673785
 40
1.0
 40
1.0
 40
1.0
 40
1.0
 10
5.7179144029
 20
4.2461139845
 30
0.0
 10
5.7179410979
 20
4.2469365885
 30
0.0
 10
5.717961269
 20
4.248151384
 30
0.0
 10
5.7179455672
 20
4.249734255
 30
0.0
 10
5.7179132755
 20
4.2508316182
 30
0.0
 10
5.7178611823
 20
4.2518377338
 30
0.0
 10
5.7177904721
 20
4.2527335213
 30
0.0
 10
5.7177027203
 20
4.2535018136
 30
0.0
 10
5.7176269425
 20
4.2539679816
 30
0.0
 10
5.7175840113
 20
4.2541762422
 30
0.0
  0
SPLINE
  5
328
100
AcDbEntity
  8
ALL_ASSEMBLY_MEMBERS
100
AcDbSpline
 62
7
  6
CONTINUOUS
 70
0
 71
3
 72
25
 73
21
 74
0
 42
0.0000001
 43
0.0000001
 44
0.0000000001
 40
0.0
 40
0.0
 40
0.0
 40
0.0
 40
0.0095311246
 40
0.01947941
 40
0.0302197921
 40
0.0420487619
 40
0.055186354
 40
0.0697905507
 40
0.0859679008
 40
0.1037870774
 40
0.144501287
 40
0.1921305605
 40
0.2466491029
 40
0.3079068002
 40
0.3756887548
 40
0.449670449
 40
0.5294849688
 40
0.6147273916
 40
0.7996432138
 40
1.0
 40
1.0
 40
1.0
 40
1.0
 10
5.7241120077
 20
4.2541762422
 30
0.0
 10
5.7241671607
 20
4.2541762422
 30
0.0
 10
5.7242802365
 20
4.2541635353
 30
0.0
 10
5.7244469838
 20
4.2541072598
 30
0.0
 10
5.7246118229
 20
4.2540146048
 30
0.0
 10
5.724774619
 20
4.2538862842
 30
0.0
 10
5.7249354936
 20
4.2537226486
 30
0.0
 10
5.7250943942
 20
4.2535238508
 30
0.0
 10
5.7252512965
 20
4.2532901362
 30
0.0
 10
5.7254673617
 20
4.2529153717
 30
0.0
 10
5.7257271914
 20
4.2523575062
 30
0.0
 10
5.7260161331
 20
4.251582379
 30
0.0
 10
5.726292941
 20
4.2506777553
 30
0.0
 10
5.7265558868
 20
4.249648324
 30
0.0
 10
5.726802953
 20
4.2484995471
 30
0.0
 10
5.727032722
 20
4.2472379319
 30
0.0
 10
5.727243558
 20
4.2458707174
 30
0.0
 10
5.7275045282
 20
4.2438622852
 30
0.0
 10
5.7277682513
 20
4.2411516632
 30
0.0
 10
5.7279074022
 20
4.2389261603
 30
0.0
 10
5.7279624346
 20
4.237768079
 30
0.0
  0
SPLINE
  5
329
100
AcDbEntity
  8
ALL_ASSEMBLY_MEMBERS
100
AcDbSpline
 62
7
  6
CONTINUOUS
 70
0
 71
3
 72
99
 73
95
 74
0
 42
0.0000001
 43
0.0000001
 44
0.0000000001
 40
0.0
 40
0.0
 40
0.0
 40
0.0
 40
0.0000027208
 40
0.0000108769
 40
0.0000244641
 40
0.0000434783
 40
0.0000679154
 40
0.0000977711
 40
0.0001737219
 40
0.0002712973
 40
0.0003904641
 40
0.0005311889
 40
0.0006934386
 40
0.001082379
 40
0.0015570192
 40
0.0021170929
 40
0.002762334
 40
0.0034924767
 40
0.0043072548
 40
0.0061896545
 40
0.0084073618
 40
0.010956685
 40
0.0138320957
 40
0.0170279638
 40
0.0205386695
 40
0.0243586035
 40
0.0284821683
 40
0.0329037588
 40
0.0426154293
 40
0.0534388471
 40
0.0653187602
 40
0.0782004732
 40
0.0920308888
 40
0.1067584679
 40
0.1223325767
 40
0.1387040854
 40
0.1558282733
 40
0.1921665672
 40
0.231028686
 40
0.2721174575
 40
0.3151470531
 40
0.3372949765
 40
0.3598152128
 40
0.3826618304
 40
0.4057840004
 40
0.4291336484
 40
0.4526601567
 40
0.4999999759
 40
0.5473398269
 40
0.5708663559
 40
0.5942160112
 40
0.6173381738
 40
0.6401847787
 40
0.6627050063
 40
0.6848529289
 40
0.7278825288
 40
0.7689712849
 40
0.8078333711
 40
0.8441716373
 40
0.8612958221
 40
0.877667339
 40
0.8932414635
 40
0.9079690613
 40
0.9217994967
 40
0.9346812286
 40
0.946561158
 40
0.9573845893
 40
0.9670962699
 40
0.9715178637
 40
0.9756414285
 40
0.9794613603
 40
0.9829720631
 40
0.9861679294
 40
0.9890433406
 40
0.9915926684
 40
0.993810383
 40
0.9956927822
 40
0.9965075576
 40
0.9972376963
 40
0.9978829326
 40
0.998443001
 40
0.9989176358
 40
0.9993065712
 40
0.9994688185
 40
0.9996095413
 40
0.9997287063
 40
0.9998262802
 40
0.9999022298
 40
0.999932085
 40
0.9999565218
 40
0.9999755358
 40
0.9999891229
 40
0.9999972791
 40
1.0
 40
1.0
 40
1.0
 40
1.0
 10
6.0640340023
 20
4.4999262422
 30
0.0
 10
6.0640340023
 20
4.4999260453
 30
0.0
 10
6.0640329135
 20
4.4999258773
 30
0.0
 10
6.0640317879
 20
4.4999247478
 30
0.0
 10
6.0640290234
 20
4.4999233718
 30
0.0
 10
6.0640255714
 20
4.4999212097
 30
0.0
 10
6.0640209669
 20
4.4999185268
 30
0.0
 10
6.0640128728
 20
4.4999137119
 30
0.0
 10
6.0640001907
 20
4.4999062194
 30
0.0
 10
6.0639819591
 20
4.4998954292
 30
0.0
 10
6.0639596806
 20
4.4998822621
 30
0.0
 10
6.06393337
 20
4.4998667186
 30
0.0
 10
6.0638902367
 20
4.4998412548
 30
0.0
 10
6.0638262712
 20
4.4998035304
 30
0.0
 10
6.06373747
 20
4.499751226
 30
0.0
 10
6.0636326474
 20
4.4996895638
 30
0.0
 10
6.0635118425
 20
4.4996185914
 30
0.0
 10
6.0633750946
 20
4.4995383563
 30
0.0
 10
6.0631610309
 20
4.4994129194
 30
0.0
 10
6.062853895
 20
4.4992333153
 30
0.0
 10
6.0624381009
 20
4.4989907794
 30
0.0
 10
6.0619598306
 20
4.49871268
 30
0.0
 10
6.0614197563
 20
4.498400003
 30
0.0
 10
6.0608186958
 20
4.4980537652
 30
0.0
 10
6.0601574648
 20
4.4976750029
 30
0.0
 10
6.0594368824
 20
4.4972647469
 30
0.0
 10
6.0586577636
 20
4.4968240375
 30
0.0
 10
6.0575055265
 20
4.4961766785
 30
0.0
 10
6.0559261337
 20
4.495299441
 30
0.0
 10
6.0538661985
 20
4.4941755424
 30
0.0
 10
6.0515943918
 20
4.4929610091
 30
0.0
 10
6.0491184547
 20
4.4916668291
 30
0.0
 10
6.0464455481
 20
4.4903047809
 30
0.0
 10
6.0435824516
 20
4.4888871075
 30
0.0
 10
6.0405359235
 20
4.487425897
 30
0.0
 10
6.0373124552
 20
4.485933093
 30
0.0
 10
6.0326941485
 20
4.4838764922
 30
0.0
 10
6.0265228242
 20
4.4813069638
 30
0.0
 10
6.0186359934
 20
4.4783569927
 30
0.0
 10
6.0101712383
 20
4.475589814
 30
0.0
 10
6.0027510925
 20
4.473546702
 30
0.0
 10
5.9965686302
 20
4.4721011304
 30
0.0
 10
5.9917797806
 20
4.4711208105
 30
0.0
 10
5.9868952436
 20
4.4702663586
 30
0.0
 10
5.9819280485
 20
4.4695484542
 30
0.0
 10
5.9768920199
 20
4.4689787186
 30
0.0
 10
5.9700929093
 20
4.4684283096
 30
0.0
 10
5.9615340052
 20
4.4681462717
 30
0.0
 10
5.9529750998
 20
4.4684283122
 30
0.0
 10
5.9461759848
 20
4.4689787192
 30
0.0
 10
5.9411399544
 20
4.4695484531
 30
0.0
 10
5.9361727602
 20
4.4702663573
 30
0.0
 10
5.9312882255
 20
4.4711208097
 30
0.0
 10
5.9264993776
 20
4.47210113
 30
0.0
 10
5.9203169157
 20
4.4735467018
 30
0.0
 10
5.9128967705
 20
4.4755898128
 30
0.0
 10
5.9044320183
 20
4.4783569901
 30
0.0
 10
5.8965451926
 20
4.481306959
 30
0.0
 10
5.8903738724
 20
4.4838764855
 30
0.0
 10
5.8857555672
 20
4.4859330856
 30
0.0
 10
5.882532097
 20
4.4874258893
 30
0.0
 10
5.8794855659
 20
4.4888871006
 30
0.0
 10
5.876622466
 20
4.4903047759
 30
0.0
 10
5.8739495558
 20
4.4916668261
 30
0.0
 10
5.8714736151
 20
4.4929610078
 30
0.0
 10
5.8692018052
 20
4.4941755425
 30
0.0
 10
5.8671418674
 20
4.4952994425
 30
0.0
 10
5.865562473
 20
4.4961766812
 30
0.0
 10
5.8644102353
 20
4.496824041
 30
0.0
 10
5.8636311164
 20
4.4972647504
 30
0.0
 10
5.8629105341
 20
4.4976750059
 30
0.0
 10
5.8622493034
 20
4.4980537676
 30
0.0
 10
5.8616482429
 20
4.498400005
 30
0.0
 10
5.8611081684
 20
4.4987126822
 30
0.0
 10
5.8606298976
 20
4.4989907824
 30
0.0
 10
5.8602141033
 20
4.4992333196
 30
0.0
 10
5.8599069673
 20
4.4994129241
 30
0.0
 10
5.859692904
 20
4.4995383606
 30
0.0
 10
5.8595561567
 20
4.4996185953
 30
0.0
 10
5.8594353527
 20
4.499689567
 30
0.0
 10
5.8593305309
 20
4.4997512284
 30
0.0
 10
5.8592417306
 20
4.4998035321
 30
0.0
 10
5.8591777658
 20
4.4998412558
 30
0.0
 10
5.8591346331
 20
4.4998667192
 30
0.0
 10
5.8591083228
 20
4.4998822624
 30
0.0
 10
5.8590860446
 20
4.4998954293
 30
0.0
 10
5.8590678133
 20
4.4999062194
 30
0.0
 10
5.8590551314
 20
4.4999137117
 30
0.0
 10
5.8590470374
 20
4.4999185266
 30
0.0
 10
5.859042433
 20
4.4999212095
 30
0.0
 10
5.8590389811
 20
4.4999233715
 30
0.0
 10
5.8590362166
 20
4.4999247477
 30
0.0
 10
5.8590350911
 20
4.4999258771
 30
0.0
 10
5.8590340023
 20
4.4999260453
 30
0.0
 10
5.8590340023
 20
4.4999262422
 30
0.0
  0
SPLINE
  5
32A
100
AcDbEntity
  8
ALL_ASSEMBLY_MEMBERS
100
AcDbSpline
 62
7
  6
CONTINUOUS
 70
0
 71
3
 72
61
 73
57
 74
0
 42
0.0000001
 43
0.0000001
 44
0.0000000001
 40
0.0
 40
0.0
 40
0.0
 40
0.0
 40
0.0000027195
 40
0.000010875
 40
0.0000244625
 40
0.0000434777
 40
0.0000679166
 40
0.0000977748
 40
0.000173733
 40
0.000271319
 40
0.0003904995
 40
0.0005312412
 40
0.0006935109
 40
0.0010825011
 40
0.001557204
 40
0.0021173535
 40
0.0027626838
 40
0.0034929289
 40
0.0043078231
 40
0.006190496
 40
0.0084085309
 40
0.0109582246
 40
0.0138340467
 40
0.0170303685
 40
0.0205415709
 40
0.0243620459
 40
0.028486197
 40
0.0329084198
 40
0.0426214839
 40
0.0534464586
 40
0.0653280826
 40
0.0782116515
 40
0.0920440583
 40
0.1067737552
 40
0.1223500999
 40
0.1387239509
 40
0.1558505766
 40
0.1921940215
 40
0.2310616464
 40
0.272156259
 40
0.3151919987
 40
0.337343078
 40
0.359866511
 40
0.3827163713
 40
0.4058418313
 40
0.4291948179
 40
0.4527247092
 40
0.4763721059
 40
0.5000775438
 40
0.5942527782
 40
0.6848559572
 40
0.768962798
 40
0.844161252
 40
0.9079603307
 40
0.9573800909
 40
1.0
 40
1.0
 40
1.0
 40
1.0
 10
5.8590340023
 20
3.9424262422
 30
0.0
 10
5.8590340005
 20
3.9424264391
 30
0.0
 10
5.8590350941
 20
3.9424266059
 30
0.0
 10
5.8590362148
 20
3.9424277355
 30
0.0
 10
5.859038982
 20
3.9424291105
 30
0.0
 10
5.8590424327
 20
3.9424312722
 30
0.0
 10
5.8590470376
 20
3.9424339544
 30
0.0
 10
5.8590551314
 20
3.9424387686
 30
0.0
 10
5.8590678134
 20
3.9424462601
 30
0.0
 10
5.8590860447
 20
3.9424570494
 30
0.0
 10
5.8591083228
 20
3.9424702157
 30
0.0
 10
5.8591346331
 20
3.9424857585
 30
0.0
 10
5.8591777659
 20
3.9425112215
 30
0.0
 10
5.8592417307
 20
3.9425489451
 30
0.0
 10
5.859330531
 20
3.942601249
 30
0.0
 10
5.8594353527
 20
3.942662911
 30
0.0
 10
5.8595561568
 20
3.9427338835
 30
0.0
 10
5.859692904
 20
3.9428141192
 30
0.0
 10
5.8599069673
 20
3.9429395574
 30
0.0
 10
5.8602141032
 20
3.9431191639
 30
0.0
 10
5.8606298975
 20
3.943361703
 30
0.0
 10
5.8611081684
 20
3.9436398042
 30
0.0
 10
5.8616482431
 20
3.9439524818
 30
0.0
 10
5.8622493036
 20
3.9442987191
 30
0.0
 10
5.8629105345
 20
3.9446774805
 30
0.0
 10
5.8636311169
 20
3.9450877354
 30
0.0
 10
5.8644102359
 20
3.9455284441
 30
0.0
 10
5.8655624739
 20
3.9461758033
 30
0.0
 10
5.8671418685
 20
3.9470530418
 30
0.0
 10
5.8692018064
 20
3.9481769422
 30
0.0
 10
5.8714736166
 20
3.9493914774
 30
0.0
 10
5.8739495576
 20
3.9506856594
 30
0.0
 10
5.8766224682
 20
3.9520477099
 30
0.0
 10
5.8794855684
 20
3.9534653852
 30
0.0
 10
5.8825321
 20
3.9549265966
 30
0.0
 10
5.8857555706
 20
3.9564194003
 30
0.0
 10
5.8903738763
 20
3.9584760006
 30
0.0
 10
5.8965451971
 20
3.9610455273
 30
0.0
 10
5.9044320236
 20
3.9639954963
 30
0.0
 10
5.9128967771
 20
3.9667626739
 30
0.0
 10
5.9203169239
 20
3.9688057842
 30
0.0
 10
5.9264993863
 20
3.9702513563
 30
0.0
 10
5.9312882348
 20
3.9712316774
 30
0.0
 10
5.9361727676
 20
3.9720861282
 30
0.0
 10
5.9411399718
 20
3.9728040347
 30
0.0
 10
5.9461759689
 20
3.9733737578
 30
0.0
 10
5.9512652033
 20
3.9737857768
 30
0.0
 10
5.9563906356
 20
3.9740366123
 30
0.0
 10
5.9666340684
 20
3.9742057817
 30
0.0
 10
5.9817401121
 20
3.9732178146
 30
0.0
 10
6.0008984268
 20
3.9695643037
 30
0.0
 10
6.0182400597
 20
3.9643246607
 30
0.0
 10
6.0332681372
 20
3.9583756896
 30
0.0
 10
6.045612161
 20
3.9525621062
 30
0.0
 10
6.0555908194
 20
3.9472976505
 30
0.0
 10
6.0613769955
 20
3.9439935589
 30
0.0
 10
6.0640340023
 20
3.9424262422
 30
0.0
  0
SPLINE
  5
32B
100
AcDbEntity
  8
ALL_ASSEMBLY_MEMBERS
100
AcDbSpline
 62
7
  6
CONTINUOUS
 70
0
 71
3
 72
14
 73
10
 74
0
 42
0.0000001
 43
0.0000001
 44
0.0000000001
 40
0.0
 40
0.0
 40
0.0
 40
0.0
 40
0.1131840526
 40
0.2282760049
 40
0.3463882569
 40
0.4683318809
 40
0.7250959798
 40
0.8606037318
 40
1.0
 40
1.0
 40
1.0
 40
1.0
 10
6.198536847
 20
4.1107558884
 30
0.0
 10
6.1986130956
 20
4.10973834
 30
0.0
 10
6.1989348677
 20
4.1076951125
 30
0.0
 10
6.1999023086
 20
4.1047135355
 30
0.0
 10
6.2013437798
 20
4.1018411966
 30
0.0
 10
6.203901626
 20
4.0981497835
 30
0.0
 10
6.2072877794
 20
4.0949025046
 30
0.0
 10
6.2112525915
 20
4.0922003098
 30
0.0
 10
6.2134393767
 20
4.0910219418
 30
0.0
 10
6.2145736129
 20
4.0904807934
 30
0.0
  0
SPLINE
  5
32C
100
AcDbEntity
  8
ALL_ASSEMBLY_MEMBERS
100
AcDbSpline
 62
7
  6
CONTINUOUS
 70
0
 71
3
 72
14
 73
10
 74
0
 42
0.0000001
 43
0.0000001
 44
0.0000000001
 40
0.0
 40
0.0
 40
0.0
 40
0.0
 40
0.1177536253
 40
0.236654384
 40
0.3572963424
 40
0.4801593251
 40
0.6056317538
 40
0.7340223763
 40
1.0
 40
1.0
 40
1.0
 40
1.0
 10
6.1985668996
 20
4.1125466956
 30
0.0
 10
6.1986312584
 20
4.1132312845
 30
0.0
 10
6.1988356879
 20
4.1146011942
 30
0.0
 10
6.1993630169
 20
4.1166236713
 30
0.0
 10
6.200109134
 20
4.1186080397
 30
0.0
 10
6.2010671248
 20
4.1205417456
 30
0.0
 10
6.2022307707
 20
4.1224127169
 30
0.0
 10
6.2040669431
 20
4.1248338487
 30
0.0
 10
6.2056984307
 20
4.1264791412
 30
0.0
 10
6.2068738459
 20
4.1274943513
 30
0.0
  0
SPLINE
  5
32D
100
AcDbEntity
  8
ALL_ASSEMBLY_MEMBERS
100
AcDbSpline
 62
7
  6
CONTINUOUS
 70
0
 71
3
 72
13
 73
9
 74
0
 42
0.0000001
 43
0.0000001
 44
0.0000000001
 40
0.0
 40
0.0
 40
0.0
 40
0.0
 40
0.118566012
 40
0.2381721751
 40
0.35923814
 40
0.4821798152
 40
0.7351247743
 40
1.0
 40
1.0
 40
1.0
 40
1.0
 10
6.1902187306
 20
4.1044928246
 30
0.0
 10
6.1902575666
 20
4.1052312205
 30
0.0
 10
6.1904110316
 20
4.1067115724
 30
0.0
 10
6.1908633334
 20
4.1089092712
 30
0.0
 10
6.1915366351
 20
4.1110785219
 30
0.0
 10
6.1927371087
 20
4.113940191
 30
0.0
 10
6.1947946246
 20
4.1173922766
 30
0.0
 10
6.1969073774
 20
4.1198558267
 30
0.0
 10
6.1980740075
 20
4.1210252618
 30
0.0
  0
SPLINE
  5
32E
100
AcDbEntity
  8
ALL_ASSEMBLY_MEMBERS
100
AcDbSpline
 62
7
  6
CONTINUOUS
 70
0
 71
3
 72
9
 73
5
 74
0
 42
0.0000001
 43
0.0000001
 44
0.0000000001
 40
0.0
 40
0.0
 40
0.0
 40
0.0
 40
0.2435887073
 40
1.0
 40
1.0
 40
1.0
 40
1.0
 10
6.1999235564
 20
4.1227442909
 30
0.0
 10
6.2004418431
 20
4.1231914691
 30
0.0
 10
6.2026233164
 20
4.1249644874
 30
0.0
 10
6.2050045443
 20
4.1264877548
 30
0.0
 10
6.2068749473
 20
4.1274977506
 30
0.0
  0
SPLINE
  5
32F
100
AcDbEntity
  8
ALL_ASSEMBLY_MEMBERS
100
AcDbSpline
 62
7
  6
CONTINUOUS
 70
0
 71
3
 72
11
 73
7
 74
0
 42
0.0000001
 43
0.0000001
 44
0.0000000001
 40
0.0
 40
0.0
 40
0.0
 40
0.0
 40
0.2569008581
 40
0.5078028994
 40
0.7548110432
 40
1.0
 40
1.0
 40
1.0
 40
1.0
 10
6.2648610547
 20
4.1171985904
 30
0.0
 10
6.2652398819
 20
4.1164749284
 30
0.0
 10
6.265901577
 20
4.1149964483
 30
0.0
 10
6.2665846494
 20
4.1126881984
 30
0.0
 10
6.2669359506
 20
4.1103442018
 30
0.0
 10
6.2669469339
 20
4.1087730144
 30
0.0
 10
6.2668963445
 20
4.1079950747
 30
0.0
  0
SPLINE
  5
330
100
AcDbEntity
  8
ALL_ASSEMBLY_MEMBERS
100
AcDbSpline
 62
7
  6
CONTINUOUS
 70
0
 71
3
 72
22
 73
18
 74
0
 42
0.0000001
 43
0.0000001
 44
0.0000000001
 40
0.0
 40
0.0
 40
0.0
 40
0.0
 40
0.0482415774
 40
0.0976565862
 40
0.1488842636
 40
0.2024950813
 40
0.258858646
 40
0.318112489
 40
0.3802163419
 40
0.4449728572
 40
0.5807639206
 40
0.65096602
 40
0.7218677281
 40
0.792827314
 40
0.8632360376
 40
0.9325216341
 40
1.0
 40
1.0
 40
1.0
 40
1.0
 10
6.2668963445
 20
4.1079950747
 30
0.0
 10
6.2668302567
 20
4.1069788079
 30
0.0
 10
6.2665018763
 20
4.10492955
 30
0.0
 10
6.2654477678
 20
4.1019518878
 30
0.0
 10
6.2638421486
 20
4.0991013161
 30
0.0
 10
6.2617149775
 20
4.0964282884
 30
0.0
 10
6.259100575
 20
4.0939767136
 30
0.0
 10
6.2560404819
 20
4.0917888806
 30
0.0
 10
6.2525833131
 20
4.0899026984
 30
0.0
 10
6.2474406789
 20
4.0878057319
 30
0.0
 10
6.2418284451
 20
4.0865013958
 30
0.0
 10
6.2359988633
 20
4.0859982
 30
0.0
 10
6.2315148762
 20
4.0860380672
 30
0.0
 10
6.227051256
 20
4.0865032673
 30
0.0
 10
6.2226862429
 20
4.087391594
 30
0.0
 10
6.218503442
 20
4.0886938283
 30
0.0
 10
6.2158463582
 20
4.0898409781
 30
0.0
 10
6.2145736129
 20
4.0904807934
 30
0.0
  0
SPLINE
  5
331
100
AcDbEntity
  8
ALL_ASSEMBLY_MEMBERS
100
AcDbSpline
 62
7
  6
CONTINUOUS
 70
0
 71
3
 72
14
 73
10
 74
0
 42
0.0000001
 43
0.0000001
 44
0.0000000001
 40
0.0
 40
0.0
 40
0.0
 40
0.0
 40
0.1095630003
 40
0.2231314909
 40
0.3412512442
 40
0.4642089303
 40
0.5919461622
 40
0.7241922952
 40
1.0
 40
1.0
 40
1.0
 40
1.0
 10
6.1834840023
 20
4.0997306526
 30
0.0
 10
6.1834840023
 20
4.1007573945
 30
0.0
 10
6.1836597459
 20
4.1028514771
 30
0.0
 10
6.1844092767
 20
4.1059714077
 30
0.0
 10
6.1856346366
 20
4.1090715274
 30
0.0
 10
6.1873007828
 20
4.1121088018
 30
0.0
 10
6.1893765341
 20
4.1150451453
 30
0.0
 10
6.1926834644
 20
4.1188316718
 30
0.0
 10
6.195602502
 20
4.1213426852
 30
0.0
 10
6.1976902815
 20
4.1228663829
 30
0.0
  0
SPLINE
  5
332
100
AcDbEntity
  8
ALL_ASSEMBLY_MEMBERS
100
AcDbSpline
 62
7
  6
CONTINUOUS
 70
0
 71
3
 72
12
 73
8
 74
0
 42
0.0000001
 43
0.0000001
 44
0.0000000001
 40
0.0
 40
0.0
 40
0.0
 40
0.0
 40
0.2421319625
 40
0.490977952
 40
0.6172491524
 40
0.7443592503
 40
1.0
 40
1.0
 40
1.0
 40
1.0
 10
6.1982200442
 20
4.1232475563
 30
0.0
 10
6.200304416
 20
4.1247261198
 30
0.0
 10
6.2047717061
 20
4.1273957863
 30
0.0
 10
6.2108034773
 20
4.1299139145
 30
0.0
 10
6.2158831648
 20
4.1314418023
 30
0.0
 10
6.2211245306
 20
4.1326346801
 30
0.0
 10
6.2251510358
 20
4.1331240684
 30
0.0
 10
6.2278452908
 20
4.1332682499
 30
0.0
  0
SPLINE
  5
333
100
AcDbEntity
  8
ALL_ASSEMBLY_MEMBERS
100
AcDbSpline
 62
7
  6
CONTINUOUS
 70
0
 71
3
 72
13
 73
9
 74
0
 42
0.0000001
 43
0.0000001
 44
0.0000000001
 40
0.0
 40
0.0
 40
0.0
 40
0.0
 40
0.128787809
 40
0.2570601996
 40
0.5108718729
 40
0.6360218802
 40
0.7595199622
 40
1.0
 40
1.0
 40
1.0
 40
1.0
 10
6.2362564111
 20
4.1331246174
 30
0.0
 10
6.2376517722
 20
4.1330021409
 30
0.0
 10
6.2404295607
 20
4.1326597799
 30
0.0
 10
6.245885327
 20
4.131590622
 30
0.0
 10
6.2511783432
 20
4.1299570883
 30
0.0
 10
6.2561970618
 20
4.1277835224
 30
0.0
 10
6.2609122352
 20
4.1253134677
 30
0.0
 10
6.2642074519
 20
4.1230803256
 30
0.0
 10
6.2662404871
 20
4.1214348185
 30
0.0
  0
SPLINE
  5
334
100
AcDbEntity
  8
ALL_ASSEMBLY_MEMBERS
100
AcDbSpline
 62
7
  6
CONTINUOUS
 70
0
 71
3
 72
13
 73
9
 74
0
 42
0.0000001
 43
0.0000001
 44
0.0000000001
 40
0.0
 40
0.0
 40
0.0
 40
0.0
 40
0.2748417489
 40
0.5337727338
 40
0.6567217092
 40
0.7751772443
 40
0.8894405247
 40
1.0
 40
1.0
 40
1.0
 40
1.0
 10
6.2662404871
 20
4.1214348185
 30
0.0
 10
6.2680748985
 20
4.1199500744
 30
0.0
 10
6.2714234601
 20
4.1167864735
 30
0.0
 10
6.2747892881
 20
4.1122121605
 30
0.0
 10
6.2767392478
 20
4.1083743809
 30
0.0
 10
6.2777918744
 20
4.1054986347
 30
0.0
 10
6.2784339426
 20
4.1026129575
 30
0.0
 10
6.2785840023
 20
4.1006799943
 30
0.0
 10
6.2785840023
 20
4.0997306526
 30
0.0
  0
SPLINE
  5
335
100
AcDbEntity
  8
ALL_ASSEMBLY_MEMBERS
100
AcDbSpline
 62
7
  6
CONTINUOUS
 70
0
 71
3
 72
39
 73
35
 74
0
 42
0.0000001
 43
0.0000001
 44
0.0000000001
 40
0.0
 40
0.0
 40
0.0
 40
0.0
 40
0.0259061732
 40
0.0515731149
 40
0.0773716175
 40
0.1037107853
 40
0.1309094555
 40
0.1591969443
 40
0.1886875384
 40
0.2194256887
 40
0.2513936455
 40
0.2845193885
 40
0.3187003764
 40
0.3537994074
 40
0.3896594385
 40
0.4261061988
 40
0.4629512049
 40
0.4999974312
 40
0.5370436487
 40
0.5738886174
 40
0.6103352729
 40
0.6461951975
 40
0.6812942236
 40
0.7154751941
 40
0.7486010632
 40
0.7805693711
 40
0.8113077145
 40
0.8407988899
 40
0.8690864723
 40
0.8962854843
 40
0.9226253096
 40
0.9484249048
 40
0.974093366
 40
1.0
 40
1.0
 40
1.0
 40
1.0
 10
6.2785840023
 20
4.0997306526
 30
0.0
 10
6.2785840023
 20
4.0987003972
 30
0.0
 10
6.2784103947
 20
4.0966448718
 30
0.0
 10
6.277623193
 20
4.093654812
 30
0.0
 10
6.2763240892
 20
4.0908301873
 30
0.0
 10
6.2745553567
 20
4.0882024148
 30
0.0
 10
6.2723549915
 20
4.0857909459
 30
0.0
 10
6.2697689249
 20
4.0836029127
 30
0.0
 10
6.2668386919
 20
4.0816406813
 30
0.0
 10
6.2636043312
 20
4.0799032229
 30
0.0
 10
6.2601041861
 20
4.0783856393
 30
0.0
 10
6.2563738275
 20
4.0770834043
 30
0.0
 10
6.2524477563
 20
4.075991587
 30
0.0
 10
6.2483593855
 20
4.0751050525
 30
0.0
 10
6.2441414023
 20
4.0744203024
 30
0.0
 10
6.2398263383
 20
4.0739335605
 30
0.0
 10
6.2354465189
 20
4.0736423714
 30
0.0
 10
6.2310343141
 20
4.0735457276
 30
0.0
 10
6.2266221098
 20
4.0736423392
 30
0.0
 10
6.2222422959
 20
4.0739335149
 30
0.0
 10
6.217927236
 20
4.0744202055
 30
0.0
 10
6.2137092584
 20
4.0751049381
 30
0.0
 10
6.2096208848
 20
4.0759914325
 30
0.0
 10
6.2056947966
 20
4.077083205
 30
0.0
 10
6.2019644098
 20
4.0783854147
 30
0.0
 10
6.1984642186
 20
4.0799029563
 30
0.0
 10
6.1952297882
 20
4.0816403844
 30
0.0
 10
6.192299524
 20
4.0836026245
 30
0.0
 10
6.189713331
 20
4.0857905748
 30
0.0
 10
6.1875129539
 20
4.0882020914
 30
0.0
 10
6.1857440637
 20
4.0908298544
 30
0.0
 10
6.1844448865
 20
4.0936545991
 30
0.0
 10
6.183657688
 20
4.0966447809
 30
0.0
 10
6.1834840023
 20
4.0987003789
 30
0.0
 10
6.1834840023
 20
4.0997306526
 30
0.0
  0
SPLINE
  5
336
100
AcDbEntity
  8
ALL_ASSEMBLY_MEMBERS
100
AcDbSpline
 62
7
  6
CONTINUOUS
 70
0
 71
3
 72
14
 73
10
 74
0
 42
0.0000001
 43
0.0000001
 44
0.0000000001
 40
0.0
 40
0.0
 40
0.0
 40
0.0
 40
0.1114220669
 40
0.2261601835
 40
0.344637088
 40
0.4672225172
 40
0.7251539358
 40
0.8607032474
 40
1.0
 40
1.0
 40
1.0
 40
1.0
 10
6.1995065899
 20
4.1046134109
 30
0.0
 10
6.1997757776
 20
4.1038720567
 30
0.0
 10
6.2004235396
 20
4.1024023475
 30
0.0
 10
6.2016799515
 20
4.1003046939
 30
0.0
 10
6.2032226752
 20
4.0983066967
 30
0.0
 10
6.2056780184
 20
4.0957597043
 30
0.0
 10
6.2086118072
 20
4.0935381166
 30
0.0
 10
6.2118937603
 20
4.0916750885
 30
0.0
 10
6.2136627301
 20
4.0908583401
 30
0.0
 10
6.2145736129
 20
4.0904807934
 30
0.0
  0
SPLINE
  5
337
100
AcDbEntity
  8
ALL_ASSEMBLY_MEMBERS
100
AcDbSpline
 62
7
  6
CONTINUOUS
 70
0
 71
3
 72
9
 73
5
 74
0
 42
0.0000001
 43
0.0000001
 44
0.0000000001
 40
0.0
 40
0.0
 40
0.0
 40
0.0
 40
0.5026822087
 40
1.0
 40
1.0
 40
1.0
 40
1.0
 10
6.1995065899
 20
4.1046134109
 30
0.0
 10
6.1991714372
 20
4.1056092411
 30
0.0
 10
6.1986592935
 20
4.1076460726
 30
0.0
 10
6.1984841038
 20
4.1097396865
 30
0.0
 10
6.1984839635
 20
4.1107791902
 30
0.0
  0
SPLINE
  5
338
100
AcDbEntity
  8
ALL_ASSEMBLY_MEMBERS
100
AcDbSpline
 62
7
  6
CONTINUOUS
 70
0
 71
3
 72
18
 73
14
 74
0
 42
0.0000001
 43
0.0000001
 44
0.0000000001
 40
0.0
 40
0.0
 40
0.0
 40
0.0
 40
0.0555796677
 40
0.1116917115
 40
0.1685323587
 40
0.2263300966
 40
0.2852660942
 40
0.3454429598
 40
0.4694629121
 40
0.59816045
 40
0.7304807969
 40
0.8650106467
 40
1.0
 40
1.0
 40
1.0
 40
1.0
 10
6.1995065899
 20
4.1046134109
 30
0.0
 10
6.199587122
 20
4.103689403
 30
0.0
 10
6.1998660753
 20
4.1018408566
 30
0.0
 10
6.2006189859
 20
4.0991245602
 30
0.0
 10
6.2016965796
 20
4.0964799701
 30
0.0
 10
6.2030807676
 20
4.0939292579
 30
0.0
 10
6.2047539001
 20
4.0914906369
 30
0.0
 10
6.2073673244
 20
4.0883800155
 30
0.0
 10
6.2112669584
 20
4.0848646225
 30
0.0
 10
6.216686116
 20
4.0813688212
 30
0.0
 10
6.2227055227
 20
4.0786092466
 30
0.0
 10
6.2291298183
 20
4.0766282705
 30
0.0
 10
6.2335695894
 20
4.0758336033
 30
0.0
 10
6.2358065611
 20
4.0755679086
 30
0.0
  0
SPLINE
  5
339
100
AcDbEntity
  8
ALL_ASSEMBLY_MEMBERS
100
AcDbSpline
 62
7
  6
CONTINUOUS
 70
0
 71
3
 72
19
 73
15
 74
0
 42
0.0000001
 43
0.0000001
 44
0.0000000001
 40
0.0
 40
0.0
 40
0.0
 40
0.0
 40
0.0707947993
 40
0.1417521946
 40
0.2823522956
 40
0.4192314915
 40
0.5502011545
 40
0.6736773764
 40
0.7324482148
 40
0.7892111904
 40
0.8440966147
 40
0.8973324648
 40
0.9492015261
 40
1.0
 40
1.0
 40
1.0
 40
1.0
 10
6.2358065611
 20
4.0755679086
 30
0.0
 10
6.2344729889
 20
4.075457391
 30
0.0
 10
6.2317939658
 20
4.0753300398
 30
0.0
 10
6.2264550488
 20
4.0754441857
 30
0.0
 10
6.2198970667
 20
4.0762690063
 30
0.0
 10
6.2124259383
 20
4.078322272
 30
0.0
 10
6.2056484119
 20
4.0813607018
 30
0.0
 10
6.2007054299
 20
4.08468547
 30
0.0
 10
6.1973649345
 20
4.0877372005
 30
0.0
 10
6.1952220903
 20
4.0901509209
 30
0.0
 10
6.1934228046
 20
4.0927041203
 30
0.0
 10
6.1919849198
 20
4.0953734281
 30
0.0
 10
6.1909251956
 20
4.0981315427
 30
0.0
 10
6.1904727959
 20
4.10002587
 30
0.0
 10
6.1903151269
 20
4.1009730151
 30
0.0
  0
SPLINE
  5
33A
100
AcDbEntity
  8
ALL_ASSEMBLY_MEMBERS
100
AcDbSpline
 62
7
  6
CONTINUOUS
 70
0
 71
3
 72
11
 73
7
 74
0
 42
0.0000001
 43
0.0000001
 44
0.0000000001
 40
0.0
 40
0.0
 40
0.0
 40
0.0
 40
0.2397620563
 40
0.4265110569
 40
0.6169738302
 40
1.0
 40
1.0
 40
1.0
 40
1.0
 10
6.252484496
 20
4.0899409228
 30
0.0
 10
6.250093202
 20
4.0890233196
 30
0.0
 10
6.2456958429
 20
4.0877458667
 30
0.0
 10
6.2391699824
 20
4.0867408956
 30
0.0
 10
6.2310462174
 20
4.0863724204
 30
0.0
 10
6.2248976878
 20
4.0870659498
 30
0.0
 10
6.2209052807
 20
4.0879621175
 30
0.0
  0
SPLINE
  5
33B
100
AcDbEntity
  8
ALL_ASSEMBLY_MEMBERS
100
AcDbSpline
 62
7
  6
CONTINUOUS
 70
0
 71
3
 72
20
 73
16
 74
0
 42
0.0000001
 43
0.0000001
 44
0.0000000001
 40
0.0
 40
0.0
 40
0.0
 40
0.0
 40
0.0681716174
 40
0.1367134782
 40
0.2733631508
 40
0.4077203318
 40
0.5379576107
 40
0.601092777
 40
0.662702003
 40
0.7227066662
 40
0.7810895021
 40
0.8378821544
 40
0.8931815666
 40
0.9471490328
 40
1.0
 40
1.0
 40
1.0
 40
1.0
 10
6.2358065611
 20
4.0755679086
 30
0.0
 10
6.2345662582
 20
4.0755186794
 30
0.0
 10
6.2320748661
 20
4.0755013066
 30
0.0
 10
6.2271029536
 20
4.0757845719
 30
0.0
 10
6.2209738049
 20
4.0767311368
 30
0.0
 10
6.2139427802
 20
4.078791819
 30
0.0
 10
6.2084836105
 20
4.0812596604
 30
0.0
 10
6.2044987774
 20
4.0836501834
 30
0.0
 10
6.2017587327
 20
4.0856084559
 30
0.0
 10
6.1992612121
 20
4.0877370899
 30
0.0
 10
6.1970258502
 20
4.0900188648
 30
0.0
 10
6.1950718091
 20
4.0924371003
 30
0.0
 10
6.1934164267
 20
4.0949739368
 30
0.0
 10
6.192072504
 20
4.097608396
 30
0.0
 10
6.1913870803
 20
4.0994339993
 30
0.0
 10
6.1911022613
 20
4.100353203
 30
0.0
  0
SPLINE
  5
33C
100
AcDbEntity
  8
ALL_ASSEMBLY_MEMBERS
100
AcDbSpline
 62
7
  6
CONTINUOUS
 70
0
 71
3
 72
15
 73
11
 74
0
 42
0.0000001
 43
0.0000001
 44
0.0000000001
 40
0.0
 40
0.0
 40
0.0
 40
0.0
 40
0.1427932656
 40
0.281153202
 40
0.4147347126
 40
0.5432186323
 40
0.666268969
 40
0.7835670748
 40
0.8948670063
 40
1.0
 40
1.0
 40
1.0
 40
1.0
 10
6.8241867311
 20
4.5872915445
 30
0.0
 10
6.8221898115
 20
4.5862548766
 30
0.0
 10
6.8182775811
 20
4.584175578
 30
0.0
 10
6.8125773212
 20
4.5809786803
 30
0.0
 10
6.8071558557
 20
4.5777495773
 30
0.0
 10
6.8020371892
 20
4.5744883974
 30
0.0
 10
6.7972473588
 20
4.5711946712
 30
0.0
 10
6.7928140757
 20
4.5678677286
 30
0.0
 10
6.7887660907
 20
4.5645076869
 30
0.0
 10
6.7862711155
 20
4.5621786564
 30
0.0
 10
6.7851014015
 20
4.5610056377
 30
0.0
  0
SPLINE
  5
33D
100
AcDbEntity
  8
ALL_ASSEMBLY_MEMBERS
100
AcDbSpline
 62
7
  6
CONTINUOUS
 70
0
 71
3
 72
15
 73
11
 74
0
 42
0.0000001
 43
0.0000001
 44
0.0000000001
 40
0.0
 40
0.0
 40
0.0
 40
0.0
 40
0.1427954785
 40
0.2811540904
 40
0.4147376079
 40
0.5432247126
 40
0.6662707431
 40
0.7835679341
 40
0.8948704878
 40
1.0
 40
1.0
 40
1.0
 40
1.0
 10
6.8241869742
 20
3.85506094
 30
0.0
 10
6.8221900104
 20
3.8560976325
 30
0.0
 10
6.8182777629
 20
3.8581769964
 30
0.0
 10
6.8125774746
 20
3.8613740298
 30
0.0
 10
6.8071558888
 20
3.864603131
 30
0.0
 10
6.8020370217
 20
3.8678641027
 30
0.0
 10
6.7972471956
 20
3.8711578574
 30
0.0
 10
6.7928139983
 20
3.8744849092
 30
0.0
 10
6.7887659501
 20
3.8778448796
 30
0.0
 10
6.7862708705
 20
3.88017382
 30
0.0
 10
6.7851012131
 20
3.881346834
 30
0.0
  0
SPLINE
  5
33E
100
AcDbEntity
  8
ALL_ASSEMBLY_MEMBERS
100
AcDbSpline
 62
7
  6
CONTINUOUS
 70
0
 71
3
 72
25
 73
21
 74
0
 42
0.0000001
 43
0.0000001
 44
0.0000000001
 40
0.0
 40
0.0
 40
0.0
 40
0.0
 40
0.065408796
 40
0.1299838975
 40
0.1936638684
 40
0.2564216564
 40
0.3182868554
 40
0.3793615986
 40
0.4096665529
 40
0.4398532971
 40
0.5000000468
 40
0.5601467884
 40
0.590333533
 40
0.6206384793
 40
0.681713206
 40
0.7435783843
 40
0.8063361588
 40
0.870016108
 40
0.9345912027
 40
1.0
 40
1.0
 40
1.0
 40
1.0
 10
6.8241867311
 20
4.1230759427
 30
0.0
 10
6.8205294094
 20
4.1178887748
 30
0.0
 10
6.8134709965
 20
4.1074300266
 30
0.0
 10
6.8037238636
 20
4.0913538377
 30
0.0
 10
6.7950246697
 20
4.0749741233
 30
0.0
 10
6.7875466089
 20
4.0582852677
 30
0.0
 10
6.7814645104
 20
4.041302621
 30
0.0
 10
6.777700739
 20
4.0268923997
 30
0.0
 10
6.7755611918
 20
4.0152874474
 30
0.0
 10
6.7740262375
 20
4.0036781302
 30
0.0
 10
6.7732415556
 20
3.9890684283
 30
0.0
 10
6.774026244
 20
3.974458727
 30
0.0
 10
6.7755611956
 20
3.9628494111
 30
0.0
 10
6.7777007389
 20
3.9512444603
 30
0.0
 10
6.7814645185
 20
3.9368342457
 30
0.0
 10
6.7875466123
 20
3.9198516027
 30
0.0
 10
6.7950246736
 20
3.9031627531
 30
0.0
 10
6.803723865
 20
3.8867830421
 30
0.0
 10
6.8134709974
 20
3.870706856
 30
0.0
 10
6.8205294095
 20
3.860248108
 30
0.0
 10
6.8241867313
 20
3.85506094
 30
0.0
  0
SPLINE
  5
33F
100
AcDbEntity
  8
ALL_ASSEMBLY_MEMBERS
100
AcDbSpline
 62
7
  6
CONTINUOUS
 70
0
 71
3
 72
9
 73
5
 74
0
 42
0.0000001
 43
0.0000001
 44
0.0000000001
 40
0.0
 40
0.0
 40
0.0
 40
0.0
 40
0.5004346914
 40
1.0
 40
1.0
 40
1.0
 40
1.0
 10
6.8241876937
 20
4.4891912449
 30
0.0
 10
6.8184798298
 20
4.4781326431
 30
0.0
 10
6.8076823403
 20
4.455713153
 30
0.0
 10
6.7984444662
 20
4.4325936855
 30
0.0
 10
6.7943272652
 20
4.4208726189
 30
0.0
  0
SPLINE
  5
340
100
AcDbEntity
  8
ALL_ASSEMBLY_MEMBERS
100
AcDbSpline
 62
7
  6
CONTINUOUS
 70
0
 71
3
 72
25
 73
21
 74
0
 42
0.0000001
 43
0.0000001
 44
0.0000000001
 40
0.0
 40
0.0
 40
0.0
 40
0.0
 40
0.0625478089
 40
0.1250401104
 40
0.1562713198
 40
0.1874905589
 40
0.2186992304
 40
0.2499001356
 40
0.3122742789
 40
0.3746330993
 40
0.4369920927
 40
0.4993669064
 40
0.5305682026
 40
0.5617773689
 40
0.6242232891
 40
0.6867169773
 40
0.7492662713
 40
0.8118691354
 40
0.8745325354
 40
1.0
 40
1.0
 40
1.0
 40
1.0
 10
6.7934407512
 20
4.4183237347
 30
0.0
 10
6.7913620697
 20
4.4122869474
 30
0.0
 10
6.7874723793
 20
4.4001250566
 30
0.0
 10
6.7833543642
 20
4.3847066042
 30
0.0
 10
6.7805541717
 20
4.3722627242
 30
0.0
 10
6.7787104743
 20
4.3628805442
 30
0.0
 10
6.7771330878
 20
4.353452926
 30
0.0
 10
6.7753988004
 20
4.3408326087
 30
0.0
 10
6.773935248
 20
4.3249722297
 30
0.0
 10
6.7733581388
 20
4.3058711746
 30
0.0
 10
6.7739679082
 20
4.2867710625
 30
0.0
 10
6.7754578733
 20
4.2709130688
 30
0.0
 10
6.7772126226
 20
4.2582953584
 30
0.0
 10
6.779335938
 20
4.2457269979
 30
0.0
 10
6.7826549082
 20
4.2301284017
 30
0.0
 10
6.7876211364
 20
4.2116375886
 30
0.0
 10
6.7934811352
 20
4.1933946542
 30
0.0
 10
6.8001450179
 20
4.1754123677
 30
0.0
 10
6.8099871531
 20
4.1517811879
 30
0.0
 10
6.8183128656
 20
4.1344566509
 30
0.0
 10
6.8241869743
 20
4.1230759427
 30
0.0
  0
SPLINE
  5
341
100
AcDbEntity
  8
ALL_ASSEMBLY_MEMBERS
100
AcDbSpline
 62
7
  6
CONTINUOUS
 70
0
 71
3
 72
29
 73
25
 74
0
 42
0.0000001
 43
0.0000001
 44
0.0000000001
 40
0.0
 40
0.0
 40
0.0
 40
0.0
 40
0.0611224434
 40
0.0898282376
 40
0.1173600205
 40
0.169221857
 40
0.1938513002
 40
0.2178290704
 40
0.2413611654
 40
0.2646732775
 40
0.2880048186
 40
0.3115937058
 40
0.3356627752
 40
0.360414487
 40
0.3860253396
 40
0.4126349463
 40
0.469221576
 40
0.5307510134
 40
0.5973847865
 40
0.6690312682
 40
0.745458884
 40
0.8263343418
 40
0.9113011952
 40
1.0
 40
1.0
 40
1.0
 40
1.0
 10
6.7851014015
 20
4.5610056377
 30
0.0
 10
6.7836678981
 20
4.5595680845
 30
0.0
 10
6.7816503155
 20
4.5573604048
 30
0.0
 10
6.7792848574
 20
4.5542590429
 30
0.0
 10
6.7772965902
 20
4.5512675937
 30
0.0
 10
6.7756923566
 20
4.548187228
 30
0.0
 10
6.7745627646
 20
4.545042737
 30
0.0
 10
6.7739694727
 20
4.5427172383
 30
0.0
 10
6.7736190934
 20
4.5403870124
 30
0.0
 10
6.7735147144
 20
4.5380541306
 30
0.0
 10
6.7736588514
 20
4.5357215075
 30
0.0
 10
6.7740484219
 20
4.5333918949
 30
0.0
 10
6.7746803614
 20
4.5310674425
 30
0.0
 10
6.7755515137
 20
4.52875018
 30
0.0
 10
6.7766581897
 20
4.5264421969
 30
0.0
 10
6.778475251
 20
4.5233146046
 30
0.0
 10
6.7813353377
 20
4.5194325493
 30
0.0
 10
6.7855179714
 20
4.5149294961
 30
0.0
 10
6.7904549706
 20
4.5104838143
 30
0.0
 10
6.796082816
 20
4.5060962594
 30
0.0
 10
6.802337915
 20
4.50176609
 30
0.0
 10
6.8091580356
 20
4.4974912613
 30
0.0
 10
6.8164857569
 20
4.4932712469
 30
0.0
 10
6.8215719945
 20
4.4905486424
 30
0.0
 10
6.8241867313
 20
4.4891912449
 30
0.0
  0
SPLINE
  5
342
100
AcDbEntity
  8
0
100
AcDbSpline
 62
7
  6
CONTINUOUS
 70
0
 71
3
 72
9
 73
5
 74
0
 42
0.0000001
 43
0.0000001
 44
0.0000000001
 40
0.0
 40
0.0
 40
0.0
 40
0.0
 40
0.5075959133
 40
1.0
 40
1.0
 40
1.0
 40
1.0
 10
6.4176590023
 20
3.8710455359
 30
0.0
 10
6.350591035
 20
3.8759601321
 30
0.0
 10
6.2184157863
 20
3.8850165183
 30
0.0
 10
6.0861642329
 20
3.8928739718
 30
0.0
 10
6.0210281431
 20
3.8964673726
 30
0.0
  0
SPLINE
  5
343
100
AcDbEntity
  8
0
100
AcDbSpline
 62
7
  6
CONTINUOUS
 70
0
 71
3
 72
15
 73
11
 74
0
 42
0.0000001
 43
0.0000001
 44
0.0000000001
 40
0.0
 40
0.0
 40
0.0
 40
0.0
 40
0.1313416141
 40
0.2587577378
 40
0.3833109248
 40
0.50605651
 40
0.6280456489
 40
0.7503289421
 40
0.8739602177
 40
1.0
 40
1.0
 40
1.0
 40
1.0
 10
5.9003522007
 20
3.902814111
 30
0.0
 10
5.8097798805
 20
3.9073483389
 30
0.0
 10
5.6312909944
 20
3.9152795934
 30
0.0
 10
5.3667919862
 20
3.9245742003
 30
0.0
 10
5.1081709907
 20
3.931935254
 30
0.0
 10
4.8532715579
 20
3.938246503
 30
0.0
 10
4.5999359584
 20
3.9443928749
 30
0.0
 10
4.3460062612
 20
3.9512597463
 30
0.0
 10
4.0893254724
 20
3.9597320582
 30
0.0
 10
3.9170858527
 20
3.9669496721
 30
0.0
 10
3.8301590023
 20
3.9710828806
 30
0.0
  0
SPLINE
  5
344
100
AcDbEntity
  8
0
100
AcDbSpline
 62
7
  6
CONTINUOUS
 70
0
 71
3
 72
9
 73
5
 74
0
 42
0.0000001
 43
0.0000001
 44
0.0000000001
 40
0.0
 40
0.0
 40
0.0
 40
0.0
 40
0.2536776836
 40
1.0
 40
1.0
 40
1.0
 40
1.0
 10
6.2790128179
 20
4.5613446242
 30
0.0
 10
6.2572106518
 20
4.5598897106
 30
0.0
 10
6.1712576786
 20
4.5542840327
 30
0.0
 10
6.0852718215
 20
4.5491842211
 30
0.0
 10
6.0210844313
 20
4.5456456466
 30
0.0
  0
SPLINE
  5
345
100
AcDbEntity
  8
0
100
AcDbSpline
 62
7
  6
CONTINUOUS
 70
0
 71
3
 72
15
 73
11
 74
0
 42
0.0000001
 43
0.0000001
 44
0.0000000001
 40
0.0
 40
0.0
 40
0.0
 40
0.0
 40
0.1313480839
 40
0.2587753048
 40
0.3833409601
 40
0.5060971647
 40
0.6280918642
 40
0.7503724303
 40
0.8739894156
 40
1.0
 40
1.0
 40
1.0
 40
1.0
 10
5.9002815286
 20
4.5392970112
 30
0.0
 10
5.8098473865
 20
4.5347733459
 30
0.0
 10
5.6316276453
 20
4.5268589066
 30
0.0
 10
5.3675249324
 20
4.5175805594
 30
0.0
 10
5.1092881648
 20
4.5102307813
 30
0.0
 10
4.8547708721
 20
4.503930598
 30
0.0
 10
4.6018253131
 20
4.4977998651
 30
0.0
 10
4.3483035442
 20
4.4909579894
 30
0.0
 10
4.0920585441
 20
4.4825248032
 30
0.0
 10
3.9201194528
 20
4.475344913
 30
0.0
 10
3.8333490647
 20
4.4712341252
 30
0.0
  0
SPLINE
  5
346
100
AcDbEntity
  8
0
100
AcDbSpline
 62
7
  6
CONTINUOUS
 70
0
 71
3
 72
36
 73
32
 74
0
 42
0.0000001
 43
0.0000001
 44
0.0000000001
 40
0.0
 40
0.0
 40
0.0
 40
0.0
 40
0.2213871922
 40
0.3235039753
 40
0.4194607928
 40
0.5089297319
 40
0.5916457611
 40
0.6673682648
 40
0.7358536524
 40
0.7968618808
 40
0.850194655
 40
0.8739262583
 40
0.895671065
 40
0.9154063015
 40
0.9331091348
 40
0.9487578567
 40
0.9623401233
 40
0.9738480778
 40
0.9788217405
 40
0.9832738867
 40
0.9872035366
 40
0.9906097104
 40
0.9934914287
 40
0.9958477135
 40
0.9976775905
 40
0.9983948246
 40
0.9989800972
 40
0.9994332941
 40
0.9997543123
 40
0.9999430904
 40
1.0
 40
1.0
 40
1.0
 40
1.0
 10
6.8412255394
 20
4.7351865831
 30
0.0
 10
6.8482048465
 20
4.7406936795
 30
0.0
 10
6.8582954237
 20
4.7488791377
 30
0.0
 10
6.8711771146
 20
4.7597330639
 30
0.0
 10
6.8799251557
 20
4.7672703628
 30
0.0
 10
6.888013866
 20
4.7743784089
 30
0.0
 10
6.8954327691
 20
4.7810170658
 30
0.0
 10
6.9021733877
 20
4.7871495564
 30
0.0
 10
6.9082282236
 20
4.7927400714
 30
0.0
 10
6.9135919457
 20
4.7977534645
 30
0.0
 10
6.9176216458
 20
4.8015620264
 30
0.0
 10
6.9204945786
 20
4.8042989648
 30
0.0
 10
6.9223863524
 20
4.8061097717
 30
0.0
 10
6.9240996712
 20
4.807756883
 30
0.0
 10
6.9256336762
 20
4.8092372775
 30
0.0
 10
6.9269879249
 20
4.8105481148
 30
0.0
 10
6.9281617639
 20
4.8116876452
 30
0.0
 10
6.9290266639
 20
4.812529967
 30
0.0
 10
6.9296280615
 20
4.8131173464
 30
0.0
 10
6.9300113651
 20
4.8134924718
 30
0.0
 10
6.9303493164
 20
4.8138239533
 30
0.0
 10
6.9306418528
 20
4.8141116403
 30
0.0
 10
6.9308890226
 20
4.8143554479
 30
0.0
 10
6.9310905632
 20
4.8145550953
 30
0.0
 10
6.9312303774
 20
4.8146942151
 30
0.0
 10
6.9313187676
 20
4.8147830126
 30
0.0
 10
6.9313692778
 20
4.8148336809
 30
0.0
 10
6.9314052377
 20
4.8148711547
 30
0.0
 10
6.9314371993
 20
4.8149023005
 30
0.0
 10
6.9314440723
 20
4.8149132336
 30
0.0
 10
6.9314590174
 20
4.8149262603
 30
0.0
 10
6.9314567321
 20
4.814926241
 30
0.0
  0
SPLINE
  5
347
100
AcDbEntity
  8
0
100
AcDbSpline
 62
7
  6
CONTINUOUS
 70
0
 71
3
 72
15
 73
11
 74
0
 42
0.0000001
 43
0.0000001
 44
0.0000000001
 40
0.0
 40
0.0
 40
0.0
 40
0.0
 40
0.1322010312
 40
0.2611230439
 40
0.3873372276
 40
0.5114521622
 40
0.6341076794
 40
0.7559666015
 40
0.8777047628
 40
1.0
 40
1.0
 40
1.0
 40
1.0
 10
6.8412255394
 20
4.7351865831
 30
0.0
 10
6.8249585619
 20
4.7230539629
 30
0.0
 10
6.7920893332
 20
4.7000584542
 30
0.0
 10
6.7412221896
 20
4.6691921633
 30
0.0
 10
6.6894685923
 20
4.6424302099
 30
0.0
 10
6.6368321015
 20
4.619778632
 30
0.0
 10
6.5833150096
 20
4.6012410749
 30
0.0
 10
6.5289202696
 20
4.5868208656
 30
0.0
 10
6.4736565228
 20
4.5765203632
 30
0.0
 10
6.436381537
 20
4.5724163114
 30
0.0
 10
6.4176590023
 20
4.5710453893
 30
0.0
  0
SPLINE
  5
348
100
AcDbEntity
  8
0
100
AcDbSpline
 62
7
  6
CONTINUOUS
 70
0
 71
3
 72
26
 73
22
 74
0
 42
0.0000001
 43
0.0000001
 44
0.0000000001
 40
0.0
 40
0.0
 40
0.0
 40
0.0
 40
0.062538972
 40
0.1250768337
 40
0.1875482695
 40
0.2499778925
 40
0.2811939847
 40
0.312405441
 40
0.3436125716
 40
0.3748165748
 40
0.4372034512
 40
0.4995984024
 40
0.5620127723
 40
0.6244570412
 40
0.6869407147
 40
0.7182090189
 40
0.7494878781
 40
0.8120556632
 40
0.8746718098
 40
0.9373474701
 40
1.0
 40
1.0
 40
1.0
 40
1.0
 10
3.8301590023
 20
4.2209894142
 30
0.0
 10
3.816656604
 20
4.2209898938
 30
0.0
 10
3.7896336153
 20
4.2196586173
 30
0.0
 10
3.7495173831
 20
4.2137113103
 30
0.0
 10
3.7101997156
 20
4.2038591689
 30
0.0
 10
3.6784085713
 20
4.192483799
 30
0.0
 10
3.6537554064
 20
4.1815573494
 30
0.0
 10
3.6356882657
 20
4.1724685686
 30
0.0
 10
3.6180906112
 20
4.1625062637
 30
0.0
 10
3.5953150578
 20
4.1480927833
 30
0.0
 10
3.5682066249
 20
4.1280103085
 30
0.0
 10
3.5381986588
 20
4.1008421282
 30
0.0
 10
3.5109796173
 20
4.070860184
 30
0.0
 10
3.4868209432
 20
4.0383406386
 30
0.0
 10
3.4694264437
 20
4.0093807513
 30
0.0
 10
3.4572659564
 20
3.9852697997
 30
0.0
 10
3.4462928174
 20
3.960575923
 30
0.0
 10
3.4348667392
 20
3.9287234788
 30
0.0
 10
3.4249698465
 20
3.8893228503
 30
0.0
 10
3.4189966036
 20
3.8491236082
 30
0.0
 10
3.4176590023
 20
3.8220463007
 30
0.0
 10
3.4176590023
 20
3.8085193847
 30
0.0
  0
SPLINE
  5
349
100
AcDbEntity
  8
0
100
AcDbSpline
 62
7
  6
CONTINUOUS
 70
0
 71
3
 72
27
 73
23
 74
0
 42
0.0000001
 43
0.0000001
 44
0.0000000001
 40
0.0
 40
0.0
 40
0.0
 40
0.0
 40
0.0624708127
 40
0.1249798834
 40
0.1874647819
 40
0.2499438167
 40
0.2811948225
 40
0.3124467677
 40
0.3436989487
 40
0.3749514727
 40
0.4374398649
 40
0.4999300042
 40
0.562422108
 40
0.6249167568
 40
0.6561748721
 40
0.6874344398
 40
0.7186953584
 40
0.749956679
 40
0.8124590332
 40
0.8749707328
 40
0.9375047909
 40
1.0
 40
1.0
 40
1.0
 40
1.0
 10
3.8301590023
 20
4.4710827759
 30
0.0
 10
3.8092889681
 20
4.4700911862
 30
0.0
 10
3.767605161
 20
4.4660686828
 30
0.0
 10
3.7059789055
 20
4.4540238821
 30
0.0
 10
3.6458037621
 20
4.4360638309
 30
0.0
 10
3.5973344438
 20
4.4163237334
 30
0.0
 10
3.5598512305
 20
4.3977922454
 30
0.0
 10
3.5324320104
 20
4.3825535501
 30
0.0
 10
3.5057791359
 20
4.3660099392
 30
0.0
 10
3.4713525648
 20
4.3422713388
 30
0.0
 10
3.4305115502
 20
4.3095383865
 30
0.0
 10
3.3855058902
 20
4.2657476711
 30
0.0
 10
3.3448784056
 20
4.2178650885
 30
0.0
 10
3.3149731923
 20
4.1749067605
 30
0.0
 10
3.2935764787
 20
4.1389707438
 30
0.0
 10
3.2788223104
 20
4.1112792886
 30
0.0
 10
3.2653929783
 20
4.0829206996
 30
0.0
 10
3.2492886743
 20
4.0443175119
 30
0.0
 10
3.2325922912
 20
3.9947011169
 30
0.0
 10
3.2182061938
 20
3.9335543994
 30
0.0
 10
3.2095695913
 20
3.8713412529
 30
0.0
 10
3.2076478419
 20
3.8294995935
 30
0.0
 10
3.2076478419
 20
3.8085978567
 30
0.0
  0
SPLINE
  5
34A
100
AcDbEntity
  8
0
100
AcDbSpline
 62
7
  6
CONTINUOUS
 70
0
 71
3
 72
23
 73
19
 74
0
 42
0.0000001
 43
0.0000001
 44
0.0000000001
 40
0.0
 40
0.0
 40
0.0
 40
0.0
 40
0.0626344507
 40
0.1252188948
 40
0.1877264804
 40
0.2501452127
 40
0.3124992425
 40
0.3748308425
 40
0.4371539773
 40
0.4994983314
 40
0.5618728825
 40
0.6242970862
 40
0.6867727592
 40
0.7493063559
 40
0.811892666
 40
0.874548783
 40
0.9373002805
 40
1.0
 40
1.0
 40
1.0
 40
1.0
 10
3.8275850937
 20
3.9711943388
 30
0.0
 10
3.8215613092
 20
3.971429476
 30
0.0
 10
3.8095003871
 20
3.9715373174
 30
0.0
 10
3.7914483981
 20
3.9704732121
 30
0.0
 10
3.7735472467
 20
3.9680333588
 30
0.0
 10
3.7559275084
 20
3.9641292003
 30
0.0
 10
3.7387351484
 20
3.9586866555
 30
0.0
 10
3.7221329502
 20
3.9516640778
 30
0.0
 10
3.706289487
 20
3.9430629773
 30
0.0
 10
3.6913887035
 20
3.9329051875
 30
0.0
 10
3.6776102534
 20
3.9212525754
 30
0.0
 10
3.665141658
 20
3.9081879095
 30
0.0
 10
3.6541605851
 20
3.8938288998
 30
0.0
 10
3.644843304
 20
3.8783180184
 30
0.0
 10
3.637351499
 20
3.8618268405
 30
0.0
 10
3.6318371069
 20
3.8445479234
 30
0.0
 10
3.6284484073
 20
3.8267196274
 30
0.0
 10
3.6276701627
 20
3.8146325106
 30
0.0
 10
3.6276701627
 20
3.8085978567
 30
0.0
  0
SPLINE
  5
34B
100
AcDbEntity
  8
0
100
AcDbSpline
 62
7
  6
CONTINUOUS
 70
0
 71
3
 72
15
 73
11
 74
0
 42
0.0000001
 43
0.0000001
 44
0.0000000001
 40
0.0
 40
0.0
 40
0.0
 40
0.0
 40
0.1189455345
 40
0.2378205248
 40
0.3575941309
 40
0.4792308797
 40
0.6036002777
 40
0.7314951884
 40
0.8635086408
 40
1.0
 40
1.0
 40
1.0
 40
1.0
 10
6.8412255394
 20
3.7067816315
 30
0.0
 10
6.8466553357
 20
3.7110564753
 30
0.0
 10
6.8571136391
 20
3.7201248088
 30
0.0
 10
6.8714345609
 20
3.7352201749
 30
0.0
 10
6.8843041543
 20
3.751771818
 30
0.0
 10
6.895676345
 20
3.7697627104
 30
0.0
 10
6.9055324094
 20
3.7891553794
 30
0.0
 10
6.9138442278
 20
3.8099071315
 30
0.0
 10
6.9205928321
 20
3.8319519832
 30
0.0
 10
6.9239826263
 20
3.8471970479
 30
0.0
 10
6.925424104
 20
3.8549949767
 30
0.0
  0
SPLINE
  5
34C
100
AcDbEntity
  8
0
100
AcDbSpline
 62
7
  6
CONTINUOUS
 70
0
 71
3
 72
15
 73
11
 74
0
 42
0.0000001
 43
0.0000001
 44
0.0000000001
 40
0.0
 40
0.0
 40
0.0
 40
0.0
 40
0.1320745719
 40
0.2611608077
 40
0.3877118094
 40
0.5122083625
 40
0.635155357
 40
0.7570769349
 40
0.8785105169
 40
1.0
 40
1.0
 40
1.0
 40
1.0
 10
6.8412255394
 20
3.7067816315
 30
0.0
 10
6.8266257849
 20
3.7176789049
 30
0.0
 10
6.7971613918
 20
3.7384448437
 30
0.0
 10
6.751708776
 20
3.7666838003
 30
0.0
 10
6.7055470092
 20
3.7916251465
 30
0.0
 10
6.6586782804
 20
3.8132651387
 30
0.0
 10
6.611103595
 20
3.8316016205
 30
0.0
 10
6.5628241978
 20
3.8466324569
 30
0.0
 10
6.5138454405
 20
3.8583556319
 30
0.0
 10
6.4807783292
 20
3.8639567015
 30
0.0
 10
6.4641715463
 20
3.8662037846
 30
0.0
  0
SPLINE
  5
34D
100
AcDbEntity
  8
0
100
AcDbSpline
 62
7
  6
CONTINUOUS
 70
0
 71
3
 72
19
 73
15
 74
0
 42
0.0000001
 43
0.0000001
 44
0.0000000001
 40
0.0
 40
0.0
 40
0.0
 40
0.0
 40
0.0075272265
 40
0.0230026849
 40
0.0463692478
 40
0.0775678629
 40
0.1164885275
 40
0.1629665616
 40
0.2168353414
 40
0.277928388
 40
0.4209857288
 40
0.5903847571
 40
0.7841818689
 40
1.0
 40
1.0
 40
1.0
 40
1.0
 10
6.9313870886
 20
3.627488787
 30
0.0
 10
6.9311670065
 20
3.6276946965
 30
0.0
 10
6.9305045491
 20
3.6283346331
 30
0.0
 10
6.9291649763
 20
3.6296201028
 30
0.0
 10
6.9271431917
 20
3.6315636028
 30
0.0
 10
6.9244401461
 20
3.6341529418
 30
0.0
 10
6.9210613633
 20
3.6373745967
 30
0.0
 10
6.9170104448
 20
3.6412066504
 30
0.0
 10
6.9122940582
 20
3.6456269995
 30
0.0
 10
6.9047202841
 20
3.6526532865
 30
0.0
 10
6.8936585877
 20
3.6627211061
 30
0.0
 10
6.878450971
 20
3.6761246103
 30
0.0
 10
6.8607699556
 20
3.6911224051
 30
0.0
 10
6.8480151417
 20
3.7014362213
 30
0.0
 10
6.8412255394
 20
3.7067816315
 30
0.0
  0
SPLINE
  5
34E
100
AcDbEntity
  8
0
100
AcDbSpline
 62
7
  6
CONTINUOUS
 70
0
 71
3
 72
15
 73
11
 74
0
 42
0.0000001
 43
0.0000001
 44
0.0000000001
 40
0.0
 40
0.0
 40
0.0
 40
0.0
 40
0.1364212831
 40
0.2683927843
 40
0.3962715076
 40
0.520649227
 40
0.6423115099
 40
0.7621196248
 40
0.8810292011
 40
1.0
 40
1.0
 40
1.0
 40
1.0
 10
6.9253102851
 20
4.5873653238
 30
0.0
 10
6.9238598941
 20
4.5951372347
 30
0.0
 10
6.9204555481
 20
4.6103321501
 30
0.0
 10
6.9136959215
 20
4.6323051894
 30
0.0
 10
6.9053834154
 20
4.6529929156
 30
0.0
 10
6.8955372581
 20
4.6723302802
 30
0.0
 10
6.8841851173
 20
4.6902750601
 30
0.0
 10
6.8713455838
 20
4.7067900358
 30
0.0
 10
6.8570645183
 20
4.7218584295
 30
0.0
 10
6.8466382143
 20
4.7309156546
 30
0.0
 10
6.8412255394
 20
4.7351865831
 30
0.0
  0
ENDSEC
  0
SECTION
  2
OBJECTS
  0
DICTIONARY
  5
C
100
AcDbDictionary
280
0
281
1
  3
ACAD_GROUP
350
D
  3
ACAD_MLINESTYLE
350
17
  3
ACAD_LAYOUT
350
1A
  3
ACAD_PLOTSETTINGS
350
19
  3
ACAD_PLOTSTYLENAME
350
E
  0
DICTIONARY
  5
D
102
{ACAD_REACTORS
330
C
102
}
100
AcDbDictionary
280
0
281
1
  0
ACDBDICTIONARYWDFLT
  5
E
102
{ACAD_REACTORS
330
C
102
}
100
AcDbDictionary
281
1
  3
Normal
350
F
100
AcDbDictionaryWithDefault
340
F
  0
DICTIONARY
  5
17
102
{ACAD_REACTORS
330
C
102
}
100
AcDbDictionary
280
0
281
1
  3
Standard
350
18
  0
DICTIONARY
  5
19
102
{ACAD_REACTORS
330
C
102
}
100
AcDbDictionary
281
1
  0
DICTIONARY
  5
1A
102
{ACAD_REACTORS
330
C
102
}
100
AcDbDictionary
281
1
  3
Model
350
34F
  3
Layout1
350
350
  0
ACDBPLACEHOLDER
  5
F
102
{ACAD_REACTORS
330
E
102
}
  0
MLINESTYLE
  5
18
102
{ACAD_REACTORS
330
17
102
}
100
AcDbMlineStyle
  2
STANDARD
 70
0
  3

 62
256
 51
90.0
 52
90.0
 71
2
 49
0.5
 62
256
  6
BYLAYER
 49
-0.5
 62
256
  6
BYLAYER
  0
LAYOUT
  5
34F
102
{ACAD_REACTORS
330
1A
102
}
100
AcDbPlotSettings
  1

  2
none_device
  4
ANSI_A_(11.00_x_8.50_Inches)
  6

 40
0.0
 41
0.0
 42
0.0
 43
0.0
 44
279.4
 45
215.9
 46
0.0
 47
0.0
 48
0.0
 49
0.0
140
0.0
141
0.0
142
1.0
143
1.0
 70
1024
 72
0
 73
0
 74
0
  7

 75
0
147
1.0
148
0.0
149
0.0
100
AcDbLayout
  1
Model
 70
0
 71
0
 10
0.0
 20
0.0
 11
11.0
 21
8.5
 12
0.0
 22
0.0
 32
0.0
 14
0.0
 24
0.0
 34
0.0
 15
0.0
 25
0.0
 35
0.0
146
0.0
 13
0.0
 23
0.0
 33
0.0
 16
1.0
 26
0.0
 36
0.0
 17
0.0
 27
1.0
 37
0.0
 76
0
330
21C
345
0
346
0
  0
LAYOUT
  5
350
102
{ACAD_REACTORS
330
1A
102
}
100
AcDbPlotSettings
  1

  2
none_device
  4
ANSI_A_(11.00_x_8.50_Inches)
  6

 40
0.0
 41
0.0
 42
0.0
 43
0.0
 44
279.4
 45
215.9
 46
0.0
 47
0.0
 48
0.0
 49
0.0
140
0.0
141
0.0
142
1.0
143
1.0
 70
0
 72
0
 73
0
 74
0
  7

 75
0
147
1.0
148
0.0
149
0.0
100
AcDbLayout
  1
Layout1
 70
0
 71
1
 10
0.0
 20
0.0
 11
11.0
 21
8.5
 12
0.0
 22
0.0
 32
0.0
 14
0.0
 24
0.0
 34
0.0
 15
0.0
 25
0.0
 35
0.0
146
0.0
 13
0.0
 23
0.0
 33
0.0
 16
1.0
 26
0.0
 36
0.0
 17
0.0
 27
1.0
 37
0.0
 76
0
330
21D
345
0
346
0
  0
ENDSEC
  0
EOF
