999
DXF file: E:\BT Custom\CADOUTPUT\_RIGHT.dxf
999
Pro/ENGINEER 2018400 by Parametric Technology Corporation
  0
SECTION
  2
HEADER
  9
$ACADVER
  1
AC1018
  9
$DWGCODEPAGE
  3
ANSI_1252
  9
$EXTMAX
 10
22.0
 20
17.0
 30
0.0
  9
$EXTMIN
 10
0.0
 20
0.0
 30
0.0
  9
$LIMMIN
 10
0.0
 20
0.0
  9
$LIMMAX
 10
22.0
 20
17.0
  9
$VIEWCTR
 10
11.0
 20
8.5
  9
$VIEWSIZE
 40
17.0
  9
$CLAYER
  8
0
  9
$LTSCALE
 40
1.21
  9
$CELTYPE
  6
BYLAYER
  9
$DIMSCALE
 40
1.0
  9
$DIMASZ
 40
0.1
  9
$DIMEXO
 40
0.0625
  9
$DIMDLI
 40
0.836
  9
$DIMEXE
 40
0.125
  9
$DIMCEN
 40
0.198
  9
$DIMLFAC
 40
1.0
  9
$DIMBLK
  1
_FILLED
  9
$DIMALT
 70
1
  9
$DIMALTD
 70
2
  9
$DIMALTTD
 70
2
  9
$DIMALTF
 40
25.4
  9
$DIMTXT
 40
0.08
  9
$DIMTOL
 70
1
  9
$DIMLIM
 70
0
  9
$DIMTFAC
 40
1.0
  9
$DIMTP
 40
0.001
  9
$DIMTM
 40
0.001
  9
$DIMGAP
 40
0.09
  9
$DIMDSEP
 70
46
  9
$AUNITS
 70
0
  9
$PDMODE
 70
3
  9
$PDSIZE
 40
0.06
  9
$HANDSEED
  5
33B
  9
$TILEMODE
 70
1
  9
$MEASUREMENT
 70
0
  9
$INSUNITS
 70
1
  0
ENDSEC
  0
SECTION
  2
CLASSES
  0
CLASS
  1
ACDBDICTIONARYWDFLT
  2
AcDbDictionaryWithDefault
  3
AutoCAD 2000
 90
0
 91
1
280
0
281
0
  0
CLASS
  1
ACDBPLACEHOLDER
  2
AcDbPlaceHolder
  3
AutoCAD 2000
 90
0
 91
1
280
0
281
0
  0
CLASS
  1
LAYOUT
  2
AcDbLayout
  3
AutoCAD 2000
 90
0
 91
0
280
0
281
0
  0
ENDSEC
  0
SECTION
  2
TABLES
  0
TABLE
  2
VPORT
  5
8
100
AcDbSymbolTable
 70
2
  0
VPORT
  5
1F4
100
AcDbSymbolTableRecord
100
AcDbViewportTableRecord
  2
*ACTIVE
 70
0
 10
0.0
 20
0.0
 11
1.0
 21
1.0
 12
11.0
 22
8.5
 13
0.0
 23
0.0
 14
1.0
 24
1.0
 15
0.0
 25
0.0
 16
0.0
 26
0.0
 36
1.0
 17
0.0
 27
0.0
 37
0.0
 40
17.0
 41
1.2941176471
 42
50.0
 43
0.0
 44
0.0
 50
0.0
 51
0.0
 71
0
 72
100
 73
1
 74
1
 75
0
 76
0
 77
0
 78
0
  0
ENDTAB
  0
TABLE
  2
LTYPE
  5
5
100
AcDbSymbolTable
 70
6
  0
LTYPE
  5
14
100
AcDbSymbolTableRecord
100
AcDbLinetypeTableRecord
  2
BYBLOCK
 70
0
  3

 72
65
 73
0
 40
0.0
  0
LTYPE
  5
15
100
AcDbSymbolTableRecord
100
AcDbLinetypeTableRecord
  2
BYLAYER
 70
0
  3

 72
65
 73
0
 40
0.0
  0
LTYPE
  5
16
100
AcDbSymbolTableRecord
100
AcDbLinetypeTableRecord
  2
CONTINUOUS
 70
64
  3
Solid line
 72
65
 73
0
 40
0.0
  0
LTYPE
  5
1F5
100
AcDbSymbolTableRecord
100
AcDbLinetypeTableRecord
  2
CENTER
 70
64
  3
____ _ ____ _ ____ _ ____ _ ____ _ ____ _ ____
 72
65
 73
4
 40
0.6
 49
0.375
 74
0
 49
-0.075
 74
0
 49
0.075
 74
0
 49
-0.075
 74
0
  0
LTYPE
  5
1F6
100
AcDbSymbolTableRecord
100
AcDbLinetypeTableRecord
  2
HIDDEN
 70
64
  3
- - - - - - - - - - - - - - - - - - - -
 72
65
 73
2
 40
0.2
 49
0.1
 74
0
 49
-0.1
 74
0
  0
LTYPE
  5
1F7
100
AcDbSymbolTableRecord
100
AcDbLinetypeTableRecord
  2
PHANTOM
 70
64
  3
_____ _ _ _____ _ _ _____ _ _ _____
 72
65
 73
6
 40
0.8
 49
0.45
 74
0
 49
-0.05
 74
0
 49
0.1
 74
0
 49
-0.05
 74
0
 49
0.1
 74
0
 49
-0.05
 74
0
  0
LTYPE
  5
1F8
100
AcDbSymbolTableRecord
100
AcDbLinetypeTableRecord
  2
DOT
 70
64
  3
. . . . . . . . . . . . . . . . . . . .
 72
65
 73
2
 40
0.2
 49
0.1
 74
0
 49
-0.1
 74
0
  0
LTYPE
  5
1F9
100
AcDbSymbolTableRecord
100
AcDbLinetypeTableRecord
  2
DASHED
 70
64
  3
- - - - - - - - - - - - - - - - - - - -
 72
65
 73
2
 40
0.2
 49
0.1
 74
0
 49
-0.1
 74
0
  0
ENDTAB
  0
TABLE
  2
LAYER
  5
2
100
AcDbSymbolTable
 70
36
  0
LAYER
  5
10
100
AcDbSymbolTableRecord
100
AcDbLayerTableRecord
  2
0
 70
0
 62
7
  6
CONTINUOUS
370
-3
390
F
  0
LAYER
  5
1FA
100
AcDbSymbolTableRecord
100
AcDbLayerTableRecord
  2
DEFAULT_1
 70
0
 62
7
  6
CENTER
370
-3
390
F
  0
LAYER
  5
1FB
100
AcDbSymbolTableRecord
100
AcDbLayerTableRecord
  2
DEFAULT_2
 70
0
 62
8
  6
HIDDEN
370
-3
390
F
  0
LAYER
  5
1FC
100
AcDbSymbolTableRecord
100
AcDbLayerTableRecord
  2
DEFAULT_3
 70
0
 62
7
  6
PHANTOM
370
-3
390
F
  0
LAYER
  5
1FD
100
AcDbSymbolTableRecord
100
AcDbLayerTableRecord
  2
ALL_FEATURES
 70
0
 62
7
  6
CONTINUOUS
370
-3
390
F
  0
LAYER
  5
1FE
100
AcDbSymbolTableRecord
100
AcDbLayerTableRecord
  2
AXES_FEATURES
 70
0
 62
7
  6
CONTINUOUS
370
-3
390
F
  0
LAYER
  5
1FF
100
AcDbSymbolTableRecord
100
AcDbLayerTableRecord
  2
DIMENSIONS
 70
0
 62
7
  6
CONTINUOUS
370
-3
390
F
  0
ENDTAB
  0
TABLE
  2
STYLE
  5
3
100
AcDbSymbolTable
 70
1
  0
STYLE
  5
11
100
AcDbSymbolTableRecord
100
AcDbTextStyleTableRecord
  2
STANDARD
 70
0
 40
0.0
 41
0.8
 50
0.0
 71
0
 42
0.2
  3
txt
  4

  0
STYLE
  5
200
100
AcDbSymbolTableRecord
100
AcDbTextStyleTableRecord
  2
TEXTSTYLE_1
 70
0
 40
0.0
 41
0.8
 50
0.0
 71
0
 42
0.2
  3
gdt
  4

  0
ENDTAB
  0
TABLE
  2
VIEW
  5
6
100
AcDbSymbolTable
 70
0
  0
ENDTAB
  0
TABLE
  2
UCS
  5
7
100
AcDbSymbolTable
 70
0
  0
ENDTAB
  0
TABLE
  2
APPID
  5
9
100
AcDbSymbolTable
 70
1
  0
APPID
  5
201
100
AcDbSymbolTableRecord
100
AcDbRegAppTableRecord
  2
ACAD
 70
0
  0
ENDTAB
  0
TABLE
  2
BLOCK_RECORD
  5
1
100
AcDbSymbolTable
 70
0
  0
BLOCK_RECORD
  5
202
100
AcDbSymbolTableRecord
100
AcDbBlockTableRecord
  2
*Model_Space
  0
BLOCK_RECORD
  5
203
100
AcDbSymbolTableRecord
100
AcDbBlockTableRecord
  2
*Paper_Space
  0
BLOCK_RECORD
  5
204
100
AcDbSymbolTableRecord
100
AcDbBlockTableRecord
  2
_FILLED
  0
ENDTAB
  0
TABLE
  2
DIMSTYLE
  5
A
100
AcDbSymbolTable
 70
1
100
AcDbDimStyleTable
 71
0
  0
DIMSTYLE
105
205
100
AcDbSymbolTableRecord
100
AcDbDimStyleTableRecord
  2
STANDARD
 70
0
  3

  4

 40
1.0
 41
0.1
 42
0.0625
 43
0.38
 44
0.125
 45
0.0
 46
0.0
 47
0.001
 48
0.001
140
0.08
141
0.09
142
0.0
143
25.4
144
1.0
145
0.0
146
1.0
147
0.09
 71
1.0
 72
0.0
 73
1
 74
1
 75
0
 76
0
 77
0
 78
4
 79
1
170
1
171
2
172
0
173
0
174
0
175
0
176
0
177
0
178
0
270
2
179
3
271
3
272
3
273
2
274
2
275
0
280
0
281
0
282
0
283
1
284
4
285
0
286
0
287
3
288
0
340
11
278
46
341
204
342
204
343
204
344
204
  0
ENDTAB
  0
ENDSEC
  0
SECTION
  2
BLOCKS
  0
BLOCK
  5
20
100
AcDbEntity
  8
0
100
AcDbBlockBegin
  2
*Model_Space
 70
0
 10
0.0
 20
0.0
 30
0.0
  3
*Model_Space
  1

  0
ENDBLK
  5
21
100
AcDbEntity
  8
0
100
AcDbBlockEnd
  0
BLOCK
  5
1C
100
AcDbEntity
  8
0
100
AcDbBlockBegin
  2
*Paper_Space
 70
0
 10
0.0
 20
0.0
 30
0.0
  3
*Paper_Space
  1

  0
ENDBLK
  5
1D
100
AcDbEntity
  8
0
100
AcDbBlockEnd
  0
BLOCK
  5
206
100
AcDbEntity
  8
0
100
AcDbBlockBegin
  2
_FILLED
 70
64
 10
0.0
 20
0.0
  3
_FILLED
  1

  0
SOLID
  5
207
100
AcDbEntity
  8
0
  6
BYBLOCK
 62
0
100
AcDbTrace
 10
0.0
 20
0.0
 11
-1.0
 21
0.2
 12
-1.0
 22
-0.2
 13
-1.0
 23
-0.2
  0
ENDBLK
  5
208
100
AcDbEntity
  8
0
  6
BYBLOCK
 62
0
100
AcDbBlockEnd
  0
ENDSEC
  0
SECTION
  2
ENTITIES
  0
LINE
  5
209
100
AcDbEntity
  8
0
100
AcDbLine
 62
7
  6
CONTINUOUS
 10
7.0709834891
 20
9.078891804
 11
7.0709834891
 21
9.174891804
  0
LINE
  5
20A
100
AcDbEntity
  8
0
100
AcDbLine
 62
9
  6
CONTINUOUS
 10
7.1309834891
 20
9.234891804
 11
7.1309834891
 21
9.078891804
  0
LINE
  5
20B
100
AcDbEntity
  8
0
100
AcDbLine
 62
9
  6
CONTINUOUS
 10
7.4287235216
 20
9.174891804
 11
7.4287235216
 21
9.234891804
  0
LINE
  5
20C
100
AcDbEntity
  8
0
100
AcDbLine
 62
7
  6
CONTINUOUS
 10
7.3881158642
 20
10.310310695
 11
7.2072329866
 21
9.2844729202
  0
LINE
  5
20D
100
AcDbEntity
  8
0
100
AcDbLine
 62
9
  6
CONTINUOUS
 10
8.06907344
 20
9.1771571353
 11
8.0686516641
 21
9.2360244075
  0
LINE
  5
20E
100
AcDbEntity
  8
0
100
AcDbLine
 62
9
  6
CONTINUOUS
 10
8.144496934
 20
9.1748921301
 11
8.144496934
 21
9.234891804
  0
LINE
  5
20F
100
AcDbEntity
  8
0
100
AcDbLine
 62
9
  6
CONTINUOUS
 10
8.1689834891
 20
9.078891804
 11
8.1689834891
 21
9.234891804
  0
LINE
  5
210
100
AcDbEntity
  8
0
100
AcDbLine
 62
7
  6
CONTINUOUS
 10
8.2289834891
 20
9.1776936205
 11
8.2289834891
 21
9.078891804
  0
LINE
  5
211
100
AcDbEntity
  8
0
100
AcDbLine
 62
7
  6
CONTINUOUS
 10
11.7889834891
 20
7.109891804
 11
14.2889834891
 21
7.109891804
  0
LINE
  5
212
100
AcDbEntity
  8
0
100
AcDbLine
 62
9
  6
CONTINUOUS
 10
14.2289834891
 20
7.2850389903
 11
14.1839834891
 21
7.2850389903
  0
LINE
  5
213
100
AcDbEntity
  8
0
100
AcDbLine
 62
9
  6
CONTINUOUS
 10
11.8939834891
 20
7.2850389903
 11
11.8489834891
 21
7.2850389903
  0
LINE
  5
214
100
AcDbEntity
  8
0
100
AcDbLine
 62
9
  6
CONTINUOUS
 10
14.1239834891
 20
7.2892692266
 11
11.9539834891
 21
7.2892692266
  0
LINE
  5
215
100
AcDbEntity
  8
0
100
AcDbLine
 62
9
  6
CONTINUOUS
 10
14.1239835564
 20
7.3623701839
 11
11.953983531
 21
7.3623701839
  0
LINE
  5
216
100
AcDbEntity
  8
0
100
AcDbLine
 62
9
  6
CONTINUOUS
 10
14.2289835087
 20
7.3629812761
 11
14.2221002002
 21
7.3629812761
  0
LINE
  5
217
100
AcDbEntity
  8
0
100
AcDbLine
 62
9
  6
CONTINUOUS
 10
11.8558667781
 20
7.3629812761
 11
11.8489835755
 21
7.3629812761
  0
LINE
  5
218
100
AcDbEntity
  8
0
100
AcDbLine
 62
9
  6
CONTINUOUS
 10
11.9539835449
 20
7.38673717
 11
14.1239834281
 21
7.38673717
  0
LINE
  5
219
100
AcDbEntity
  8
0
100
AcDbLine
 62
9
  6
CONTINUOUS
 10
14.3489834891
 20
7.489891804
 11
11.7289834891
 21
7.489891804
  0
LINE
  5
21A
100
AcDbEntity
  8
0
100
AcDbLine
 62
7
  6
CONTINUOUS
 10
11.7589834891
 20
7.519891804
 11
14.3189834891
 21
7.519891804
  0
LINE
  5
21B
100
AcDbEntity
  8
0
100
AcDbLine
 62
7
  6
CONTINUOUS
 10
12.1664834891
 20
7.529891804
 11
13.9114834891
 21
7.529891804
  0
LINE
  5
21C
100
AcDbEntity
  8
0
100
AcDbLine
 62
9
  6
CONTINUOUS
 10
14.0609834891
 20
7.677391804
 11
13.9114834891
 21
7.677391804
  0
LINE
  5
21D
100
AcDbEntity
  8
0
100
AcDbLine
 62
9
  6
CONTINUOUS
 10
12.1664834891
 20
7.677391804
 11
12.0169834891
 21
7.677391804
  0
LINE
  5
21E
100
AcDbEntity
  8
0
100
AcDbLine
 62
9
  6
CONTINUOUS
 10
13.9114834891
 20
7.687391804
 11
12.1664834891
 21
7.687391804
  0
LINE
  5
21F
100
AcDbEntity
  8
0
100
AcDbLine
 62
7
  6
CONTINUOUS
 10
12.0469834891
 20
7.707391804
 11
12.1745794217
 21
7.707391804
  0
LINE
  5
220
100
AcDbEntity
  8
0
100
AcDbLine
 62
7
  6
CONTINUOUS
 10
13.9034317358
 20
7.707391804
 11
14.0309834891
 21
7.707391804
  0
LINE
  5
221
100
AcDbEntity
  8
0
100
AcDbLine
 62
7
  6
CONTINUOUS
 10
12.1964834891
 20
7.717391804
 11
13.8814834891
 21
7.717391804
  0
LINE
  5
222
100
AcDbEntity
  8
0
100
AcDbLine
 62
9
  6
CONTINUOUS
 10
12.1705045067
 20
7.7321823587
 11
12.2919578885
 21
7.7321823587
  0
LINE
  5
223
100
AcDbEntity
  8
0
100
AcDbLine
 62
9
  6
CONTINUOUS
 10
13.7860065392
 20
7.7321823587
 11
13.9074624716
 21
7.7321823587
  0
LINE
  5
224
100
AcDbEntity
  8
0
100
AcDbLine
 62
9
  6
CONTINUOUS
 10
12.3550045068
 20
7.7421823587
 11
13.7229624714
 21
7.7421823587
  0
LINE
  5
225
100
AcDbEntity
  8
0
100
AcDbLine
 62
7
  6
CONTINUOUS
 10
7.0709834891
 20
9.078891804
 11
8.2289834891
 21
9.078891804
  0
LINE
  5
226
100
AcDbEntity
  8
0
100
AcDbLine
 62
9
  6
CONTINUOUS
 10
8.2289834891
 20
9.174891804
 11
8.144496889
 21
9.1748924561
  0
LINE
  5
227
100
AcDbEntity
  8
0
100
AcDbLine
 62
9
  6
CONTINUOUS
 10
7.4287235216
 20
9.174892484
 11
7.0709834891
 21
9.174891804
  0
LINE
  5
228
100
AcDbEntity
  8
0
100
AcDbLine
 62
7
  6
CONTINUOUS
 10
8.1689834891
 20
9.234891804
 11
8.1444971515
 21
9.234891804
  0
LINE
  5
229
100
AcDbEntity
  8
0
100
AcDbLine
 62
7
  6
CONTINUOUS
 10
7.1309834891
 20
9.234891804
 11
7.4287235216
 21
9.234891804
  0
LINE
  5
22A
100
AcDbEntity
  8
0
100
AcDbLine
 62
9
  6
CONTINUOUS
 10
13.4362231771
 20
9.3683527936
 11
12.6417445837
 21
9.3683523847
  0
LINE
  5
22B
100
AcDbEntity
  8
0
100
AcDbLine
 62
9
  6
CONTINUOUS
 10
12.6417432863
 20
9.4698452119
 11
13.4362237172
 21
9.4698452119
  0
LINE
  5
22C
100
AcDbEntity
  8
0
100
AcDbLine
 62
9
  6
CONTINUOUS
 10
12.6417383738
 20
9.498466325
 11
13.4362273204
 21
9.4984663508
  0
LINE
  5
22D
100
AcDbEntity
  8
0
100
AcDbLine
 62
7
  6
CONTINUOUS
 10
8.5039952194
 20
9.609891804
 11
11.5486916844
 21
9.609891804
  0
LINE
  5
22E
100
AcDbEntity
  8
0
100
AcDbLine
 62
9
  6
CONTINUOUS
 10
13.5779834891
 20
9.625391804
 11
12.4999834891
 21
9.625391804
  0
LINE
  5
22F
100
AcDbEntity
  8
0
100
AcDbLine
 62
7
  6
CONTINUOUS
 10
12.5299834891
 20
9.655391804
 11
13.5479834891
 21
9.655391804
  0
LINE
  5
230
100
AcDbEntity
  8
0
100
AcDbLine
 62
7
  6
CONTINUOUS
 10
12.7264840958
 20
9.686391804
 11
13.3514828825
 21
9.686391804
  0
LINE
  5
231
100
AcDbEntity
  8
0
100
AcDbLine
 62
7
  6
CONTINUOUS
 10
11.7289834891
 20
7.3889620388
 11
11.7289834891
 21
7.489891804
  0
LINE
  5
232
100
AcDbEntity
  8
0
100
AcDbLine
 62
9
  6
CONTINUOUS
 10
11.7889834891
 20
7.519891804
 11
11.7889834893
 21
7.392856244
  0
LINE
  5
233
100
AcDbEntity
  8
0
100
AcDbLine
 62
7
  6
CONTINUOUS
 10
11.7889834891
 20
7.109891804
 11
11.7889834891
 21
7.2850389903
  0
LINE
  5
234
100
AcDbEntity
  8
0
100
AcDbLine
 62
9
  6
CONTINUOUS
 10
13.3514831441
 20
9.991391804
 11
12.7264834891
 21
9.991391804
  0
LINE
  5
235
100
AcDbEntity
  8
0
100
AcDbLine
 62
7
  6
CONTINUOUS
 10
13.3524834891
 20
10.051391804
 11
13.2401649992
 21
10.051391804
  0
LINE
  5
236
100
AcDbEntity
  8
0
100
AcDbLine
 62
7
  6
CONTINUOUS
 10
12.837801979
 20
10.051391804
 11
12.7254834891
 21
10.051391804
  0
LINE
  5
237
100
AcDbEntity
  8
0
100
AcDbLine
 62
9
  6
CONTINUOUS
 10
12.6954834891
 20
10.081391804
 11
12.837801979
 21
10.081391804
  0
LINE
  5
238
100
AcDbEntity
  8
0
100
AcDbLine
 62
9
  6
CONTINUOUS
 10
13.2401649994
 20
10.081391804
 11
13.3824834891
 21
10.081391804
  0
LINE
  5
239
100
AcDbEntity
  8
0
100
AcDbLine
 62
9
  6
CONTINUOUS
 10
13.2589834892
 20
10.0848918041
 11
12.8189834891
 21
10.0848918041
  0
LINE
  5
23A
100
AcDbEntity
  8
0
100
AcDbLine
 62
7
  6
CONTINUOUS
 10
11.8439834891
 20
7.38673717
 11
11.8439834891
 21
7.489891804
  0
LINE
  5
23B
100
AcDbEntity
  8
0
100
AcDbLine
 62
9
  6
CONTINUOUS
 10
11.8489834891
 20
7.109891804
 11
11.8489835755
 21
7.3705629098
  0
LINE
  5
23C
100
AcDbEntity
  8
0
100
AcDbLine
 62
7
  6
CONTINUOUS
 10
11.8939834891
 20
7.109891804
 11
11.8939834891
 21
7.2892692266
  0
LINE
  5
23D
100
AcDbEntity
  8
0
100
AcDbLine
 62
9
  6
CONTINUOUS
 10
11.9039834891
 20
7.519891804
 11
11.9039834892
 21
7.3894076569
  0
LINE
  5
23E
100
AcDbEntity
  8
0
100
AcDbLine
 62
9
  6
CONTINUOUS
 10
11.9539834891
 20
7.109891804
 11
11.953983531
 21
7.38673717
  0
LINE
  5
23F
100
AcDbEntity
  8
0
100
AcDbLine
 62
7
  6
CONTINUOUS
 10
12.0169834891
 20
7.519891804
 11
12.0169834891
 21
7.677391804
  0
LINE
  5
240
100
AcDbEntity
  8
0
100
AcDbLine
 62
9
  6
CONTINUOUS
 10
12.0769834891
 20
7.707391804
 11
12.0769834891
 21
7.519891804
  0
LINE
  5
241
100
AcDbEntity
  8
0
100
AcDbLine
 62
9
  6
CONTINUOUS
 10
11.9101189372
 20
7.3626279458
 11
11.9121651809
 21
7.3883191656
  0
LINE
  5
242
100
AcDbEntity
  8
0
100
AcDbLine
 62
9
  6
CONTINUOUS
 10
11.7974213202
 20
7.3638295551
 11
11.8002340773
 21
7.3912378354
  0
LINE
  5
243
100
AcDbEntity
  8
0
100
AcDbLine
 62
9
  6
CONTINUOUS
 10
11.7841984004
 20
7.3647569972
 11
11.7889834654
 21
7.3928562577
  0
LWPOLYLINE
  5
244
100
AcDbEntity
  8
0
100
AcDbPolyline
 62
7
  6
CONTINUOUS
 90
4
 70
0
 10
13.3721503207
 20
10.0367016379
 10
13.3758583518
 20
10.0405510487
 10
13.3807745344
 20
10.0493742108
 10
13.3824836978
 20
10.0592587965
  0
LINE
  5
245
100
AcDbEntity
  8
0
100
AcDbLine
 62
7
  6
CONTINUOUS
 10
13.3721504583
 20
10.0367012029
 11
13.3721478076
 21
10.0366985964
  0
LINE
  5
246
100
AcDbEntity
  8
0
100
AcDbLine
 62
7
  6
CONTINUOUS
 10
13.2589834892
 20
10.144891804
 11
12.818983489
 21
10.144891804
  0
LINE
  5
247
100
AcDbEntity
  8
0
100
AcDbLine
 62
9
  6
CONTINUOUS
 10
12.7289834891
 20
10.174891804
 11
13.3489834891
 21
10.174891804
  0
LINE
  5
248
100
AcDbEntity
  8
0
100
AcDbLine
 62
9
  6
CONTINUOUS
 10
13.4528688861
 20
10.3103106947
 11
13.3824834891
 21
10.3103106947
  0
LINE
  5
249
100
AcDbEntity
  8
0
100
AcDbLine
 62
9
  6
CONTINUOUS
 10
12.6954834891
 20
10.3103106946
 11
12.5668351746
 21
10.3103106946
  0
LINE
  5
24A
100
AcDbEntity
  8
0
100
AcDbLine
 62
7
  6
CONTINUOUS
 10
7.4472043291
 20
10.359891804
 11
12.6954834891
 21
10.359891804
  0
LINE
  5
24B
100
AcDbEntity
  8
0
100
AcDbLine
 62
7
  6
CONTINUOUS
 10
13.3824834891
 20
10.359891804
 11
13.4528688862
 21
10.359891804
  0
LINE
  5
24C
100
AcDbEntity
  8
0
100
AcDbLine
 62
7
  6
CONTINUOUS
 10
12.5668351746
 20
10.3103106963
 11
12.5651868984
 21
10.3103256028
  0
LINE
  5
24D
100
AcDbEntity
  8
0
100
AcDbLine
 62
7
  6
CONTINUOUS
 10
12.1664834891
 20
7.529891804
 11
12.1664834891
 21
7.687391804
  0
LINE
  5
24E
100
AcDbEntity
  8
0
100
AcDbLine
 62
9
  6
CONTINUOUS
 10
12.1705045032
 20
7.7321823587
 11
12.1705045032
 21
7.707391804
  0
LINE
  5
24F
100
AcDbEntity
  8
0
100
AcDbLine
 62
9
  6
CONTINUOUS
 10
12.2264834891
 20
7.717391804
 11
12.2264834891
 21
7.529891804
  0
LINE
  5
250
100
AcDbEntity
  8
0
100
AcDbLine
 62
7
  6
CONTINUOUS
 10
12.2889834891
 20
7.519891804
 11
12.2889834891
 21
7.529891804
  0
LINE
  5
251
100
AcDbEntity
  8
0
100
AcDbLine
 62
9
  6
CONTINUOUS
 10
12.3550045069
 20
7.7421823587
 11
12.3550045069
 21
7.717391804
  0
LINE
  5
252
100
AcDbEntity
  8
0
100
AcDbLine
 62
9
  6
CONTINUOUS
 10
12.3529465287
 20
8.9666136802
 11
12.5668351746
 21
10.3103106946
  0
LINE
  5
253
100
AcDbEntity
  8
0
100
AcDbLine
 62
9
  6
CONTINUOUS
 10
11.899333124
 20
7.362946411
 11
11.9039834788
 21
7.3894076645
  0
LINE
  5
254
100
AcDbEntity
  8
0
100
AcDbLine
 62
7
  6
CONTINUOUS
 10
12.2872974991
 20
8.7296556708
 11
12.1114160417
 21
7.7321823587
  0
LINE
  5
255
100
AcDbEntity
  8
0
100
AcDbLine
 62
9
  6
CONTINUOUS
 10
12.1705045067
 20
7.7321823587
 11
12.3463868939
 21
8.7296609429
  0
LINE
  5
256
100
AcDbEntity
  8
0
100
AcDbLine
 62
9
  6
CONTINUOUS
 10
13.3489834891
 20
10.614891804
 11
12.7289834891
 21
10.614891804
  0
LINE
  5
257
100
AcDbEntity
  8
0
100
AcDbLine
 62
7
  6
CONTINUOUS
 10
12.8189834891
 20
10.644891804
 11
13.2589834893
 21
10.644891804
  0
LINE
  5
258
100
AcDbEntity
  8
0
100
AcDbLine
 62
7
  6
CONTINUOUS
 10
12.4999834891
 20
9.4984663276
 11
12.4999834891
 21
9.625391804
  0
LINE
  5
259
100
AcDbEntity
  8
0
100
AcDbLine
 62
9
  6
CONTINUOUS
 10
12.5189834891
 20
7.529891804
 11
12.5189834891
 21
7.519891804
  0
LINE
  5
25A
100
AcDbEntity
  8
0
100
AcDbLine
 62
9
  6
CONTINUOUS
 10
12.5599834891
 20
9.655391804
 11
12.5599834892
 21
9.5035964961
  0
LINE
  5
25B
100
AcDbEntity
  8
0
100
AcDbLine
 62
9
  6
CONTINUOUS
 10
12.6417382094
 20
9.4984663379
 11
12.6417432863
 21
9.3683534681
  0
LINE
  5
25C
100
AcDbEntity
  8
0
100
AcDbLine
 62
9
  6
CONTINUOUS
 10
12.5599835315
 20
9.5035964951
 11
12.5585688478
 21
9.4736925562
  0
LINE
  5
25D
100
AcDbEntity
  8
0
100
AcDbLine
 62
7
  6
CONTINUOUS
 10
12.582653679
 20
9.3683523086
 11
12.2959160417
 21
7.7421823587
  0
LINE
  5
25E
100
AcDbEntity
  8
0
100
AcDbLine
 62
9
  6
CONTINUOUS
 10
12.3550045068
 20
7.7421823587
 11
12.6417445837
 21
9.3683523847
  0
LINE
  5
25F
100
AcDbEntity
  8
0
100
AcDbLine
 62
9
  6
CONTINUOUS
 10
12.8189834891
 20
10.704891804
 11
13.2589834892
 21
10.704891804
  0
LINE
  5
260
100
AcDbEntity
  8
0
100
AcDbLine
 62
9
  6
CONTINUOUS
 10
13.3824834891
 20
10.708391804
 11
12.6954834891
 21
10.708391804
  0
LINE
  5
261
100
AcDbEntity
  8
0
100
AcDbLine
 62
7
  6
CONTINUOUS
 10
12.7254834891
 20
10.738391804
 11
13.3524834891
 21
10.738391804
  0
LINE
  5
262
100
AcDbEntity
  8
0
100
AcDbLine
 62
9
  6
CONTINUOUS
 10
13.3514834891
 20
10.879891804
 11
12.7264834891
 21
10.879891804
  0
LINE
  5
263
100
AcDbEntity
  8
0
100
AcDbLine
 62
7
  6
CONTINUOUS
 10
12.7564834891
 20
10.909891804
 11
13.3214834891
 21
10.909891804
  0
LINE
  5
264
100
AcDbEntity
  8
0
100
AcDbLine
 62
7
  6
CONTINUOUS
 10
12.6954834891
 20
10.0593550294
 11
12.6954834891
 21
10.708391804
  0
LINE
  5
265
100
AcDbEntity
  8
0
100
AcDbLine
 62
9
  6
CONTINUOUS
 10
12.7254834891
 20
10.738391804
 11
12.7254834891
 21
10.051391804
  0
LINE
  5
266
100
AcDbEntity
  8
0
100
AcDbLine
 62
7
  6
CONTINUOUS
 10
12.7264834891
 20
9.991391804
 11
12.7264834891
 21
9.686391804
  0
LINE
  5
267
100
AcDbEntity
  8
0
100
AcDbLine
 62
7
  6
CONTINUOUS
 10
12.7264834891
 20
10.738391804
 11
12.7264834891
 21
10.879891804
  0
LINE
  5
268
100
AcDbEntity
  8
0
100
AcDbLine
 62
9
  6
CONTINUOUS
 10
12.7289834891
 20
10.174891804
 11
12.7289834891
 21
10.6148918041
  0
LINE
  5
269
100
AcDbEntity
  8
0
100
AcDbLine
 62
7
  6
CONTINUOUS
 10
12.7859834891
 20
9.655391804
 11
12.7859834891
 21
9.686391804
  0
LINE
  5
26A
100
AcDbEntity
  8
0
100
AcDbLine
 62
9
  6
CONTINUOUS
 10
12.7864834891
 20
10.909891804
 11
12.7864834891
 21
10.738391804
  0
LINE
  5
26B
100
AcDbEntity
  8
0
100
AcDbLine
 62
7
  6
CONTINUOUS
 10
12.7889834891
 20
10.174891804
 11
12.7889834891
 21
10.6148918042
  0
LINE
  5
26C
100
AcDbEntity
  8
0
100
AcDbLine
 62
9
  6
CONTINUOUS
 10
12.8189834891
 20
10.704891804
 11
12.8189834891
 21
10.0848918041
  0
LINE
  5
26D
100
AcDbEntity
  8
0
100
AcDbLine
 62
9
  6
CONTINUOUS
 10
12.8378019813
 20
10.051391804
 11
12.8378019813
 21
10.081391804
  0
LINE
  5
26E
100
AcDbEntity
  8
0
100
AcDbLine
 62
9
  6
CONTINUOUS
 10
13.2401649993
 20
10.081391804
 11
13.2401649993
 21
10.051391804
  0
LINE
  5
26F
100
AcDbEntity
  8
0
100
AcDbLine
 62
9
  6
CONTINUOUS
 10
13.2589834891
 20
10.0848918041
 11
13.2589834891
 21
10.704891804
  0
LINE
  5
270
100
AcDbEntity
  8
0
100
AcDbLine
 62
7
  6
CONTINUOUS
 10
13.2889834891
 20
10.6148918041
 11
13.2889834891
 21
10.1748918039
  0
LINE
  5
271
100
AcDbEntity
  8
0
100
AcDbLine
 62
9
  6
CONTINUOUS
 10
13.2914834891
 20
10.738391804
 11
13.2914834891
 21
10.909891804
  0
LINE
  5
272
100
AcDbEntity
  8
0
100
AcDbLine
 62
7
  6
CONTINUOUS
 10
13.2919834891
 20
9.655391804
 11
13.2919834891
 21
9.686391804
  0
LINE
  5
273
100
AcDbEntity
  8
0
100
AcDbLine
 62
9
  6
CONTINUOUS
 10
13.3489834891
 20
10.6148918041
 11
13.3489834891
 21
10.174891804
  0
LINE
  5
274
100
AcDbEntity
  8
0
100
AcDbLine
 62
7
  6
CONTINUOUS
 10
13.3514834891
 20
10.879891804
 11
13.3514834891
 21
10.738391804
  0
LINE
  5
275
100
AcDbEntity
  8
0
100
AcDbLine
 62
7
  6
CONTINUOUS
 10
13.3514834891
 20
9.991391804
 11
13.3514834891
 21
9.686391804
  0
LINE
  5
276
100
AcDbEntity
  8
0
100
AcDbLine
 62
9
  6
CONTINUOUS
 10
13.3524834891
 20
10.051391804
 11
13.3524834891
 21
10.738391804
  0
LINE
  5
277
100
AcDbEntity
  8
0
100
AcDbLine
 62
7
  6
CONTINUOUS
 10
13.3824834891
 20
10.708391804
 11
13.3824834891
 21
10.059341238
  0
LINE
  5
278
100
AcDbEntity
  8
0
100
AcDbLine
 62
9
  6
CONTINUOUS
 10
13.4362274602
 20
9.4984663379
 11
13.4362237172
 21
9.3683534681
  0
LINE
  5
279
100
AcDbEntity
  8
0
100
AcDbLine
 62
9
  6
CONTINUOUS
 10
13.4528688861
 20
10.3103106947
 11
13.4528688861
 21
10.359891804
  0
LINE
  5
27A
100
AcDbEntity
  8
0
100
AcDbLine
 62
9
  6
CONTINUOUS
 10
13.4362231771
 20
9.3683527936
 11
13.7229624714
 21
7.7421823587
  0
LINE
  5
27B
100
AcDbEntity
  8
0
100
AcDbLine
 62
9
  6
CONTINUOUS
 10
13.5179828923
 20
9.5035974313
 11
13.5193957441
 21
9.4736935095
  0
LINE
  5
27C
100
AcDbEntity
  8
0
100
AcDbLine
 62
9
  6
CONTINUOUS
 10
13.5179834891
 20
9.5035974556
 11
13.5179834891
 21
9.655391804
  0
LINE
  5
27D
100
AcDbEntity
  8
0
100
AcDbLine
 62
9
  6
CONTINUOUS
 10
13.5589834891
 20
7.519891804
 11
13.5589834891
 21
7.529891804
  0
LINE
  5
27E
100
AcDbEntity
  8
0
100
AcDbLine
 62
7
  6
CONTINUOUS
 10
13.5779834891
 20
9.625391804
 11
13.5779834891
 21
9.4984662139
  0
LINE
  5
27F
100
AcDbEntity
  8
0
100
AcDbLine
 62
9
  6
CONTINUOUS
 10
13.7229624762
 20
7.717391804
 11
13.7229624762
 21
7.7421823587
  0
LINE
  5
280
100
AcDbEntity
  8
0
100
AcDbLine
 62
7
  6
CONTINUOUS
 10
13.7820509366
 20
7.7421823587
 11
13.4953132599
 21
9.3683525314
  0
LINE
  5
281
100
AcDbEntity
  8
0
100
AcDbLine
 62
9
  6
CONTINUOUS
 10
13.4528688861
 20
10.3103106947
 11
13.5701638736
 21
9.6450977644
  0
LINE
  5
282
100
AcDbEntity
  8
0
100
AcDbLine
 62
9
  6
CONTINUOUS
 10
13.5779834891
 20
9.6007505211
 11
13.9074624716
 21
7.7321823587
  0
LINE
  5
283
100
AcDbEntity
  8
0
100
AcDbLine
 62
7
  6
CONTINUOUS
 10
13.9665509366
 20
7.7321823587
 11
13.5119573512
 21
10.3103106948
  0
LINE
  5
284
100
AcDbEntity
  8
0
100
AcDbLine
 62
9
  6
CONTINUOUS
 10
14.1678492054
 20
7.362628008
 11
14.1658020653
 21
7.3883191823
  0
LINE
  5
285
100
AcDbEntity
  8
0
100
AcDbLine
 62
7
  6
CONTINUOUS
 10
13.7889834891
 20
7.529891804
 11
13.7889834891
 21
7.519891804
  0
LINE
  5
286
100
AcDbEntity
  8
0
100
AcDbLine
 62
9
  6
CONTINUOUS
 10
13.8514834891
 20
7.529891804
 11
13.8514834891
 21
7.717391804
  0
LINE
  5
287
100
AcDbEntity
  8
0
100
AcDbLine
 62
9
  6
CONTINUOUS
 10
13.9074624714
 20
7.707391804
 11
13.9074624714
 21
7.7321823587
  0
LINE
  5
288
100
AcDbEntity
  8
0
100
AcDbLine
 62
7
  6
CONTINUOUS
 10
13.9114834891
 20
7.687391804
 11
13.9114834891
 21
7.529891804
  0
LINE
  5
289
100
AcDbEntity
  8
0
100
AcDbLine
 62
9
  6
CONTINUOUS
 10
14.0009834891
 20
7.519891804
 11
14.0009834891
 21
7.707391804
  0
LINE
  5
28A
100
AcDbEntity
  8
0
100
AcDbLine
 62
9
  6
CONTINUOUS
 10
14.1786336252
 20
7.3629464602
 11
14.1739835524
 21
7.3894077011
  0
LINE
  5
28B
100
AcDbEntity
  8
0
100
AcDbLine
 62
9
  6
CONTINUOUS
 10
14.2937681757
 20
7.3647570483
 11
14.288983498
 21
7.3928562794
  0
LINE
  5
28C
100
AcDbEntity
  8
0
100
AcDbLine
 62
9
  6
CONTINUOUS
 10
14.2805469708
 20
7.3638295502
 11
14.2777329697
 21
7.3912378019
  0
LINE
  5
28D
100
AcDbEntity
  8
0
100
AcDbLine
 62
7
  6
CONTINUOUS
 10
14.0609834891
 20
7.677391804
 11
14.0609834891
 21
7.519891804
  0
LINE
  5
28E
100
AcDbEntity
  8
0
100
AcDbLine
 62
9
  6
CONTINUOUS
 10
14.1239834891
 20
7.109891804
 11
14.1239835564
 21
7.38673717
  0
LINE
  5
28F
100
AcDbEntity
  8
0
100
AcDbLine
 62
9
  6
CONTINUOUS
 10
14.1739834889
 20
7.3894076962
 11
14.1739834891
 21
7.519891804
  0
LINE
  5
290
100
AcDbEntity
  8
0
100
AcDbLine
 62
7
  6
CONTINUOUS
 10
14.1839834891
 20
7.2892692266
 11
14.1839834891
 21
7.109891804
  0
LINE
  5
291
100
AcDbEntity
  8
0
100
AcDbLine
 62
9
  6
CONTINUOUS
 10
14.2289834891
 20
7.109891804
 11
14.2289835087
 21
7.3705631164
  0
LINE
  5
292
100
AcDbEntity
  8
0
100
AcDbLine
 62
7
  6
CONTINUOUS
 10
14.2339834891
 20
7.489891804
 11
14.2339834891
 21
7.38673717
  0
LINE
  5
293
100
AcDbEntity
  8
0
100
AcDbLine
 62
7
  6
CONTINUOUS
 10
14.2889834891
 20
7.2850389903
 11
14.2889834891
 21
7.109891804
  0
LINE
  5
294
100
AcDbEntity
  8
0
100
AcDbLine
 62
9
  6
CONTINUOUS
 10
14.2889834889
 20
7.3928562786
 11
14.2889834891
 21
7.519891804
  0
LINE
  5
295
100
AcDbEntity
  8
0
100
AcDbLine
 62
7
  6
CONTINUOUS
 10
14.3489834891
 20
7.489891804
 11
14.3489834891
 21
7.3889620388
  0
ARC
  5
296
100
AcDbEntity
  8
0
100
AcDbCircle
 62
7
  6
CONTINUOUS
 10
8.5039952191
 20
9.234891804
 40
0.375
100
AcDbArc
 50
89.9999999793
 51
169.0198674852
  0
ARC
  5
297
100
AcDbEntity
  8
0
100
AcDbCircle
 62
7
  6
CONTINUOUS
 10
7.1481445203
 20
9.294891804
 40
0.06
100
AcDbArc
 50
269.9999999979
 51
350.0
  0
ARC
  5
298
100
AcDbEntity
  8
0
100
AcDbCircle
 62
7
  6
CONTINUOUS
 10
8.1947622972
 20
9.294891804
 40
0.06
100
AcDbArc
 50
169.0194245724
 51
257.5948879596
  0
ARC
  5
299
100
AcDbEntity
  8
0
100
AcDbCircle
 62
7
  6
CONTINUOUS
 10
7.4472043293
 20
10.299891804
 40
0.06
100
AcDbArc
 50
90.0000002735
 51
170.0
  0
ARC
  5
29A
100
AcDbEntity
  8
0
100
AcDbCircle
 62
7
  6
CONTINUOUS
 10
7.1309834891
 20
9.174891804
 40
0.06
100
AcDbArc
 50
90.0
 51
180.0
  0
ARC
  5
29B
100
AcDbEntity
  8
0
100
AcDbCircle
 62
7
  6
CONTINUOUS
 10
8.1689834891
 20
9.174891804
 40
0.06
100
AcDbArc
 50
0.0003235105
 51
90.0
  0
ARC
  5
29C
100
AcDbEntity
  8
0
100
AcDbCircle
 62
7
  6
CONTINUOUS
 10
8.1689834891
 20
9.1776934549
 40
0.06
100
AcDbArc
 50
0.000164526
 51
77.5948331789
  0
ARC
  5
29D
100
AcDbEntity
  8
0
100
AcDbCircle
 62
9
  6
CONTINUOUS
 10
7.4319673509
 20
188.1621472996
 40
178.9272555249
100
AcDbArc
 50
269.9989612666
 51
270.2038784508
  0
ARC
  5
29E
100
AcDbEntity
  8
0
100
AcDbCircle
 62
9
  6
CONTINUOUS
 10
7.4320290453
 20
98.7577992864
 40
89.5829068634
100
AcDbArc
 50
269.9978858405
 51
270.407436328
  0
ARC
  5
29F
100
AcDbEntity
  8
0
100
AcDbCircle
 62
9
  6
CONTINUOUS
 10
11.5486947251
 20
8.870310863
 40
0.8099970347
100
AcDbArc
 50
350.0003296061
 51
6.8282073663
  0
ARC
  5
2A0
100
AcDbEntity
  8
0
100
AcDbCircle
 62
9
  6
CONTINUOUS
 10
11.5834972554
 20
8.8614423273
 40
0.7765935428
100
AcDbArc
 50
7.783383735
 51
16.5831765508
  0
ARC
  5
2A1
100
AcDbEntity
  8
0
100
AcDbCircle
 62
7
  6
CONTINUOUS
 10
11.5486916844
 20
8.859891804
 40
0.75
100
AcDbArc
 50
350.0
 51
90.0000000003
  0
ARC
  5
2A2
100
AcDbEntity
  8
0
100
AcDbCircle
 62
7
  6
CONTINUOUS
 10
11.6989834891
 20
7.2850389903
 40
0.09
100
AcDbArc
 50
0.0
 51
59.9999992572
  0
ARC
  5
2A3
100
AcDbEntity
  8
0
100
AcDbCircle
 62
7
  6
CONTINUOUS
 10
11.8039834891
 20
7.2892692266
 40
0.09
100
AcDbArc
 50
0.0
 51
54.3146649845
  0
ARC
  5
2A4
100
AcDbEntity
  8
0
100
AcDbCircle
 62
7
  6
CONTINUOUS
 10
11.7589834891
 20
7.489891804
 40
0.03
100
AcDbArc
 50
90.0
 51
180.0
  0
ARC
  5
2A5
100
AcDbEntity
  8
0
100
AcDbCircle
 62
7
  6
CONTINUOUS
 10
11.7589834891
 20
7.3889620388
 40
0.03
100
AcDbArc
 50
180.0
 51
240.0000022283
  0
ARC
  5
2A6
100
AcDbEntity
  8
0
100
AcDbCircle
 62
7
  6
CONTINUOUS
 10
11.8739834891
 20
7.38673717
 40
0.03
100
AcDbArc
 50
180.0
 51
234.3146661959
  0
ARC
  5
2A7
100
AcDbEntity
  8
0
100
AcDbCircle
 62
7
  6
CONTINUOUS
 10
11.8739834891
 20
7.489891804
 40
0.03
100
AcDbArc
 50
90.0
 51
180.0
  0
ARC
  5
2A8
100
AcDbEntity
  8
0
100
AcDbCircle
 62
7
  6
CONTINUOUS
 10
12.1964834891
 20
7.687391804
 40
0.03
100
AcDbArc
 50
90.0
 51
180.0
  0
ARC
  5
2A9
100
AcDbEntity
  8
0
100
AcDbCircle
 62
7
  6
CONTINUOUS
 10
12.2663718091
 20
7.747391804
 40
0.03
100
AcDbArc
 50
270.0
 51
350.0000000013
  0
ARC
  5
2AA
100
AcDbEntity
  8
0
100
AcDbCircle
 62
7
  6
CONTINUOUS
 10
12.0818718091
 20
7.737391804
 40
0.03
100
AcDbArc
 50
289.7998007581
 51
350.0
  0
ARC
  5
2AB
100
AcDbEntity
  8
0
100
AcDbCircle
 62
7
  6
CONTINUOUS
 10
12.0469834891
 20
7.677391804
 40
0.03
100
AcDbArc
 50
90.0
 51
180.0
  0
ARC
  5
2AC
100
AcDbEntity
  8
0
100
AcDbCircle
 62
7
  6
CONTINUOUS
 10
12.4940211857
 20
9.383981804
 40
0.09
100
AcDbArc
 50
350.0
 51
72.5611995946
  0
ARC
  5
2AD
100
AcDbEntity
  8
0
100
AcDbCircle
 62
7
  6
CONTINUOUS
 10
12.5299834891
 20
9.4984663564
 40
0.03
100
AcDbArc
 50
180.000317715
 51
252.5612637656
  0
ARC
  5
2AE
100
AcDbEntity
  8
0
100
AcDbCircle
 62
7
  6
CONTINUOUS
 10
12.5299834891
 20
9.625391804
 40
0.03
100
AcDbArc
 50
90.0
 51
180.0000000002
  0
ARC
  5
2AF
100
AcDbEntity
  8
0
100
AcDbCircle
 62
9
  6
CONTINUOUS
 10
12.5299729624
 20
9.503624103
 40
0.0299913845
100
AcDbArc
 50
180.051503008
 51
266.315889851
  0
ARC
  5
2B0
100
AcDbEntity
  8
0
100
AcDbCircle
 62
7
  6
CONTINUOUS
 10
12.6664834891
 20
9.991391804
 40
0.06
100
AcDbArc
 50
0.0
 51
49.0382114474
  0
ARC
  5
2B1
100
AcDbEntity
  8
0
100
AcDbCircle
 62
7
  6
CONTINUOUS
 10
12.725536351
 20
10.0593841186
 40
0.0300540605
100
AcDbArc
 50
180.0551014258
 51
228.9984681425
  0
ARC
  5
2B2
100
AcDbEntity
  8
0
100
AcDbCircle
 62
7
  6
CONTINUOUS
 10
12.7254834891
 20
10.081391804
 40
0.03
100
AcDbArc
 50
180.0
 51
270.0
  0
ARC
  5
2B3
100
AcDbEntity
  8
0
100
AcDbCircle
 62
9
  6
CONTINUOUS
 10
12.8189834891
 20
10.614891804
 40
0.09
100
AcDbArc
 50
90.0000000227
 51
179.9999999547
  0
ARC
  5
2B4
100
AcDbEntity
  8
0
100
AcDbCircle
 62
9
  6
CONTINUOUS
 10
12.8189834891
 20
10.174891804
 40
0.09
100
AcDbArc
 50
180.0000000227
 51
269.9999999547
  0
ARC
  5
2B5
100
AcDbEntity
  8
0
100
AcDbCircle
 62
7
  6
CONTINUOUS
 10
12.7564834891
 20
10.879891804
 40
0.03
100
AcDbArc
 50
90.0
 51
180.0
  0
ARC
  5
2B6
100
AcDbEntity
  8
0
100
AcDbCircle
 62
7
  6
CONTINUOUS
 10
12.7254834891
 20
10.708391804
 40
0.03
100
AcDbArc
 50
90.0
 51
180.0
  0
ARC
  5
2B7
100
AcDbEntity
  8
0
100
AcDbCircle
 62
7
  6
CONTINUOUS
 10
12.8189834891
 20
10.614891804
 40
0.03
100
AcDbArc
 50
90.0
 51
179.9999998464
  0
ARC
  5
2B8
100
AcDbEntity
  8
0
100
AcDbCircle
 62
7
  6
CONTINUOUS
 10
12.8189834891
 20
10.174891804
 40
0.03
100
AcDbArc
 50
180.0
 51
269.9999998464
  0
ARC
  5
2B9
100
AcDbEntity
  8
0
100
AcDbCircle
 62
7
  6
CONTINUOUS
 10
14.3789834891
 20
7.2850389903
 40
0.09
100
AcDbArc
 50
120.0000007428
 51
180.0
  0
ARC
  5
2BA
100
AcDbEntity
  8
0
100
AcDbCircle
 62
7
  6
CONTINUOUS
 10
14.2739834891
 20
7.2892692266
 40
0.09
100
AcDbArc
 50
125.6853350155
 51
180.0
  0
ARC
  5
2BB
100
AcDbEntity
  8
0
100
AcDbCircle
 62
7
  6
CONTINUOUS
 10
14.3189834891
 20
7.489891804
 40
0.03
100
AcDbArc
 50
0.0
 51
90.0
  0
ARC
  5
2BC
100
AcDbEntity
  8
0
100
AcDbCircle
 62
7
  6
CONTINUOUS
 10
14.3189834891
 20
7.3889620388
 40
0.03
100
AcDbArc
 50
299.9999977717
 51
360.0
  0
ARC
  5
2BD
100
AcDbEntity
  8
0
100
AcDbCircle
 62
7
  6
CONTINUOUS
 10
14.2039834891
 20
7.489891804
 40
0.03
100
AcDbArc
 50
0.0
 51
90.0
  0
ARC
  5
2BE
100
AcDbEntity
  8
0
100
AcDbCircle
 62
7
  6
CONTINUOUS
 10
14.2039834891
 20
7.38673717
 40
0.03
100
AcDbArc
 50
305.6853338041
 51
360.0
  0
ARC
  5
2BF
100
AcDbEntity
  8
0
100
AcDbCircle
 62
7
  6
CONTINUOUS
 10
13.8814834891
 20
7.687391804
 40
0.03
100
AcDbArc
 50
0.0
 51
90.0
  0
ARC
  5
2C0
100
AcDbEntity
  8
0
100
AcDbCircle
 62
7
  6
CONTINUOUS
 10
13.8115951692
 20
7.747391804
 40
0.03
100
AcDbArc
 50
189.9999999987
 51
270.0
  0
ARC
  5
2C1
100
AcDbEntity
  8
0
100
AcDbCircle
 62
7
  6
CONTINUOUS
 10
13.9960951692
 20
7.737391804
 40
0.03
100
AcDbArc
 50
190.0
 51
249.8484739132
  0
ARC
  5
2C2
100
AcDbEntity
  8
0
100
AcDbCircle
 62
7
  6
CONTINUOUS
 10
14.0309834891
 20
7.677391804
 40
0.03
100
AcDbArc
 50
0.0
 51
90.0
  0
ARC
  5
2C3
100
AcDbEntity
  8
0
100
AcDbCircle
 62
7
  6
CONTINUOUS
 10
13.4114834891
 20
9.991391804
 40
0.06
100
AcDbArc
 50
130.9609994447
 51
180.0
  0
ARC
  5
2C4
100
AcDbEntity
  8
0
100
AcDbCircle
 62
7
  6
CONTINUOUS
 10
13.3524834891
 20
10.081391804
 40
0.03
100
AcDbArc
 50
270.0
 51
359.9999999999
  0
ARC
  5
2C5
100
AcDbEntity
  8
0
100
AcDbCircle
 62
9
  6
CONTINUOUS
 10
13.2589834891
 20
10.614891804
 40
0.09
100
AcDbArc
 50
0.0000000227
 51
89.9999999547
  0
ARC
  5
2C6
100
AcDbEntity
  8
0
100
AcDbCircle
 62
9
  6
CONTINUOUS
 10
13.2589834891
 20
10.174891804
 40
0.09
100
AcDbArc
 50
270.0000000227
 51
359.9999999547
  0
ARC
  5
2C7
100
AcDbEntity
  8
0
100
AcDbCircle
 62
7
  6
CONTINUOUS
 10
13.3214834891
 20
10.879891804
 40
0.03
100
AcDbArc
 50
0.0
 51
90.0
  0
ARC
  5
2C8
100
AcDbEntity
  8
0
100
AcDbCircle
 62
7
  6
CONTINUOUS
 10
13.3524834891
 20
10.708391804
 40
0.03
100
AcDbArc
 50
0.0
 51
90.0
  0
ARC
  5
2C9
100
AcDbEntity
  8
0
100
AcDbCircle
 62
7
  6
CONTINUOUS
 10
13.2589834891
 20
10.614891804
 40
0.03
100
AcDbArc
 50
0.0
 51
89.9999998464
  0
ARC
  5
2CA
100
AcDbEntity
  8
0
100
AcDbCircle
 62
7
  6
CONTINUOUS
 10
13.2589834891
 20
10.174891804
 40
0.03
100
AcDbArc
 50
270.0
 51
359.9999998464
  0
ARC
  5
2CB
100
AcDbEntity
  8
0
100
AcDbCircle
 62
7
  6
CONTINUOUS
 10
13.5839457925
 20
9.383981804
 40
0.09
100
AcDbArc
 50
107.4388313665
 51
190.0
  0
ARC
  5
2CC
100
AcDbEntity
  8
0
100
AcDbCircle
 62
7
  6
CONTINUOUS
 10
13.5479834891
 20
9.4984663564
 40
0.03
100
AcDbArc
 50
287.4387362344
 51
359.99954372
  0
ARC
  5
2CD
100
AcDbEntity
  8
0
100
AcDbCircle
 62
7
  6
CONTINUOUS
 10
13.5479834891
 20
9.625391804
 40
0.03
100
AcDbArc
 50
0.0
 51
90.0
  0
ARC
  5
2CE
100
AcDbEntity
  8
0
100
AcDbCircle
 62
9
  6
CONTINUOUS
 10
13.5479938843
 20
9.5036229542
 40
0.0299914115
100
AcDbArc
 50
273.6855298696
 51
359.948751498
  0
ARC
  5
2CF
100
AcDbEntity
  8
0
100
AcDbCircle
 62
7
  6
CONTINUOUS
 10
13.4528688861
 20
10.299891804
 40
0.06
100
AcDbArc
 50
10.0000001202
 51
90.0
  0
SPLINE
  5
2D0
100
AcDbEntity
  8
0
100
AcDbSpline
 62
9
  6
CONTINUOUS
 70
0
 71
3
 72
32
 73
28
 74
0
 42
0.0000001
 43
0.0000001
 44
0.0000000001
 40
0.0
 40
0.0
 40
0.0
 40
0.0
 40
0.0624892121
 40
0.0937466499
 40
0.124994149
 40
0.1874595278
 40
0.249955472
 40
0.3124789637
 40
0.3437299506
 40
0.3749677836
 40
0.4061995649
 40
0.4218194348
 40
0.4374456454
 40
0.4687136915
 40
0.4999954035
 40
0.531279803
 40
0.5625552129
 40
0.5938096209
 40
0.6250453305
 40
0.6562818632
 40
0.6875283987
 40
0.7500420754
 40
0.8125358835
 40
0.8750045274
 40
0.9062538093
 40
0.9375129337
 40
1.0
 40
1.0
 40
1.0
 40
1.0
 10
12.837801979
 20
10.081391804
 30
0.0
 10
12.8462428151
 20
10.0813186721
 30
0.0
 10
12.8589056272
 20
10.0807916017
 30
0.0
 10
12.8757320903
 20
10.0793813481
 30
0.0
 10
12.8925141821
 20
10.077536641
 30
0.0
 10
12.913403193
 20
10.0745191485
 30
0.0
 10
12.9383787083
 20
10.0703229557
 30
0.0
 10
12.9591922567
 20
10.0667982344
 30
0.0
 10
12.9758884819
 20
10.0642635862
 30
0.0
 10
12.9884371008
 20
10.0625822595
 30
0.0
 10
12.9989235947
 20
10.0614276766
 30
0.0
 10
13.0073312893
 20
10.0606904903
 30
0.0
 10
13.0157547259
 20
10.0600896762
 30
0.0
 10
13.0263051585
 20
10.0595930311
 30
0.0
 10
13.0389810691
 20
10.0594009773
 30
0.0
 10
13.0516577239
 20
10.0596100215
 30
0.0
 10
13.0643179072
 20
10.0602159635
 30
0.0
 10
13.0769461088
 20
10.0612206691
 30
0.0
 10
13.089532747
 20
10.0626028709
 30
0.0
 10
13.1020819078
 20
10.0642784633
 30
0.0
 10
13.1187771718
 20
10.0668053828
 30
0.0
 10
13.1395900619
 20
10.0703206988
 30
0.0
 10
13.1645660933
 20
10.0745068839
 30
0.0
 10
13.1854544765
 20
10.0775290985
 30
0.0
 10
13.2022350026
 20
10.0793960358
 30
0.0
 10
13.2190598086
 20
10.0808268635
 30
0.0
 10
13.2317242485
 20
10.0813483159
 30
0.0
 10
13.2401649994
 20
10.081391804
 30
0.0
  0
SPLINE
  5
2D1
100
AcDbEntity
  8
0
100
AcDbSpline
 62
9
  6
CONTINUOUS
 70
0
 71
3
 72
31
 73
27
 74
0
 42
0.0000001
 43
0.0000001
 44
0.0000000001
 40
0.0
 40
0.0
 40
0.0
 40
0.0
 40
0.0819538417
 40
0.1638471731
 40
0.2464516088
 40
0.3296300543
 40
0.4128537508
 40
0.4952576263
 40
0.5757016185
 40
0.6529536421
 40
0.7257274137
 40
0.7926409156
 40
0.852301215
 40
0.8790140466
 40
0.9034369359
 40
0.9254088189
 40
0.9447668413
 40
0.9613562973
 40
0.975084015
 40
0.9858813088
 40
0.9901595236
 40
0.9936792627
 40
0.9964318658
 40
0.9984086553
 40
0.999600937
 40
1.0
 40
1.0
 40
1.0
 40
1.0
 10
12.725483489
 20
10.051391804
 30
0.0
 10
12.7247894885
 20
10.0513917974
 30
0.0
 10
12.7233992946
 20
10.051256218
 30
0.0
 10
12.7213786129
 20
10.0507050695
 30
0.0
 10
12.7194445295
 20
10.04988023
 30
0.0
 10
12.7176027625
 20
10.048846726
 30
0.0
 10
12.7158629521
 20
10.0476542174
 30
0.0
 10
12.7142344646
 20
10.0463516937
 30
0.0
 10
12.7127257676
 20
10.0449871499
 30
0.0
 10
12.7113460647
 20
10.0436057889
 30
0.0
 10
12.7101045073
 20
10.0422511081
 30
0.0
 10
12.7090093128
 20
10.0409660866
 30
0.0
 10
12.7081971708
 20
10.0399532482
 30
0.0
 10
12.7076247969
 20
10.0392097961
 30
0.0
 10
12.7072527712
 20
10.0387149418
 30
0.0
 10
12.7069226715
 20
10.038266516
 30
0.0
 10
12.7066352968
 20
10.0378690742
 30
0.0
 10
12.7063908919
 20
10.0375266122
 30
0.0
 10
12.7061903046
 20
10.0372422719
 30
0.0
 10
12.7060506254
 20
10.0370417634
 30
0.0
 10
12.7059614457
 20
10.0369128288
 30
0.0
 10
12.7059102231
 20
10.0368378292
 30
0.0
 10
12.7058725161
 20
10.0367836454
 30
0.0
 10
12.7058405073
 20
10.0367341735
 30
0.0
 10
12.7058303653
 20
10.0367232273
 30
0.0
 10
12.7058158077
 20
10.0366973976
 30
0.0
 10
12.7058168225
 20
10.0367006209
 30
0.0
  0
SPLINE
  5
2D2
100
AcDbEntity
  8
0
100
AcDbSpline
 62
9
  6
CONTINUOUS
 70
0
 71
3
 72
23
 73
19
 74
0
 42
0.0000001
 43
0.0000001
 44
0.0000000001
 40
0.0
 40
0.0
 40
0.0
 40
0.0
 40
0.0588874115
 40
0.1189647581
 40
0.1801475277
 40
0.2423982319
 40
0.3056617845
 40
0.3698204571
 40
0.434717927
 40
0.4999920094
 40
0.5652681586
 40
0.6301692073
 40
0.6943299029
 40
0.7575940676
 40
0.8198449915
 40
0.8810291465
 40
0.9411098687
 40
1.0
 40
1.0
 40
1.0
 40
1.0
 10
12.8378019525
 20
10.051391804
 30
0.0
 10
12.8457250667
 20
10.0513918012
 30
0.0
 10
12.8617327112
 20
10.0508949003
 30
0.0
 10
12.8859081811
 20
10.049099565
 30
0.0
 10
12.9104766098
 20
10.0466298847
 30
0.0
 10
12.9354400112
 20
10.043834836
 30
0.0
 10
12.9608092365
 20
10.0410637605
 30
0.0
 10
12.9865790894
 20
10.0386936911
 30
0.0
 10
13.0126823246
 20
10.037103739
 30
0.0
 10
13.0389805559
 20
10.036501729
 30
0.0
 10
13.0652792835
 20
10.0371031294
 30
0.0
 10
13.0913835816
 20
10.0386926955
 30
0.0
 10
13.1171542555
 20
10.0410630148
 30
0.0
 10
13.1425238215
 20
10.0438345014
 30
0.0
 10
13.1674875118
 20
10.0466296535
 30
0.0
 10
13.1920566138
 20
10.0490993391
 30
0.0
 10
13.2162330824
 20
10.0508947927
 30
0.0
 10
13.2322415456
 20
10.0513917994
 30
0.0
 10
13.2401650257
 20
10.051391804
 30
0.0
  0
SPLINE
  5
2D3
100
AcDbEntity
  8
0
100
AcDbSpline
 62
9
  6
CONTINUOUS
 70
0
 71
3
 72
26
 73
22
 74
0
 42
0.0000001
 43
0.0000001
 44
0.0000000001
 40
0.0
 40
0.0
 40
0.0
 40
0.0
 40
0.0772860844
 40
0.1551675628
 40
0.2343700588
 40
0.3148923099
 40
0.4773987243
 40
0.6355452792
 40
0.7098601863
 40
0.7790148795
 40
0.8414018758
 40
0.8953541937
 40
0.9186493415
 40
0.9392822852
 40
0.9571259143
 40
0.9720522735
 40
0.9839326291
 40
0.9926375291
 40
0.9957585506
 40
0.9980368682
 40
1.0
 40
1.0
 40
1.0
 40
1.0
 10
13.3524836131
 20
10.051391804
 30
0.0
 10
13.3531379686
 20
10.0513917913
 30
0.0
 10
13.3544540097
 20
10.0512705579
 30
0.0
 10
13.356381693
 20
10.0507726521
 30
0.0
 10
13.3582496799
 20
10.0500122837
 30
0.0
 10
13.3606522858
 20
10.0487110062
 30
0.0
 10
13.3634095604
 20
10.046702923
 30
0.0
 10
13.3658566917
 20
10.0444157081
 30
0.0
 10
13.3675986362
 20
10.0425475898
 30
0.0
 10
13.3687382941
 20
10.0412284025
 30
0.0
 10
13.3697273294
 20
10.0400081685
 30
0.0
 10
13.3704481285
 20
10.0390709469
 30
0.0
 10
13.3709433905
 20
10.0384064864
 30
0.0
 10
13.3712521528
 20
10.0379843455
 30
0.0
 10
13.3715158887
 20
10.0376170799
 30
0.0
 10
13.3717339695
 20
10.0373082839
 30
0.0
 10
13.3719052825
 20
10.0370611807
 30
0.0
 10
13.3720190067
 20
10.0368958261
 30
0.0
 10
13.3720853984
 20
10.0367965139
 30
0.0
 10
13.372121237
 20
10.0367455939
 30
0.0
 10
13.3721391802
 20
10.0367141807
 30
0.0
 10
13.372149982
 20
10.0367015481
 30
0.0
  0
SPLINE
  5
2D4
100
AcDbEntity
  8
0
100
AcDbSpline
 62
9
  6
CONTINUOUS
 70
0
 71
3
 72
27
 73
23
 74
0
 42
0.0000001
 43
0.0000001
 44
0.0000000001
 40
0.0
 40
0.0
 40
0.0
 40
0.0
 40
0.1937035644
 40
0.3801171377
 40
0.4681883868
 40
0.5517534439
 40
0.6300310307
 40
0.7022563026
 40
0.7677033744
 40
0.8257762064
 40
0.8759142782
 40
0.9176510363
 40
0.9352804458
 40
0.9507136789
 40
0.9639339558
 40
0.9749487722
 40
0.9838156367
 40
0.9906642664
 40
0.9934226016
 40
0.9958192363
 40
0.9979618102
 40
1.0
 40
1.0
 40
1.0
 40
1.0
 10
11.7889834892
 20
7.392856244
 30
0.0
 10
11.7850917179
 20
7.3931857739
 30
0.0
 10
11.7774470052
 20
7.3937444502
 30
0.0
 10
11.7680194492
 20
7.3942445521
 30
0.0
 10
11.7608052142
 20
7.3945216116
 30
0.0
 10
11.755768141
 20
7.3946667804
 30
0.0
 10
11.7510492933
 20
7.3947545872
 30
0.0
 10
11.7466950326
 20
7.3947855242
 30
0.0
 10
11.7427481147
 20
7.394760269
 30
0.0
 10
11.739247307
 20
7.3946787594
 30
0.0
 10
11.7362267723
 20
7.3945408882
 30
0.0
 10
11.734024568
 20
7.3943718542
 30
0.0
 10
11.7325262633
 20
7.3941976873
 30
0.0
 10
11.7316031221
 20
7.3940592868
 30
0.0
 10
11.730817867
 20
7.3939057211
 30
0.0
 10
11.7301713289
 20
7.393736802
 30
0.0
 10
11.7296641013
 20
7.3935527617
 30
0.0
 10
11.729333108
 20
7.3933751481
 30
0.0
 10
11.7291475939
 20
7.3932181922
 30
0.0
 10
11.7290538106
 20
7.3931033862
 30
0.0
 10
11.7289962181
 20
7.3929822083
 30
0.0
 10
11.7289834983
 20
7.3928973752
 30
0.0
 10
11.7289834891
 20
7.3928562786
 30
0.0
  0
LINE
  5
2D5
100
AcDbEntity
  8
0
100
AcDbLine
 62
9
  6
CONTINUOUS
 10
14.2889834901
 20
7.3928562712
 11
14.277732897
 21
7.3912377944
  0
SPLINE
  5
2D6
100
AcDbEntity
  8
0
100
AcDbSpline
 62
9
  6
CONTINUOUS
 70
0
 71
3
 72
9
 73
5
 74
0
 42
0.0000001
 43
0.0000001
 44
0.0000000001
 40
0.0
 40
0.0
 40
0.0
 40
0.0
 40
0.4975765334
 40
1.0
 40
1.0
 40
1.0
 40
1.0
 10
14.2777328968
 20
7.3912377963
 30
0.0
 10
14.2705040434
 20
7.3904959179
 30
0.0
 10
14.2559306826
 20
7.3894292222
 30
0.0
 10
14.2413271268
 20
7.3890419015
 30
0.0
 10
14.2339897609
 20
7.388982173
 30
0.0
  0
SPLINE
  5
2D7
100
AcDbEntity
  8
0
100
AcDbSpline
 62
9
  6
CONTINUOUS
 70
0
 71
3
 72
16
 73
12
 74
0
 42
0.0000001
 43
0.0000001
 44
0.0000000001
 40
0.0
 40
0.0
 40
0.0
 40
0.0
 40
0.0874433482
 40
0.1344948294
 40
0.1840253221
 40
0.2906068776
 40
0.4076857693
 40
0.5357745952
 40
0.6762563029
 40
0.8306736853
 40
1.0
 40
1.0
 40
1.0
 40
1.0
 10
11.7939925528
 20
7.2816047301
 30
0.0
 10
11.7948096705
 20
7.2812004261
 30
0.0
 10
11.796163028
 20
7.2807720266
 30
0.0
 10
11.7980514379
 20
7.2804365756
 30
0.0
 10
11.8001576521
 20
7.2801978627
 30
0.0
 10
11.8030041315
 20
7.2800551112
 30
0.0
 10
11.8066715569
 20
7.2800288196
 30
0.0
 10
11.8106924788
 20
7.2800627792
 30
0.0
 10
11.8150996544
 20
7.280249199
 30
0.0
 10
11.8199233224
 20
7.2806754315
 30
0.0
 10
11.8232579624
 20
7.2812320844
 30
0.0
 10
11.8249835533
 20
7.2816047301
 30
0.0
  0
SPLINE
  5
2D8
100
AcDbEntity
  8
0
100
AcDbSpline
 62
9
  6
CONTINUOUS
 70
0
 71
3
 72
26
 73
22
 74
0
 42
0.0000001
 43
0.0000001
 44
0.0000000001
 40
0.0
 40
0.0
 40
0.0
 40
0.0
 40
0.0002719773
 40
0.0010862393
 40
0.002440341
 40
0.0043318481
 40
0.0097173935
 40
0.0172236316
 40
0.0268314998
 40
0.0385221236
 40
0.0522768195
 40
0.0680770987
 40
0.1057412976
 40
0.1513709433
 40
0.2048254877
 40
0.2659678405
 40
0.3346260283
 40
0.4104838135
 40
0.582474666
 40
0.7795940738
 40
1.0
 40
1.0
 40
1.0
 40
1.0
 10
11.7889834891
 20
7.2850389052
 30
0.0
 10
11.7889832698
 20
7.2850383985
 30
0.0
 10
11.7889863958
 20
7.2850372085
 30
0.0
 10
11.7889885673
 20
7.2850335335
 30
0.0
 10
11.7889954443
 20
7.2850281102
 30
0.0
 10
11.7890078446
 20
7.2850161459
 30
0.0
 10
11.7890303955
 20
7.2849960029
 30
0.0
 10
11.7890641348
 20
7.2849653665
 30
0.0
 10
11.7891078317
 20
7.2849264369
 30
0.0
 10
11.7891611522
 20
7.284879325
 30
0.0
 10
11.7892242293
 20
7.2848242394
 30
0.0
 10
11.7893275019
 20
7.2847350267
 30
0.0
 10
11.789480901
 20
7.2846048463
 30
0.0
 10
11.7896945827
 20
7.2844275798
 30
0.0
 10
11.7899473158
 20
7.2842227597
 30
0.0
 10
11.7902390755
 20
7.2839918791
 30
0.0
 10
11.7905695997
 20
7.2837367224
 30
0.0
 10
11.7910848325
 20
7.2833526786
 30
0.0
 10
11.7918265353
 20
7.2828362813
 30
0.0
 10
11.7928441389
 20
7.2822050556
 30
0.0
 10
11.7935915249
 20
7.2818034884
 30
0.0
 10
11.7939925742
 20
7.2816050007
 30
0.0
  0
SPLINE
  5
2D9
100
AcDbEntity
  8
0
100
AcDbSpline
 62
9
  6
CONTINUOUS
 70
0
 71
3
 72
9
 73
5
 74
0
 42
0.0000001
 43
0.0000001
 44
0.0000000001
 40
0.0
 40
0.0
 40
0.0
 40
0.0
 40
0.5022807276
 40
1.0
 40
1.0
 40
1.0
 40
1.0
 10
11.8440142659
 20
7.3889818766
 30
0.0
 10
11.8366727442
 20
7.389041159
 30
0.0
 10
11.8220567494
 20
7.3894281198
 30
0.0
 10
11.8074709628
 20
7.3904953146
 30
0.0
 10
11.8002338694
 20
7.3912378567
 30
0.0
  0
SPLINE
  5
2DA
100
AcDbEntity
  8
0
100
AcDbSpline
 62
9
  6
CONTINUOUS
 70
0
 71
3
 72
9
 73
5
 74
0
 42
0.0000001
 43
0.0000001
 44
0.0000000001
 40
0.0
 40
0.0
 40
0.0
 40
0.0
 40
0.4976082381
 40
1.0
 40
1.0
 40
1.0
 40
1.0
 10
11.8249834493
 20
7.2816053031
 30
0.0
 10
11.8289206864
 20
7.2824557143
 30
0.0
 10
11.8368124838
 20
7.2842703211
 30
0.0
 10
11.8449167364
 20
7.2850392296
 30
0.0
 10
11.8489834891
 20
7.2850392156
 30
0.0
  0
LINE
  5
2DB
100
AcDbEntity
  8
0
100
AcDbLine
 62
9
  6
CONTINUOUS
 10
11.800233867
 20
7.3912378335
 11
11.7889834909
 21
7.3928562534
  0
SPLINE
  5
2DC
100
AcDbEntity
  8
0
100
AcDbSpline
 62
9
  6
CONTINUOUS
 70
0
 71
3
 72
16
 73
12
 74
0
 42
0.0000001
 43
0.0000001
 44
0.0000000001
 40
0.0
 40
0.0
 40
0.0
 40
0.0
 40
0.1693128717
 40
0.3237140902
 40
0.4641973819
 40
0.5922940612
 40
0.7093733632
 40
0.8159559794
 40
0.8654909511
 40
0.9125484846
 40
1.0
 40
1.0
 40
1.0
 40
1.0
 10
14.252983425
 20
7.2816047301
 30
0.0
 10
14.2547088786
 20
7.2812321112
 30
0.0
 10
14.2580432124
 20
7.2806754908
 30
0.0
 10
14.2628665955
 20
7.2802493433
 30
0.0
 10
14.2672736991
 20
7.2800629033
 30
0.0
 10
14.2712947228
 20
7.2800288261
 30
0.0
 10
14.2749622471
 20
7.2800549934
 30
0.0
 10
14.2778087925
 20
7.2801977129
 30
0.0
 10
14.2799151251
 20
7.2804364641
 30
0.0
 10
14.281803722
 20
7.2807719718
 30
0.0
 10
14.2831572298
 20
7.2812003914
 30
0.0
 10
14.2839744255
 20
7.2816047301
 30
0.0
  0
SPLINE
  5
2DD
100
AcDbEntity
  8
0
100
AcDbSpline
 62
9
  6
CONTINUOUS
 70
0
 71
3
 72
9
 73
5
 74
0
 42
0.0000001
 43
0.0000001
 44
0.0000000001
 40
0.0
 40
0.0
 40
0.0
 40
0.0
 40
0.502361269
 40
1.0
 40
1.0
 40
1.0
 40
1.0
 10
14.2289834891
 20
7.2850389052
 30
0.0
 10
14.233049974
 20
7.2850389022
 30
0.0
 10
14.2411540414
 20
7.284268825
 30
0.0
 10
14.2490460198
 20
7.2824554767
 30
0.0
 10
14.2529834741
 20
7.2816050007
 30
0.0
  0
SPLINE
  5
2DE
100
AcDbEntity
  8
0
100
AcDbSpline
 62
9
  6
CONTINUOUS
 70
0
 71
3
 72
14
 73
10
 74
0
 42
0.0000001
 43
0.0000001
 44
0.0000000001
 40
0.0
 40
0.0
 40
0.0
 40
0.0
 40
0.066007917
 40
0.139432187
 40
0.2280324031
 40
0.336272677
 40
0.4665468491
 40
0.6201653423
 40
1.0
 40
1.0
 40
1.0
 40
1.0
 10
14.3489834891
 20
7.392856244
 30
0.0
 10
14.3489834814
 20
7.3929132898
 30
0.0
 10
14.3489571833
 20
7.3930349912
 30
0.0
 10
14.3488430312
 20
7.3931998571
 30
0.0
 10
14.3486628471
 20
7.3933511639
 30
0.0
 10
14.3484172002
 20
7.3934929527
 30
0.0
 10
14.3481052499
 20
7.3936267509
 30
0.0
 10
14.3475605368
 20
7.3938079278
 30
0.0
 10
14.3471101335
 20
7.3939110715
 30
0.0
 10
14.3467881516
 20
7.3939749801
 30
0.0
  0
SPLINE
  5
2DF
100
AcDbEntity
  8
0
100
AcDbSpline
 62
9
  6
CONTINUOUS
 70
0
 71
3
 72
17
 73
13
 74
0
 42
0.0000001
 43
0.0000001
 44
0.0000000001
 40
0.0
 40
0.0
 40
0.0
 40
0.0
 40
0.0261416234
 40
0.0585461646
 40
0.0970660708
 40
0.141509945
 40
0.2470010103
 40
0.3723901443
 40
0.5142755952
 40
0.6689165067
 40
0.8323683686
 40
1.0
 40
1.0
 40
1.0
 40
1.0
 10
14.3467881516
 20
7.3939749801
 30
0.0
 10
14.3462933064
 20
7.3940731995
 30
0.0
 10
14.3451748744
 20
7.39424093
 30
0.0
 10
14.3433105915
 20
7.3944269225
 30
0.0
 10
14.3410886088
 20
7.3945734799
 30
0.0
 10
14.3374546621
 20
7.3947259841
 30
0.0
 10
14.332140893
 20
7.3948004566
 30
0.0
 10
14.3249469298
 20
7.3947387698
 30
0.0
 10
14.316806968
 20
7.3945234522
 30
0.0
 10
14.3079375047
 20
7.394150021
 30
0.0
 10
14.298579022
 20
7.3936070165
 30
0.0
 10
14.2922070151
 20
7.3931293045
 30
0.0
 10
14.2889834891
 20
7.3928562786
 30
0.0
  0
SPLINE
  5
2E0
100
AcDbEntity
  8
0
100
AcDbSpline
 62
9
  6
CONTINUOUS
 70
0
 71
3
 72
26
 73
22
 74
0
 42
0.0000001
 43
0.0000001
 44
0.0000000001
 40
0.0
 40
0.0
 40
0.0
 40
0.0
 40
0.2204383022
 40
0.4175625315
 40
0.5895445265
 40
0.6653961722
 40
0.734048618
 40
0.7951864393
 40
0.848637534
 40
0.8942645276
 40
0.9319266676
 40
0.9477260953
 40
0.9614800463
 40
0.9731700272
 40
0.9827773547
 40
0.9902831588
 40
0.9956683858
 40
0.9975597808
 40
0.9989138045
 40
0.9997280251
 40
1.0
 40
1.0
 40
1.0
 40
1.0
 10
14.2839743801
 20
7.2816053031
 30
0.0
 10
14.2843754888
 20
7.2818038112
 30
0.0
 10
14.2851229176
 20
7.2822054511
 30
0.0
 10
14.2861404576
 20
7.2828368748
 30
0.0
 10
14.2868820223
 20
7.2833534219
 30
0.0
 10
14.2873971488
 20
7.2837375292
 30
0.0
 10
14.2877276176
 20
7.2839926976
 30
0.0
 10
14.2880193608
 20
7.2842235492
 30
0.0
 10
14.2882721099
 20
7.2844283109
 30
0.0
 10
14.2884858328
 20
7.2846054982
 30
0.0
 10
14.2886392776
 20
7.2847356051
 30
0.0
 10
14.2887425967
 20
7.2848247501
 30
0.0
 10
14.2888056957
 20
7.2848798046
 30
0.0
 10
14.2888590709
 20
7.2849268419
 30
0.0
 10
14.2889027248
 20
7.2849658313
 30
0.0
 10
14.2889366692
 20
7.2849961895
 30
0.0
 10
14.28895886
 20
7.2850168254
 30
0.0
 10
14.2889717815
 20
7.2850280801
 30
0.0
 10
14.2889778236
 20
7.2850346435
 30
0.0
 10
14.2889814884
 20
7.285036282
 30
0.0
 10
14.2889830717
 20
7.285039577
 30
0.0
 10
14.2889834891
 20
7.2850392156
 30
0.0
  0
LINE
  5
2E1
100
AcDbEntity
  8
0
100
AcDbLine
 62
9
  6
CONTINUOUS
 10
11.7471146602
 20
7.3638295569
 11
11.7439834943
 21
7.3629812737
  0
SPLINE
  5
2E2
100
AcDbEntity
  8
0
100
AcDbSpline
 62
9
  6
CONTINUOUS
 70
0
 71
3
 72
9
 73
5
 74
0
 42
0.0000001
 43
0.0000001
 44
0.0000000001
 40
0.0
 40
0.0
 40
0.0
 40
0.0
 40
0.5201571009
 40
1.0
 40
1.0
 40
1.0
 40
1.0
 10
11.7496272094
 20
7.3647570478
 30
0.0
 10
11.7492202034
 20
7.3645291764
 30
0.0
 10
11.748414228
 20
7.3641316109
 30
0.0
 10
11.7475418482
 20
7.3638813543
 30
0.0
 10
11.747114676
 20
7.3638295502
 30
0.0
  0
SPLINE
  5
2E3
100
AcDbEntity
  8
0
100
AcDbSpline
 62
9
  6
CONTINUOUS
 70
0
 71
3
 72
13
 73
9
 74
0
 42
0.0000001
 43
0.0000001
 44
0.0000000001
 40
0.0
 40
0.0
 40
0.0
 40
0.0
 40
0.247308674
 40
0.3752643273
 40
0.5040629025
 40
0.6322920208
 40
0.7586231551
 40
1.0
 40
1.0
 40
1.0
 40
1.0
 10
11.747114676
 20
7.3638295502
 30
0.0
 10
11.7444833388
 20
7.3649571328
 30
0.0
 10
11.740707151
 20
7.3672600628
 30
0.0
 10
11.7364977837
 20
7.3713221353
 30
0.0
 10
11.7337651061
 20
7.3748648568
 30
0.0
 10
11.7316128784
 20
7.3787657632
 30
0.0
 10
11.7295934249
 20
7.3841550822
 30
0.0
 10
11.7289834898
 20
7.3884437096
 30
0.0
 10
11.7289834891
 20
7.3912378019
 30
0.0
  0
SPLINE
  5
2E4
100
AcDbEntity
  8
0
100
AcDbSpline
 62
9
  6
CONTINUOUS
 70
0
 71
3
 72
13
 73
9
 74
0
 42
0.0000001
 43
0.0000001
 44
0.0000000001
 40
0.0
 40
0.0
 40
0.0
 40
0.0
 40
0.244199758
 40
0.3719146838
 40
0.5010639986
 40
0.630044687
 40
0.7572852453
 40
1.0
 40
1.0
 40
1.0
 40
1.0
 10
11.7496272062
 20
7.3647570483
 30
0.0
 10
11.7467472278
 20
7.3656889822
 30
0.0
 10
11.7425386283
 20
7.3677885188
 30
0.0
 10
11.7377593115
 20
7.3717838836
 30
0.0
 10
11.734598632
 20
7.3754029985
 30
0.0
 10
11.732083818
 20
7.3794907739
 30
0.0
 10
11.7297064379
 20
7.3852203567
 30
0.0
 10
11.7289834892
 20
7.3898476791
 30
0.0
 10
11.7289834891
 20
7.3928562794
 30
0.0
  0
SPLINE
  5
2E5
100
AcDbEntity
  8
0
100
AcDbSpline
 62
9
  6
CONTINUOUS
 70
0
 71
3
 72
9
 73
5
 74
0
 42
0.0000001
 43
0.0000001
 44
0.0000000001
 40
0.0
 40
0.0
 40
0.0
 40
0.0
 40
0.2501389504
 40
1.0
 40
1.0
 40
1.0
 40
1.0
 10
11.7974213219
 20
7.3638295718
 30
0.0
 10
11.7963161578
 20
7.3638541231
 30
0.0
 10
11.7918993918
 20
7.3640202778
 30
0.0
 10
11.7874936132
 20
7.3644059968
 30
0.0
 10
11.7841984004
 20
7.3647569972
 30
0.0
  0
SPLINE
  5
2E6
100
AcDbEntity
  8
0
100
AcDbSpline
 62
9
  6
CONTINUOUS
 70
0
 71
3
 72
13
 73
9
 74
0
 42
0.0000001
 43
0.0000001
 44
0.0000000001
 40
0.0
 40
0.0
 40
0.0
 40
0.0
 40
0.2505944997
 40
0.3758371986
 40
0.5010015438
 40
0.6260471853
 40
0.7509317938
 40
1.0
 40
1.0
 40
1.0
 40
1.0
 10
11.8489835755
 20
7.3629812775
 30
0.0
 10
11.8446756446
 20
7.3629945881
 30
0.0
 10
11.8382146407
 20
7.3630037839
 30
0.0
 10
11.8296021379
 20
7.3630641642
 30
0.0
 10
11.8231481997
 20
7.3631414861
 30
0.0
 10
11.8167008359
 20
7.3632490697
 30
0.0
 10
11.808124541
 20
7.3634293828
 30
0.0
 10
11.8016985
 20
7.3636325781
 30
0.0
 10
11.7974213202
 20
7.3638295551
 30
0.0
  0
SPLINE
  5
2E7
100
AcDbEntity
  8
0
100
AcDbSpline
 62
9
  6
CONTINUOUS
 70
0
 71
3
 72
11
 73
7
 74
0
 42
0.0000001
 43
0.0000001
 44
0.0000000001
 40
0.0
 40
0.0
 40
0.0
 40
0.0
 40
0.2490652008
 40
0.4989894716
 40
0.7494007932
 40
1.0
 40
1.0
 40
1.0
 40
1.0
 10
14.2805469701
 20
7.3638295569
 30
0.0
 10
14.2762697877
 20
7.3636319887
 30
0.0
 10
14.2676949566
 20
7.3633622139
 30
0.0
 10
14.2548137944
 20
7.3631341309
 30
0.0
 10
14.2419048752
 20
7.3629995173
 30
0.0
 10
14.233291791
 20
7.3629720618
 30
0.0
 10
14.2289836865
 20
7.3629812737
 30
0.0
  0
SPLINE
  5
2E8
100
AcDbEntity
  8
0
100
AcDbSpline
 62
9
  6
CONTINUOUS
 70
0
 71
3
 72
9
 73
5
 74
0
 42
0.0000001
 43
0.0000001
 44
0.0000000001
 40
0.0
 40
0.0
 40
0.0
 40
0.0
 40
0.749859938
 40
1.0
 40
1.0
 40
1.0
 40
1.0
 10
14.2937681785
 20
7.3647570478
 30
0.0
 10
14.2904734838
 20
7.3644052556
 30
0.0
 10
14.2860681854
 20
7.3640201003
 30
0.0
 10
14.2816519914
 20
7.363854374
 30
0.0
 10
14.2805469708
 20
7.3638295502
 30
0.0
  0
SPLINE
  5
2E9
100
AcDbEntity
  8
0
100
AcDbSpline
 62
9
  6
CONTINUOUS
 70
0
 71
3
 72
18
 73
14
 74
0
 42
0.0000001
 43
0.0000001
 44
0.0000000001
 40
0.0
 40
0.0
 40
0.0
 40
0.0
 40
0.1803110419
 40
0.3519176502
 40
0.5107413897
 40
0.6527027947
 40
0.7741594542
 40
0.8265769758
 40
0.8732218202
 40
0.9139472278
 40
0.9486458706
 40
0.9772863669
 40
1.0
 40
1.0
 40
1.0
 40
1.0
 10
14.293767674
 20
7.3647574102
 30
0.0
 10
14.2958456951
 20
7.364979416
 30
0.0
 10
14.2999069175
 20
7.3653629351
 30
0.0
 10
14.3058124505
 20
7.3657784461
 30
0.0
 10
14.3112825134
 20
7.3660286315
 30
0.0
 10
14.316176158
 20
7.366118032
 30
0.0
 10
14.3198375928
 20
7.3660617998
 30
0.0
 10
14.3223899644
 20
7.3659221189
 30
0.0
 10
14.3240043999
 20
7.3657814319
 30
0.0
 10
14.325407963
 20
7.3655998246
 30
0.0
 10
14.3265945232
 20
7.365377263
 30
0.0
 10
14.3275574984
 20
7.3651141443
 30
0.0
 10
14.328111207
 20
7.3648860808
 30
0.0
 10
14.3283408483
 20
7.3647573614
 30
0.0
  0
SPLINE
  5
2EA
100
AcDbEntity
  8
0
100
AcDbSpline
 62
9
  6
CONTINUOUS
 70
0
 71
3
 72
18
 73
14
 74
0
 42
0.0000001
 43
0.0000001
 44
0.0000000001
 40
0.0
 40
0.0
 40
0.0
 40
0.0
 40
0.1401487224
 40
0.2835054526
 40
0.4262912048
 40
0.5642439371
 40
0.6932828757
 40
0.7534553184
 40
0.810234107
 40
0.8633290264
 40
0.9126611322
 40
0.9582148541
 40
1.0
 40
1.0
 40
1.0
 40
1.0
 10
14.2529834887
 20
7.2816050837
 30
0.0
 10
14.2532816474
 20
7.2857134542
 30
0.0
 10
14.2541143087
 20
7.2940092242
 30
0.0
 10
14.2560535799
 20
7.3063943873
 30
0.0
 10
14.2587296909
 20
7.3185770555
 30
0.0
 10
14.2620753017
 20
7.3301567847
 30
0.0
 10
14.2654477643
 20
7.3391750126
 30
0.0
 10
14.2684308137
 20
7.3457634474
 30
0.0
 10
14.270713124
 20
7.3502124192
 30
0.0
 10
14.2730777789
 20
7.354253279
 30
0.0
 10
14.2755004019
 20
7.3578691362
 30
0.0
 10
14.2779586976
 20
7.3610500356
 30
0.0
 10
14.2796818884
 20
7.3629574886
 30
0.0
 10
14.280546653
 20
7.3638295418
 30
0.0
  0
SPLINE
  5
2EB
100
AcDbEntity
  8
0
100
AcDbSpline
 62
9
  6
CONTINUOUS
 70
0
 71
3
 72
10
 73
6
 74
0
 42
0.0000001
 43
0.0000001
 44
0.0000000001
 40
0.0
 40
0.0
 40
0.0
 40
0.0
 40
0.2345994435
 40
0.4802667338
 40
1.0
 40
1.0
 40
1.0
 40
1.0
 10
14.3308526638
 20
7.3638295718
 30
0.0
 10
14.3306435484
 20
7.3638545772
 30
0.0
 10
14.3302194966
 20
7.3639414024
 30
0.0
 10
14.32936582
 20
7.3642232655
 30
0.0
 10
14.3287472771
 20
7.3645302267
 30
0.0
 10
14.3283395167
 20
7.3647569972
 30
0.0
  0
SPLINE
  5
2EC
100
AcDbEntity
  8
0
100
AcDbSpline
 62
9
  6
CONTINUOUS
 70
0
 71
3
 72
15
 73
11
 74
0
 42
0.0000001
 43
0.0000001
 44
0.0000000001
 40
0.0
 40
0.0
 40
0.0
 40
0.0
 40
0.1249083314
 40
0.2528385592
 40
0.3823233553
 40
0.511642867
 40
0.6392468737
 40
0.7638458028
 40
0.8842950259
 40
1.0
 40
1.0
 40
1.0
 40
1.0
 10
14.2839745029
 20
7.2816051358
 30
0.0
 10
14.2838427077
 20
7.2857661909
 30
0.0
 10
14.2841208902
 20
7.2942155568
 30
0.0
 10
14.2861939247
 20
7.3068264157
 30
0.0
 10
14.2900446452
 20
7.3191719359
 30
0.0
 10
14.2955800218
 20
7.3308510886
 30
0.0
 10
14.3027104598
 20
7.3414369223
 30
0.0
 10
14.3111249717
 20
7.3506379582
 30
0.0
 10
14.3205417271
 20
7.3581862415
 30
0.0
 10
14.3273788032
 20
7.3621548252
 30
0.0
 10
14.3308525592
 20
7.3638295858
 30
0.0
  0
SPLINE
  5
2ED
100
AcDbEntity
  8
0
100
AcDbSpline
 62
9
  6
CONTINUOUS
 70
0
 71
3
 72
13
 73
9
 74
0
 42
0.0000001
 43
0.0000001
 44
0.0000000001
 40
0.0
 40
0.0
 40
0.0
 40
0.0
 40
0.2448055207
 40
0.3726851972
 40
0.5018916543
 40
0.6308125535
 40
0.7578871089
 40
1.0
 40
1.0
 40
1.0
 40
1.0
 10
14.3283395167
 20
7.3647569972
 30
0.0
 10
14.3312266663
 20
7.3656912211
 30
0.0
 10
14.3354436817
 20
7.3677968689
 30
0.0
 10
14.3402274677
 20
7.3718030459
 30
0.0
 10
14.3433859057
 20
7.3754268666
 30
0.0
 10
14.345895528
 20
7.379515379
 30
0.0
 10
14.3482638899
 20
7.3852375664
 30
0.0
 10
14.3489834901
 20
7.389855099
 30
0.0
 10
14.3489834891
 20
7.3928562577
 30
0.0
  0
SPLINE
  5
2EE
100
AcDbEntity
  8
0
100
AcDbSpline
 62
9
  6
CONTINUOUS
 70
0
 71
3
 72
18
 73
14
 74
0
 42
0.0000001
 43
0.0000001
 44
0.0000000001
 40
0.0
 40
0.0
 40
0.0
 40
0.0
 40
0.1422849135
 40
0.28719814
 40
0.4308000296
 40
0.5688131892
 40
0.6972100969
 40
0.7568624697
 40
0.8130284849
 40
0.8654462997
 40
0.9140679151
 40
0.9589073529
 40
1.0
 40
1.0
 40
1.0
 40
1.0
 10
11.8249837308
 20
7.2816051358
 30
0.0
 10
11.8246810257
 20
7.28577612
 30
0.0
 10
11.8238336812
 20
7.2941796919
 30
0.0
 10
11.8218597919
 20
7.3066937756
 30
0.0
 10
11.819145938
 20
7.3189415412
 30
0.0
 10
11.8157718018
 20
7.330520274
 30
0.0
 10
11.8123866556
 20
7.3394991848
 30
0.0
 10
11.8094061591
 20
7.3460314526
 30
0.0
 10
11.8071355848
 20
7.3504265821
 30
0.0
 10
11.8047901522
 20
7.3544104769
 30
0.0
 10
11.8023937421
 20
7.3579694116
 30
0.0
 10
11.7999680608
 20
7.3610967196
 30
0.0
 10
11.7982711718
 20
7.3629719827
 30
0.0
 10
11.7974207442
 20
7.3638295858
 30
0.0
  0
SPLINE
  5
2EF
100
AcDbEntity
  8
0
100
AcDbSpline
 62
9
  6
CONTINUOUS
 70
0
 71
3
 72
15
 73
11
 74
0
 42
0.0000001
 43
0.0000001
 44
0.0000000001
 40
0.0
 40
0.0
 40
0.0
 40
0.0
 40
0.1230348766
 40
0.2495591369
 40
0.3781998153
 40
0.5072601555
 40
0.6352123994
 40
0.7606993859
 40
0.8825244332
 40
1.0
 40
1.0
 40
1.0
 40
1.0
 10
11.7939925806
 20
7.2816050837
 30
0.0
 10
11.7941223994
 20
7.2857037199
 30
0.0
 10
11.7938566273
 20
7.2940429656
 30
0.0
 10
11.7918387618
 20
7.306522299
 30
0.0
 10
11.7880632202
 20
7.3188025159
 30
0.0
 10
11.7825941851
 20
7.3304847138
 30
0.0
 10
11.7754976713
 20
7.3411326455
 30
0.0
 10
11.7670650715
 20
7.3504362554
 30
0.0
 10
11.7575654788
 20
7.3580983478
 30
0.0
 10
11.7506415251
 20
7.3621291543
 30
0.0
 10
11.7471146201
 20
7.3638295418
 30
0.0
  0
SPLINE
  5
2F0
100
AcDbEntity
  8
0
100
AcDbSpline
 62
9
  6
CONTINUOUS
 70
0
 71
3
 72
18
 73
14
 74
0
 42
0.0000001
 43
0.0000001
 44
0.0000000001
 40
0.0
 40
0.0
 40
0.0
 40
0.0
 40
0.0227200893
 40
0.0513813525
 40
0.0861108785
 40
0.1268725757
 40
0.1735543082
 40
0.2260045059
 40
0.347494744
 40
0.4894279635
 40
0.6481854381
 40
0.8197236629
 40
1.0
 40
1.0
 40
1.0
 40
1.0
 10
11.7496258629
 20
7.3647574102
 30
0.0
 10
11.7498555592
 20
7.3648861809
 30
0.0
 10
11.7504096127
 20
7.3651142577
 30
0.0
 10
11.7513732833
 20
7.3653773416
 30
0.0
 10
11.7525608771
 20
7.3655998822
 30
0.0
 10
11.7539656468
 20
7.3657814754
 30
0.0
 10
11.7555813033
 20
7.3659221504
 30
0.0
 10
11.7581348554
 20
7.3660617988
 30
0.0
 10
11.7617967047
 20
7.3661180356
 30
0.0
 10
11.7666896104
 20
7.3660286217
 30
0.0
 10
11.7721577441
 20
7.3657783897
 30
0.0
 10
11.778061264
 20
7.3653628213
 30
0.0
 10
11.7821212585
 20
7.3649793235
 30
0.0
 10
11.7841988652
 20
7.3647573614
 30
0.0
  0
LINE
  5
2F1
100
AcDbEntity
  8
0
100
AcDbLine
 62
9
  6
CONTINUOUS
 10
14.3339834905
 20
7.3629812775
 11
14.3308526248
 21
7.3638295551
  0
SPLINE
  5
2F2
100
AcDbEntity
  8
0
100
AcDbSpline
 62
9
  6
CONTINUOUS
 70
0
 71
3
 72
13
 73
9
 74
0
 42
0.0000001
 43
0.0000001
 44
0.0000000001
 40
0.0
 40
0.0
 40
0.0
 40
0.0
 40
0.2447834957
 40
0.3720633135
 40
0.5006314703
 40
0.629106823
 40
0.7561225741
 40
1.0
 40
1.0
 40
1.0
 40
1.0
 10
14.3308526248
 20
7.3638295551
 30
0.0
 10
14.3334570652
 20
7.364945653
 30
0.0
 10
14.3372029154
 20
7.3672226356
 30
0.0
 10
14.341397128
 20
7.3712428084
 30
0.0
 10
14.3441386772
 20
7.3747688328
 30
0.0
 10
14.3463098939
 20
7.3786685787
 30
0.0
 10
14.3483617144
 20
7.3840883428
 30
0.0
 10
14.3489834922
 20
7.3884148127
 30
0.0
 10
14.3489834891
 20
7.3912378354
 30
0.0
  0
SPLINE
  5
2F3
100
AcDbEntity
  8
0
100
AcDbSpline
 62
9
  6
CONTINUOUS
 70
0
 71
3
 72
17
 73
13
 74
0
 42
0.0000001
 43
0.0000001
 44
0.0000000001
 40
0.0
 40
0.0
 40
0.0
 40
0.0
 40
0.0415220585
 40
0.0840592624
 40
0.1285827844
 40
0.1757093097
 40
0.2789503786
 40
0.3952628791
 40
0.5249723425
 40
0.6686282077
 40
0.8268986446
 40
1.0
 40
1.0
 40
1.0
 40
1.0
 10
11.8974148308
 20
7.2855538693
 30
0.0
 10
11.8977966735
 20
7.2851983385
 30
0.0
 10
11.8986354868
 20
7.2845465358
 30
0.0
 10
11.9000578536
 20
7.2837688485
 30
0.0
 10
11.9016353562
 20
7.2831620746
 30
0.0
 10
11.9040043323
 20
7.2825287303
 30
0.0
 10
11.907335253
 20
7.2820695715
 30
0.0
 10
11.9117254183
 20
7.2819295235
 30
0.0
 10
11.9166224395
 20
7.2821071542
 30
0.0
 10
11.92201914
 20
7.2826917165
 30
0.0
 10
11.9278968916
 20
7.2837630965
 30
0.0
 10
11.9319178386
 20
7.2848737198
 30
0.0
 10
11.9339838168
 20
7.2855538693
 30
0.0
  0
LINE
  5
2F4
100
AcDbEntity
  8
0
100
AcDbLine
 62
9
  6
CONTINUOUS
 10
11.858628572
 20
7.3626280305
 11
11.85648349
 21
7.3623701835
  0
SPLINE
  5
2F5
100
AcDbEntity
  8
0
100
AcDbSpline
 62
9
  6
CONTINUOUS
 70
0
 71
3
 72
13
 73
9
 74
0
 42
0.0000001
 43
0.0000001
 44
0.0000000001
 40
0.0
 40
0.0
 40
0.0
 40
0.0
 40
0.1228999029
 40
0.248621424
 40
0.5028834293
 40
0.7555647299
 40
0.8794884142
 40
1.0
 40
1.0
 40
1.0
 40
1.0
 10
11.8586286101
 20
7.362628008
 30
0.0
 10
11.8575412816
 20
7.3632737726
 30
0.0
 10
11.8554278808
 20
7.3647315588
 30
0.0
 10
11.8515651535
 20
7.3681885919
 30
0.0
 10
11.8475527295
 20
7.3734200737
 30
0.0
 10
11.8451269572
 20
7.3795301978
 30
0.0
 10
11.8441520247
 20
7.3845608708
 30
0.0
 10
11.8439834895
 20
7.3870791255
 30
0.0
 10
11.8439834891
 20
7.3883191823
 30
0.0
  0
SPLINE
  5
2F6
100
AcDbEntity
  8
0
100
AcDbSpline
 62
9
  6
CONTINUOUS
 70
0
 71
3
 72
9
 73
5
 74
0
 42
0.0000001
 43
0.0000001
 44
0.0000000001
 40
0.0
 40
0.0
 40
0.0
 40
0.0
 40
0.5304098927
 40
1.0
 40
1.0
 40
1.0
 40
1.0
 10
11.8606351139
 20
7.3629464617
 30
0.0
 10
11.8602956614
 20
7.3628216732
 30
0.0
 10
11.8596384182
 20
7.3626283742
 30
0.0
 10
11.8589463944
 20
7.3625888097
 30
0.0
 10
11.8586286101
 20
7.362628008
 30
0.0
  0
SPLINE
  5
2F7
100
AcDbEntity
  8
0
100
AcDbSpline
 62
9
  6
CONTINUOUS
 70
0
 71
3
 72
16
 73
12
 74
0
 42
0.0000001
 43
0.0000001
 44
0.0000000001
 40
0.0
 40
0.0
 40
0.0
 40
0.0
 40
0.0443189184
 40
0.0921903982
 40
0.1981463363
 40
0.316695042
 40
0.4454497199
 40
0.581548312
 40
0.7216003178
 40
0.8621315036
 40
1.0
 40
1.0
 40
1.0
 40
1.0
 10
11.9101181546
 20
7.3626279538
 30
0.0
 10
11.9108011061
 20
7.3616392082
 30
0.0
 10
11.9121613244
 20
7.359540302
 30
0.0
 10
11.9148577214
 20
7.3548914092
 30
0.0
 10
11.9181264841
 20
7.3482586832
 30
0.0
 10
11.921728622
 20
7.3393764952
 30
0.0
 10
11.925051193
 20
7.3295199802
 30
0.0
 10
11.9279905577
 20
7.3189371634
 30
0.0
 10
11.930496815
 20
7.3079164616
 30
0.0
 10
11.9325149699
 20
7.2967478771
 30
0.0
 10
11.9335487601
 20
7.2892678515
 30
0.0
 10
11.9339834896
 20
7.2855549891
 30
0.0
  0
SPLINE
  5
2F8
100
AcDbEntity
  8
0
100
AcDbSpline
 62
9
  6
CONTINUOUS
 70
0
 71
3
 72
18
 73
14
 74
0
 42
0.0000001
 43
0.0000001
 44
0.0000000001
 40
0.0
 40
0.0
 40
0.0
 40
0.0
 40
0.0227852494
 40
0.051715923
 40
0.0867417825
 40
0.1277399859
 40
0.1745542251
 40
0.2270108233
 40
0.3481071674
 40
0.4892001796
 40
0.6471781399
 40
0.8185965874
 40
1.0
 40
1.0
 40
1.0
 40
1.0
 10
11.8606336492
 20
7.3629472304
 30
0.0
 10
11.8609098884
 20
7.3630501746
 30
0.0
 10
11.8615559905
 20
7.3632313385
 30
0.0
 10
11.8626584431
 20
7.3634436057
 30
0.0
 10
11.8640047098
 20
7.3636257211
 30
0.0
 10
11.8655870833
 20
7.3637765321
 30
0.0
 10
11.8673982542
 20
7.3638949299
 30
0.0
 10
11.8702470929
 20
7.3640139922
 30
0.0
 10
11.8743185332
 20
7.3640639285
 30
0.0
 10
11.879754533
 20
7.3639852121
 30
0.0
 10
11.8858384171
 20
7.3637724931
 30
0.0
 10
11.8924385175
 20
7.3634289323
 30
0.0
 10
11.8969932176
 20
7.3631218271
 30
0.0
 10
11.8993337178
 20
7.3629470973
 30
0.0
  0
SPLINE
  5
2F9
100
AcDbEntity
  8
0
100
AcDbSpline
 62
9
  6
CONTINUOUS
 70
0
 71
3
 72
15
 73
11
 74
0
 42
0.0000001
 43
0.0000001
 44
0.0000000001
 40
0.0
 40
0.0
 40
0.0
 40
0.0
 40
0.0909414767
 40
0.1957429765
 40
0.3133919566
 40
0.4416688277
 40
0.5778526673
 40
0.718587852
 40
0.8603874738
 40
1.0
 40
1.0
 40
1.0
 40
1.0
 10
14.1678482791
 20
7.3626280219
 30
0.0
 10
14.1664469305
 20
7.3605991864
 30
0.0
 10
14.163689017
 20
7.3560526416
 30
0.0
 10
14.1599179186
 20
7.3484295704
 30
0.0
 10
14.1563274433
 20
7.3396161367
 30
0.0
 10
14.1530008942
 20
7.3297985548
 30
0.0
 10
14.1500449823
 20
7.3192123624
 30
0.0
 10
14.1475142944
 20
7.308140862
 30
0.0
 10
14.1454704825
 20
7.2968753206
 30
0.0
 10
14.1444234201
 20
7.2893148042
 30
0.0
 10
14.1439832054
 20
7.2855550824
 30
0.0
  0
LINE
  5
2FA
100
AcDbEntity
  8
0
100
AcDbLine
 62
9
  6
CONTINUOUS
 10
14.1678492036
 20
7.3626280305
 11
14.1239836582
 21
7.3623701835
  0
LINE
  5
2FB
100
AcDbEntity
  8
0
100
AcDbLine
 62
9
  6
CONTINUOUS
 10
11.953983531
 20
7.3623701841
 11
11.9101189372
 21
7.3626279458
  0
SPLINE
  5
2FC
100
AcDbEntity
  8
0
100
AcDbSpline
 62
9
  6
CONTINUOUS
 70
0
 71
3
 72
10
 73
6
 74
0
 42
0.0000001
 43
0.0000001
 44
0.0000000001
 40
0.0
 40
0.0
 40
0.0
 40
0.0
 40
0.2505941253
 40
0.625674464
 40
1.0
 40
1.0
 40
1.0
 40
1.0
 10
11.910118939
 20
7.3626279687
 30
0.0
 10
11.9092174856
 20
7.362609423
 30
0.0
 10
11.9069660419
 20
7.362595553
 30
0.0
 10
11.9033683399
 20
7.3626853915
 30
0.0
 10
11.900676278
 20
7.3628469304
 30
0.0
 10
11.899333124
 20
7.362946411
 30
0.0
  0
SPLINE
  5
2FD
100
AcDbEntity
  8
0
100
AcDbSpline
 62
9
  6
CONTINUOUS
 70
0
 71
3
 72
13
 73
9
 74
0
 42
0.0000001
 43
0.0000001
 44
0.0000000001
 40
0.0
 40
0.0
 40
0.0
 40
0.0
 40
0.121421987
 40
0.2463901855
 40
0.5003551255
 40
0.7540903988
 40
0.8788124992
 40
1.0
 40
1.0
 40
1.0
 40
1.0
 10
11.86063511
 20
7.3629464602
 30
0.0
 10
11.8594402361
 20
7.3635311583
 30
0.0
 10
11.8570976034
 20
7.3648936367
 30
0.0
 10
11.8527562579
 20
7.3682576182
 30
0.0
 10
11.8481516944
 20
7.3735749089
 30
0.0
 10
11.8453321571
 20
7.3800183589
 30
0.0
 10
11.8441846157
 20
7.3853820512
 30
0.0
 10
11.8439834894
 20
7.3880800086
 30
0.0
 10
11.8439834891
 20
7.3894077011
 30
0.0
  0
SPLINE
  5
2FE
100
AcDbEntity
  8
0
100
AcDbSpline
 62
9
  6
CONTINUOUS
 70
0
 71
3
 72
10
 73
6
 74
0
 42
0.0000001
 43
0.0000001
 44
0.0000000001
 40
0.0
 40
0.0
 40
0.0
 40
0.0
 40
0.251383889
 40
0.6272526092
 40
1.0
 40
1.0
 40
1.0
 40
1.0
 10
11.9339835146
 20
7.2855549019
 30
0.0
 10
11.9356084551
 20
7.2860900016
 30
0.0
 10
11.9396937686
 20
7.2873341679
 30
0.0
 10
11.9463473305
 20
7.2888202607
 30
0.0
 10
11.9514467783
 20
7.2892691294
 30
0.0
 10
11.9539834891
 20
7.2892691339
 30
0.0
  0
SPLINE
  5
2FF
100
AcDbEntity
  8
0
100
AcDbSpline
 62
9
  6
CONTINUOUS
 70
0
 71
3
 72
28
 73
24
 74
0
 42
0.0000001
 43
0.0000001
 44
0.0000000001
 40
0.0
 40
0.0
 40
0.0
 40
0.0
 40
0.1936302774
 40
0.3799770309
 40
0.4680185432
 40
0.5515543235
 40
0.6298029771
 40
0.7020004821
 40
0.7674225365
 40
0.825474043
 40
0.8755952476
 40
0.89752891
 40
0.9173259905
 40
0.9349560599
 40
0.9503942596
 40
0.9636252778
 40
0.974659336
 40
0.9835583853
 40
0.9904595013
 40
0.9932553807
 40
0.995698948
 40
0.9978980921
 40
1.0
 40
1.0
 40
1.0
 40
1.0
 10
11.9039834891
 20
7.3894076569
 30
0.0
 10
11.9000923668
 20
7.3897478537
 30
0.0
 10
11.8924483551
 20
7.3903246433
 30
0.0
 10
11.8830209002
 20
7.3908419821
 30
0.0
 10
11.875806362
 20
7.3911291168
 30
0.0
 10
11.8707689592
 20
7.3912795759
 30
0.0
 10
11.8660497864
 20
7.3913705507
 30
0.0
 10
11.8616952342
 20
7.391402553
 30
0.0
 10
11.8577480183
 20
7.3913763988
 30
0.0
 10
11.8542470489
 20
7.3912917143
 30
0.0
 10
11.8516250117
 20
7.3911682212
 30
0.0
 10
11.8497769681
 20
7.3910332474
 30
0.0
 10
11.8485846722
 20
7.3909211633
 30
0.0
 10
11.8475257659
 20
7.3907936053
 30
0.0
 10
11.8466025841
 20
7.3906504288
 30
0.0
 10
11.8458172714
 20
7.3904915842
 30
0.0
 10
11.8451706231
 20
7.3903168982
 30
0.0
 10
11.8446631503
 20
7.3901265841
 30
0.0
 10
11.8443323302
 20
7.3899429206
 30
0.0
 10
11.8441472396
 20
7.3897810321
 30
0.0
 10
11.8440535458
 20
7.3896624077
 30
0.0
 10
11.8439961411
 20
7.3895373822
 30
0.0
 10
11.8439835005
 20
7.3894500965
 30
0.0
 10
11.8439834891
 20
7.3894076962
 30
0.0
  0
SPLINE
  5
300
100
AcDbEntity
  8
0
100
AcDbSpline
 62
9
  6
CONTINUOUS
 70
0
 71
3
 72
9
 73
5
 74
0
 42
0.0000001
 43
0.0000001
 44
0.0000000001
 40
0.0
 40
0.0
 40
0.0
 40
0.0
 40
0.4976192294
 40
1.0
 40
1.0
 40
1.0
 40
1.0
 10
14.1239834891
 20
7.2892692911
 30
0.0
 10
14.1273682659
 20
7.2892693031
 30
0.0
 10
14.1341762874
 20
7.2884687007
 30
0.0
 10
14.1407377966
 20
7.2866238702
 30
0.0
 10
14.1439835069
 20
7.2855550496
 30
0.0
  0
SPLINE
  5
301
100
AcDbEntity
  8
0
100
AcDbSpline
 62
9
  6
CONTINUOUS
 70
0
 71
3
 72
17
 73
13
 74
0
 42
0.0000001
 43
0.0000001
 44
0.0000000001
 40
0.0
 40
0.0
 40
0.0
 40
0.0
 40
0.1730928525
 40
0.3313542597
 40
0.475011009
 40
0.6047249937
 40
0.7210381284
 40
0.8242800646
 40
0.8714090922
 40
0.9159359593
 40
0.9584762369
 40
1.0
 40
1.0
 40
1.0
 40
1.0
 10
14.1439831615
 20
7.2855538693
 30
0.0
 10
14.1460490376
 20
7.2848737502
 30
0.0
 10
14.1500697678
 20
7.2837631663
 30
0.0
 10
14.155947319
 20
7.282691847
 30
0.0
 10
14.1613439711
 20
7.2821072723
 30
0.0
 10
14.1662410632
 20
7.2819295318
 30
0.0
 10
14.1706313097
 20
7.2820694572
 30
0.0
 10
14.1739622886
 20
7.2825285902
 30
0.0
 10
14.1763313455
 20
7.283161962
 30
0.0
 10
14.1779089534
 20
7.2837687746
 30
0.0
 10
14.1793314174
 20
7.2845464964
 30
0.0
 10
14.1801702881
 20
7.2851983248
 30
0.0
 10
14.1805521475
 20
7.2855538693
 30
0.0
  0
SPLINE
  5
302
100
AcDbEntity
  8
0
100
AcDbSpline
 62
9
  6
CONTINUOUS
 70
0
 71
3
 72
26
 73
22
 74
0
 42
0.0000001
 43
0.0000001
 44
0.0000000001
 40
0.0
 40
0.0
 40
0.0
 40
0.0
 40
0.2207012436
 40
0.417209919
 40
0.5880415086
 40
0.6633442418
 40
0.7316355624
 40
0.7927090644
 40
0.8463543596
 40
0.8923572823
 40
0.9305000839
 40
0.9465550175
 40
0.9605617259
 40
0.9724920635
 40
0.9823176939
 40
0.9900100943
 40
0.9955405607
 40
0.9974860517
 40
0.9988802149
 40
0.9997194135
 40
1.0
 40
1.0
 40
1.0
 40
1.0
 10
14.1805520406
 20
7.2855549019
 30
0.0
 10
14.1808245733
 20
7.2858087492
 30
0.0
 10
14.1813329273
 20
7.2862960316
 30
0.0
 10
14.1820295135
 20
7.2870029553
 30
0.0
 10
14.1825393316
 20
7.2875490343
 30
0.0
 10
14.182893611
 20
7.2879440533
 30
0.0
 10
14.1831209946
 20
7.2882040398
 30
0.0
 10
14.1833214819
 20
7.2884389633
 30
0.0
 10
14.1834951069
 20
7.2886473382
 30
0.0
 10
14.1836419005
 20
7.2888276786
 30
0.0
 10
14.1837471851
 20
7.2889599998
 30
0.0
 10
14.1838180675
 20
7.28905068
 30
0.0
 10
14.1838614152
 20
7.2891067429
 30
0.0
 10
14.1838980557
 20
7.2891546863
 30
0.0
 10
14.1839280874
 20
7.2891943145
 30
0.0
 10
14.1839512602
 20
7.289225468
 30
0.0
 10
14.183966773
 20
7.2892460089
 30
0.0
 10
14.1839752578
 20
7.2892581126
 30
0.0
 10
14.1839800376
 20
7.2892637432
 30
0.0
 10
14.183981433
 20
7.2892672878
 30
0.0
 10
14.1839836819
 20
7.2892687015
 30
0.0
 10
14.1839834891
 20
7.2892691339
 30
0.0
  0
SPLINE
  5
303
100
AcDbEntity
  8
0
100
AcDbSpline
 62
9
  6
CONTINUOUS
 70
0
 71
3
 72
14
 73
10
 74
0
 42
0.0000001
 43
0.0000001
 44
0.0000000001
 40
0.0
 40
0.0
 40
0.0
 40
0.0
 40
0.0676248677
 40
0.1422158888
 40
0.2314158417
 40
0.3397416881
 40
0.4696662612
 40
0.6225630236
 40
1.0
 40
1.0
 40
1.0
 40
1.0
 10
14.2339834891
 20
7.3894076569
 30
0.0
 10
14.2339834789
 20
7.3894663607
 30
0.0
 10
14.2339575962
 20
7.3895910198
 30
0.0
 10
14.233844297
 20
7.3897610439
 30
0.0
 10
14.2336647859
 20
7.3899173172
 30
0.0
 10
14.2334199999
 20
7.3900637035
 30
0.0
 10
14.2331091837
 20
7.3902018115
 30
0.0
 10
14.2325668657
 20
7.3903887194
 30
0.0
 10
14.2321178865
 20
7.3904953635
 30
0.0
 10
14.231796972
 20
7.3905614346
 30
0.0
  0
SPLINE
  5
304
100
AcDbEntity
  8
0
100
AcDbSpline
 62
9
  6
CONTINUOUS
 70
0
 71
3
 72
17
 73
13
 74
0
 42
0.0000001
 43
0.0000001
 44
0.0000000001
 40
0.0
 40
0.0
 40
0.0
 40
0.0
 40
0.0261267458
 40
0.0585112341
 40
0.0970102544
 40
0.1414350303
 40
0.2468991239
 40
0.3722798474
 40
0.5141756077
 40
0.6688433443
 40
0.8323314738
 40
1.0
 40
1.0
 40
1.0
 40
1.0
 10
14.231796972
 20
7.3905614346
 30
0.0
 10
14.2313029878
 20
7.390663138
 30
0.0
 10
14.2301857983
 20
7.3908370095
 30
0.0
 10
14.2283227883
 20
7.3910300034
 30
0.0
 10
14.2261017281
 20
7.3911822011
 30
0.0
 10
14.2224683446
 20
7.3913406025
 30
0.0
 10
14.2171541913
 20
7.3914180401
 30
0.0
 10
14.2099587975
 20
7.3913542895
 30
0.0
 10
14.2018162984
 20
7.3911313015
 30
0.0
 10
14.1929436073
 20
7.3907445914
 30
0.0
 10
14.1835817683
 20
7.3901831316
 30
0.0
 10
14.1772078198
 20
7.3896896765
 30
0.0
 10
14.173983489
 20
7.3894076962
 30
0.0
  0
SPLINE
  5
305
100
AcDbEntity
  8
0
100
AcDbSpline
 62
9
  6
CONTINUOUS
 70
0
 71
3
 72
9
 73
5
 74
0
 42
0.0000001
 43
0.0000001
 44
0.0000000001
 40
0.0
 40
0.0
 40
0.0
 40
0.0
 40
0.4695534774
 40
1.0
 40
1.0
 40
1.0
 40
1.0
 10
14.2193384579
 20
7.3626279687
 30
0.0
 10
14.2190206434
 20
7.3625889957
 30
0.0
 10
14.2183286037
 20
7.3626282222
 30
0.0
 10
14.2176712916
 20
7.3628216516
 30
0.0
 10
14.2173317687
 20
7.362946411
 30
0.0
  0
SPLINE
  5
306
100
AcDbEntity
  8
0
100
AcDbSpline
 62
9
  6
CONTINUOUS
 70
0
 71
3
 72
13
 73
9
 74
0
 42
0.0000001
 43
0.0000001
 44
0.0000000001
 40
0.0
 40
0.0
 40
0.0
 40
0.0
 40
0.121989917
 40
0.2473846805
 40
0.5017263513
 40
0.7550802419
 40
0.8793768774
 40
1.0
 40
1.0
 40
1.0
 40
1.0
 10
14.2173317687
 20
7.362946411
 30
0.0
 10
14.2185322372
 20
7.3635338401
 30
0.0
 10
14.2208838744
 20
7.3649028489
 30
0.0
 10
14.2252337647
 20
7.3682804773
 30
0.0
 10
14.2298354055
 20
7.3736067451
 30
0.0
 10
14.2326454504
 20
7.3800489777
 30
0.0
 10
14.2337843191
 20
7.3853990879
 30
0.0
 10
14.2339834894
 20
7.3880861516
 30
0.0
 10
14.2339834891
 20
7.3894076645
 30
0.0
  0
LINE
  5
307
100
AcDbEntity
  8
0
100
AcDbLine
 62
9
  6
CONTINUOUS
 10
14.2214834891
 20
7.3623701841
 11
14.2193384194
 21
7.3626279458
  0
SPLINE
  5
308
100
AcDbEntity
  8
0
100
AcDbSpline
 62
9
  6
CONTINUOUS
 70
0
 71
3
 72
13
 73
9
 74
0
 42
0.0000001
 43
0.0000001
 44
0.0000000001
 40
0.0
 40
0.0
 40
0.0
 40
0.0
 40
0.121830811
 40
0.2467555524
 40
0.5003230112
 40
0.7537088843
 40
0.8784285775
 40
1.0
 40
1.0
 40
1.0
 40
1.0
 10
14.2193384194
 20
7.3626279458
 30
0.0
 10
14.2204162873
 20
7.3632680965
 30
0.0
 10
14.2225146876
 20
7.3647133702
 30
0.0
 10
14.2263636579
 20
7.3681460528
 30
0.0
 10
14.2303816322
 20
7.3733625969
 30
0.0
 10
14.2328230459
 20
7.379475822
 30
0.0
 10
14.2338118473
 20
7.384530768
 30
0.0
 10
14.2339834889
 20
7.3870682032
 30
0.0
 10
14.2339834891
 20
7.3883191656
 30
0.0
  0
LINE
  5
309
100
AcDbEntity
  8
0
100
AcDbLine
 62
9
  6
CONTINUOUS
 10
11.9121650847
 20
7.3883191833
 11
11.9039834902
 21
7.3894076625
  0
SPLINE
  5
30A
100
AcDbEntity
  8
0
100
AcDbSpline
 62
9
  6
CONTINUOUS
 70
0
 71
3
 72
9
 73
5
 74
0
 42
0.0000001
 43
0.0000001
 44
0.0000000001
 40
0.0
 40
0.0
 40
0.0
 40
0.0
 40
0.2508227134
 40
1.0
 40
1.0
 40
1.0
 40
1.0
 10
11.9539835449
 20
7.3867371656
 30
0.0
 10
11.9504842102
 20
7.3867369831
 30
0.0
 10
11.936533383
 20
7.3868566201
 30
0.0
 10
11.922584198
 20
7.3874895397
 30
0.0
 10
11.9121650839
 20
7.3883191733
 30
0.0
  0
SPLINE
  5
30B
100
AcDbEntity
  8
0
100
AcDbSpline
 62
9
  6
CONTINUOUS
 70
0
 71
3
 72
14
 73
10
 74
0
 42
0.0000001
 43
0.0000001
 44
0.0000000001
 40
0.0
 40
0.0
 40
0.0
 40
0.0
 40
0.2397006453
 40
0.364699863
 40
0.4918261464
 40
0.6200819823
 40
0.7483305642
 40
0.8753332609
 40
1.0
 40
1.0
 40
1.0
 40
1.0
 10
11.8586284633
 20
7.3626280219
 30
0.0
 10
11.8647227305
 20
7.3587735674
 30
0.0
 10
11.8732442371
 20
7.351588178
 30
0.0
 10
11.8824213984
 20
7.3399439903
 30
0.0
 10
11.888264731
 20
7.3300612439
 30
0.0
 10
11.8927503113
 20
7.319391923
 30
0.0
 10
11.8958243574
 20
7.3082382683
 30
0.0
 10
11.8974265849
 20
7.2968930538
 30
0.0
 10
11.8975699618
 20
7.2893022091
 30
0.0
 10
11.8974148463
 20
7.2855550824
 30
0.0
  0
SPLINE
  5
30C
100
AcDbEntity
  8
0
100
AcDbSpline
 62
9
  6
CONTINUOUS
 70
0
 71
3
 72
9
 73
5
 74
0
 42
0.0000001
 43
0.0000001
 44
0.0000000001
 40
0.0
 40
0.0
 40
0.0
 40
0.0
 40
0.2489663416
 40
1.0
 40
1.0
 40
1.0
 40
1.0
 10
14.1658019525
 20
7.3883191774
 30
0.0
 10
14.162339417
 20
7.3880435775
 30
0.0
 10
14.1484192832
 20
7.3870950204
 30
0.0
 10
14.134461572
 20
7.3867372779
 30
0.0
 10
14.1239834281
 20
7.386737165
 30
0.0
  0
SPLINE
  5
30D
100
AcDbEntity
  8
0
100
AcDbSpline
 62
9
  6
CONTINUOUS
 70
0
 71
3
 72
26
 73
22
 74
0
 42
0.0000001
 43
0.0000001
 44
0.0000000001
 40
0.0
 40
0.0
 40
0.0
 40
0.0
 40
0.0002804675
 40
0.0011194635
 40
0.0025133448
 40
0.0044584784
 40
0.0099880202
 40
0.0176792433
 40
0.0275034761
 40
0.0394322291
 40
0.0534371986
 40
0.0694902726
 40
0.1076291275
 40
0.1536280259
 40
0.2072694941
 40
0.2683396447
 40
0.3366283711
 40
0.4119295525
 40
0.5827623208
 40
0.7792798461
 40
1.0
 40
1.0
 40
1.0
 40
1.0
 10
11.8939834891
 20
7.2892692911
 30
0.0
 10
11.8939838618
 20
7.2892695828
 30
0.0
 10
11.8939847399
 20
7.2892664126
 30
0.0
 10
11.8939874569
 20
7.2892645626
 30
0.0
 10
11.893991492
 20
7.2892579789
 30
0.0
 10
11.8940004275
 20
7.2892464562
 30
0.0
 10
11.8940156059
 20
7.2892254923
 30
0.0
 10
11.8940389358
 20
7.2891945486
 30
0.0
 10
11.8940689021
 20
7.2891548471
 30
0.0
 10
11.8941055598
 20
7.2891069382
 30
0.0
 10
11.8941488943
 20
7.2890508719
 30
0.0
 10
11.8942197709
 20
7.2889602045
 30
0.0
 10
11.8943250411
 20
7.2888278913
 30
0.0
 10
11.8944718198
 20
7.2886475637
 30
0.0
 10
11.8946454289
 20
7.2884391989
 30
0.0
 10
11.8948459024
 20
7.2882042838
 30
0.0
 10
11.8950732748
 20
7.2879443026
 30
0.0
 10
11.8954275478
 20
7.2875492822
 30
0.0
 10
11.8959373748
 20
7.2870031883
 30
0.0
 10
11.8966339994
 20
7.2862962289
 30
0.0
 10
11.8971423932
 20
7.2858089167
 30
0.0
 10
11.8974149529
 20
7.2855550496
 30
0.0
  0
SPLINE
  5
30E
100
AcDbEntity
  8
0
100
AcDbSpline
 62
9
  6
CONTINUOUS
 70
0
 71
3
 72
18
 73
14
 74
0
 42
0.0000001
 43
0.0000001
 44
0.0000000001
 40
0.0
 40
0.0
 40
0.0
 40
0.0
 40
0.1814314546
 40
0.3529121171
 40
0.5109521254
 40
0.6520725742
 40
0.7731389921
 40
0.8255658484
 40
0.8723463987
 40
0.9133113965
 40
0.9483089463
 40
0.9772205432
 40
1.0
 40
1.0
 40
1.0
 40
1.0
 10
14.1786338141
 20
7.3629472304
 30
0.0
 10
14.1809746416
 20
7.3631220272
 30
0.0
 10
14.1855304482
 20
7.3634291883
 30
0.0
 10
14.1921324369
 20
7.3637726902
 30
0.0
 10
14.1982182071
 20
7.3639853103
 30
0.0
 10
14.2036549059
 20
7.3640639325
 30
0.0
 10
14.2077258747
 20
7.3640139255
 30
0.0
 10
14.2105734637
 20
7.3638947888
 30
0.0
 10
14.2123833551
 20
7.3637763556
 30
0.0
 10
14.2139644683
 20
7.3636255193
 30
0.0
 10
14.2153096613
 20
7.3634433874
 30
0.0
 10
14.2164113988
 20
7.3632311128
 30
0.0
 10
14.2170571588
 20
7.3630499822
 30
0.0
 10
14.2173333359
 20
7.3629470973
 30
0.0
  0
SPLINE
  5
30F
100
AcDbEntity
  8
0
100
AcDbSpline
 62
9
  6
CONTINUOUS
 70
0
 71
3
 72
13
 73
9
 74
0
 42
0.0000001
 43
0.0000001
 44
0.0000000001
 40
0.0
 40
0.0
 40
0.0
 40
0.0
 40
0.2424311775
 40
0.3682079594
 40
0.4956625204
 40
0.6237575983
 40
0.7513722117
 40
1.0
 40
1.0
 40
1.0
 40
1.0
 10
14.2193383285
 20
7.3626279538
 30
0.0
 10
14.2131775625
 20
7.3587314383
 30
0.0
 10
14.2045860784
 20
7.3514649969
 30
0.0
 10
14.1953802981
 20
7.3397047596
 30
0.0
 10
14.1895619146
 20
7.3297811431
 30
0.0
 10
14.1851220492
 20
7.3191113719
 30
0.0
 10
14.1811292681
 20
7.30445083
 30
0.0
 10
14.1802428195
 20
7.2930244881
 30
0.0
 10
14.1805520318
 20
7.2855549891
 30
0.0
  0
SPLINE
  5
310
100
AcDbEntity
  8
0
100
AcDbSpline
 62
9
  6
CONTINUOUS
 70
0
 71
3
 72
10
 73
6
 74
0
 42
0.0000001
 43
0.0000001
 44
0.0000000001
 40
0.0
 40
0.0
 40
0.0
 40
0.0
 40
0.2494820715
 40
0.6242815308
 40
1.0
 40
1.0
 40
1.0
 40
1.0
 10
14.1786336447
 20
7.3629464617
 30
0.0
 10
14.1777385724
 20
7.3628801549
 30
0.0
 10
14.1754972338
 20
7.3627346428
 30
0.0
 10
14.1719014366
 20
7.3626022191
 30
0.0
 10
14.1692005822
 20
7.3625999971
 30
0.0
 10
14.1678492054
 20
7.362628008
 30
0.0
  0
LINE
  5
311
100
AcDbEntity
  8
0
100
AcDbLine
 62
9
  6
CONTINUOUS
 10
14.1739834905
 20
7.3894076872
 11
14.1658019528
 21
7.3883191733
  0
SPLINE
  5
312
100
AcDbEntity
  8
0
100
AcDbSpline
 62
9
  6
CONTINUOUS
 70
0
 71
3
 72
14
 73
10
 74
0
 42
0.0000001
 43
0.0000001
 44
0.0000000001
 40
0.0
 40
0.0
 40
0.0
 40
0.0
 40
0.2488814007
 40
0.3736381476
 40
0.4985387817
 40
0.6236313615
 40
0.7489623469
 40
0.8744584109
 40
1.0
 40
1.0
 40
1.0
 40
1.0
 10
12.5585686425
 20
9.4736936574
 30
0.0
 10
12.5654725239
 20
9.4734349354
 30
0.0
 10
12.5758276733
 20
9.4728152122
 30
0.0
 10
12.5896351733
 20
9.4718872855
 30
0.0
 10
12.6000164197
 20
9.4712175407
 30
0.0
 10
12.6104190782
 20
9.4706357272
 30
0.0
 10
12.6208460545
 20
9.4702106326
 30
0.0
 10
12.6312905875
 20
9.4699412239
 30
0.0
 10
12.6382589799
 20
9.4698610358
 30
0.0
 10
12.6417438665
 20
9.4698450033
 30
0.0
  0
SPLINE
  5
313
100
AcDbEntity
  8
0
100
AcDbSpline
 62
9
  6
CONTINUOUS
 70
0
 71
3
 72
30
 73
26
 74
0
 42
0.0000001
 43
0.0000001
 44
0.0000000001
 40
0.0
 40
0.0
 40
0.0
 40
0.0
 40
0.0006320216
 40
0.0016744513
 40
0.0032557445
 40
0.0054083369
 40
0.0081430969
 40
0.0114640994
 40
0.019868481
 40
0.0306202224
 40
0.0437081406
 40
0.0591011268
 40
0.0767560806
 40
0.0966290963
 40
0.1186759143
 40
0.1691011237
 40
0.2275344691
 40
0.2933991486
 40
0.3660905079
 40
0.4448744932
 40
0.5289776113
 40
0.6176088914
 40
0.7099399171
 40
0.8051285114
 40
1.0
 40
1.0
 40
1.0
 40
1.0
 10
12.4999834891
 20
9.50359716
 30
0.0
 10
12.4999834992
 20
9.5036098097
 30
0.0
 10
12.5000060453
 20
9.5036404064
 30
0.0
 10
12.5000655151
 20
9.503666685
 30
0.0
 10
12.5001572283
 20
9.5036949105
 30
0.0
 10
12.5002843415
 20
9.5037198681
 30
0.0
 10
12.5004469107
 20
9.5037438708
 30
0.0
 10
12.5007346082
 20
9.5037757529
 30
0.0
 10
12.5011833722
 20
9.5038088719
 30
0.0
 10
12.5018279671
 20
9.5038406159
 30
0.0
 10
12.5026127806
 20
9.5038670105
 30
0.0
 10
12.5035359312
 20
9.5038886837
 30
0.0
 10
12.5045949933
 20
9.503906114
 30
0.0
 10
12.5057872901
 20
9.5039199045
 30
0.0
 10
12.5076354937
 20
9.5039348479
 30
0.0
 10
12.5102555096
 20
9.5039466729
 30
0.0
 10
12.5137525429
 20
9.5039537075
 30
0.0
 10
12.5176952337
 20
9.5039553871
 30
0.0
 10
12.5220452366
 20
9.5039535156
 30
0.0
 10
12.5267602723
 20
9.5039461413
 30
0.0
 10
12.5317943264
 20
9.503931473
 30
0.0
 10
12.5370994867
 20
9.5039069626
 30
0.0
 10
12.5426264417
 20
9.5038671599
 30
0.0
 10
12.5502794731
 20
9.5037865643
 30
0.0
 10
12.5560842685
 20
9.5036882899
 30
0.0
 10
12.5599834891
 20
9.5035964961
 30
0.0
  0
SPLINE
  5
314
100
AcDbEntity
  8
0
100
AcDbSpline
 62
9
  6
CONTINUOUS
 70
0
 71
3
 72
27
 73
23
 74
0
 42
0.0000001
 43
0.0000001
 44
0.0000000001
 40
0.0
 40
0.0
 40
0.0
 40
0.0
 40
0.0003677697
 40
0.0014730475
 40
0.0033043937
 40
0.0058503321
 40
0.0090993897
 40
0.0130401004
 40
0.0229506507
 40
0.0354904281
 40
0.0505680213
 40
0.0680921794
 40
0.0879718225
 40
0.1344340352
 40
0.1892300249
 40
0.251638688
 40
0.3209431205
 40
0.3963460142
 40
0.4767201694
 40
0.6476504596
 40
0.8247292636
 40
1.0
 40
1.0
 40
1.0
 40
1.0
 10
12.5209929202
 20
9.4698451584
 30
0.0
 10
12.5209920102
 20
9.4698455466
 30
0.0
 10
12.5209992401
 20
9.4698485404
 30
0.0
 10
12.5210024019
 20
9.469853324
 30
0.0
 10
12.5210164483
 20
9.4698624729
 30
0.0
 10
12.5210319424
 20
9.4698745642
 30
0.0
 10
12.5210533841
 20
9.4698901791
 30
0.0
 10
12.5210902759
 20
9.4699173982
 30
0.0
 10
12.5211477491
 20
9.4699592536
 30
0.0
 10
12.5212295232
 20
9.4700183861
 30
0.0
 10
12.5213282761
 20
9.4700890913
 30
0.0
 10
12.5214434283
 20
9.4701707728
 30
0.0
 10
12.5216280557
 20
9.4703004513
 30
0.0
 10
12.5218961248
 20
9.4704857681
 30
0.0
 10
12.5222608095
 20
9.4707324912
 30
0.0
 10
12.5226794107
 20
9.4710091363
 30
0.0
 10
12.5231478037
 20
9.4713109179
 30
0.0
 10
12.5236609458
 20
9.4716324219
 30
0.0
 10
12.5244139771
 20
9.4720857051
 30
0.0
 10
12.5254219636
 20
9.4726457103
 30
0.0
 10
12.5266966055
 20
9.4732459987
 30
0.0
 10
12.5275916029
 20
9.4735664461
 30
0.0
 10
12.5280457541
 20
9.4736932147
 30
0.0
  0
SPLINE
  5
315
100
AcDbEntity
  8
0
100
AcDbSpline
 62
9
  6
CONTINUOUS
 70
0
 71
3
 72
19
 73
15
 74
0
 42
0.0000001
 43
0.0000001
 44
0.0000000001
 40
0.0
 40
0.0
 40
0.0
 40
0.0
 40
0.007386329
 40
0.0167506275
 40
0.0413466699
 40
0.07355823
 40
0.1130751606
 40
0.1595645902
 40
0.2126844997
 40
0.3374297157
 40
0.484025303
 40
0.6471733393
 40
0.8210856599
 40
1.0
 40
1.0
 40
1.0
 40
1.0
 10
12.5280453198
 20
9.4736932456
 30
0.0
 10
12.5281177473
 20
9.473713447
 30
0.0
 10
12.5282848797
 20
9.4737486919
 30
0.0
 10
12.5287015113
 20
9.4738091647
 30
0.0
 10
12.5293734643
 20
9.4738634606
 30
0.0
 10
12.5303530203
 20
9.4739077494
 30
0.0
 10
12.5315562252
 20
9.473936312
 30
0.0
 10
12.5329724214
 20
9.4739527658
 30
0.0
 10
12.5352563206
 20
9.4739629077
 30
0.0
 10
12.5385592971
 20
9.4739603173
 30
0.0
 10
12.5429823457
 20
9.4739623072
 30
0.0
 10
12.5479059021
 20
9.4739390082
 30
0.0
 10
12.5531580374
 20
9.473864425
 30
0.0
 10
12.5567485413
 20
9.4737624172
 30
0.0
 10
12.5585685309
 20
9.4736925976
 30
0.0
  0
SPLINE
  5
316
100
AcDbEntity
  8
0
100
AcDbSpline
 62
9
  6
CONTINUOUS
 70
0
 71
3
 72
27
 73
23
 74
0
 42
0.0000001
 43
0.0000001
 44
0.0000000001
 40
0.0
 40
0.0
 40
0.0
 40
0.0
 40
0.1962589909
 40
0.3848206516
 40
0.4738004611
 40
0.5580712138
 40
0.6368003042
 40
0.7091576065
 40
0.7743730785
 40
0.8319060507
 40
0.8812812013
 40
0.9027669872
 40
0.9220451909
 40
0.939074967
 40
0.9538572657
 40
0.9664115434
 40
0.9767749214
 40
0.9850206567
 40
0.991305172
 40
0.9959974103
 40
0.9980103942
 40
1.0
 40
1.0
 40
1.0
 40
1.0
 10
12.3550057332
 20
7.7421823766
 30
0.0
 10
12.3511155324
 20
7.7418641568
 30
0.0
 10
12.3434828525
 20
7.7412981608
 30
0.0
 10
12.3340754292
 20
7.7407490627
 30
0.0
 10
12.3268865848
 20
7.7404322668
 30
0.0
 10
12.3218779732
 20
7.7402631841
 30
0.0
 10
12.3171982291
 20
7.7401592753
 30
0.0
 10
12.3128964317
 20
7.7401218472
 30
0.0
 10
12.3090160622
 20
7.7401522377
 30
0.0
 10
12.3055939861
 20
7.7402488221
 30
0.0
 10
12.3030437615
 20
7.740387516
 30
0.0
 10
12.3012571863
 20
7.740536899
 30
0.0
 10
12.3001141881
 20
7.7406592626
 30
0.0
 10
12.2991072975
 20
7.7407969913
 30
0.0
 10
12.2982379236
 20
7.7409493019
 30
0.0
 10
12.2975063526
 20
7.7411155313
 30
0.0
 10
12.2969123263
 20
7.7412944286
 30
0.0
 10
12.2964543054
 20
7.7414865789
 30
0.0
 10
12.2961286798
 20
7.7416902195
 30
0.0
 10
12.2959548383
 20
7.7418935963
 30
0.0
 10
12.2959064723
 20
7.7420623285
 30
0.0
 10
12.2959091887
 20
7.742143303
 30
0.0
 10
12.2959160272
 20
7.7421822768
 30
0.0
  0
SPLINE
  5
317
100
AcDbEntity
  8
0
100
AcDbSpline
 62
9
  6
CONTINUOUS
 70
0
 71
3
 72
26
 73
22
 74
0
 42
0.0000001
 43
0.0000001
 44
0.0000000001
 40
0.0
 40
0.0
 40
0.0
 40
0.0
 40
0.0112854935
 40
0.0220630201
 40
0.0328267555
 40
0.0440740981
 40
0.0562447519
 40
0.0696895975
 40
0.0846717022
 40
0.1013831098
 40
0.1199558796
 40
0.1404515386
 40
0.1872723412
 40
0.2418454689
 40
0.3039816326
 40
0.373345554
 40
0.4493024829
 40
0.531117451
 40
0.6180327024
 40
0.8039180825
 40
1.0
 40
1.0
 40
1.0
 40
1.0
 10
12.5826538311
 20
9.3683528953
 30
0.0
 10
12.5826129592
 20
9.3681213825
 30
0.0
 10
12.5825740529
 20
9.3676597392
 30
0.0
 10
12.5826650035
 20
9.3669763736
 30
0.0
 10
12.5829079683
 20
9.3663317699
 30
0.0
 10
12.583299979
 20
9.3657313585
 30
0.0
 10
12.5838369515
 20
9.3651769785
 30
0.0
 10
12.5845163772
 20
9.3646685807
 30
0.0
 10
12.5853374121
 20
9.3642059658
 30
0.0
 10
12.5862998929
 20
9.3637896408
 30
0.0
 10
12.587402928
 20
9.3634206459
 30
0.0
 10
12.5891360808
 20
9.3629718324
 30
0.0
 10
12.5916451261
 20
9.3625533063
 30
0.0
 10
12.5950416028
 20
9.3622626706
 30
0.0
 10
12.5989187896
 20
9.3621715326
 30
0.0
 10
12.6032403055
 20
9.362284861
 30
0.0
 10
12.6079625493
 20
9.3625979119
 30
0.0
 10
12.6130351529
 20
9.363106431
 30
0.0
 10
12.6203612852
 20
9.3640610197
 30
0.0
 10
12.6299917084
 20
9.3657162985
 30
0.0
 10
12.6377699098
 20
9.3674053187
 30
0.0
 10
12.6417430902
 20
9.368353122
 30
0.0
  0
SPLINE
  5
318
100
AcDbEntity
  8
0
100
AcDbSpline
 62
9
  6
CONTINUOUS
 70
0
 71
3
 72
27
 73
23
 74
0
 42
0.0000001
 43
0.0000001
 44
0.0000000001
 40
0.0
 40
0.0
 40
0.0
 40
0.0
 40
0.1756436631
 40
0.3527917031
 40
0.5236190345
 40
0.6039130153
 40
0.6792339224
 40
0.7484651239
 40
0.8108123858
 40
0.8655600873
 40
0.911988496
 40
0.9318571185
 40
0.9493744256
 40
0.964449529
 40
0.9769913727
 40
0.9869087447
 40
0.9908547132
 40
0.9941102945
 40
0.9966640492
 40
0.9985045327
 40
0.9996203029
 40
1.0
 40
1.0
 40
1.0
 40
1.0
 10
13.5499217892
 20
9.4736921887
 30
0.0
 10
13.5503770285
 20
9.4735656969
 30
0.0
 10
13.5512734409
 20
9.4732457562
 30
0.0
 10
13.5525490146
 20
9.4726454479
 30
0.0
 10
13.5535565104
 20
9.4720853192
 30
0.0
 10
13.5543086502
 20
9.4716320434
 30
0.0
 10
13.5548210475
 20
9.4713106142
 30
0.0
 10
13.5552887856
 20
9.4710089564
 30
0.0
 10
13.5557068502
 20
9.4707324483
 30
0.0
 10
13.55607112
 20
9.4704858501
 30
0.0
 10
13.5563389215
 20
9.4703006206
 30
0.0
 10
13.5565233916
 20
9.4701709871
 30
0.0
 10
13.5566384748
 20
9.4700893121
 30
0.0
 10
13.5567371778
 20
9.4700186014
 30
0.0
 10
13.5568189651
 20
9.4699594182
 30
0.0
 10
13.5568763903
 20
9.4699175569
 30
0.0
 10
13.5569133906
 20
9.4698902254
 30
0.0
 10
13.5569346746
 20
9.4698746929
 30
0.0
 10
13.5569506897
 20
9.4698622075
 30
0.0
 10
13.5569636772
 20
9.469853772
 30
0.0
 10
13.5569688268
 20
9.4698475449
 30
0.0
 10
13.5569741143
 20
9.4698459343
 30
0.0
 10
13.5569740169
 20
9.4698449175
 30
0.0
  0
SPLINE
  5
319
100
AcDbEntity
  8
0
100
AcDbSpline
 62
9
  6
CONTINUOUS
 70
0
 71
3
 72
11
 73
7
 74
0
 42
0.0000001
 43
0.0000001
 44
0.0000000001
 40
0.0
 40
0.0
 40
0.0
 40
0.0
 40
0.2592263807
 40
0.5142689389
 40
0.7615066742
 40
1.0
 40
1.0
 40
1.0
 40
1.0
 10
13.4362232129
 20
9.4698452309
 30
0.0
 10
13.4434187943
 20
9.4698452064
 30
0.0
 10
13.4576943844
 20
9.4701491341
 30
0.0
 10
13.4788066216
 20
9.4712257334
 30
0.0
 10
13.4993196904
 20
9.4726419785
 30
0.0
 10
13.5127807978
 20
9.4734399502
 30
0.0
 10
13.519396015
 20
9.4736935199
 30
0.0
  0
SPLINE
  5
31A
100
AcDbEntity
  8
0
100
AcDbSpline
 62
9
  6
CONTINUOUS
 70
0
 71
3
 72
19
 73
15
 74
0
 42
0.0000001
 43
0.0000001
 44
0.0000000001
 40
0.0
 40
0.0
 40
0.0
 40
0.0
 40
0.1788840165
 40
0.3529093068
 40
0.5162084294
 40
0.6628881084
 40
0.7875784127
 40
0.8406355716
 40
0.8870543349
 40
0.9265043905
 40
0.9586645414
 40
0.9832361709
 40
0.992601801
 40
1.0
 40
1.0
 40
1.0
 40
1.0
 10
13.5193960629
 20
9.4736935452
 30
0.0
 10
13.5212159221
 20
9.4737633211
 30
0.0
 10
13.5248076193
 20
9.4738652321
 30
0.0
 10
13.5300626449
 20
9.4739397285
 30
0.0
 10
13.5349902242
 20
9.4739629447
 30
0.0
 10
13.539415537
 20
9.4739607379
 30
0.0
 10
13.5427184927
 20
9.473962901
 30
0.0
 10
13.5450006943
 20
9.4739523607
 30
0.0
 10
13.5464149859
 20
9.47393564
 30
0.0
 10
13.547616377
 20
9.4739068459
 30
0.0
 10
13.5485945685
 20
9.4738623933
 30
0.0
 10
13.5492658139
 20
9.4738080091
 30
0.0
 10
13.5496823768
 20
9.4737475697
 30
0.0
 10
13.5498496676
 20
9.4737123705
 30
0.0
 10
13.5499222426
 20
9.473692221
 30
0.0
  0
SPLINE
  5
31B
100
AcDbEntity
  8
0
100
AcDbSpline
 62
9
  6
CONTINUOUS
 70
0
 71
3
 72
27
 73
23
 74
0
 42
0.0000001
 43
0.0000001
 44
0.0000000001
 40
0.0
 40
0.0
 40
0.0
 40
0.0
 40
0.001989733
 40
0.0040027222
 40
0.0086947021
 40
0.0149788899
 40
0.0232244691
 40
0.0335880226
 40
0.0461429359
 40
0.0609264455
 40
0.0779581179
 40
0.0972389642
 40
0.1187279656
 40
0.1681102772
 40
0.2256497249
 40
0.2908689912
 40
0.3632260111
 40
0.4419516068
 40
0.5262170443
 40
0.6151911077
 40
0.8037440349
 40
1.0
 40
1.0
 40
1.0
 40
1.0
 10
13.782050932
 20
7.7421823854
 30
0.0
 10
13.7820577786
 20
7.7421434112
 30
0.0
 10
13.7820605134
 20
7.7420624364
 30
0.0
 10
13.7820121879
 20
7.7418936982
 30
0.0
 10
13.7818383888
 20
7.7416903028
 30
0.0
 10
13.7815127961
 20
7.7414866481
 30
0.0
 10
13.7810547975
 20
7.7412944841
 30
0.0
 10
13.7804607733
 20
7.7411155738
 30
0.0
 10
13.7797291783
 20
7.7409493319
 30
0.0
 10
13.7788597477
 20
7.7407970101
 30
0.0
 10
13.7778527623
 20
7.7406592721
 30
0.0
 10
13.7767096315
 20
7.7405369025
 30
0.0
 10
13.7749228309
 20
7.7403875139
 30
0.0
 10
13.7723723192
 20
7.7402488191
 30
0.0
 10
13.768949961
 20
7.7401522358
 30
0.0
 10
13.7650694662
 20
7.7401218472
 30
0.0
 10
13.7607677498
 20
7.7401592779
 30
0.0
 10
13.7560882752
 20
7.7402631888
 30
0.0
 10
13.7510800479
 20
7.7404322693
 30
0.0
 10
13.7438917333
 20
7.7407490541
 30
0.0
 10
13.7344848353
 20
7.7412981159
 30
0.0
 10
13.7268525322
 20
7.7418640728
 30
0.0
 10
13.7229624645
 20
7.7421822768
 30
0.0
  0
SPLINE
  5
31C
100
AcDbEntity
  8
0
100
AcDbSpline
 62
9
  6
CONTINUOUS
 70
0
 71
3
 72
26
 73
22
 74
0
 42
0.0000001
 43
0.0000001
 44
0.0000000001
 40
0.0
 40
0.0
 40
0.0
 40
0.0
 40
0.1960439096
 40
0.3818973237
 40
0.4688024317
 40
0.5506119339
 40
0.6265681951
 40
0.695936384
 40
0.7580816014
 40
0.8126671228
 40
0.8595018606
 40
0.8800045061
 40
0.8985839865
 40
0.9153016342
 40
0.9302893445
 40
0.9437390283
 40
0.9559136942
 40
0.9671642977
 40
0.977930815
 40
0.9887111241
 40
1.0
 40
1.0
 40
1.0
 40
1.0
 10
13.4362246952
 20
9.3683530213
 30
0.0
 10
13.4401970695
 20
9.3674054443
 30
0.0
 10
13.4479737524
 20
9.3657167248
 30
0.0
 10
13.4576023967
 20
9.3640615966
 30
0.0
 10
13.4649274411
 20
9.363106961
 30
0.0
 10
13.4699996357
 20
9.3625983253
 30
0.0
 10
13.4747217776
 20
9.3622851137
 30
0.0
 10
13.4790435048
 20
9.362171607
 30
0.0
 10
13.4829211884
 20
9.3622625702
 30
0.0
 10
13.4863183797
 20
9.3625530515
 30
0.0
 10
13.4888281164
 20
9.3629714736
 30
0.0
 10
13.4905618567
 20
9.3634202354
 30
0.0
 10
13.4916653204
 20
9.3637892173
 30
0.0
 10
13.4926282062
 20
9.3642055506
 30
0.0
 10
13.4934496113
 20
9.3646681955
 30
0.0
 10
13.4941293621
 20
9.365176647
 30
0.0
 10
13.4946666045
 20
9.3657311075
 30
0.0
 10
13.4950588172
 20
9.3663316323
 30
0.0
 10
13.4953018976
 20
9.3669763875
 30
0.0
 10
13.495392857
 20
9.3676599392
 30
0.0
 10
13.4953538805
 20
9.3681217049
 30
0.0
 10
13.4953129585
 20
9.3683532777
 30
0.0
  0
SPLINE
  5
31D
100
AcDbEntity
  8
0
100
AcDbSpline
 62
9
  6
CONTINUOUS
 70
0
 71
3
 72
30
 73
26
 74
0
 42
0.0000001
 43
0.0000001
 44
0.0000000001
 40
0.0
 40
0.0
 40
0.0
 40
0.0
 40
0.1948923644
 40
0.2900998062
 40
0.3824388419
 40
0.4710707798
 40
0.5551733928
 40
0.6339563958
 40
0.706649195
 40
0.7725092826
 40
0.8309302004
 40
0.8813475085
 40
0.9033907694
 40
0.9232597164
 40
0.9409108815
 40
0.956301152
 40
0.9693880823
 40
0.9801383805
 40
0.9885404135
 40
0.9918601461
 40
0.9945937045
 40
0.9967452658
 40
0.9983258065
 40
0.9993678802
 40
1.0
 40
1.0
 40
1.0
 40
1.0
 10
13.5179834891
 20
9.5035974556
 30
0.0
 10
13.5218831401
 20
9.503689058
 30
0.0
 10
13.5276887568
 20
9.5037865851
 30
0.0
 10
13.5353427662
 20
9.5038664136
 30
0.0
 10
13.5408702841
 20
9.5039060423
 30
0.0
 10
13.5461756182
 20
9.5039306024
 30
0.0
 10
13.551209665
 20
9.5039454945
 30
0.0
 10
13.5559247084
 20
9.5039534149
 30
0.0
 10
13.5602746371
 20
9.5039557284
 30
0.0
 10
13.5642170242
 20
9.50395442
 30
0.0
 10
13.5677135666
 20
9.5039477537
 30
0.0
 10
13.5703331099
 20
9.5039358588
 30
0.0
 10
13.5721810045
 20
9.5039206599
 30
0.0
 10
13.5733730727
 20
9.5039066449
 30
0.0
 10
13.5744319211
 20
9.5038889573
 30
0.0
 10
13.5753549173
 20
9.5038670122
 30
0.0
 10
13.5761396203
 20
9.5038403444
 30
0.0
 10
13.5767841089
 20
9.5038083608
 30
0.0
 10
13.5772327593
 20
9.5037750653
 30
0.0
 10
13.5775203472
 20
9.503743063
 30
0.0
 10
13.5776828355
 20
9.5037189913
 30
0.0
 10
13.5778098773
 20
9.5036939747
 30
0.0
 10
13.5779015315
 20
9.5036657081
 30
0.0
 10
13.5779609656
 20
9.5036393865
 30
0.0
 10
13.5779834797
 20
9.5036087824
 30
0.0
 10
13.5779834891
 20
9.5035961307
 30
0.0
  0
SPLINE
  5
31E
100
AcDbEntity
  8
0
100
AcDbSpline
 62
9
  6
CONTINUOUS
 70
0
 71
3
 72
14
 73
10
 74
0
 42
0.0000001
 43
0.0000001
 44
0.0000000001
 40
0.0
 40
0.0
 40
0.0
 40
0.0
 40
0.1249993553
 40
0.250018419
 40
0.3750259098
 40
0.5000137011
 40
0.6250106178
 40
0.7500216457
 40
1.0
 40
1.0
 40
1.0
 40
1.0
 10
13.4362273204
 20
9.4984663508
 30
0.0
 10
13.4396414202
 20
9.4984663952
 30
0.0
 10
13.4464704526
 20
9.4985671843
 30
0.0
 10
13.4567060635
 20
9.4989809966
 30
0.0
 10
13.4669293447
 20
9.4996237043
 30
0.0
 10
13.4771391369
 20
9.5004399445
 30
0.0
 10
13.4873421417
 20
9.5013365825
 30
0.0
 10
13.5009460458
 20
9.5025242522
 30
0.0
 10
13.5111634484
 20
9.5032753303
 30
0.0
 10
13.5179834891
 20
9.5035974556
 30
0.0
  0
SPLINE
  5
31F
100
AcDbEntity
  8
0
100
AcDbSpline
 62
9
  6
CONTINUOUS
 70
0
 71
3
 72
11
 73
7
 74
0
 42
0.0000001
 43
0.0000001
 44
0.0000000001
 40
0.0
 40
0.0
 40
0.0
 40
0.0
 40
0.2456298522
 40
0.4933423466
 40
0.7447006482
 40
1.0
 40
1.0
 40
1.0
 40
1.0
 10
12.6417383738
 20
9.4984663727
 30
0.0
 10
12.6350298692
 20
9.4984668404
 30
0.0
 10
12.6215550892
 20
9.4988831675
 30
0.0
 10
12.601266461
 20
9.500347633
 30
0.0
 10
12.5807516381
 20
9.5022423339
 30
0.0
 10
12.5669482937
 20
9.5032670359
 30
0.0
 10
12.5599834914
 20
9.5035965438
 30
0.0
  0
LINE
  5
320
100
AcDbEntity
  8
0
100
AcDbLine
 62
9
  6
CONTINUOUS
 10
7.4472043291
 20
10.3598917189
 11
7.4470845729
 21
10.3000369252
  0
SPLINE
  5
321
100
AcDbEntity
  8
0
100
AcDbSpline
 62
9
  6
CONTINUOUS
 70
0
 71
3
 72
11
 73
7
 74
0
 42
0.0000001
 43
0.0000001
 44
0.0000000001
 40
0.0
 40
0.0
 40
0.0
 40
0.0
 40
0.2426103045
 40
0.4882347562
 40
0.7404508387
 40
1.0
 40
1.0
 40
1.0
 40
1.0
 10
8.0690571736
 20
9.1771570185
 30
0.0
 10
8.0751611437
 20
9.1772009462
 30
0.0
 10
8.0874471236
 20
9.177026869
 30
0.0
 10
8.1060617838
 20
9.1762515869
 30
0.0
 10
8.1250909856
 20
9.1752521267
 30
0.0
 10
8.1379665754
 20
9.1748925081
 30
0.0
 10
8.144496889
 20
9.1748924335
 30
0.0
  0
LINE
  5
322
100
AcDbEntity
  8
0
100
AcDbLine
 62
9
  6
CONTINUOUS
 10
8.5025955553
 20
9.672642905
 11
11.5473183175
 21
9.6787640138
  0
SPLINE
  5
323
100
AcDbEntity
  8
0
100
AcDbSpline
 62
9
  6
CONTINUOUS
 70
0
 71
3
 72
25
 73
21
 74
0
 42
0.0000001
 43
0.0000001
 44
0.0000000001
 40
0.0
 40
0.0
 40
0.0
 40
0.0
 40
0.1716453127
 40
0.3532121584
 40
0.4443015053
 40
0.5332909868
 40
0.6182529769
 40
0.6972601082
 40
0.7685833336
 40
0.8312708727
 40
0.884562085
 40
0.9276975606
 40
0.9452532902
 40
0.9601763867
 40
0.9725593995
 40
0.982496001
 40
0.9900822606
 40
0.9954204125
 40
0.9986344809
 40
1.0
 40
1.0
 40
1.0
 40
1.0
 10
11.5473187162
 20
9.6787614515
 30
0.0
 10
11.5473050754
 20
9.6748170544
 30
0.0
 10
11.5472962067
 20
9.6667001899
 30
0.0
 10
11.5473317437
 20
9.6564901269
 30
0.0
 10
11.5473950301
 20
9.648179716
 30
0.0
 10
11.5474590215
 20
9.6420893869
 30
0.0
 10
11.547538654
 20
9.6362769163
 30
0.0
 10
11.5476330028
 20
9.6308706876
 30
0.0
 10
11.5477418727
 20
9.625976716
 30
0.0
 10
11.5478618255
 20
9.6216741329
 30
0.0
 10
11.5479896743
 20
9.6180199179
 30
0.0
 10
11.5481060705
 20
9.6154030217
 30
0.0
 10
11.5482047571
 20
9.6136683047
 30
0.0
 10
11.5482741556
 20
9.6126394123
 30
0.0
 10
11.5483428053
 20
9.6117870953
 30
0.0
 10
11.5484124567
 20
9.6111011589
 30
0.0
 10
11.5484767241
 20
9.6105851699
 30
0.0
 10
11.548548032
 20
9.6102083381
 30
0.0
 10
11.5485966326
 20
9.6100085999
 30
0.0
 10
11.5486619785
 20
9.6098902133
 30
0.0
 10
11.5486933157
 20
9.6098918466
 30
0.0
  0
SPLINE
  5
324
100
AcDbEntity
  8
0
100
AcDbSpline
 62
9
  6
CONTINUOUS
 70
0
 71
3
 72
18
 73
14
 74
0
 42
0.0000001
 43
0.0000001
 44
0.0000000001
 40
0.0
 40
0.0
 40
0.0
 40
0.0
 40
0.1259165854
 40
0.2516636183
 40
0.3771774845
 40
0.4398850166
 40
0.502509683
 40
0.5650389944
 40
0.6274667804
 40
0.6897867071
 40
0.752007357
 40
0.8761191036
 40
1.0
 40
1.0
 40
1.0
 40
1.0
 10
11.5473187162
 20
9.67876145
 30
0.0
 10
11.5915919849
 20
9.6788552378
 30
0.0
 10
11.6802703736
 20
9.6717556618
 30
0.0
 10
11.8094862722
 20
9.6395258375
 30
0.0
 10
11.9112930924
 20
9.5954380534
 30
0.0
 10
11.9873719882
 20
9.550656897
 30
0.0
 10
12.0414322915
 20
9.5125668411
 30
0.0
 10
12.0921038534
 20
9.4702328362
 30
0.0
 10
12.1390726226
 20
9.4239777626
 30
0.0
 10
12.1820328953
 20
9.3741166101
 30
0.0
 10
12.2335614796
 20
9.3033849745
 30
0.0
 10
12.286817584
 20
9.2076222598
 30
0.0
 10
12.3164431896
 20
9.1251413666
 30
0.0
 10
12.3277894953
 20
9.0830875196
 30
0.0
  0
SPLINE
  5
325
100
AcDbEntity
  8
0
100
AcDbSpline
 62
9
  6
CONTINUOUS
 70
0
 71
3
 72
20
 73
16
 74
0
 42
0.0000001
 43
0.0000001
 44
0.0000000001
 40
0.0
 40
0.0
 40
0.0
 40
0.0
 40
0.1787918745
 40
0.3603041045
 40
0.5338905842
 40
0.6141891251
 40
0.6882526888
 40
0.7548556065
 40
0.8134776324
 40
0.8637976639
 40
0.905557481
 40
0.9388026613
 40
0.9644774954
 40
0.9841109246
 40
1.0
 40
1.0
 40
1.0
 40
1.0
 10
12.3277894953
 20
9.0830875196
 30
0.0
 10
12.3241648656
 20
9.0821069826
 30
0.0
 10
12.3168945027
 20
9.0800027395
 30
0.0
 10
12.3062394605
 20
9.0765028888
 30
0.0
 10
12.297679874
 20
9.0732748919
 30
0.0
 10
12.2913360238
 20
9.0705909806
 30
0.0
 10
12.2871190691
 20
9.0686515275
 30
0.0
 10
12.2833861885
 20
9.0667559206
 30
0.0
 10
12.2801778141
 20
9.0649366125
 30
0.0
 10
12.277516228
 20
9.0632200226
 30
0.0
 10
12.275414879
 20
9.0616294909
 30
0.0
 10
12.2738746846
 20
9.0601716613
 30
0.0
 10
12.2728704387
 20
9.0588502812
 30
0.0
 10
12.2723591012
 20
9.0576484068
 30
0.0
 10
12.2723620502
 20
9.0568722786
 30
0.0
 10
12.2724495527
 20
9.0565502594
 30
0.0
  0
SPLINE
  5
326
100
AcDbEntity
  8
0
100
AcDbSpline
 62
9
  6
CONTINUOUS
 70
0
 71
3
 72
22
 73
18
 74
0
 42
0.0000001
 43
0.0000001
 44
0.0000000001
 40
0.0
 40
0.0
 40
0.0
 40
0.0
 40
0.1740357704
 40
0.3527297341
 40
0.525921442
 40
0.6068159239
 40
0.6818984068
 40
0.7498444523
 40
0.8099695093
 40
0.8617702412
 40
0.9048022459
 40
0.9389372778
 40
0.9650154661
 40
0.9754912414
 40
0.984573692
 40
0.9926015953
 40
1.0
 40
1.0
 40
1.0
 40
1.0
 10
12.3529464861
 20
8.9666134145
 30
0.0
 10
12.3492813797
 20
8.9661877824
 30
0.0
 10
12.3418663592
 20
8.965206177
 30
0.0
 10
12.3308643541
 20
8.9633819859
 30
0.0
 10
12.3218754821
 20
8.9615248722
 30
0.0
 10
12.3150957277
 20
8.9598675655
 30
0.0
 10
12.3105169269
 20
8.9586105003
 30
0.0
 10
12.3064056115
 20
8.9573233504
 30
0.0
 10
12.3028158635
 20
8.956032118
 30
0.0
 10
12.2997850874
 20
8.9547601712
 30
0.0
 10
12.2973393743
 20
8.9535292138
 30
0.0
 10
12.2954925705
 20
8.9523471872
 30
0.0
 10
12.2943585555
 20
8.9513486201
 30
0.0
 10
12.2937726723
 20
8.9505744082
 30
0.0
 10
12.2935002771
 20
8.9500529713
 30
0.0
 10
12.2933595082
 20
8.9495482003
 30
0.0
 10
12.2933534077
 20
8.9492167302
 30
0.0
 10
12.2933720564
 20
8.9490609889
 30
0.0
  0
LINE
  5
327
100
AcDbEntity
  8
0
100
AcDbLine
 62
7
  6
CONTINUOUS
 10
12.5651868984
 20
10.3103256028
 11
12.5652835654
 21
10.3598917943
  0
SPLINE
  5
328
100
AcDbEntity
  8
0
100
AcDbSpline
 62
9
  6
CONTINUOUS
 70
0
 71
3
 72
25
 73
21
 74
0
 42
0.0000001
 43
0.0000001
 44
0.0000000001
 40
0.0
 40
0.0
 40
0.0
 40
0.0
 40
0.0019069698
 40
0.0034230124
 40
0.0054043608
 40
0.0108790153
 40
0.018491145
 40
0.0283414314
 40
0.0405148155
 40
0.0721410247
 40
0.1137796475
 40
0.1650511614
 40
0.2253757263
 40
0.2941700474
 40
0.3706893911
 40
0.4535482842
 40
0.5412002258
 40
0.6320980632
 40
0.8177917133
 40
1.0
 40
1.0
 40
1.0
 40
1.0
 10
7.2654734747
 20
9.234891804
 30
0.0
 10
7.2655113969
 20
9.2348918004
 30
0.0
 10
7.2655712451
 20
9.2349447211
 30
0.0
 10
7.2656245058
 20
9.2350348487
 30
0.0
 10
7.2656980163
 20
9.235199278
 30
0.0
 10
7.2657822687
 20
9.235486761
 30
0.0
 10
7.2658800716
 20
9.2359327352
 30
0.0
 10
7.2659783724
 20
9.2365138886
 30
0.0
 10
7.2661239146
 20
9.2375709489
 30
0.0
 10
7.2662962547
 20
9.2392616109
 30
0.0
 10
7.2664873171
 20
9.2417308625
 30
0.0
 10
7.2666732151
 20
9.2447725405
 30
0.0
 10
7.2668502844
 20
9.2483554825
 30
0.0
 10
7.2670143901
 20
9.2524415807
 30
0.0
 10
7.2671616221
 20
9.256976687
 30
0.0
 10
7.2672913704
 20
9.2618874632
 30
0.0
 10
7.2674021684
 20
9.2670847001
 30
0.0
 10
7.2675235909
 20
9.2743270835
 30
0.0
 10
7.2676184301
 20
9.2834504224
 30
0.0
 10
7.2676448359
 20
9.2907665642
 30
0.0
 10
7.2676459333
 20
9.2943899753
 30
0.0
  0
LINE
  5
329
100
AcDbEntity
  8
0
100
AcDbLine
 62
9
  6
CONTINUOUS
 10
7.2676459776
 20
9.2943899651
 11
8.0704057089
 21
9.292749569
  0
SPLINE
  5
32A
100
AcDbEntity
  8
0
100
AcDbSpline
 62
9
  6
CONTINUOUS
 70
0
 71
3
 72
22
 73
18
 74
0
 42
0.0000001
 43
0.0000001
 44
0.0000000001
 40
0.0
 40
0.0
 40
0.0
 40
0.0
 40
0.008219681
 40
0.0170560119
 40
0.026986408
 40
0.0383410449
 40
0.0660651081
 40
0.1011887352
 40
0.1439097744
 40
0.1941138756
 40
0.2515614623
 40
0.3158309354
 40
0.3863702628
 40
0.4626027802
 40
0.6295430943
 40
0.811020405
 40
1.0
 40
1.0
 40
1.0
 40
1.0
 10
13.5119573512
 20
10.3103106947
 30
0.0
 10
13.5119285543
 20
10.3104740101
 30
0.0
 10
13.5118181281
 20
10.3108055731
 30
0.0
 10
13.5115128475
 20
10.3112623907
 30
0.0
 10
13.5110732519
 20
10.3116871745
 30
0.0
 10
13.5102565888
 20
10.3122503787
 30
0.0
 10
13.5088737595
 20
10.3128526588
 30
0.0
 10
13.5068165878
 20
10.3134160159
 30
0.0
 10
13.504268421
 20
10.3138600207
 30
0.0
 10
13.5012500571
 20
10.3141800953
 30
0.0
 10
13.4977855332
 20
10.3143707864
 30
0.0
 10
13.4939063703
 20
10.3144303282
 30
0.0
 10
13.4896485109
 20
10.3143584804
 30
0.0
 10
13.4833248887
 20
10.3140770078
 30
0.0
 10
13.4747825256
 20
10.3133835632
 30
0.0
 10
13.4640153997
 20
10.3120931689
 30
0.0
 10
13.4566270553
 20
10.3109533795
 30
0.0
 10
13.4528688861
 20
10.3103106947
 30
0.0
  0
SPLINE
  5
32B
100
AcDbEntity
  8
0
100
AcDbSpline
 62
9
  6
CONTINUOUS
 70
0
 71
3
 72
11
 73
7
 74
0
 42
0.0000001
 43
0.0000001
 44
0.0000000001
 40
0.0
 40
0.0
 40
0.0
 40
0.0
 40
0.2454287168
 40
0.4941223192
 40
0.7462420438
 40
1.0
 40
1.0
 40
1.0
 40
1.0
 10
8.1444971515
 20
9.2348919789
 30
0.0
 10
8.1382914429
 20
9.2348919837
 30
0.0
 10
8.1257982858
 20
9.2351248755
 30
0.0
 10
8.1069363739
 20
9.2356196561
 30
0.0
 10
8.0878599798
 20
9.2359870152
 30
0.0
 10
8.075068263
 20
9.2360489
 30
0.0
 10
8.0686519953
 20
9.2360242699
 30
0.0
  0
SPLINE
  5
32C
100
AcDbEntity
  8
0
100
AcDbSpline
 62
9
  6
CONTINUOUS
 70
0
 71
3
 72
16
 73
12
 74
0
 42
0.0000001
 43
0.0000001
 44
0.0000000001
 40
0.0
 40
0.0
 40
0.0
 40
0.0
 40
0.0209017537
 40
0.0493322341
 40
0.0852755298
 40
0.1287033678
 40
0.2369563232
 40
0.3692011132
 40
0.5192272591
 40
0.6792983233
 40
1.0
 40
1.0
 40
1.0
 40
1.0
 10
8.0686519966
 20
9.2360242765
 30
0.0
 10
8.0687235732
 20
9.2364133315
 30
0.0
 10
8.0688538983
 20
9.2373384458
 30
0.0
 10
8.0690238046
 20
9.2389434242
 30
0.0
 10
8.0691918859
 20
9.240976916
 30
0.0
 10
8.0694276201
 20
9.2445201138
 30
0.0
 10
8.0696848861
 20
9.2498878845
 30
0.0
 10
8.0699403793
 20
9.2572745775
 30
0.0
 10
8.0701420684
 20
9.265644005
 30
0.0
 10
8.0703378558
 20
9.2775808981
 30
0.0
 10
8.0703978335
 20
9.2866800411
 30
0.0
 10
8.0704056971
 20
9.2927496014
 30
0.0
  0
SPLINE
  5
32D
100
AcDbEntity
  8
0
100
AcDbSpline
 62
9
  6
CONTINUOUS
 70
0
 71
3
 72
19
 73
15
 74
0
 42
0.0000001
 43
0.0000001
 44
0.0000000001
 40
0.0
 40
0.0
 40
0.0
 40
0.0
 40
0.0074953147
 40
0.0224159413
 40
0.0450958044
 40
0.0758042031
 40
0.1148025837
 40
0.1623387267
 40
0.2182916094
 40
0.2821574398
 40
0.4315557504
 40
0.6063646465
 40
0.7994856174
 40
1.0
 40
1.0
 40
1.0
 40
1.0
 10
8.1818730262
 20
9.236292958
 30
0.0
 10
8.1818413512
 20
9.2362999265
 30
0.0
 10
8.1817426681
 20
9.2362857435
 30
0.0
 10
8.1815513669
 20
9.2362590421
 30
0.0
 10
8.1812597757
 20
9.2362045724
 30
0.0
 10
8.1808669323
 20
9.2361329678
 30
0.0
 10
8.1803675587
 20
9.2360425871
 30
0.0
 10
8.1797600235
 20
9.2359378571
 30
0.0
 10
8.1790453205
 20
9.2358210746
 30
0.0
 10
8.177893913
 20
9.2356441514
 30
0.0
 10
8.1762301481
 20
9.2354159444
 30
0.0
 10
8.1740060225
 20
9.2351606094
 30
0.0
 10
8.1715546317
 20
9.234953266
 30
0.0
 10
8.1698511696
 20
9.2348920469
 30
0.0
 10
8.1689835363
 20
9.2348920482
 30
0.0
  0
SPLINE
  5
32E
100
AcDbEntity
  8
0
100
AcDbSpline
 62
9
  6
CONTINUOUS
 70
0
 71
3
 72
26
 73
22
 74
0
 42
0.0000001
 43
0.0000001
 44
0.0000000001
 40
0.0
 40
0.0
 40
0.0
 40
0.0
 40
0.0010661753
 40
0.0026347344
 40
0.0075120382
 40
0.0148034457
 40
0.0245092443
 40
0.0366010996
 40
0.0510414133
 40
0.0677887681
 40
0.0867999361
 40
0.1313793393
 40
0.1841401707
 40
0.2443838845
 40
0.3114134885
 40
0.3845211051
 40
0.4629443403
 40
0.5459060482
 40
0.632629199
 40
0.8140529354
 40
1.0
 40
1.0
 40
1.0
 40
1.0
 10
8.1358607835
 20
9.3063173422
 30
0.0
 10
8.1358561776
 20
9.3062939636
 30
0.0
 10
8.1358238146
 20
9.3062417209
 30
0.0
 10
8.1357003349
 20
9.306128243
 30
0.0
 10
8.1354345491
 20
9.3059692247
 30
0.0
 10
8.1349955068
 20
9.3057558402
 30
0.0
 10
8.1343953329
 20
9.3055042947
 30
0.0
 10
8.1336383025
 20
9.3052167092
 30
0.0
 10
8.1327257088
 20
9.3048957509
 30
0.0
 10
8.1316604961
 20
9.3045435576
 30
0.0
 10
8.1299472363
 20
9.3040062567
 30
0.0
 10
8.1274506961
 20
9.3032780056
 30
0.0
 10
8.124050675
 20
9.3023590324
 30
0.0
 10
8.1201483916
 20
9.3013777118
 30
0.0
 10
8.1157877114
 20
9.3003571604
 30
0.0
 10
8.1110141618
 20
9.299320589
 30
0.0
 10
8.105877265
 20
9.2982820075
 30
0.0
 10
8.1004278852
 20
9.2972559916
 30
0.0
 10
8.0926980635
 20
9.2959042096
 30
0.0
 10
8.0826682943
 20
9.2943496041
 30
0.0
 10
8.0745298297
 20
9.2932609256
 30
0.0
 10
8.0704056179
 20
9.2927500753
 30
0.0
  0
SPLINE
  5
32F
100
AcDbEntity
  8
0
100
AcDbSpline
 62
9
  6
CONTINUOUS
 70
0
 71
3
 72
25
 73
21
 74
0
 42
0.0000001
 43
0.0000001
 44
0.0000000001
 40
0.0
 40
0.0
 40
0.0
 40
0.0
 40
0.1789924358
 40
0.3636488756
 40
0.4547584261
 40
0.5429798539
 40
0.6266352619
 40
0.7040470214
 40
0.773713612
 40
0.8348229518
 40
0.8867324778
 40
0.9288010108
 40
0.9459734766
 40
0.9606081214
 40
0.9727844434
 40
0.9825831949
 40
0.9900878034
 40
0.9953885628
 40
0.99859992
 40
1.0
 40
1.0
 40
1.0
 40
1.0
 10
8.5025959702
 20
9.6726420845
 30
0.0
 10
8.502591955
 20
9.6688938409
 30
0.0
 10
8.5026006214
 20
9.6612787197
 30
0.0
 10
8.5026537819
 20
9.6517558181
 30
0.0
 10
8.5027277543
 20
9.6441339779
 30
0.0
 10
8.5027973098
 20
9.6386272616
 30
0.0
 10
8.5028802744
 20
9.6334076069
 30
0.0
 10
8.502975683
 20
9.6285767815
 30
0.0
 10
8.5030832069
 20
9.6242184732
 30
0.0
 10
8.50319994
 20
9.6203946344
 30
0.0
 10
8.5033232234
 20
9.6171493181
 30
0.0
 10
8.5034348684
 20
9.6148242738
 30
0.0
 10
8.5035291622
 20
9.6132802083
 30
0.0
 10
8.5035954873
 20
9.6123613079
 30
0.0
 10
8.5036610912
 20
9.6115980816
 30
0.0
 10
8.5037276636
 20
9.6109825597
 30
0.0
 10
8.5037891432
 20
9.6105175473
 30
0.0
 10
8.5038574859
 20
9.6101786434
 30
0.0
 10
8.5039041602
 20
9.6099952614
 30
0.0
 10
8.5039675786
 20
9.6098903346
 30
0.0
 10
8.5039968584
 20
9.6098918465
 30
0.0
  0
LINE
  5
330
100
AcDbEntity
  8
0
100
AcDbLine
 62
9
  6
CONTINUOUS
 10
12.5651868983
 20
10.3103256177
 11
12.3277894912
 21
9.0830875358
  0
SPLINE
  5
331
100
AcDbEntity
  8
0
100
AcDbSpline
 62
9
  6
CONTINUOUS
 70
0
 71
3
 72
23
 73
19
 74
0
 42
0.0000001
 43
0.0000001
 44
0.0000000001
 40
0.0
 40
0.0
 40
0.0
 40
0.0
 40
0.0625084448
 40
0.0937807826
 40
0.1250426612
 40
0.1562998419
 40
0.1875634474
 40
0.2500985814
 40
0.3126285497
 40
0.3751373732
 40
0.4376497123
 40
0.5001713676
 40
0.6250798909
 40
0.7499778685
 40
0.8124962851
 40
0.875001827
 40
0.9375159128
 40
1.0
 40
1.0
 40
1.0
 40
1.0
 10
8.502595978
 20
9.672642084
 30
0.0
 10
8.4895192239
 20
9.6723874249
 30
0.0
 10
8.4699001227
 20
9.6713916003
 30
0.0
 10
8.4438868961
 20
9.6685332691
 30
0.0
 10
8.4244831601
 20
9.6655484536
 30
0.0
 10
8.4052461436
 20
9.6616346185
 30
0.0
 10
8.3798801516
 20
9.6551766418
 30
0.0
 10
8.3487782793
 20
9.6448891906
 30
0.0
 10
8.3127004319
 20
9.6293133577
 30
0.0
 10
8.2781388528
 20
9.6106147547
 30
0.0
 10
8.245408694
 20
9.5888660314
 30
0.0
 10
8.2045769383
 20
9.5560955395
 30
0.0
 10
8.1592849782
 20
9.5084635441
 30
0.0
 10
8.1232686515
 20
9.4534883618
 30
0.0
 10
8.1006470511
 20
9.4062767802
 30
0.0
 10
8.0869868802
 20
9.3694251589
 30
0.0
 10
8.0768639561
 20
9.3314681042
 30
0.0
 10
8.0722385289
 20
9.3056946451
 30
0.0
 10
8.0704056554
 20
9.2927496217
 30
0.0
  0
LINE
  5
332
100
AcDbEntity
  8
0
100
AcDbLine
 62
9
  6
CONTINUOUS
 10
12.5651867167
 20
10.3103280088
 11
7.4470845729
 21
10.3000369252
  0
LINE
  5
333
100
AcDbEntity
  8
0
100
AcDbLine
 62
9
  6
CONTINUOUS
 10
7.2676460888
 20
9.2943888153
 11
7.2072329558
 21
9.2844727452
  0
SPLINE
  5
334
100
AcDbEntity
  8
0
100
AcDbSpline
 62
9
  6
CONTINUOUS
 70
0
 71
3
 72
25
 73
21
 74
0
 42
0.0000001
 43
0.0000001
 44
0.0000000001
 40
0.0
 40
0.0
 40
0.0
 40
0.0
 40
0.1962100447
 40
0.3847796231
 40
0.4737548414
 40
0.5580148642
 40
0.6367331929
 40
0.7090857995
 40
0.7743071496
 40
0.8318547245
 40
0.8812497885
 40
0.9220328373
 40
0.9390733539
 40
0.9538659757
 40
0.9664300105
 40
0.9768023803
 40
0.9850560358
 40
0.9913468373
 40
0.9960425806
 40
1.0
 40
1.0
 40
1.0
 40
1.0
 10
12.1705045442
 20
7.7321819147
 30
0.0
 10
12.1666156048
 20
7.7318638172
 30
0.0
 10
12.1589843091
 20
7.7312979844
 30
0.0
 10
12.1495785049
 20
7.7307488984
 30
0.0
 10
12.1423903529
 20
7.7304320439
 30
0.0
 10
12.1373826379
 20
7.7302629273
 30
0.0
 10
12.1327037711
 20
7.7301589805
 30
0.0
 10
12.1284024793
 20
7.7301214526
 30
0.0
 10
12.124522118
 20
7.7301517856
 30
0.0
 10
12.1210993974
 20
7.7302479928
 30
0.0
 10
12.1181656891
 20
7.7304081117
 30
0.0
 10
12.1160412906
 20
7.7306008216
 30
0.0
 10
12.1146102368
 20
7.7307963069
 30
0.0
 10
12.1137403416
 20
7.7309487726
 30
0.0
 10
12.1130082253
 20
7.7311150482
 30
0.0
 10
12.1124138217
 20
7.7312942036
 30
0.0
 10
12.1119551193
 20
7.7314860182
 30
0.0
 10
12.1116297794
 20
7.7316907173
 30
0.0
 10
12.1114279521
 20
7.7319218219
 30
0.0
 10
12.1114024332
 20
7.7321043874
 30
0.0
 10
12.1114159634
 20
7.7321819147
 30
0.0
  0
SPLINE
  5
335
100
AcDbEntity
  8
0
100
AcDbSpline
 62
9
  6
CONTINUOUS
 70
0
 71
3
 72
22
 73
18
 74
0
 42
0.0000001
 43
0.0000001
 44
0.0000000001
 40
0.0
 40
0.0
 40
0.0
 40
0.0
 40
0.1787051086
 40
0.3596495723
 40
0.5327600932
 40
0.6129780397
 40
0.6871224925
 40
0.7539871909
 40
0.8129932086
 40
0.8637406196
 40
0.9058891069
 40
0.939394378
 40
0.9651022931
 40
0.9754846815
 40
0.9845291644
 40
0.9925649127
 40
1.0
 40
1.0
 40
1.0
 40
1.0
 10
12.3463859642
 20
8.7296556708
 30
0.0
 10
12.3428321531
 20
8.7302634083
 30
0.0
 10
12.3356604683
 20
8.7313752931
 30
0.0
 10
12.3249892745
 20
8.7326788866
 30
0.0
 10
12.3162541994
 20
8.7333991018
 30
0.0
 10
12.309653683
 20
8.7337019297
 30
0.0
 10
12.3051902827
 20
8.7337795486
 30
0.0
 10
12.3011546442
 20
8.7337052423
 30
0.0
 10
12.297596574
 20
8.7334881298
 30
0.0
 10
12.2945502635
 20
8.7331393623
 30
0.0
 10
12.2920397549
 20
8.732671335
 30
0.0
 10
12.2900758801
 20
8.7320879936
 30
0.0
 10
12.2887968848
 20
8.7314809345
 30
0.0
 10
12.2880663531
 20
8.7309320421
 30
0.0
 10
12.2876820159
 20
8.7305285282
 30
0.0
 10
12.2874193285
 20
8.7301046945
 30
0.0
 10
12.287323547
 20
8.7298033959
 30
0.0
 10
12.2872974991
 20
8.7296556708
 30
0.0
  0
SPLINE
  5
336
100
AcDbEntity
  8
0
100
AcDbSpline
 62
9
  6
CONTINUOUS
 70
0
 71
3
 72
25
 73
21
 74
0
 42
0.0000001
 43
0.0000001
 44
0.0000000001
 40
0.0
 40
0.0
 40
0.0
 40
0.0
 40
0.0039564846
 40
0.0086483013
 40
0.014932404
 40
0.0231771233
 40
0.0335386709
 40
0.0460902402
 40
0.0608689462
 40
0.0778942653
 40
0.1186440416
 40
0.1680046685
 40
0.2255200669
 40
0.2907149696
 40
0.3630503039
 40
0.4417638132
 40
0.5260347082
 40
0.6150397333
 40
0.8037146107
 40
1.0
 40
1.0
 40
1.0
 40
1.0
 10
13.9665510124
 20
7.732181929
 30
0.0
 10
13.9665645726
 20
7.7321044255
 30
0.0
 10
13.9665392332
 20
7.7319219501
 30
0.0
 10
13.96633774
 20
7.7316908485
 30
0.0
 10
13.9660128059
 20
7.7314862182
 30
0.0
 10
13.9655546379
 20
7.7312944865
 30
0.0
 10
13.9649608727
 20
7.7311154203
 30
0.0
 10
13.9642294936
 20
7.7309492254
 30
0.0
 10
13.9633604227
 20
7.7307968242
 30
0.0
 10
13.9619306083
 20
7.7306013877
 30
0.0
 10
13.9598078598
 20
7.7304086443
 30
0.0
 10
13.9568761348
 20
7.7302484001
 30
0.0
 10
13.9534552559
 20
7.7301520053
 30
0.0
 10
13.9495763885
 20
7.7301214566
 30
0.0
 10
13.9452760413
 20
7.7301587744
 30
0.0
 10
13.9405973733
 20
7.7302625473
 30
0.0
 10
13.9355889192
 20
7.7304315571
 30
0.0
 10
13.9283978302
 20
7.7307484219
 30
0.0
 10
13.9189878035
 20
7.7312977006
 30
0.0
 10
13.9113528859
 20
7.7318637195
 30
0.0
 10
13.9074624353
 20
7.732181929
 30
0.0
  0
LINE
  5
337
100
AcDbEntity
  8
0
100
AcDbLine
 62
9
  6
CONTINUOUS
 10
7.3881178041
 20
10.3103103356
 11
7.44708482
 21
10.3000370688
  0
LINE
  5
338
100
AcDbEntity
  8
0
100
AcDbLine
 62
9
  6
CONTINUOUS
 10
7.44708482
 20
10.3000370688
 11
7.2676459269
 21
9.2943894873
  0
ENDSEC
  0
SECTION
  2
OBJECTS
  0
DICTIONARY
  5
C
100
AcDbDictionary
280
0
281
1
  3
ACAD_GROUP
350
D
  3
ACAD_MLINESTYLE
350
17
  3
ACAD_LAYOUT
350
1A
  3
ACAD_PLOTSETTINGS
350
19
  3
ACAD_PLOTSTYLENAME
350
E
  0
DICTIONARY
  5
D
102
{ACAD_REACTORS
330
C
102
}
100
AcDbDictionary
280
0
281
1
  0
ACDBDICTIONARYWDFLT
  5
E
102
{ACAD_REACTORS
330
C
102
}
100
AcDbDictionary
281
1
  3
Normal
350
F
100
AcDbDictionaryWithDefault
340
F
  0
DICTIONARY
  5
17
102
{ACAD_REACTORS
330
C
102
}
100
AcDbDictionary
280
0
281
1
  3
Standard
350
18
  0
DICTIONARY
  5
19
102
{ACAD_REACTORS
330
C
102
}
100
AcDbDictionary
281
1
  0
DICTIONARY
  5
1A
102
{ACAD_REACTORS
330
C
102
}
100
AcDbDictionary
281
1
  3
Model
350
339
  3
Layout1
350
33A
  0
ACDBPLACEHOLDER
  5
F
102
{ACAD_REACTORS
330
E
102
}
  0
MLINESTYLE
  5
18
102
{ACAD_REACTORS
330
17
102
}
100
AcDbMlineStyle
  2
STANDARD
 70
0
  3

 62
256
 51
90.0
 52
90.0
 71
2
 49
0.5
 62
256
  6
BYLAYER
 49
-0.5
 62
256
  6
BYLAYER
  0
LAYOUT
  5
339
102
{ACAD_REACTORS
330
1A
102
}
100
AcDbPlotSettings
  1

  2
none_device
  4
ANSI_C_(22.00_x_17.00_Inches)
  6

 40
0.0
 41
0.0
 42
0.0
 43
0.0
 44
558.8
 45
431.8
 46
0.0
 47
0.0
 48
0.0
 49
0.0
140
0.0
141
0.0
142
1.0
143
1.0
 70
1024
 72
0
 73
0
 74
0
  7

 75
0
147
1.0
148
0.0
149
0.0
100
AcDbLayout
  1
Model
 70
0
 71
0
 10
0.0
 20
0.0
 11
22.0
 21
17.0
 12
0.0
 22
0.0
 32
0.0
 14
0.0
 24
0.0
 34
0.0
 15
0.0
 25
0.0
 35
0.0
146
0.0
 13
0.0
 23
0.0
 33
0.0
 16
1.0
 26
0.0
 36
0.0
 17
0.0
 27
1.0
 37
0.0
 76
0
330
202
345
0
346
0
  0
LAYOUT
  5
33A
102
{ACAD_REACTORS
330
1A
102
}
100
AcDbPlotSettings
  1

  2
none_device
  4
ANSI_C_(22.00_x_17.00_Inches)
  6

 40
0.0
 41
0.0
 42
0.0
 43
0.0
 44
558.8
 45
431.8
 46
0.0
 47
0.0
 48
0.0
 49
0.0
140
0.0
141
0.0
142
1.0
143
1.0
 70
0
 72
0
 73
0
 74
0
  7

 75
0
147
1.0
148
0.0
149
0.0
100
AcDbLayout
  1
Layout1
 70
0
 71
1
 10
0.0
 20
0.0
 11
22.0
 21
17.0
 12
0.0
 22
0.0
 32
0.0
 14
0.0
 24
0.0
 34
0.0
 15
0.0
 25
0.0
 35
0.0
146
0.0
 13
0.0
 23
0.0
 33
0.0
 16
1.0
 26
0.0
 36
0.0
 17
0.0
 27
1.0
 37
0.0
 76
0
330
203
345
0
346
0
  0
ENDSEC
  0
EOF
