999
DXF file: E:\BT Custom\CADOUTPUT\_TOP.dxf
999
Pro/ENGINEER 2018400 by Parametric Technology Corporation
  0
SECTION
  2
HEADER
  9
$ACADVER
  1
AC1018
  9
$DWGCODEPAGE
  3
ANSI_1252
  9
$EXTMAX
 10
22.0
 20
17.0
 30
0.0
  9
$EXTMIN
 10
0.0
 20
0.0
 30
0.0
  9
$LIMMIN
 10
0.0
 20
0.0
  9
$LIMMAX
 10
22.0
 20
17.0
  9
$VIEWCTR
 10
11.0
 20
8.5
  9
$VIEWSIZE
 40
17.0
  9
$CLAYER
  8
0
  9
$LTSCALE
 40
1.21
  9
$CELTYPE
  6
BYLAYER
  9
$DIMSCALE
 40
1.0
  9
$DIMASZ
 40
0.1
  9
$DIMEXO
 40
0.0625
  9
$DIMDLI
 40
0.836
  9
$DIMEXE
 40
0.125
  9
$DIMCEN
 40
0.198
  9
$DIMLFAC
 40
1.0
  9
$DIMBLK
  1
_FILLED
  9
$DIMALT
 70
1
  9
$DIMALTD
 70
2
  9
$DIMALTTD
 70
2
  9
$DIMALTF
 40
25.4
  9
$DIMTXT
 40
0.08
  9
$DIMTOL
 70
1
  9
$DIMLIM
 70
0
  9
$DIMTFAC
 40
1.0
  9
$DIMTP
 40
0.001
  9
$DIMTM
 40
0.001
  9
$DIMGAP
 40
0.09
  9
$DIMDSEP
 70
46
  9
$AUNITS
 70
0
  9
$PDMODE
 70
3
  9
$PDSIZE
 40
0.06
  9
$HANDSEED
  5
30B
  9
$TILEMODE
 70
1
  9
$MEASUREMENT
 70
0
  9
$INSUNITS
 70
1
  0
ENDSEC
  0
SECTION
  2
CLASSES
  0
CLASS
  1
ACDBDICTIONARYWDFLT
  2
AcDbDictionaryWithDefault
  3
AutoCAD 2000
 90
0
 91
1
280
0
281
0
  0
CLASS
  1
ACDBPLACEHOLDER
  2
AcDbPlaceHolder
  3
AutoCAD 2000
 90
0
 91
1
280
0
281
0
  0
CLASS
  1
LAYOUT
  2
AcDbLayout
  3
AutoCAD 2000
 90
0
 91
0
280
0
281
0
  0
ENDSEC
  0
SECTION
  2
TABLES
  0
TABLE
  2
VPORT
  5
8
100
AcDbSymbolTable
 70
2
  0
VPORT
  5
1F4
100
AcDbSymbolTableRecord
100
AcDbViewportTableRecord
  2
*ACTIVE
 70
0
 10
0.0
 20
0.0
 11
1.0
 21
1.0
 12
11.0
 22
8.5
 13
0.0
 23
0.0
 14
1.0
 24
1.0
 15
0.0
 25
0.0
 16
0.0
 26
0.0
 36
1.0
 17
0.0
 27
0.0
 37
0.0
 40
17.0
 41
1.2941176471
 42
50.0
 43
0.0
 44
0.0
 50
0.0
 51
0.0
 71
0
 72
100
 73
1
 74
1
 75
0
 76
0
 77
0
 78
0
  0
ENDTAB
  0
TABLE
  2
LTYPE
  5
5
100
AcDbSymbolTable
 70
6
  0
LTYPE
  5
14
100
AcDbSymbolTableRecord
100
AcDbLinetypeTableRecord
  2
BYBLOCK
 70
0
  3

 72
65
 73
0
 40
0.0
  0
LTYPE
  5
15
100
AcDbSymbolTableRecord
100
AcDbLinetypeTableRecord
  2
BYLAYER
 70
0
  3

 72
65
 73
0
 40
0.0
  0
LTYPE
  5
16
100
AcDbSymbolTableRecord
100
AcDbLinetypeTableRecord
  2
CONTINUOUS
 70
64
  3
Solid line
 72
65
 73
0
 40
0.0
  0
LTYPE
  5
1F5
100
AcDbSymbolTableRecord
100
AcDbLinetypeTableRecord
  2
CENTER
 70
64
  3
____ _ ____ _ ____ _ ____ _ ____ _ ____ _ ____
 72
65
 73
4
 40
0.6
 49
0.375
 74
0
 49
-0.075
 74
0
 49
0.075
 74
0
 49
-0.075
 74
0
  0
LTYPE
  5
1F6
100
AcDbSymbolTableRecord
100
AcDbLinetypeTableRecord
  2
HIDDEN
 70
64
  3
- - - - - - - - - - - - - - - - - - - -
 72
65
 73
2
 40
0.2
 49
0.1
 74
0
 49
-0.1
 74
0
  0
LTYPE
  5
1F7
100
AcDbSymbolTableRecord
100
AcDbLinetypeTableRecord
  2
PHANTOM
 70
64
  3
_____ _ _ _____ _ _ _____ _ _ _____
 72
65
 73
6
 40
0.8
 49
0.45
 74
0
 49
-0.05
 74
0
 49
0.1
 74
0
 49
-0.05
 74
0
 49
0.1
 74
0
 49
-0.05
 74
0
  0
LTYPE
  5
1F8
100
AcDbSymbolTableRecord
100
AcDbLinetypeTableRecord
  2
DOT
 70
64
  3
. . . . . . . . . . . . . . . . . . . .
 72
65
 73
2
 40
0.2
 49
0.1
 74
0
 49
-0.1
 74
0
  0
LTYPE
  5
1F9
100
AcDbSymbolTableRecord
100
AcDbLinetypeTableRecord
  2
DASHED
 70
64
  3
- - - - - - - - - - - - - - - - - - - -
 72
65
 73
2
 40
0.2
 49
0.1
 74
0
 49
-0.1
 74
0
  0
ENDTAB
  0
TABLE
  2
LAYER
  5
2
100
AcDbSymbolTable
 70
36
  0
LAYER
  5
10
100
AcDbSymbolTableRecord
100
AcDbLayerTableRecord
  2
0
 70
0
 62
7
  6
CONTINUOUS
370
-3
390
F
  0
LAYER
  5
1FA
100
AcDbSymbolTableRecord
100
AcDbLayerTableRecord
  2
DEFAULT_1
 70
0
 62
7
  6
CENTER
370
-3
390
F
  0
LAYER
  5
1FB
100
AcDbSymbolTableRecord
100
AcDbLayerTableRecord
  2
DEFAULT_2
 70
0
 62
8
  6
HIDDEN
370
-3
390
F
  0
LAYER
  5
1FC
100
AcDbSymbolTableRecord
100
AcDbLayerTableRecord
  2
DEFAULT_3
 70
0
 62
7
  6
PHANTOM
370
-3
390
F
  0
LAYER
  5
1FD
100
AcDbSymbolTableRecord
100
AcDbLayerTableRecord
  2
ALL_FEATURES
 70
0
 62
7
  6
CONTINUOUS
370
-3
390
F
  0
LAYER
  5
1FE
100
AcDbSymbolTableRecord
100
AcDbLayerTableRecord
  2
AXES_FEATURES
 70
0
 62
7
  6
CONTINUOUS
370
-3
390
F
  0
LAYER
  5
1FF
100
AcDbSymbolTableRecord
100
AcDbLayerTableRecord
  2
DEFAULT_COORDINATE_SYSTEM
 70
0
 62
7
  6
CONTINUOUS
370
-3
390
F
  0
LAYER
  5
200
100
AcDbSymbolTableRecord
100
AcDbLayerTableRecord
  2
DEFAULT_DATUM_AXES
 70
0
 62
7
  6
CONTINUOUS
370
-3
390
F
  0
LAYER
  5
201
100
AcDbSymbolTableRecord
100
AcDbLayerTableRecord
  2
DEFAULT_DATUM_PLANES
 70
0
 62
7
  6
CONTINUOUS
370
-3
390
F
  0
LAYER
  5
202
100
AcDbSymbolTableRecord
100
AcDbLayerTableRecord
  2
DIMENSIONS
 70
0
 62
7
  6
CONTINUOUS
370
-3
390
F
  0
ENDTAB
  0
TABLE
  2
STYLE
  5
3
100
AcDbSymbolTable
 70
1
  0
STYLE
  5
11
100
AcDbSymbolTableRecord
100
AcDbTextStyleTableRecord
  2
STANDARD
 70
0
 40
0.0
 41
0.8
 50
0.0
 71
0
 42
0.2
  3
txt
  4

  0
STYLE
  5
203
100
AcDbSymbolTableRecord
100
AcDbTextStyleTableRecord
  2
TEXTSTYLE_1
 70
0
 40
0.0
 41
0.8
 50
0.0
 71
0
 42
0.2
  3
gdt
  4

  0
ENDTAB
  0
TABLE
  2
VIEW
  5
6
100
AcDbSymbolTable
 70
0
  0
ENDTAB
  0
TABLE
  2
UCS
  5
7
100
AcDbSymbolTable
 70
0
  0
ENDTAB
  0
TABLE
  2
APPID
  5
9
100
AcDbSymbolTable
 70
1
  0
APPID
  5
204
100
AcDbSymbolTableRecord
100
AcDbRegAppTableRecord
  2
ACAD
 70
0
  0
ENDTAB
  0
TABLE
  2
BLOCK_RECORD
  5
1
100
AcDbSymbolTable
 70
0
  0
BLOCK_RECORD
  5
205
100
AcDbSymbolTableRecord
100
AcDbBlockTableRecord
  2
*Model_Space
  0
BLOCK_RECORD
  5
206
100
AcDbSymbolTableRecord
100
AcDbBlockTableRecord
  2
*Paper_Space
  0
BLOCK_RECORD
  5
207
100
AcDbSymbolTableRecord
100
AcDbBlockTableRecord
  2
_FILLED
  0
ENDTAB
  0
TABLE
  2
DIMSTYLE
  5
A
100
AcDbSymbolTable
 70
1
100
AcDbDimStyleTable
 71
0
  0
DIMSTYLE
105
208
100
AcDbSymbolTableRecord
100
AcDbDimStyleTableRecord
  2
STANDARD
 70
0
  3

  4

 40
1.0
 41
0.1
 42
0.0625
 43
0.38
 44
0.125
 45
0.0
 46
0.0
 47
0.001
 48
0.001
140
0.08
141
0.09
142
0.0
143
25.4
144
1.0
145
0.0
146
1.0
147
0.09
 71
1.0
 72
0.0
 73
1
 74
1
 75
0
 76
0
 77
0
 78
4
 79
1
170
1
171
2
172
0
173
0
174
0
175
0
176
0
177
0
178
0
270
2
179
3
271
3
272
3
273
2
274
2
275
0
280
0
281
0
282
0
283
1
284
4
285
0
286
0
287
3
288
0
340
11
278
46
341
207
342
207
343
207
344
207
  0
ENDTAB
  0
ENDSEC
  0
SECTION
  2
BLOCKS
  0
BLOCK
  5
20
100
AcDbEntity
  8
0
100
AcDbBlockBegin
  2
*Model_Space
 70
0
 10
0.0
 20
0.0
 30
0.0
  3
*Model_Space
  1

  0
ENDBLK
  5
21
100
AcDbEntity
  8
0
100
AcDbBlockEnd
  0
BLOCK
  5
1C
100
AcDbEntity
  8
0
100
AcDbBlockBegin
  2
*Paper_Space
 70
0
 10
0.0
 20
0.0
 30
0.0
  3
*Paper_Space
  1

  0
ENDBLK
  5
1D
100
AcDbEntity
  8
0
100
AcDbBlockEnd
  0
BLOCK
  5
209
100
AcDbEntity
  8
0
100
AcDbBlockBegin
  2
_FILLED
 70
64
 10
0.0
 20
0.0
  3
_FILLED
  1

  0
SOLID
  5
20A
100
AcDbEntity
  8
0
  6
BYBLOCK
 62
0
100
AcDbTrace
 10
0.0
 20
0.0
 11
-1.0
 21
0.2
 12
-1.0
 22
-0.2
 13
-1.0
 23
-0.2
  0
ENDBLK
  5
20B
100
AcDbEntity
  8
0
  6
BYBLOCK
 62
0
100
AcDbBlockEnd
  0
ENDSEC
  0
SECTION
  2
ENTITIES
  0
LWPOLYLINE
  5
20C
100
AcDbEntity
  8
0
100
AcDbPolyline
 62
7
  6
CONTINUOUS
 90
3
 70
0
 10
9.4440073815
 20
9.6370532326
 10
9.4432010903
 20
9.6365577996
 10
9.4426017023
 20
9.6362285342
  0
LWPOLYLINE
  5
20D
100
AcDbEntity
  8
0
100
AcDbPolyline
 62
7
  6
CONTINUOUS
 90
10
 70
0
 10
9.4522675416
 20
9.6486513649
 10
9.452140549
 20
9.6481812368
 10
9.4514460698
 20
9.6461528082
 10
9.4505744621
 20
9.644280102
 10
9.4495624352
 20
9.6425814277
 10
9.4484496014
 20
9.641069451
 10
9.4472831017
 20
9.6397566153
 10
9.4461141017
 20
9.6386486872
 10
9.4449984543
 20
9.6377463937
 10
9.4440073815
 20
9.6370532326
  0
LINE
  5
20E
100
AcDbEntity
  8
0
100
AcDbLine
 62
7
  6
CONTINUOUS
 10
9.2548183383
 20
9.841475993
 11
9.2548183383
 21
9.1265569476
  0
LINE
  5
20F
100
AcDbEntity
  8
0
100
AcDbLine
 62
7
  6
CONTINUOUS
 10
9.3548183383
 20
9.8640163261
 11
9.3548183383
 21
9.1040163261
  0
LINE
  5
210
100
AcDbEntity
  8
0
100
AcDbLine
 62
7
  6
CONTINUOUS
 10
9.4104431221
 20
9.3710912667
 11
9.4104431221
 21
9.5969413855
  0
LINE
  5
211
100
AcDbEntity
  8
0
100
AcDbLine
 62
9
  6
CONTINUOUS
 10
9.4319997095
 20
9.3710912667
 11
9.4319997095
 21
9.5969413855
  0
LINE
  5
212
100
AcDbEntity
  8
0
100
AcDbLine
 62
7
  6
CONTINUOUS
 10
11.1645658062
 20
10.1306016675
 11
11.1645513539
 21
10.1305869373
  0
LINE
  5
213
100
AcDbEntity
  8
0
100
AcDbLine
 62
9
  6
CONTINUOUS
 10
9.5498183383
 20
9.2866392433
 11
9.5498183383
 21
9.2912608936
  0
LINE
  5
214
100
AcDbEntity
  8
0
100
AcDbLine
 62
9
  6
CONTINUOUS
 10
9.5498183383
 20
9.6813934089
 11
9.5498183383
 21
9.6767717586
  0
LWPOLYLINE
  5
215
100
AcDbEntity
  8
0
100
AcDbPolyline
 62
7
  6
CONTINUOUS
 90
12
 70
0
 10
9.937369136
 20
9.3193812801
 10
9.9374963191
 20
9.3198520805
 10
9.938191074
 20
9.3218809913
 10
9.9390630019
 20
9.3237540253
 10
9.9400753685
 20
9.325452908
 10
9.9411885483
 20
9.3269650044
 10
9.9423553901
 20
9.3282778924
 10
9.9435247292
 20
9.3293858302
 10
9.9446405951
 20
9.33028802
 10
9.9456315857
 20
9.3309808977
 10
9.9464374508
 20
9.3314759158
 10
9.9470362773
 20
9.3318047865
  0
LINE
  5
216
100
AcDbEntity
  8
0
100
AcDbLine
 62
9
  6
CONTINUOUS
 10
9.6948129169
 20
9.3178769816
 11
9.6948125383
 21
9.3316946691
  0
LINE
  5
217
100
AcDbEntity
  8
0
100
AcDbLine
 62
9
  6
CONTINUOUS
 10
9.6948253087
 20
9.6501556703
 11
9.6948257258
 21
9.6363379829
  0
LINE
  5
218
100
AcDbEntity
  8
0
100
AcDbLine
 62
9
  6
CONTINUOUS
 10
9.8398183383
 20
9.6813934089
 11
9.8398183383
 21
9.6767717586
  0
LINE
  5
219
100
AcDbEntity
  8
0
100
AcDbLine
 62
9
  6
CONTINUOUS
 10
9.8398183383
 20
9.2866392433
 11
9.8398183383
 21
9.2912608936
  0
LINE
  5
21A
100
AcDbEntity
  8
0
100
AcDbLine
 62
9
  6
CONTINUOUS
 10
9.9576369671
 20
9.3710912667
 11
9.9576369671
 21
9.5969413855
  0
LINE
  5
21B
100
AcDbEntity
  8
0
100
AcDbLine
 62
7
  6
CONTINUOUS
 10
9.9791935545
 20
9.3710912667
 11
9.9791935545
 21
9.5969413855
  0
LINE
  5
21C
100
AcDbEntity
  8
0
100
AcDbLine
 62
9
  6
CONTINUOUS
 10
10.0848183383
 20
9.1040163261
 11
10.0848183383
 21
9.8640163261
  0
LWPOLYLINE
  5
21D
100
AcDbEntity
  8
0
100
AcDbPolyline
 62
7
  6
CONTINUOUS
 90
45
 70
0
 10
9.452267551
 20
9.3193812088
 10
9.452606905
 20
9.3181496304
 10
9.4530810638
 20
9.3166556167
 10
9.4536088724
 20
9.315206707
 10
9.4541866874
 20
9.3138037435
 10
9.4548110017
 20
9.3124473486
 10
9.45547845
 20
9.3111379454
 10
9.4561858123
 20
9.3098757762
 10
9.4569300168
 20
9.3086609213
 10
9.457708141
 20
9.3074933159
 10
9.4585174114
 20
9.3063727677
 10
9.4593552033
 20
9.3052989707
 10
9.4602190394
 20
9.3042715198
 10
9.4611065878
 20
9.3032899243
 10
9.4620156587
 20
9.3023536208
 10
9.4629442005
 20
9.3014619856
 10
9.4638902958
 20
9.3006143456
 10
9.464852156
 20
9.2998099891
 10
9.4658280995
 20
9.2990481878
 10
9.4668163112
 20
9.2983283666
 10
9.4678148752
 20
9.2976500264
 10
9.4688219572
 20
9.2970125953
 10
9.4698358107
 20
9.296415432
 10
9.4708547807
 20
9.2958578327
 10
9.4718773062
 20
9.2953390374
 10
9.4729019191
 20
9.2948582385
 10
9.4739272323
 20
9.2944145928
 10
9.4749519009
 20
9.2940072408
 10
9.4759745331
 20
9.2936353355
 10
9.4769934456
 20
9.2932981032
 10
9.4780040317
 20
9.2929955385
 10
9.4790024812
 20
9.2927270169
 10
9.4799875511
 20
9.2924910362
 10
9.4809598265
 20
9.2922857351
 10
9.4819206628
 20
9.2921093068
 10
9.4828645796
 20
9.2919611631
 10
9.4837682321
 20
9.2918423359
 10
9.4846301267
 20
9.2917495844
 10
9.4854359713
 20
9.2916806111
 10
9.4861731158
 20
9.2916319369
 10
9.4868398699
 20
9.2915988838
 10
9.4874728699
 20
9.2915758534
 10
9.488116151
 20
9.2915590498
 10
9.4888460041
 20
9.2915459266
 10
9.5182440007
 20
9.2912882173
  0
LINE
  5
21E
100
AcDbEntity
  8
0
100
AcDbLine
 62
7
  6
CONTINUOUS
 10
10.1448183383
 20
9.0140163261
 11
10.1448183383
 21
9.9540163261
  0
LINE
  5
21F
100
AcDbEntity
  8
0
100
AcDbLine
 62
9
  6
CONTINUOUS
 10
10.2348183383
 20
8.9840163261
 11
10.2348183383
 21
9.9840163261
  0
LINE
  5
220
100
AcDbEntity
  8
0
100
AcDbLine
 62
9
  6
CONTINUOUS
 10
10.3035719607
 20
9.0135037351
 11
10.3035719607
 21
9.9545289171
  0
LWPOLYLINE
  5
221
100
AcDbEntity
  8
0
100
AcDbPolyline
 62
7
  6
CONTINUOUS
 90
45
 70
0
 10
9.9373691285
 20
9.6486514579
 10
9.937029609
 20
9.6498835981
 10
9.9365553347
 20
9.651377873
 10
9.9360273918
 20
9.6528270281
 10
9.9354494254
 20
9.6542302205
 10
9.9348249446
 20
9.6555868271
 10
9.9341573165
 20
9.6568964246
 10
9.9334497628
 20
9.6581587703
 10
9.932705357
 20
9.6593737839
 10
9.931927023
 20
9.6605415299
 10
9.9311175361
 20
9.6616622008
 10
9.9302795223
 20
9.6627361028
 10
9.9294154603
 20
9.6637636412
 10
9.9285276834
 20
9.664745307
 10
9.9276183825
 20
9.6656816637
 10
9.9266896103
 20
9.6665733358
 10
9.9257432854
 20
9.6674209967
 10
9.9247811975
 20
9.6682253585
 10
9.9238050292
 20
9.6689871499
 10
9.9228165974
 20
9.6697069461
 10
9.9218178179
 20
9.6703852475
 10
9.9208105247
 20
9.6710226275
 10
9.9197964636
 20
9.6716197286
 10
9.918777289
 20
9.6721772558
 10
9.917754561
 20
9.6726959701
 10
9.9167297468
 20
9.67317668
 10
9.9157042327
 20
9.6736202291
 10
9.9146793628
 20
9.6740274776
 10
9.9136565291
 20
9.6743992723
 10
9.9126374201
 20
9.6747363856
 10
9.9116266638
 20
9.6750388179
 10
9.9106280586
 20
9.6753071998
 10
9.9096428479
 20
9.6755430345
 10
9.9086704468
 20
9.6757481846
 10
9.9077095251
 20
9.6759244531
 10
9.9067656736
 20
9.6760724165
 10
9.9058623889
 20
9.6761910405
 10
9.9050007979
 20
9.6762836219
 10
9.9041947598
 20
9.6763524877
 10
9.9034577844
 20
9.6764010444
 10
9.9027916057
 20
9.6764339885
 10
9.9021600911
 20
9.6764569132
 10
9.9015185359
 20
9.6764736459
 10
9.9007901461
 20
9.6764867331
 10
9.8713927451
 20
9.6767444343
  0
LINE
  5
222
100
AcDbEntity
  8
0
100
AcDbLine
 62
9
  6
CONTINUOUS
 10
10.6410046063
 20
8.8430241697
 11
10.6410046063
 21
10.1250084825
  0
LINE
  5
223
100
AcDbEntity
  8
0
100
AcDbLine
 62
7
  6
CONTINUOUS
 10
10.7448183383
 20
8.8840163261
 11
10.7448183383
 21
10.0840163261
  0
LINE
  5
224
100
AcDbEntity
  8
0
100
AcDbLine
 62
7
  6
CONTINUOUS
 10
10.7898183383
 20
10.4690163261
 11
10.7898183383
 21
9.9690163261
  0
LINE
  5
225
100
AcDbEntity
  8
0
100
AcDbLine
 62
7
  6
CONTINUOUS
 10
10.7898183383
 20
8.9990163261
 11
10.7898183383
 21
8.4990163261
  0
LINE
  5
226
100
AcDbEntity
  8
0
100
AcDbLine
 62
9
  6
CONTINUOUS
 10
10.8298183383
 20
8.9990163261
 11
10.8298183383
 21
8.4590163261
  0
LINE
  5
227
100
AcDbEntity
  8
0
100
AcDbLine
 62
9
  6
CONTINUOUS
 10
10.8298183383
 20
9.9690163261
 11
10.8298183382
 21
10.5090163261
  0
LINE
  5
228
100
AcDbEntity
  8
0
100
AcDbLine
 62
9
  6
CONTINUOUS
 10
10.8372920225
 20
10.2681194967
 11
10.8372920225
 21
9.9690163261
  0
LINE
  5
229
100
AcDbEntity
  8
0
100
AcDbLine
 62
9
  6
CONTINUOUS
 10
10.8372920225
 20
8.9990163261
 11
10.8372920225
 21
8.6999132417
  0
LINE
  5
22A
100
AcDbEntity
  8
0
100
AcDbLine
 62
9
  6
CONTINUOUS
 10
12.1113976824
 20
5.0440017487
 11
12.1113932107
 21
5.0440087938
  0
LINE
  5
22B
100
AcDbEntity
  8
0
100
AcDbLine
 62
7
  6
CONTINUOUS
 10
12.1113976875
 20
5.0440017519
 11
12.1181114905
 21
5.0329468957
  0
LINE
  5
22C
100
AcDbEntity
  8
0
100
AcDbLine
 62
7
  6
CONTINUOUS
 10
12.1185364615
 20
5.0322126811
 11
12.1181208995
 21
5.0329306401
  0
LINE
  5
22D
100
AcDbEntity
  8
0
100
AcDbLine
 62
7
  6
CONTINUOUS
 10
10.8572920225
 20
10.2681194967
 11
10.8572920225
 21
9.9690163261
  0
LINE
  5
22E
100
AcDbEntity
  8
0
100
AcDbLine
 62
7
  6
CONTINUOUS
 10
10.8572920225
 20
8.9990163261
 11
10.8572920225
 21
8.6999132417
  0
LINE
  5
22F
100
AcDbEntity
  8
0
100
AcDbLine
 62
9
  6
CONTINUOUS
 10
10.8972920225
 20
8.518236864
 11
10.8972920225
 21
8.9990163261
  0
LINE
  5
230
100
AcDbEntity
  8
0
100
AcDbLine
 62
9
  6
CONTINUOUS
 10
10.8972920225
 20
9.9690163261
 11
10.8972920225
 21
10.449795856
  0
LINE
  5
231
100
AcDbEntity
  8
0
100
AcDbLine
 62
7
  6
CONTINUOUS
 10
12.4650899646
 20
8.8374497938
 11
12.4651049052
 21
8.8374650222
  0
LINE
  5
232
100
AcDbEntity
  8
0
100
AcDbLine
 62
7
  6
CONTINUOUS
 10
11.5648183383
 20
9.4840163261
 11
11.5648183383
 21
4.8905544333
  0
LWPOLYLINE
  5
233
100
AcDbEntity
  8
0
100
AcDbPolyline
 62
7
  6
CONTINUOUS
 90
10
 70
0
 10
9.4439659092
 20
9.3310065594
 10
9.4449629794
 20
9.3303129444
 10
9.4460674132
 20
9.3294247312
 10
9.4472305704
 20
9.3283300327
 10
9.4484053736
 20
9.3270175933
 10
9.4495337059
 20
9.3254943605
 10
9.4505612507
 20
9.3237774753
 10
9.4514435463
 20
9.3218861123
 10
9.4521419406
 20
9.3198464835
 10
9.4522675235
 20
9.3193813302
  0
LINE
  5
234
100
AcDbEntity
  8
0
100
AcDbLine
 62
9
  6
CONTINUOUS
 10
11.8148183383
 20
10.4218580048
 11
11.8148183372
 21
10.3730714442
  0
LWPOLYLINE
  5
235
100
AcDbEntity
  8
0
100
AcDbPolyline
 62
7
  6
CONTINUOUS
 90
11
 70
0
 10
12.0648183383
 20
8.5985904622
 10
12.0728103661
 20
8.6007175759
 10
12.1236179542
 20
8.6174996982
 10
12.1736845218
 20
8.6373772444
 10
12.2227846497
 20
8.660323633
 10
12.2707095326
 20
8.6862997665
 10
12.3172145067
 20
8.7152122373
 10
12.3620381089
 20
8.7469401516
 10
12.4049948524
 20
8.7813927748
 10
12.4459284575
 20
8.8184777066
 10
12.4650896868
 20
8.8374495105
  0
LWPOLYLINE
  5
236
100
AcDbEntity
  8
0
100
AcDbPolyline
 62
7
  6
CONTINUOUS
 90
3
 70
0
 10
9.4422742539
 20
9.3319666702
 10
9.4425280633
 20
9.331842137
 10
9.443135992
 20
9.3315123647
  0
LINE
  5
237
100
AcDbEntity
  8
0
100
AcDbLine
 62
7
  6
CONTINUOUS
 10
9.443135992
 20
9.3315123647
 11
9.4439659092
 21
9.3310065594
  0
LINE
  5
238
100
AcDbEntity
  8
0
100
AcDbLine
 62
7
  6
CONTINUOUS
 10
12.0648183383
 20
9.4840163261
 11
12.0648183383
 21
4.8905544333
  0
LINE
  5
239
100
AcDbEntity
  8
0
100
AcDbLine
 62
7
  6
CONTINUOUS
 10
10.8298183383
 20
8.4590163261
 11
11.5648183383
 21
8.4590163261
  0
LINE
  5
23A
100
AcDbEntity
  8
0
100
AcDbLine
 62
7
  6
CONTINUOUS
 10
12.0648183383
 20
8.4590163261
 11
12.7998183383
 21
8.4590163261
  0
LINE
  5
23B
100
AcDbEntity
  8
0
100
AcDbLine
 62
9
  6
CONTINUOUS
 10
10.7898183383
 20
8.499016326
 11
11.5648183383
 21
8.4990163261
  0
LINE
  5
23C
100
AcDbEntity
  8
0
100
AcDbLine
 62
9
  6
CONTINUOUS
 10
12.0648183383
 20
8.4990163261
 11
12.8398183383
 21
8.4990163261
  0
LINE
  5
23D
100
AcDbEntity
  8
0
100
AcDbLine
 62
9
  6
CONTINUOUS
 10
10.8972920225
 20
8.518236864
 11
11.5648183383
 21
8.5182368316
  0
LINE
  5
23E
100
AcDbEntity
  8
0
100
AcDbLine
 62
9
  6
CONTINUOUS
 10
12.0648183383
 20
8.5182368073
 11
12.7323446541
 21
8.5182367749
  0
LINE
  5
23F
100
AcDbEntity
  8
0
100
AcDbLine
 62
9
  6
CONTINUOUS
 10
10.8972920225
 20
8.5263728722
 11
11.5648183383
 21
8.5263728153
  0
LINE
  5
240
100
AcDbEntity
  8
0
100
AcDbLine
 62
9
  6
CONTINUOUS
 10
12.0648183383
 20
8.5263727728
 11
12.7323446541
 21
8.5263727159
  0
LWPOLYLINE
  5
241
100
AcDbEntity
  8
0
100
AcDbPolyline
 62
7
  6
CONTINUOUS
 90
10
 70
0
 10
9.9456659178
 20
9.6370292462
 10
9.9446688438
 20
9.6377233345
 10
9.9435648471
 20
9.6386117607
 10
9.9424023175
 20
9.6397065018
 10
9.9412282029
 20
9.6410188631
 10
9.9401006061
 20
9.6425418383
 10
9.939073794
 20
9.6442582563
 10
9.9381921809
 20
9.6461489002
 10
9.9374943586
 20
9.6481875121
 10
9.9373691534
 20
9.6486513299
  0
LWPOLYLINE
  5
242
100
AcDbEntity
  8
0
100
AcDbPolyline
 62
7
  6
CONTINUOUS
 90
11
 70
0
 10
11.1642966637
 20
8.8377046014
 10
11.1837403587
 20
8.8184467117
 10
11.2246795423
 20
8.7813606579
 10
11.2676424129
 20
8.7469070758
 10
11.3124721815
 20
8.7151790292
 10
11.3589834318
 20
8.6862670814
 10
11.4069145393
 20
8.6602921287
 10
11.4560206887
 20
8.6373476587
 10
11.5060930872
 20
8.6174726873
 10
11.5569063058
 20
8.6006937487
 10
11.5648183383
 20
8.5985887305
  0
LINE
  5
243
100
AcDbEntity
  8
0
100
AcDbLine
 62
7
  6
CONTINUOUS
 10
11.1642842348
 20
8.8377172795
 11
11.1642967512
 21
8.8377045122
  0
LINE
  5
244
100
AcDbEntity
  8
0
100
AcDbLine
 62
9
  6
CONTINUOUS
 10
12.7923446541
 20
8.6999131991
 11
12.7723446541
 21
8.6999131991
  0
LINE
  5
245
100
AcDbEntity
  8
0
100
AcDbLine
 62
9
  6
CONTINUOUS
 10
10.8372920225
 20
8.6999132417
 11
10.8572920225
 21
8.6999132417
  0
LINE
  5
246
100
AcDbEntity
  8
0
100
AcDbLine
 62
7
  6
CONTINUOUS
 10
9.9464963813
 20
9.6365227629
 11
9.9456659178
 21
9.6370292462
  0
LINE
  5
247
100
AcDbEntity
  8
0
100
AcDbLine
 62
7
  6
CONTINUOUS
 10
11.5115157471
 20
5.0329305884
 11
11.5111002592
 21
5.0322127576
  0
LINE
  5
248
100
AcDbEntity
  8
0
100
AcDbLine
 62
7
  6
CONTINUOUS
 10
11.511525156
 20
5.032946844
 11
11.5182387951
 21
5.0440014464
  0
LINE
  5
249
100
AcDbEntity
  8
0
100
AcDbLine
 62
7
  6
CONTINUOUS
 10
10.7448183383
 20
8.9990163261
 11
11.0701829316
 21
8.9990163261
  0
LINE
  5
24A
100
AcDbEntity
  8
0
100
AcDbLine
 62
7
  6
CONTINUOUS
 10
9.3548183383
 20
9.1040163261
 11
10.0848183383
 21
9.1040163261
  0
LINE
  5
24B
100
AcDbEntity
  8
0
100
AcDbLine
 62
7
  6
CONTINUOUS
 10
9.4428481337
 20
9.3318189432
 11
9.4433556491
 21
9.331703199
  0
LWPOLYLINE
  5
24C
100
AcDbEntity
  8
0
100
AcDbPolyline
 62
7
  6
CONTINUOUS
 90
3
 70
0
 10
9.9473626455
 20
9.636065924
 10
9.9471046653
 20
9.6361925774
 10
9.9464963813
 20
9.6365227629
  0
LINE
  5
24D
100
AcDbEntity
  8
0
100
AcDbLine
 62
9
  6
CONTINUOUS
 10
12.7323446541
 20
10.449795912
 11
12.7323446541
 21
9.7050008049
  0
LINE
  5
24E
100
AcDbEntity
  8
0
100
AcDbLine
 62
9
  6
CONTINUOUS
 10
12.7323446541
 20
8.5182367749
 11
12.7323446541
 21
9.2630289119
  0
LINE
  5
24F
100
AcDbEntity
  8
0
100
AcDbLine
 62
7
  6
CONTINUOUS
 10
12.7723446541
 20
10.268119493
 11
12.7723446541
 21
8.6999131991
  0
LINE
  5
250
100
AcDbEntity
  8
0
100
AcDbLine
 62
9
  6
CONTINUOUS
 10
12.7923446541
 20
8.6999131991
 11
12.7923446541
 21
10.268119493
  0
LINE
  5
251
100
AcDbEntity
  8
0
100
AcDbLine
 62
9
  6
CONTINUOUS
 10
12.7998183384
 20
8.4590163261
 11
12.7998183383
 21
10.5090163261
  0
LINE
  5
252
100
AcDbEntity
  8
0
100
AcDbLine
 62
7
  6
CONTINUOUS
 10
12.8398183383
 20
8.4990163261
 11
12.8398183383
 21
10.4690163261
  0
LINE
  5
253
100
AcDbEntity
  8
0
100
AcDbLine
 62
9
  6
CONTINUOUS
 10
11.5182434659
 20
5.0440087938
 11
11.5182388003
 21
5.0440014431
  0
LWPOLYLINE
  5
254
100
AcDbEntity
  8
0
100
AcDbPolyline
 62
7
  6
CONTINUOUS
 90
40
 70
0
 10
9.9007971502
 20
9.2915460225
 10
9.9015700373
 20
9.2915601471
 10
9.9022620379
 20
9.2915789598
 10
9.902930677
 20
9.2916047449
 10
9.9036282183
 20
9.2916416601
 10
9.9043874679
 20
9.2916950986
 10
9.9051923315
 20
9.2917678906
 10
9.9060496438
 20
9.291864363
 10
9.906927462
 20
9.2919838286
 10
9.9078349131
 20
9.292129705
 10
9.9087870397
 20
9.2923076139
 10
9.9097687439
 20
9.2925181498
 10
9.9107758932
 20
9.2927632806
 10
9.9118078069
 20
9.2930457083
 10
9.9128625333
 20
9.2933678921
 10
9.9139371517
 20
9.2937319753
 10
9.9150292551
 20
9.2941402119
 10
9.9161365192
 20
9.2945948847
 10
9.9172564743
 20
9.295098233
 10
9.9183864216
 20
9.295652405
 10
9.9195233307
 20
9.2962593781
 10
9.9206640559
 20
9.2969210396
 10
9.9218053567
 20
9.2976391976
 10
9.9229438183
 20
9.2984155295
 10
9.9240758423
 20
9.299251559
 10
9.9251976598
 20
9.3001486464
 10
9.926305439
 20
9.3011080677
 10
9.9273952172
 20
9.3021309677
 10
9.928462839
 20
9.3032182941
 10
9.9295039583
 20
9.3043707749
 10
9.9305140436
 20
9.305588896
 10
9.9314883865
 20
9.3068728778
 10
9.9324221118
 20
9.3082226526
 10
9.9333101898
 20
9.3096378414
 10
9.9341474533
 20
9.3111177327
 10
9.9349286135
 20
9.3126612596
 10
9.9356482803
 20
9.3142669767
 10
9.9363009836
 20
9.3159330377
 10
9.9368811989
 20
9.3176571743
 10
9.937369136
 20
9.3193811058
  0
LINE
  5
255
100
AcDbEntity
  8
0
100
AcDbLine
 62
9
  6
CONTINUOUS
 10
9.5498183383
 20
9.2866392433
 11
9.8398183383
 21
9.2866392433
  0
LINE
  5
256
100
AcDbEntity
  8
0
100
AcDbLine
 62
9
  6
CONTINUOUS
 10
9.4104431221
 20
9.3710912667
 11
9.4319997095
 21
9.3710912667
  0
LINE
  5
257
100
AcDbEntity
  8
0
100
AcDbLine
 62
9
  6
CONTINUOUS
 10
9.9576369671
 20
9.3710912667
 11
9.9791935545
 21
9.3710912667
  0
LWPOLYLINE
  5
258
100
AcDbEntity
  8
0
100
AcDbPolyline
 62
7
  6
CONTINUOUS
 90
13
 70
0
 10
9.5182440007
 20
9.2912882173
 10
9.5492628933
 20
9.2910662623
 10
9.5809201326
 20
9.2908875138
 10
9.6130812361
 20
9.2907527231
 10
9.6456030309
 20
9.2906624978
 10
9.6783427904
 20
9.2906172355
 10
9.7111566639
 20
9.2906171408
 10
9.7438997787
 20
9.2906622196
 10
9.7764265172
 20
9.2907522743
 10
9.8085925795
 20
9.2908869047
 10
9.8402517388
 20
9.2910654817
 10
9.8712716017
 20
9.2912872604
 10
9.9007971502
 20
9.2915460225
  0
LINE
  5
259
100
AcDbEntity
  8
0
100
AcDbLine
 62
7
  6
CONTINUOUS
 10
9.9467885467
 20
9.6362137075
 11
9.9462810151
 21
9.6363294556
  0
LINE
  5
25A
100
AcDbEntity
  8
0
100
AcDbLine
 62
7
  6
CONTINUOUS
 10
9.9462811265
 20
9.3317032284
 11
9.9467883015
 21
9.3318188924
  0
LINE
  5
25B
100
AcDbEntity
  8
0
100
AcDbLine
 62
9
  6
CONTINUOUS
 10
9.9791935545
 20
9.5969413855
 11
9.9576369671
 21
9.5969413855
  0
LINE
  5
25C
100
AcDbEntity
  8
0
100
AcDbLine
 62
9
  6
CONTINUOUS
 10
9.4319997095
 20
9.5969413855
 11
9.4104431221
 21
9.5969413855
  0
LWPOLYLINE
  5
25D
100
AcDbEntity
  8
0
100
AcDbPolyline
 62
7
  6
CONTINUOUS
 90
40
 70
0
 10
9.4888395647
 20
9.6764866306
 10
9.4880667215
 20
9.6764725068
 10
9.4873746871
 20
9.6764536939
 10
9.4867059889
 20
9.676427907
 10
9.4860085201
 20
9.6763909959
 10
9.4852492823
 20
9.6763375595
 10
9.4844444066
 20
9.6762647675
 10
9.4835871975
 20
9.6761683087
 10
9.4827093363
 20
9.6760488403
 10
9.4818018048
 20
9.6759029527
 10
9.4808496371
 20
9.6757250365
 10
9.4798678999
 20
9.6755144929
 10
9.4788607134
 20
9.6752693512
 10
9.4778287603
 20
9.6749869099
 10
9.476773998
 20
9.6746647108
 10
9.4756993483
 20
9.6743006113
 10
9.4746072183
 20
9.6738923577
 10
9.4734999325
 20
9.6734376678
 10
9.4723799612
 20
9.6729343028
 10
9.4712500038
 20
9.6723801152
 10
9.470113091
 20
9.6717731286
 10
9.4689723675
 20
9.6711114559
 10
9.467831073
 20
9.6703932889
 10
9.4666926212
 20
9.6696169503
 10
9.4655606097
 20
9.6687809163
 10
9.4644388065
 20
9.6678838262
 10
9.4633310428
 20
9.6669244041
 10
9.4622412812
 20
9.6659015053
 10
9.4611736766
 20
9.664814182
 10
9.4601325752
 20
9.6636617063
 10
9.4591225077
 20
9.6624435924
 10
9.4581481824
 20
9.6611596198
 10
9.4572144745
 20
9.659809856
 10
9.4563264129
 20
9.6583946801
 10
9.4554891651
 20
9.6569148034
 10
9.4547080191
 20
9.6553712925
 10
9.4539883652
 20
9.6537655928
 10
9.453335673
 20
9.6520995504
 10
9.4527554671
 20
9.6503754332
 10
9.4522675426
 20
9.6486515425
  0
LINE
  5
25E
100
AcDbEntity
  8
0
100
AcDbLine
 62
9
  6
CONTINUOUS
 10
9.8398183383
 20
9.6813934089
 11
9.5498183383
 21
9.6813934089
  0
LWPOLYLINE
  5
25F
100
AcDbEntity
  8
0
100
AcDbPolyline
 62
7
  6
CONTINUOUS
 90
13
 70
0
 10
9.8713927451
 20
9.6767444343
 10
9.8403738816
 20
9.6769663893
 10
9.808716649
 20
9.6771451379
 10
9.7765555197
 20
9.6772799288
 10
9.7440336876
 20
9.6773701544
 10
9.7112938925
 20
9.6774154167
 10
9.6784799977
 20
9.6774155114
 10
9.6457368786
 20
9.6773704326
 10
9.613210147
 20
9.6772803778
 10
9.5810440975
 20
9.6771457475
 10
9.5493849424
 20
9.6769671705
 10
9.518365086
 20
9.676745392
 10
9.4888395647
 20
9.6764866306
  0
LINE
  5
260
100
AcDbEntity
  8
0
100
AcDbLine
 62
7
  6
CONTINUOUS
 10
9.4433555392
 20
9.636329422
 11
9.4428483463
 21
9.6362137534
  0
LINE
  5
261
100
AcDbEntity
  8
0
100
AcDbLine
 62
7
  6
CONTINUOUS
 10
9.3548183383
 20
9.8640163261
 11
10.0848183383
 21
9.8640163261
  0
LINE
  5
262
100
AcDbEntity
  8
0
100
AcDbLine
 62
7
  6
CONTINUOUS
 10
10.7448183383
 20
9.9690163261
 11
11.0701829316
 21
9.9690163261
  0
LINE
  5
263
100
AcDbEntity
  8
0
100
AcDbLine
 62
9
  6
CONTINUOUS
 10
12.7923446541
 20
10.268119493
 11
12.7723446541
 21
10.268119493
  0
LINE
  5
264
100
AcDbEntity
  8
0
100
AcDbLine
 62
9
  6
CONTINUOUS
 10
10.8372920225
 20
10.2681194967
 11
10.8572920225
 21
10.2681194967
  0
LWPOLYLINE
  5
265
100
AcDbEntity
  8
0
100
AcDbPolyline
 62
7
  6
CONTINUOUS
 90
15
 70
0
 10
11.8148183383
 20
10.4049637655
 10
11.7640867565
 20
10.4035367485
 10
11.7120338542
 20
10.3990858144
 10
11.6599805335
 20
10.3915681037
 10
11.6081731032
 20
10.380982243
 10
11.556790588
 20
10.3673044363
 10
11.5059790632
 20
10.3505185391
 10
11.4559093236
 20
10.3306368356
 10
11.406806782
 20
10.3076862335
 10
11.3588810069
 20
10.2817060157
 10
11.3123762361
 20
10.2527898345
 10
11.2675530138
 20
10.2210580912
 10
11.2245976623
 20
10.1866025557
 10
11.1836642743
 20
10.1495125388
 10
11.1645661066
 20
10.130601974
  0
LINE
  5
266
100
AcDbEntity
  8
0
100
AcDbLine
 62
9
  6
CONTINUOUS
 10
12.7323446541
 20
10.4416599229
 11
10.8972920225
 21
10.4416598468
  0
LINE
  5
267
100
AcDbEntity
  8
0
100
AcDbLine
 62
9
  6
CONTINUOUS
 10
12.7323446541
 20
10.449795912
 11
10.8972920225
 21
10.449795856
  0
LINE
  5
268
100
AcDbEntity
  8
0
100
AcDbLine
 62
9
  6
CONTINUOUS
 10
12.8398183383
 20
10.4690163262
 11
10.7898183383
 21
10.4690163261
  0
LINE
  5
269
100
AcDbEntity
  8
0
100
AcDbLine
 62
7
  6
CONTINUOUS
 10
12.7998183383
 20
10.5090163261
 11
10.8298183383
 21
10.5090163261
  0
LWPOLYLINE
  5
26A
100
AcDbEntity
  8
0
100
AcDbPolyline
 62
7
  6
CONTINUOUS
 90
15
 70
0
 10
12.4648628934
 20
10.1308137196
 10
12.445941429
 20
10.1495424108
 10
12.4050024083
 20
10.1866337274
 10
12.3620408885
 20
10.2210903666
 10
12.3172114644
 20
10.2528223595
 10
12.2707003683
 20
10.2817381309
 10
12.222768322
 20
10.3077172683
 10
12.1736597062
 20
10.330666043
 10
12.1235840773
 20
10.3505452529
 10
12.0727668526
 20
10.3673280403
 10
12.0213785232
 20
10.3810022166
 10
11.9695653882
 20
10.3915838862
 10
11.9175064588
 20
10.3990968771
 10
11.8654482314
 20
10.4035424771
 10
11.8148183383
 20
10.4049637655
  0
LINE
  5
26B
100
AcDbEntity
  8
0
100
AcDbLine
 62
7
  6
CONTINUOUS
 10
12.4648796466
 20
10.1307966543
 11
12.4648634985
 21
10.1308131022
  0
ARC
  5
26C
100
AcDbEntity
  8
0
100
AcDbCircle
 62
9
  6
CONTINUOUS
 10
9.7010974628
 20
-17.1059898264
 40
26.7041666516
100
AcDbArc
 50
89.4495668447
 51
90.0134987835
  0
ARC
  5
26D
100
AcDbEntity
  8
0
100
AcDbCircle
 62
9
  6
CONTINUOUS
 10
9.6885386828
 20
-17.1058597408
 40
26.7040365642
100
AcDbArc
 50
89.9865529219
 51
90.5504346973
  0
ARC
  5
26E
100
AcDbEntity
  8
0
100
AcDbCircle
 62
9
  6
CONTINUOUS
 10
9.6964341092
 20
-15.4674431849
 40
25.1037823259
100
AcDbArc
 50
89.4894450242
 51
90.0036710379
  0
ARC
  5
26F
100
AcDbEntity
  8
0
100
AcDbCircle
 62
9
  6
CONTINUOUS
 10
9.6908617336
 20
-14.9211313993
 40
24.5574696537
100
AcDbArc
 50
89.9907516255
 51
90.5164515118
  0
ARC
  5
270
100
AcDbEntity
  8
0
100
AcDbCircle
 62
9
  6
CONTINUOUS
 10
9.6964095643
 20
-14.832957586
 40
24.4831143657
100
AcDbArc
 50
89.4891379502
 51
90.0037076328
  0
ARC
  5
271
100
AcDbEntity
  8
0
100
AcDbCircle
 62
9
  6
CONTINUOUS
 10
9.6909681463
 20
-14.304372185
 40
23.9545281659
100
AcDbArc
 50
89.9907743583
 51
90.5167317855
  0
ARC
  5
272
100
AcDbEntity
  8
0
100
AcDbCircle
 62
7
  6
CONTINUOUS
 10
10.2393787294
 20
8.467262736
 40
0.55
100
AcDbArc
 50
43.0944157882
 51
83.2974484373
  0
ARC
  5
273
100
AcDbEntity
  8
0
100
AcDbCircle
 62
7
  6
CONTINUOUS
 10
10.2948183383
 20
8.9390163261
 40
0.075
100
AcDbArc
 50
83.2974484373
 51
143.1301023542
  0
ARC
  5
274
100
AcDbEntity
  8
0
100
AcDbCircle
 62
7
  6
CONTINUOUS
 10
10.6848183383
 20
8.8840163261
 40
0.06
100
AcDbArc
 50
223.0944157882
 51
360.0
  0
ARC
  5
275
100
AcDbEntity
  8
0
100
AcDbCircle
 62
7
  6
CONTINUOUS
 10
10.0848183383
 20
9.0440163261
 40
0.06
100
AcDbArc
 50
0.0000000001
 51
90.0
  0
ARC
  5
276
100
AcDbEntity
  8
0
100
AcDbCircle
 62
7
  6
CONTINUOUS
 10
9.3073586714
 20
9.1265566592
 40
0.0525403331
100
AcDbArc
 50
180.0
 51
334.5952455743
  0
ARC
  5
277
100
AcDbEntity
  8
0
100
AcDbCircle
 62
7
  6
CONTINUOUS
 10
10.1948183383
 20
9.0140163261
 40
0.05
100
AcDbArc
 50
180.0
 51
323.1301023542
  0
ARC
  5
278
100
AcDbEntity
  8
0
100
AcDbCircle
 62
7
  6
CONTINUOUS
 10
9.9391934739
 20
9.3710913334
 40
0.0400000806
100
AcDbArc
 50
280.9453813904
 51
359.9999045081
  0
ARC
  5
279
100
AcDbEntity
  8
0
100
AcDbCircle
 62
7
  6
CONTINUOUS
 10
9.4504432026
 20
9.3710913334
 40
0.0400000806
100
AcDbArc
 50
180.0000954914
 51
259.0544374371
  0
ARC
  5
27A
100
AcDbEntity
  8
0
100
AcDbCircle
 62
7
  6
CONTINUOUS
 10
10.8298183383
 20
8.4990163261
 40
0.04
100
AcDbArc
 50
180.0
 51
270.0
  0
ARC
  5
27B
100
AcDbEntity
  8
0
100
AcDbCircle
 62
9
  6
CONTINUOUS
 10
9.9451046789
 20
9.3405601165
 40
0.0089018836
100
AcDbArc
 50
277.5958456776
 51
280.9017407305
  0
ARC
  5
27C
100
AcDbEntity
  8
0
100
AcDbCircle
 62
9
  6
CONTINUOUS
 10
9.6885389501
 20
36.0739807457
 40
26.7041249181
100
AcDbArc
 50
269.4495665502
 51
270.0134958071
  0
ARC
  5
27D
100
AcDbEntity
  8
0
100
AcDbCircle
 62
9
  6
CONTINUOUS
 10
9.7010979798
 20
36.0738959097
 40
26.7040400809
100
AcDbArc
 50
269.9865493906
 51
270.5504346548
  0
ARC
  5
27E
100
AcDbEntity
  8
0
100
AcDbCircle
 62
9
  6
CONTINUOUS
 10
9.6932024943
 20
34.4354463666
 40
25.1037528555
100
AcDbArc
 50
269.489444584
 51
270.0036748321
  0
ARC
  5
27F
100
AcDbEntity
  8
0
100
AcDbCircle
 62
9
  6
CONTINUOUS
 10
9.6987749587
 20
33.8891527713
 40
24.5574583738
100
AcDbArc
 50
269.9907552884
 51
270.5164516592
  0
ARC
  5
280
100
AcDbEntity
  8
0
100
AcDbCircle
 62
9
  6
CONTINUOUS
 10
9.6932271543
 20
33.8009835419
 40
24.4831076697
100
AcDbArc
 50
269.4891377121
 51
270.0037111602
  0
ARC
  5
281
100
AcDbEntity
  8
0
100
AcDbCircle
 62
9
  6
CONTINUOUS
 10
9.6986685669
 20
33.2723955877
 40
23.9545189164
100
AcDbArc
 50
269.9907779718
 51
270.5167318987
  0
ARC
  5
282
100
AcDbEntity
  8
0
100
AcDbCircle
 62
7
  6
CONTINUOUS
 10
10.2393787294
 20
10.5007699162
 40
0.55
100
AcDbArc
 50
276.7025515627
 51
316.9055842118
  0
ARC
  5
283
100
AcDbEntity
  8
0
100
AcDbCircle
 62
7
  6
CONTINUOUS
 10
10.2948183383
 20
10.0290163261
 40
0.075
100
AcDbArc
 50
216.8698976458
 51
276.7025515627
  0
ARC
  5
284
100
AcDbEntity
  8
0
100
AcDbCircle
 62
7
  6
CONTINUOUS
 10
10.6848183383
 20
10.0840163261
 40
0.06
100
AcDbArc
 50
0.0
 51
136.9055842117
  0
ARC
  5
285
100
AcDbEntity
  8
0
100
AcDbCircle
 62
7
  6
CONTINUOUS
 10
10.0848183383
 20
9.9240163261
 40
0.06
100
AcDbArc
 50
270.0
 51
359.9999999999
  0
ARC
  5
286
100
AcDbEntity
  8
0
100
AcDbCircle
 62
7
  6
CONTINUOUS
 10
9.3073586714
 20
9.841475993
 40
0.0525403331
100
AcDbArc
 50
25.4047544257
 51
180.0
  0
ARC
  5
287
100
AcDbEntity
  8
0
100
AcDbCircle
 62
7
  6
CONTINUOUS
 10
10.1948183383
 20
9.9540163261
 40
0.05
100
AcDbArc
 50
36.8698976458
 51
180.0
  0
ARC
  5
288
100
AcDbEntity
  8
0
100
AcDbCircle
 62
7
  6
CONTINUOUS
 10
9.4504432026
 20
9.5969413188
 40
0.0400000806
100
AcDbArc
 50
100.9454065483
 51
179.9999045081
  0
ARC
  5
289
100
AcDbEntity
  8
0
100
AcDbCircle
 62
7
  6
CONTINUOUS
 10
9.9391934739
 20
9.5969413188
 40
0.0400000806
100
AcDbArc
 50
0.0000954914
 51
79.0544582592
  0
ARC
  5
28A
100
AcDbEntity
  8
0
100
AcDbCircle
 62
7
  6
CONTINUOUS
 10
10.8298183383
 20
10.4690163261
 40
0.04
100
AcDbArc
 50
90.0
 51
180.0
  0
ARC
  5
28B
100
AcDbEntity
  8
0
100
AcDbCircle
 62
9
  6
CONTINUOUS
 10
9.4445320144
 20
9.6274723571
 40
0.0089020619
100
AcDbArc
 50
97.595872597
 51
100.9017967836
  0
ARC
  5
28C
100
AcDbEntity
  8
0
100
AcDbCircle
 62
9
  6
CONTINUOUS
 10
11.8183740707
 20
9.4791711719
 40
0.9161326791
100
AcDbArc
 50
211.6286241853
 51
224.4411932815
  0
ARC
  5
28D
100
AcDbEntity
  8
0
100
AcDbCircle
 62
7
  6
CONTINUOUS
 10
11.8328483803
 20
4.8669512941
 40
0.3300554207
100
AcDbArc
 50
32.4421500704
 51
45.3331760221
  0
ARC
  5
28E
100
AcDbEntity
  8
0
100
AcDbCircle
 62
7
  6
CONTINUOUS
 10
11.7967881361
 20
4.8669514125
 40
0.330055222
100
AcDbArc
 50
134.667243614
 51
147.5578523548
  0
ARC
  5
28F
100
AcDbEntity
  8
0
100
AcDbCircle
 62
7
  6
CONTINUOUS
 10
11.7884382449
 20
4.8721546335
 40
0.3202108022
100
AcDbArc
 50
147.6796580631
 51
149.8613613085
  0
ARC
  5
290
100
AcDbEntity
  8
0
100
AcDbCircle
 62
9
  6
CONTINUOUS
 10
11.7884367016
 20
4.8725043132
 40
0.3200283867
100
AcDbArc
 50
147.6776491395
 51
149.9178006339
  0
ARC
  5
291
100
AcDbEntity
  8
0
100
AcDbCircle
 62
9
  6
CONTINUOUS
 10
11.8414526988
 20
4.872657382
 40
0.3197329786
100
AcDbArc
 50
30.0811749813
 51
32.3234185776
  0
ARC
  5
292
100
AcDbEntity
  8
0
100
AcDbCircle
 62
9
  6
CONTINUOUS
 10
11.7867610028
 20
4.8734797658
 40
0.3180894456
100
AcDbArc
 50
150.0680424014
 51
152.0026637387
  0
ARC
  5
293
100
AcDbEntity
  8
0
100
AcDbCircle
 62
9
  6
CONTINUOUS
 10
11.8431326659
 20
4.8736219777
 40
0.3177957719
100
AcDbArc
 50
28.0174482022
 51
29.9328409048
  0
ARC
  5
294
100
AcDbEntity
  8
0
100
AcDbCircle
 62
9
  6
CONTINUOUS
 10
11.8439644927
 20
4.8740673502
 40
0.3168522219
100
AcDbArc
 50
27.6806493644
 51
28.0170080211
  0
ARC
  5
295
100
AcDbEntity
  8
0
100
AcDbCircle
 62
9
  6
CONTINUOUS
 10
11.7856668984
 20
4.8740701268
 40
0.3168462515
100
AcDbArc
 50
152.0040497529
 51
152.308376868
  0
ARC
  5
296
100
AcDbEntity
  8
0
100
AcDbCircle
 62
9
  6
CONTINUOUS
 10
11.7845680673
 20
4.8746383392
 40
0.3156092234
100
AcDbArc
 50
152.3070134252
 51
156.1729740019
  0
ARC
  5
297
100
AcDbEntity
  8
0
100
AcDbCircle
 62
9
  6
CONTINUOUS
 10
11.8454869526
 20
4.8748400112
 40
0.3151450733
100
AcDbArc
 50
23.8743306952
 51
27.6848341599
  0
ARC
  5
298
100
AcDbEntity
  8
0
100
AcDbCircle
 62
7
  6
CONTINUOUS
 10
11.7814974639
 20
4.8737630727
 40
0.3131065058
100
AcDbArc
 50
179.2568738993
 51
179.9999498816
  0
ARC
  5
299
100
AcDbEntity
  8
0
100
AcDbCircle
 62
7
  6
CONTINUOUS
 10
11.8481392153
 20
4.8737630727
 40
0.3131065033
100
AcDbArc
 50
0.0000501272
 51
0.7431248819
  0
ARC
  5
29A
100
AcDbEntity
  8
0
100
AcDbCircle
 62
9
  6
CONTINUOUS
 10
11.7770930857
 20
4.8775208282
 40
0.3076016131
100
AcDbArc
 50
156.1016526014
 51
179.9509060272
  0
ARC
  5
29B
100
AcDbEntity
  8
0
100
AcDbCircle
 62
9
  6
CONTINUOUS
 10
11.8556672107
 20
4.8774401263
 40
0.3046511254
100
AcDbArc
 50
359.3164699451
 51
0.0012639229
  0
ARC
  5
29C
100
AcDbEntity
  8
0
100
AcDbCircle
 62
9
  6
CONTINUOUS
 10
11.7739694659
 20
4.8774401263
 40
0.3046511254
100
AcDbArc
 50
179.9987360771
 51
180.6835300549
  0
ARC
  5
29D
100
AcDbEntity
  8
0
100
AcDbCircle
 62
7
  6
CONTINUOUS
 10
12.7998183383
 20
8.4990163261
 40
0.04
100
AcDbArc
 50
270.0
 51
360.0
  0
ARC
  5
29E
100
AcDbEntity
  8
0
100
AcDbCircle
 62
9
  6
CONTINUOUS
 10
11.8185847274
 20
9.4886866619
 40
0.916405872
100
AcDbArc
 50
135.5364084594
 51
148.3690004648
  0
ARC
  5
29F
100
AcDbEntity
  8
0
100
AcDbCircle
 62
7
  6
CONTINUOUS
 10
11.8148183383
 20
9.4840163261
 40
0.8890551181
100
AcDbArc
 50
286.3376780079
 51
253.6623219921
  0
ARC
  5
2A0
100
AcDbEntity
  8
0
100
AcDbCircle
 62
9
  6
CONTINUOUS
 10
11.8148183383
 20
9.4840163261
 40
0.8408117029
100
AcDbArc
 50
287.3002515325
 51
252.6997484675
  0
ARC
  5
2A1
100
AcDbEntity
  8
0
100
AcDbCircle
 62
7
  6
CONTINUOUS
 10
11.8148183383
 20
9.4840163261
 40
0.517
100
AcDbArc
 50
298.9322062592
 51
241.0677937408
  0
ARC
  5
2A2
100
AcDbEntity
  8
0
100
AcDbCircle
 62
9
  6
CONTINUOUS
 10
11.8148183383
 20
9.4840163261
 40
0.467
100
AcDbArc
 50
302.3732158071
 51
237.6267854609
  0
ARC
  5
2A3
100
AcDbEntity
  8
0
100
AcDbCircle
 62
7
  6
CONTINUOUS
 10
11.8148183383
 20
9.4840163261
 40
0.25
100
AcDbArc
 50
0.0
 51
180.0
  0
ARC
  5
2A4
100
AcDbEntity
  8
0
100
AcDbCircle
 62
7
  6
CONTINUOUS
 10
12.7998183383
 20
10.4690163261
 40
0.04
100
AcDbArc
 50
0.0
 51
90.0
  0
LINE
  5
2A5
100
AcDbEntity
  8
0
100
AcDbLine
 62
7
  6
CONTINUOUS
 10
12.160318336
 20
4.8774468468
 11
12.1603181493
 21
4.8777910642
  0
SPLINE
  5
2A6
100
AcDbEntity
  8
0
100
AcDbSpline
 62
7
  6
CONTINUOUS
 70
0
 71
3
 72
15
 73
11
 74
0
 42
0.0000001
 43
0.0000001
 44
0.0000000001
 40
0.0
 40
0.0
 40
0.0
 40
0.0
 40
0.1243649184
 40
0.2488000418
 40
0.373355153
 40
0.4980989086
 40
0.6230845742
 40
0.7483657886
 40
0.8739902195
 40
1.0
 40
1.0
 40
1.0
 40
1.0
 10
12.1603181493
 20
4.8777910642
 30
0.0
 10
12.1603107212
 20
4.884497774
 30
0.0
 10
12.1598525503
 20
4.8979186849
 30
0.0
 10
12.157840128
 20
4.9179659733
 30
0.0
 10
12.1545096276
 20
4.9378584281
 30
0.0
 10
12.1498742802
 20
4.9575180872
 30
0.0
 10
12.1439517422
 20
4.9768698943
 30
0.0
 10
12.1367648065
 20
4.9958394936
 30
0.0
 10
12.1283417061
 20
5.0143530943
 30
0.0
 10
12.1219329323
 20
5.026326964
 30
0.0
 10
12.1185364341
 20
5.032212667
 30
0.0
  0
SPLINE
  5
2A7
100
AcDbEntity
  8
0
100
AcDbSpline
 62
7
  6
CONTINUOUS
 70
0
 71
3
 72
39
 73
35
 74
0
 42
0.0000001
 43
0.0000001
 44
0.0000000001
 40
0.0
 40
0.0
 40
0.0
 40
0.0
 40
0.03053989
 40
0.0611197534
 40
0.0917624661
 40
0.1224885373
 40
0.1533154907
 40
0.1842573772
 40
0.2153242228
 40
0.2465216397
 40
0.2778506333
 40
0.3093074964
 40
0.34088398
 40
0.3725675218
 40
0.4043417468
 40
0.4361869889
 40
0.4680810523
 40
0.4999999716
 40
0.5319188915
 40
0.563812957
 40
0.5956582023
 40
0.6274324313
 40
0.6591159782
 40
0.6906924675
 40
0.7221493362
 40
0.7534783354
 40
0.784675758
 40
0.8157426086
 40
0.8466844994
 40
0.8775114564
 40
0.9082375306
 40
0.9388802455
 40
0.9694601106
 40
1.0
 40
1.0
 40
1.0
 40
1.0
 10
12.1291937769
 20
4.7355586026
 30
0.0
 10
12.128568337
 20
4.7261503328
 30
0.0
 10
12.1263747143
 20
4.7073706151
 30
0.0
 10
12.1202976153
 20
4.6796534629
 30
0.0
 10
12.1114902632
 20
4.6526163056
 30
0.0
 10
12.1000375086
 20
4.6265072596
 30
0.0
 10
12.086048116
 20
4.6015594085
 30
0.0
 10
12.069653651
 20
4.5779944713
 30
0.0
 10
12.0510064975
 20
4.5560193446
 30
0.0
 10
12.0302780301
 20
4.5358249752
 30
0.0
 10
12.0076566044
 20
4.5175850706
 30
0.0
 10
11.9833456518
 20
4.5014551156
 30
0.0
 10
11.9575618147
 20
4.4875715342
 30
0.0
 10
11.9305330788
 20
4.4760509745
 30
0.0
 10
11.9024969547
 20
4.4669896611
 30
0.0
 10
11.8736985589
 20
4.4604629787
 30
0.0
 10
11.8443887621
 20
4.4565250719
 30
0.0
 10
11.8148222787
 20
4.4552085611
 30
0.0
 10
11.7852557633
 20
4.4565243689
 30
0.0
 10
11.7559458713
 20
4.4604615814
 30
0.0
 10
11.7271473177
 20
4.4669875793
 30
0.0
 10
11.6991109728
 20
4.4760482213
 30
0.0
 10
11.6720819529
 20
4.4875681254
 30
0.0
 10
11.6462977692
 20
4.5014510734
 30
0.0
 10
11.6219864121
 20
4.5175804278
 30
0.0
 10
11.5993645237
 20
4.5358197664
 30
0.0
 10
11.5786355373
 20
4.5560136098
 30
0.0
 10
11.5599878106
 20
4.5779882556
 30
0.0
 10
11.5435927225
 20
4.6015527638
 30
0.0
 10
11.5296026641
 20
4.626500245
 30
0.0
 10
11.5181492053
 20
4.6526089848
 30
0.0
 10
11.5093411169
 20
4.6796459043
 30
0.0
 10
11.503263258
 20
4.7073628907
 30
0.0
 10
11.5010691177
 20
4.7261425482
 30
0.0
 10
11.5004434184
 20
4.7355508006
 30
0.0
  0
SPLINE
  5
2A8
100
AcDbEntity
  8
0
100
AcDbSpline
 62
7
  6
CONTINUOUS
 70
0
 71
3
 72
15
 73
11
 74
0
 42
0.0000001
 43
0.0000001
 44
0.0000000001
 40
0.0
 40
0.0
 40
0.0
 40
0.0
 40
0.1256269086
 40
0.2510153897
 40
0.3761917096
 40
0.5011850761
 40
0.6260279824
 40
0.7507524814
 40
0.8753974008
 40
1.0
 40
1.0
 40
1.0
 40
1.0
 10
12.1185364462
 20
5.032212661
 30
0.0
 10
12.1219252406
 20
5.0263402823
 30
0.0
 10
12.1283305796
 20
5.0143910507
 30
0.0
 10
12.1367807327
 20
4.995916037
 30
0.0
 10
12.1440314469
 20
4.9769738169
 30
0.0
 10
12.1500530339
 20
4.9576367234
 30
0.0
 10
12.1548211249
 20
4.9379780388
 30
0.0
 10
12.1583164134
 20
4.9180724582
 30
0.0
 10
12.1605244137
 20
4.8979971683
 30
0.0
 10
12.1611321711
 20
4.8845481221
 30
0.0
 10
12.1612193835
 20
4.8778239427
 30
0.0
  0
SPLINE
  5
2A9
100
AcDbEntity
  8
0
100
AcDbSpline
 62
7
  6
CONTINUOUS
 70
0
 71
3
 72
15
 73
11
 74
0
 42
0.0000001
 43
0.0000001
 44
0.0000000001
 40
0.0
 40
0.0
 40
0.0
 40
0.0
 40
0.1260097815
 40
0.251634213
 40
0.3769154277
 40
0.5019010933
 40
0.6266448487
 40
0.7511999594
 40
0.8756350822
 40
1.0
 40
1.0
 40
1.0
 40
1.0
 10
11.5111002866
 20
5.0322127436
 30
0.0
 10
11.5077037849
 20
5.0263270382
 30
0.0
 10
11.5012950045
 20
5.0143531635
 30
0.0
 10
11.4928718952
 20
4.9958395545
 30
0.0
 10
11.485684952
 20
4.9768699462
 30
0.0
 10
11.4797624076
 20
4.9575181295
 30
0.0
 10
11.4751270553
 20
4.9378584603
 30
0.0
 10
11.4717965513
 20
4.917965995
 30
0.0
 10
11.4697841268
 20
4.8979186958
 30
0.0
 10
11.4693259554
 20
4.8844977776
 30
0.0
 10
11.4693185273
 20
4.8777910642
 30
0.0
  0
LINE
  5
2AA
100
AcDbEntity
  8
0
100
AcDbLine
 62
7
  6
CONTINUOUS
 10
11.4693185273
 20
4.8777910642
 11
11.4693183406
 21
4.8774468468
  0
SPLINE
  5
2AB
100
AcDbEntity
  8
0
100
AcDbSpline
 62
7
  6
CONTINUOUS
 70
0
 71
3
 72
15
 73
11
 74
0
 42
0.0000001
 43
0.0000001
 44
0.0000000001
 40
0.0
 40
0.0
 40
0.0
 40
0.0
 40
0.1246025321
 40
0.2492474127
 40
0.3739718855
 40
0.4988147884
 40
0.6238081676
 40
0.7489845148
 40
0.874373038
 40
1.0
 40
1.0
 40
1.0
 40
1.0
 10
11.4684172932
 20
4.8778239494
 30
0.0
 10
11.4685045057
 20
4.8845481287
 30
0.0
 10
11.4691122635
 20
4.897997176
 30
0.0
 10
11.4713202646
 20
4.918072469
 30
0.0
 10
11.4748155554
 20
4.937978056
 30
0.0
 10
11.4795836498
 20
4.9576367495
 30
0.0
 10
11.485605242
 20
4.9769738543
 30
0.0
 10
11.4928559645
 20
4.9959160871
 30
0.0
 10
11.5013061296
 20
5.014391114
 30
0.0
 10
11.5077114756
 20
5.0263403555
 30
0.0
 10
11.5111002757
 20
5.0322127383
 30
0.0
  0
SPLINE
  5
2AC
100
AcDbEntity
  8
0
100
AcDbSpline
 62
7
  6
CONTINUOUS
 70
0
 71
3
 72
39
 73
35
 74
0
 42
0.0000001
 43
0.0000001
 44
0.0000000001
 40
0.0
 40
0.0
 40
0.0
 40
0.0
 40
0.0306220592
 40
0.061267399
 40
0.0919596761
 40
0.1227197494
 40
0.1535664661
 40
0.184515412
 40
0.2155784229
 40
0.2467629975
 40
0.2780720499
 40
0.30950364
 40
0.3410510935
 40
0.3727031244
 40
0.4044443408
 40
0.4362557632
 40
0.4681156265
 40
0.5000001987
 40
0.5318847673
 40
0.56374462
 40
0.5955560247
 40
0.6272972174
 40
0.6589492193
 40
0.6904966396
 40
0.7219281928
 40
0.7532372067
 40
0.7844217425
 40
0.8154847156
 40
0.8464336262
 40
0.8772803117
 40
0.9080403594
 40
0.9387326168
 40
0.9693779447
 40
1.0
 40
1.0
 40
1.0
 40
1.0
 10
12.1612457186
 20
4.8737633466
 30
0.0
 10
12.1612457186
 20
4.8629306235
 30
0.0
 10
12.1601192445
 20
4.8412401404
 30
0.0
 10
12.155068731
 20
4.8090472953
 30
0.0
 10
12.1467114676
 20
4.7774968184
 30
0.0
 10
12.1351357799
 20
4.7469053968
 30
0.0
 10
12.1204633535
 20
4.717571702
 30
0.0
 10
12.1028464276
 20
4.6897801579
 30
0.0
 10
12.0824652275
 20
4.6637964727
 30
0.0
 10
12.0595253024
 20
4.6398659364
 30
0.0
 10
12.0342549476
 20
4.6182114304
 30
0.0
 10
12.0069022835
 20
4.5990322761
 30
0.0
 10
11.9777327059
 20
4.5825032362
 30
0.0
 10
11.9470264289
 20
4.5687735235
 30
0.0
 10
11.915076005
 20
4.5579661135
 30
0.0
 10
11.8821837932
 20
4.5501773178
 30
0.0
 10
11.8486595776
 20
4.5454763436
 30
0.0
 10
11.8148181281
 20
4.5439047501
 30
0.0
 10
11.7809766846
 20
4.545476387
 30
0.0
 10
11.7474524848
 20
4.5501773914
 30
0.0
 10
11.7145602989
 20
4.5579662176
 30
0.0
 10
11.6826099114
 20
4.5687736574
 30
0.0
 10
11.6519036769
 20
4.5825033898
 30
0.0
 10
11.6227341414
 20
4.5990324326
 30
0.0
 10
11.5953815252
 20
4.6182115885
 30
0.0
 10
11.5701112184
 20
4.639866088
 30
0.0
 10
11.5471713349
 20
4.6637966073
 30
0.0
 10
11.5267901696
 20
4.6897802692
 30
0.0
 10
11.5091732752
 20
4.7175717895
 30
0.0
 10
11.4945008714
 20
4.7469054588
 30
0.0
 10
11.4829251972
 20
4.7774968564
 30
0.0
 10
11.4745679419
 20
4.8090473145
 30
0.0
 10
11.4695174316
 20
4.8412401474
 30
0.0
 10
11.4683909581
 20
4.8629306249
 30
0.0
 10
11.4683909581
 20
4.8737633466
 30
0.0
  0
SPLINE
  5
2AD
100
AcDbEntity
  8
0
100
AcDbSpline
 62
9
  6
CONTINUOUS
 70
0
 71
3
 72
11
 73
7
 74
0
 42
0.0000001
 43
0.0000001
 44
0.0000000001
 40
0.0
 40
0.0
 40
0.0
 40
0.0
 40
0.249227981
 40
0.4987690468
 40
0.7489349149
 40
1.0
 40
1.0
 40
1.0
 40
1.0
 10
12.1601407168
 20
4.8777843933
 30
0.0
 10
12.1601407168
 20
4.8884393913
 30
0.0
 10
12.159020757
 20
4.9097794892
 30
0.0
 10
12.1539976962
 20
4.9414585344
 30
0.0
 10
12.1456826854
 20
4.972517799
 30
0.0
 10
12.1380106989
 20
4.9925740479
 30
0.0
 10
12.1336667551
 20
5.0023892905
 30
0.0
  0
LINE
  5
2AE
100
AcDbEntity
  8
0
100
AcDbLine
 62
9
  6
CONTINUOUS
 10
12.1185379402
 20
5.0321971571
 11
12.1181228087
 21
5.0329160101
  0
LINE
  5
2AF
100
AcDbEntity
  8
0
100
AcDbLine
 62
9
  6
CONTINUOUS
 10
12.1116409281
 20
5.043617899
 11
12.1113976822
 21
5.0440017486
  0
SPLINE
  5
2B0
100
AcDbEntity
  8
0
100
AcDbSpline
 62
9
  6
CONTINUOUS
 70
0
 71
3
 72
15
 73
11
 74
0
 42
0.0000001
 43
0.0000001
 44
0.0000000001
 40
0.0
 40
0.0
 40
0.0
 40
0.0
 40
0.1241885713
 40
0.2484632103
 40
0.3728977202
 40
0.4975736821
 40
0.6225606924
 40
0.7479244649
 40
0.8737216812
 40
1.0
 40
1.0
 40
1.0
 40
1.0
 10
12.1113183398
 20
4.8905544333
 30
0.0
 10
12.1113183398
 20
4.8971406341
 30
0.0
 10
12.1108205233
 20
4.9103230051
 30
0.0
 10
12.1085846367
 20
4.9299903578
 30
0.0
 10
12.1048704964
 20
4.949460224
 30
0.0
 10
12.099697238
 20
4.9686328929
 30
0.0
 10
12.0930908408
 20
4.9874122402
 30
0.0
 10
12.085084647
 20
5.0057038821
 30
0.0
 10
12.0757198178
 20
5.0234146689
 30
0.0
 10
12.0686147396
 20
5.0347553535
 30
0.0
 10
12.064855668
 20
5.040297877
 30
0.0
  0
SPLINE
  5
2B1
100
AcDbEntity
  8
0
100
AcDbSpline
 62
9
  6
CONTINUOUS
 70
0
 71
3
 72
15
 73
11
 74
0
 42
0.0000001
 43
0.0000001
 44
0.0000000001
 40
0.0
 40
0.0
 40
0.0
 40
0.0
 40
0.1262783188
 40
0.2520755351
 40
0.3774393076
 40
0.5024263179
 40
0.6271022798
 40
0.7515367897
 40
0.8758114287
 40
1.0
 40
1.0
 40
1.0
 40
1.0
 10
11.5647810086
 20
5.0402978769
 30
0.0
 10
11.5610219369
 20
5.0347553534
 30
0.0
 10
11.5539168587
 20
5.0234146688
 30
0.0
 10
11.5445520296
 20
5.005703882
 30
0.0
 10
11.5365458357
 20
4.9874122402
 30
0.0
 10
11.5299394386
 20
4.9686328929
 30
0.0
 10
11.5247661802
 20
4.949460224
 30
0.0
 10
11.5210520399
 20
4.9299903577
 30
0.0
 10
11.5188161533
 20
4.9103230051
 30
0.0
 10
11.5183183368
 20
4.8971406341
 30
0.0
 10
11.5183183368
 20
4.8905544333
 30
0.0
  0
SPLINE
  5
2B2
100
AcDbEntity
  8
0
100
AcDbSpline
 62
9
  6
CONTINUOUS
 70
0
 71
3
 72
15
 73
11
 74
0
 42
0.0000001
 43
0.0000001
 44
0.0000000001
 40
0.0
 40
0.0
 40
0.0
 40
0.0
 40
0.1237058352
 40
0.2475472991
 40
0.3716607814
 40
0.496166865
 40
0.6211744662
 40
0.7467736602
 40
0.8730335522
 40
1.0
 40
1.0
 40
1.0
 40
1.0
 10
12.1524849713
 20
4.8836352342
 30
0.0
 10
12.1524849713
 20
4.8933687488
 30
0.0
 10
12.1515294524
 20
4.9128599031
 30
0.0
 10
12.1472424375
 20
4.9418320787
 30
0.0
 10
12.1401384794
 20
4.9703126058
 30
0.0
 10
12.1302780372
 20
4.9980561761
 30
0.0
 10
12.1177457046
 20
5.0248281829
 30
0.0
 10
12.1026477682
 20
5.0504021593
 30
0.0
 10
12.0851152172
 20
5.0745592999
 30
0.0
 10
12.0719350554
 20
5.0895467299
 30
0.0
 10
12.0649992943
 20
5.0967367709
 30
0.0
  0
SPLINE
  5
2B3
100
AcDbEntity
  8
0
100
AcDbSpline
 62
9
  6
CONTINUOUS
 70
0
 71
3
 72
15
 73
11
 74
0
 42
0.0000001
 43
0.0000001
 44
0.0000000001
 40
0.0
 40
0.0
 40
0.0
 40
0.0
 40
0.1269664477
 40
0.2532263398
 40
0.3788255338
 40
0.503833135
 40
0.6283392186
 40
0.7524527009
 40
0.8762941648
 40
1.0
 40
1.0
 40
1.0
 40
1.0
 10
11.5646373822
 20
5.0967367708
 30
0.0
 10
11.5577016212
 20
5.0895467299
 30
0.0
 10
11.5445214593
 20
5.0745592998
 30
0.0
 10
11.5269889084
 20
5.0504021592
 30
0.0
 10
11.511890972
 20
5.0248281829
 30
0.0
 10
11.4993586394
 20
4.9980561761
 30
0.0
 10
11.4894981972
 20
4.9703126058
 30
0.0
 10
11.4823942391
 20
4.9418320786
 30
0.0
 10
11.4781072242
 20
4.9128599031
 30
0.0
 10
11.4771517053
 20
4.8933687488
 30
0.0
 10
11.4771517053
 20
4.8836352342
 30
0.0
  0
SPLINE
  5
2B4
100
AcDbEntity
  8
0
100
AcDbSpline
 62
9
  6
CONTINUOUS
 70
0
 71
3
 72
34
 73
30
 74
0
 42
0.0000001
 43
0.0000001
 44
0.0000000001
 40
0.0
 40
0.0
 40
0.0
 40
0.0
 40
0.0156296701
 40
0.0312761503
 40
0.0469124884
 40
0.0625445281
 40
0.0781871248
 40
0.0938239616
 40
0.1094590898
 40
0.1250908502
 40
0.1407234803
 40
0.1563566647
 40
0.1719857209
 40
0.1876154032
 40
0.2188658745
 40
0.2501173889
 40
0.2813665477
 40
0.3126156457
 40
0.3438640079
 40
0.3751118813
 40
0.4376006053
 40
0.5000900082
 40
0.5625793778
 40
0.6250687984
 40
0.6875585036
 40
0.7500478555
 40
0.8125368521
 40
0.8750262645
 40
1.0
 40
1.0
 40
1.0
 40
1.0
 10
12.7323446541
 20
8.5182367749
 30
0.0
 10
12.7334063893
 20
8.5182361886
 30
0.0
 10
12.7355333234
 20
8.5183832915
 30
0.0
 10
12.7386670705
 20
8.5190004261
 30
0.0
 10
12.7417075753
 20
8.5199797212
 30
0.0
 10
12.7446145881
 20
8.5213007206
 30
0.0
 10
12.7473709026
 20
8.5229093118
 30
0.0
 10
12.7499767726
 20
8.5247501095
 30
0.0
 10
12.7524307715
 20
8.5267867762
 30
0.0
 10
12.754737862
 20
8.5289871644
 30
0.0
 10
12.7569050614
 20
8.5313246295
 30
0.0
 10
12.7589426377
 20
8.5337751176
 30
0.0
 10
12.7608611146
 20
8.536319394
 30
0.0
 10
12.7632690274
 20
8.5398182527
 30
0.0
 10
12.7660235842
 20
8.5443607534
 30
0.0
 10
12.7689736167
 20
8.5500086718
 30
0.0
 10
12.7716193478
 20
8.5558044246
 30
0.0
 10
12.7739978523
 20
8.5617138716
 30
0.0
 10
12.7761416749
 20
8.567711912
 30
0.0
 10
12.7787219852
 20
8.5758020586
 30
0.0
 10
12.7814830924
 20
8.5860553045
 30
0.0
 10
12.784190943
 20
8.5985028384
 30
0.0
 10
12.7863935173
 20
8.6110487801
 30
0.0
 10
12.7881666631
 20
8.6236617152
 30
0.0
 10
12.7895688377
 20
8.6363207594
 30
0.0
 10
12.7906472042
 20
8.6490110704
 30
0.0
 10
12.7914392862
 20
8.6617222462
 30
0.0
 10
12.7921535976
 20
8.6786874653
 30
0.0
 10
12.7923446556
 20
8.6914236377
 30
0.0
 10
12.7923446541
 20
8.6999131991
 30
0.0
  0
LINE
  5
2B5
100
AcDbEntity
  8
0
100
AcDbLine
 62
9
  6
CONTINUOUS
 10
9.9467884517
 20
9.6362137277
 11
9.9459843979
 21
9.6363311992
  0
LINE
  5
2B6
100
AcDbEntity
  8
0
100
AcDbLine
 62
9
  6
CONTINUOUS
 10
9.9459843979
 20
9.6363311992
 11
9.9429434016
 21
9.6362472111
  0
SPLINE
  5
2B7
100
AcDbEntity
  8
0
100
AcDbSpline
 62
9
  6
CONTINUOUS
 70
0
 71
3
 72
14
 73
10
 74
0
 42
0.0000001
 43
0.0000001
 44
0.0000000001
 40
0.0
 40
0.0
 40
0.0
 40
0.0
 40
0.2440261391
 40
0.3673833382
 40
0.4918019545
 40
0.6173672021
 40
0.7440676292
 40
0.8717907219
 40
1.0
 40
1.0
 40
1.0
 40
1.0
 10
9.5380095304
 20
9.2911407502
 30
0.0
 10
9.5388578327
 20
9.2905308585
 30
0.0
 10
9.5401733389
 20
9.2896627711
 30
0.0
 10
9.5420215695
 20
9.288651689
 30
0.0
 10
9.5434717397
 20
9.2879763019
 30
0.0
 10
9.5449825785
 20
9.2874066008
 30
0.0
 10
9.5465546682
 20
9.2869774198
 30
0.0
 10
9.548172861
 20
9.2867057699
 30
0.0
 10
9.5492694149
 20
9.2866389886
 30
0.0
 10
9.5498183383
 20
9.2866392433
 30
0.0
  0
SPLINE
  5
2B8
100
AcDbEntity
  8
0
100
AcDbSpline
 62
9
  6
CONTINUOUS
 70
0
 71
3
 72
14
 73
10
 74
0
 42
0.0000001
 43
0.0000001
 44
0.0000000001
 40
0.0
 40
0.0
 40
0.0
 40
0.0
 40
0.1282156431
 40
0.2559216418
 40
0.3826289595
 40
0.5082023656
 40
0.6326161696
 40
0.7559734725
 40
1.0
 40
1.0
 40
1.0
 40
1.0
 10
9.8398183383
 20
9.2866392433
 30
0.0
 10
9.8403673327
 20
9.2866390193
 30
0.0
 10
9.8414640295
 20
9.2867040211
 30
0.0
 10
9.8430822505
 20
9.2869770885
 30
0.0
 10
9.8446538497
 20
9.2874081183
 30
0.0
 10
9.8461655295
 20
9.2879759508
 30
0.0
 10
9.8476160019
 20
9.2886511785
 30
0.0
 10
9.8494637728
 20
9.2896633944
 30
0.0
 10
9.850779452
 20
9.2905313861
 30
0.0
 10
9.8516278589
 20
9.2911412776
 30
0.0
  0
SPLINE
  5
2B9
100
AcDbEntity
  8
0
100
AcDbSpline
 62
9
  6
CONTINUOUS
 70
0
 71
3
 72
17
 73
13
 74
0
 42
0.0000001
 43
0.0000001
 44
0.0000000001
 40
0.0
 40
0.0
 40
0.0
 40
0.0
 40
0.1216484698
 40
0.2440574726
 40
0.3673954415
 40
0.4918000891
 40
0.6173394468
 40
0.6805469105
 40
0.744055005
 40
0.8078264617
 40
0.8718169242
 40
1.0
 40
1.0
 40
1.0
 40
1.0
 10
9.8516271543
 20
9.6768922047
 30
0.0
 10
9.8512042511
 20
9.6771963289
 30
0.0
 10
9.8503434969
 20
9.6777896705
 30
0.0
 10
9.8490065313
 20
9.6786200824
 30
0.0
 10
9.8476147612
 20
9.6793805225
 30
0.0
 10
9.846164945
 20
9.6800562399
 30
0.0
 10
9.8449089883
 20
9.6805310804
 30
0.0
 10
9.8438735951
 20
9.6808402756
 30
0.0
 10
9.8430809316
 20
9.6810340732
 30
0.0
 10
9.8422762742
 20
9.6811888095
 30
0.0
 10
9.8411908981
 20
9.681342365
 30
0.0
 10
9.8403672213
 20
9.681393727
 30
0.0
 10
9.8398183383
 20
9.6813934089
 30
0.0
  0
SPLINE
  5
2BA
100
AcDbEntity
  8
0
100
AcDbSpline
 62
9
  6
CONTINUOUS
 70
0
 71
3
 72
17
 73
13
 74
0
 42
0.0000001
 43
0.0000001
 44
0.0000000001
 40
0.0
 40
0.0
 40
0.0
 40
0.0
 40
0.1281738321
 40
0.1921731024
 40
0.2559552003
 40
0.3194664595
 40
0.3826684805
 40
0.5081949698
 40
0.6326078881
 40
0.7559458334
 40
0.8783529155
 40
1.0
 40
1.0
 40
1.0
 40
1.0
 10
9.5498183383
 20
9.6813934089
 30
0.0
 10
9.5492696921
 20
9.6813940258
 30
0.0
 10
9.5484463428
 20
9.6813415556
 30
0.0
 10
9.5473613589
 20
9.6811880103
 30
0.0
 10
9.5465566947
 20
9.6810344097
 30
0.0
 10
9.545763971
 20
9.6808419285
 30
0.0
 10
9.5447287583
 20
9.6805336164
 30
0.0
 10
9.5434738123
 20
9.680057466
 30
0.0
 10
9.5420248467
 20
9.6793814853
 30
0.0
 10
9.5406329289
 20
9.6786224601
 30
0.0
 10
9.5392961798
 20
9.6777927629
 30
0.0
 10
9.5384357507
 20
9.6771996321
 30
0.0
 10
9.5380130225
 20
9.676895595
 30
0.0
  0
LINE
  5
2BB
100
AcDbEntity
  8
0
100
AcDbLine
 62
9
  6
CONTINUOUS
 10
9.442848223
 20
9.3318189248
 11
9.4436523087
 21
9.3317014515
  0
LINE
  5
2BC
100
AcDbEntity
  8
0
100
AcDbLine
 62
9
  6
CONTINUOUS
 10
9.4436523087
 20
9.3317014515
 11
9.4466932835
 21
9.3317854377
  0
SPLINE
  5
2BD
100
AcDbEntity
  8
0
100
AcDbSpline
 62
9
  6
CONTINUOUS
 70
0
 71
3
 72
22
 73
18
 74
0
 42
0.0000001
 43
0.0000001
 44
0.0000000001
 40
0.0
 40
0.0
 40
0.0
 40
0.0
 40
0.1816660575
 40
0.3570784242
 40
0.5206107076
 40
0.5962641793
 40
0.6670247104
 40
0.732321471
 40
0.7916417974
 40
0.8445065439
 40
0.8905089537
 40
0.9292859155
 40
0.96056778
 40
0.9733306087
 40
0.9841546624
 40
0.9930389385
 40
1.0
 40
1.0
 40
1.0
 40
1.0
 10
12.7323446563
 20
9.7050007985
 30
0.0
 10
12.7306087357
 20
9.7045866142
 30
0.0
 10
12.7271927181
 20
9.7037888742
 30
0.0
 10
12.7222009215
 20
9.7026755227
 30
0.0
 10
12.7182160681
 20
9.7018325723
 30
0.0
 10
12.715230875
 20
9.7012327012
 30
0.0
 10
12.7131887909
 20
9.7008382902
 30
0.0
 10
12.7113011516
 20
9.7004907011
 30
0.0
 10
12.7095832411
 20
9.7001926015
 30
0.0
 10
12.7080488245
 20
9.6999463832
 30
0.0
 10
12.7067103501
 20
9.6997536557
 30
0.0
 10
12.7055784559
 20
9.6996159537
 30
0.0
 10
12.7047678689
 20
9.6995425133
 30
0.0
 10
12.7042294386
 20
9.6995159025
 30
0.0
 10
12.7039103625
 20
9.6995114962
 30
0.0
 10
12.7036484594
 20
9.6995210075
 30
0.0
 10
12.7034934013
 20
9.6995383011
 30
0.0
 10
12.7034261946
 20
9.6995509353
 30
0.0
  0
SPLINE
  5
2BE
100
AcDbEntity
  8
0
100
AcDbSpline
 62
9
  6
CONTINUOUS
 70
0
 71
3
 72
22
 73
18
 74
0
 42
0.0000001
 43
0.0000001
 44
0.0000000001
 40
0.0
 40
0.0
 40
0.0
 40
0.0
 40
0.1816659216
 40
0.3570782163
 40
0.5206104768
 40
0.5962639508
 40
0.6670244911
 40
0.7323212662
 40
0.7916416111
 40
0.8445063791
 40
0.8905088125
 40
0.9292858002
 40
0.9605676936
 40
0.9733305389
 40
0.9841546115
 40
0.9930389101
 40
1.0
 40
1.0
 40
1.0
 40
1.0
 10
12.7323446475
 20
9.2630289505
 30
0.0
 10
12.7306087003
 20
9.2634430371
 30
0.0
 10
12.7271926308
 20
9.2642405849
 30
0.0
 10
12.7222007607
 20
9.2653536551
 30
0.0
 10
12.71821585
 20
9.2661963802
 30
0.0
 10
12.7152306152
 20
9.2667960818
 30
0.0
 10
12.713188503
 20
9.2671903766
 30
0.0
 10
12.7113008385
 20
9.2675378578
 30
0.0
 10
12.7095829059
 20
9.2678358587
 30
0.0
 10
12.7080484704
 20
9.2680819883
 30
0.0
 10
12.7067099806
 20
9.2682746376
 30
0.0
 10
12.7055780746
 20
9.2684122726
 30
0.0
 10
12.7047674805
 20
9.2684856642
 30
0.0
 10
12.7042290465
 20
9.2685122417
 30
0.0
 10
12.7039099687
 20
9.2685166278
 30
0.0
 10
12.7036480648
 20
9.2685070995
 30
0.0
 10
12.7034930071
 20
9.2684897954
 30
0.0
 10
12.7034258008
 20
9.2684771564
 30
0.0
  0
SPLINE
  5
2BF
100
AcDbEntity
  8
0
100
AcDbSpline
 62
9
  6
CONTINUOUS
 70
0
 71
3
 72
34
 73
30
 74
0
 42
0.0000001
 43
0.0000001
 44
0.0000000001
 40
0.0
 40
0.0
 40
0.0
 40
0.0
 40
0.1249744704
 40
0.1874642473
 40
0.2499536169
 40
0.3124433387
 40
0.374933426
 40
0.4374232286
 40
0.499912988
 40
0.5624027979
 40
0.6248919562
 40
0.6561400256
 40
0.6873886298
 40
0.718638006
 40
0.7498874697
 40
0.7811391218
 40
0.8123900407
 40
0.8280201914
 40
0.8436492961
 40
0.8749032208
 40
0.8905357963
 40
0.9061722112
 40
0.9218076332
 40
0.937448802
 40
0.9530829645
 40
0.9609042191
 40
0.9687261545
 40
0.9843693798
 40
1.0
 40
1.0
 40
1.0
 40
1.0
 10
12.7923446541
 20
10.268119493
 30
0.0
 10
12.7923446536
 20
10.2766090443
 30
0.0
 10
12.7921536161
 20
10.2893452013
 30
0.0
 10
12.7914393458
 20
10.3063104021
 30
0.0
 10
12.7906472927
 20
10.3190215651
 30
0.0
 10
12.789568927
 20
10.3317118625
 30
0.0
 10
12.7881667882
 20
10.3443708974
 30
0.0
 10
12.7863936489
 20
10.3569838226
 30
0.0
 10
12.7841910159
 20
10.3695297433
 30
0.0
 10
12.7814832192
 20
10.3819772819
 30
0.0
 10
12.7787220701
 20
10.3922305143
 30
0.0
 10
12.7761416828
 20
10.4003206351
 30
0.0
 10
12.7739978455
 20
10.4063186738
 30
0.0
 10
12.771619296
 20
10.4122281159
 30
0.0
 10
12.7689735139
 20
10.4180238467
 30
0.0
 10
12.7660229458
 20
10.423671545
 30
0.0
 10
12.7632679608
 20
10.4282137146
 30
0.0
 10
12.7608597998
 20
10.4317126617
 30
0.0
 10
12.7583023842
 20
10.4351037055
 30
0.0
 10
12.755503824
 20
10.4383111036
 30
0.0
 10
12.7524292305
 20
10.4412449982
 30
0.0
 10
12.7499764405
 20
10.4432832364
 30
0.0
 10
12.7473706512
 20
10.4451241751
 30
0.0
 10
12.7446125286
 20
10.4467292629
 30
0.0
 10
12.7421895749
 20
10.447830438
 30
0.0
 10
12.7401868774
 20
10.4485431522
 30
0.0
 10
12.7381457928
 20
10.4491392627
 30
0.0
 10
12.7355331655
 20
10.4496529172
 30
0.0
 10
12.7334064465
 20
10.4497961419
 30
0.0
 10
12.7323446541
 20
10.449795912
 30
0.0
  0
SPLINE
  5
2C0
100
AcDbEntity
  8
0
100
AcDbSpline
 62
9
  6
CONTINUOUS
 70
0
 71
3
 72
38
 73
34
 74
0
 42
0.0000001
 43
0.0000001
 44
0.0000000001
 40
0.0
 40
0.0
 40
0.0
 40
0.0
 40
0.031392838
 40
0.0627740534
 40
0.0941335153
 40
0.1098050467
 40
0.1254708676
 40
0.1567848194
 40
0.1880765111
 40
0.219343557
 40
0.2505864244
 40
0.2818056931
 40
0.3130021086
 40
0.3753204716
 40
0.40646021
 40
0.4375863598
 40
0.4687019246
 40
0.4998109839
 40
0.5309186232
 40
0.5620294161
 40
0.5931480537
 40
0.6242798757
 40
0.6554300062
 40
0.6866033934
 40
0.7178046813
 40
0.7490374206
 40
0.7803037967
 40
0.8116050511
 40
0.8429412065
 40
0.8743101594
 40
0.9371154827
 40
0.9685547382
 40
1.0
 40
1.0
 40
1.0
 40
1.0
 10
12.7323446541
 20
9.7050008049
 30
0.0
 10
12.7292620094
 20
9.7177806887
 30
0.0
 10
12.7225513247
 20
9.7432073246
 30
0.0
 10
12.7109113611
 20
9.780880658
 30
0.0
 10
12.6999408702
 20
9.8118416203
 30
0.0
 10
12.690393051
 20
9.8363015248
 30
0.0
 10
12.6803310522
 20
9.8605338492
 30
0.0
 10
12.6667842148
 20
9.8903931802
 30
0.0
 10
12.6490457903
 20
9.9254871139
 30
0.0
 10
12.6298842269
 20
9.9597909597
 30
0.0
 10
12.6093333872
 20
9.9932450294
 30
0.0
 10
12.5874259538
 20
10.0257926496
 30
0.0
 10
12.5564526906
 20
10.0678685604
 30
0.0
 10
12.5228465855
 20
10.1079115196
 30
0.0
 10
12.4868481568
 20
10.1456902914
 30
0.0
 10
12.458704869
 20
10.1728589925
 30
0.0
 10
12.429463073
 20
10.1988210424
 30
0.0
 10
12.3991575939
 20
10.2235217155
 30
0.0
 10
12.3678339413
 20
10.2469141989
 30
0.0
 10
12.3355489293
 20
10.2689678424
 30
0.0
 10
12.3023565417
 20
10.2896497257
 30
0.0
 10
12.2683107142
 20
10.3089277749
 30
0.0
 10
12.2334654821
 20
10.326770638
 30
0.0
 10
12.1978748641
 20
10.3431458066
 30
0.0
 10
12.161596907
 20
10.3580270598
 30
0.0
 10
12.124694201
 20
10.3713977532
 30
0.0
 10
12.0872283122
 20
10.383237812
 30
0.0
 10
12.049261246
 20
10.3935220752
 30
0.0
 10
12.0108591398
 20
10.4022387876
 30
0.0
 10
11.9591594456
 20
10.4117703169
 30
0.0
 10
11.9068735253
 20
10.4181442059
 30
0.0
 10
11.8543246431
 20
10.4213283517
 30
0.0
 10
11.8279867031
 20
10.4218579988
 30
0.0
 10
11.8148183383
 20
10.4218580048
 30
0.0
  0
SPLINE
  5
2C1
100
AcDbEntity
  8
0
100
AcDbSpline
 62
9
  6
CONTINUOUS
 70
0
 71
3
 72
33
 73
29
 74
0
 42
0.0000001
 43
0.0000001
 44
0.0000000001
 40
0.0
 40
0.0
 40
0.0
 40
0.0
 40
0.062929682
 40
0.1258191871
 40
0.1886348388
 40
0.2200114332
 40
0.2513617908
 40
0.2826849918
 40
0.3139812943
 40
0.3764880861
 40
0.4077093016
 40
0.4389090892
 40
0.5012473404
 40
0.5635345776
 40
0.5946710912
 40
0.6258040034
 40
0.6569359219
 40
0.6880698351
 40
0.7192088146
 40
0.7503553273
 40
0.7815112444
 40
0.8126784284
 40
0.8438589314
 40
0.8750539134
 40
0.9062643818
 40
0.9374916881
 40
0.9687367924
 40
1.0
 40
1.0
 40
1.0
 40
1.0
 10
11.8148183383
 20
10.4218580048
 30
0.0
 10
11.7944819301
 20
10.4218578604
 30
0.0
 10
11.753810348
 20
10.4205943358
 30
0.0
 10
11.6930809987
 20
10.4148931482
 30
0.0
 10
11.6429008622
 20
10.406984259
 30
0.0
 10
11.6031624669
 20
10.3987826213
 30
0.0
 10
11.5736009328
 20
10.391697963
 30
0.0
 10
11.5443060974
 20
10.3836777272
 30
0.0
 10
11.5056629199
 20
10.371753504
 30
0.0
 10
11.4676416424
 20
10.3579887415
 30
0.0
 10
11.4303845207
 20
10.34242475
 30
0.0
 10
11.3937001276
 20
10.3256840601
 30
0.0
 10
11.3489252983
 20
10.3025589171
 30
0.0
 10
11.3057611535
 20
10.2765899833
 30
0.0
 10
11.2723164395
 20
10.2541815723
 30
0.0
 10
11.247796149
 20
10.2365706387
 30
0.0
 10
11.2238646346
 20
10.2181693638
 30
0.0
 10
11.2005474627
 20
10.1989923972
 30
0.0
 10
11.1778630362
 20
10.1790640055
 30
0.0
 10
11.1558286614
 20
10.1584088207
 30
0.0
 10
11.1344643629
 20
10.1370483779
 30
0.0
 10
11.11379433
 20
10.115000278
 30
0.0
 10
11.0938426338
 20
10.0922832362
 30
0.0
 10
11.0746321906
 20
10.0689178376
 30
0.0
 10
11.0561868288
 20
10.0449247418
 30
0.0
 10
11.0385274533
 20
10.0203273994
 30
0.0
 10
11.0216655368
 20
9.9951566829
 30
0.0
 10
11.010966602
 20
9.978017599
 30
0.0
 10
11.005754615
 20
9.9693627339
 30
0.0
  0
LINE
  5
2C2
100
AcDbEntity
  8
0
100
AcDbLine
 62
9
  6
CONTINUOUS
 10
11.5182388004
 20
5.044001443
 11
11.5179956508
 21
5.0436177446
  0
LINE
  5
2C3
100
AcDbEntity
  8
0
100
AcDbLine
 62
9
  6
CONTINUOUS
 10
11.5115138382
 20
5.0329159588
 11
11.5110987808
 21
5.0321972342
  0
SPLINE
  5
2C4
100
AcDbEntity
  8
0
100
AcDbSpline
 62
9
  6
CONTINUOUS
 70
0
 71
3
 72
27
 73
23
 74
0
 42
0.0000001
 43
0.0000001
 44
0.0000000001
 40
0.0
 40
0.0
 40
0.0
 40
0.0
 40
0.0628453884
 40
0.0942661334
 40
0.1256733112
 40
0.1570656434
 40
0.1884417949
 40
0.2511304322
 40
0.3137362701
 40
0.3762601824
 40
0.4074974127
 40
0.4387174093
 40
0.5011059437
 40
0.5634497979
 40
0.6257670481
 40
0.6569249151
 40
0.6880826453
 40
0.7503988851
 40
0.8127375687
 40
0.8751109582
 40
0.937529254
 40
1.0
 40
1.0
 40
1.0
 40
1.0
 10
11.8148183383
 20
10.3852720058
 30
0.0
 10
11.7959657361
 20
10.3852720027
 30
0.0
 10
11.7676764946
 20
10.3843734741
 30
0.0
 10
11.7300912789
 20
10.3813798632
 30
0.0
 10
11.7019965928
 20
10.3782392991
 30
0.0
 10
11.6740290542
 20
10.3742119918
 30
0.0
 10
11.6369612187
 20
10.3676727765
 30
0.0
 10
11.5910822057
 20
10.3573174642
 30
0.0
 10
11.5369837764
 20
10.3414473542
 30
0.0
 10
11.4928602477
 20
10.3254287596
 30
0.0
 10
11.4582546299
 20
10.3109884558
 30
0.0
 10
11.4241561354
 20
10.2954862089
 30
0.0
 10
11.3824940506
 20
10.2741306372
 30
0.0
 10
11.3342243723
 20
10.245451902
 30
0.0
 10
11.2955762331
 20
10.2191015255
 30
0.0
 10
11.2656998439
 20
10.1966150308
 30
0.0
 10
11.2365412366
 20
10.173205625
 30
0.0
 10
11.2014786194
 20
10.1422472695
 30
0.0
 10
11.1617725025
 20
10.1025589827
 30
0.0
 10
11.1245849211
 20
10.0604578942
 30
0.0
 10
11.0900765239
 20
10.0160864524
 30
0.0
 10
11.0689609283
 20
9.9851043918
 30
0.0
 10
11.0588898116
 20
9.9693003326
 30
0.0
  0
SPLINE
  5
2C5
100
AcDbEntity
  8
0
100
AcDbSpline
 62
9
  6
CONTINUOUS
 70
0
 71
3
 72
24
 73
20
 74
0
 42
0.0000001
 43
0.0000001
 44
0.0000000001
 40
0.0
 40
0.0
 40
0.0
 40
0.0
 40
0.0625833706
 40
0.0938620752
 40
0.1251313968
 40
0.1876401711
 40
0.2501172607
 40
0.3125680924
 40
0.3749993437
 40
0.4374171761
 40
0.499829402
 40
0.5622452664
 40
0.6246736031
 40
0.6871236222
 40
0.7496048856
 40
0.8121258687
 40
0.8746948723
 40
0.9373180715
 40
1.0
 40
1.0
 40
1.0
 40
1.0
 10
11.0588903573
 20
8.9987328799
 30
0.0
 10
11.0661368505
 20
8.9873615478
 30
0.0
 10
11.0773860978
 20
8.9705451205
 30
0.0
 10
11.0931236191
 20
8.9486525613
 30
0.0
 10
11.10934237
 20
8.9271336964
 30
0.0
 10
11.1305107369
 20
8.9009392827
 30
0.0
 10
11.1572876476
 20
8.8706907003
 30
0.0
 10
11.185379187
 20
8.8416818119
 30
0.0
 10
11.2147245014
 20
8.813960751
 30
0.0
 10
11.2452706622
 20
8.7875811667
 30
0.0
 10
11.2769691924
 20
8.7626032701
 30
0.0
 10
11.3097596543
 20
8.7390734162
 30
0.0
 10
11.3435785435
 20
8.7170324098
 30
0.0
 10
11.378363501
 20
8.6965221647
 30
0.0
 10
11.414051704
 20
8.6775845522
 30
0.0
 10
11.4505786823
 20
8.6602601166
 30
0.0
 10
11.4878788258
 20
8.6445900019
 30
0.0
 10
11.5258798805
 20
8.6306074726
 30
0.0
 10
11.5516229229
 20
8.622436153
 30
0.0
 10
11.5645846281
 20
8.6186432421
 30
0.0
  0
SPLINE
  5
2C6
100
AcDbEntity
  8
0
100
AcDbSpline
 62
9
  6
CONTINUOUS
 70
0
 71
3
 72
18
 73
14
 74
0
 42
0.0000001
 43
0.0000001
 44
0.0000000001
 40
0.0
 40
0.0
 40
0.0
 40
0.0
 40
0.0108939131
 40
0.0282121518
 40
0.0525505315
 40
0.0840583616
 40
0.1227499386
 40
0.1685951313
 40
0.2815315474
 40
0.4221882862
 40
0.5895910397
 40
0.7826398634
 40
1.0
 40
1.0
 40
1.0
 40
1.0
 10
9.9373691422
 20
9.6486514189
 30
0.0
 10
9.9373656472
 20
9.6486649942
 30
0.0
 10
9.9373423342
 20
9.6486950699
 30
0.0
 10
9.9372905701
 20
9.6487377886
 30
0.0
 10
9.9372114424
 20
9.6487895803
 30
0.0
 10
9.9371054728
 20
9.6488491811
 30
0.0
 10
9.9369721149
 20
9.6489165389
 30
0.0
 10
9.9367415735
 20
9.6490234335
 30
0.0
 10
9.9363856076
 20
9.6491713215
 30
0.0
 10
9.9358780054
 20
9.6493607866
 30
0.0
 10
9.9352667422
 20
9.6495664258
 30
0.0
 10
9.9345551107
 20
9.6497821611
 30
0.0
 10
9.9340453083
 20
9.6499203371
 30
0.0
 10
9.9337743518
 20
9.6499896966
 30
0.0
  0
SPLINE
  5
2C7
100
AcDbEntity
  8
0
100
AcDbSpline
 62
9
  6
CONTINUOUS
 70
0
 71
3
 72
23
 73
19
 74
0
 42
0.0000001
 43
0.0000001
 44
0.0000000001
 40
0.0
 40
0.0
 40
0.0
 40
0.0
 40
0.0616186898
 40
0.1235602945
 40
0.1857995778
 40
0.2483020835
 40
0.3110253081
 40
0.3739200761
 40
0.436932075
 40
0.5000035055
 40
0.5630748073
 40
0.6260864241
 40
0.6889805677
 40
0.7517029444
 40
0.8142044041
 40
0.8764424752
 40
0.9383827385
 40
1.0
 40
1.0
 40
1.0
 40
1.0
 10
12.0018702421
 20
4.5963716261
 30
0.0
 10
11.9954582491
 20
4.5910787891
 30
0.0
 10
11.9821182788
 20
4.5810352507
 30
0.0
 10
11.9608124527
 20
4.5677644196
 30
0.0
 10
11.9383222549
 20
4.5563484154
 30
0.0
 10
11.9148321316
 20
4.5468810282
 30
0.0
 10
11.8905319416
 20
4.539438165
 30
0.0
 10
11.8656187118
 20
4.5340799428
 30
0.0
 10
11.8402941722
 20
4.5308495105
 30
0.0
 10
11.814763384
 20
4.5297729062
 30
0.0
 10
11.7892330406
 20
4.530858801
 30
0.0
 10
11.7639098321
 20
4.534098449
 30
0.0
 10
11.7389988091
 20
4.5394657379
 30
0.0
 10
11.7147016839
 20
4.5469174459
 30
0.0
 10
11.6912154591
 20
4.5563933843
 30
0.0
 10
11.6687299624
 20
4.5678175769
 30
0.0
 10
11.6474296012
 20
4.5810961661
 30
0.0
 10
11.634093761
 20
4.5911445697
 30
0.0
 10
11.627683947
 20
4.5964397427
 30
0.0
  0
SPLINE
  5
2C8
100
AcDbEntity
  8
0
100
AcDbSpline
 62
9
  6
CONTINUOUS
 70
0
 71
3
 72
24
 73
20
 74
0
 42
0.0000001
 43
0.0000001
 44
0.0000000001
 40
0.0
 40
0.0
 40
0.0
 40
0.0
 40
0.0627354088
 40
0.1254579683
 40
0.1568110086
 40
0.1881553226
 40
0.2508133457
 40
0.3134339398
 40
0.3760211552
 40
0.4385762236
 40
0.4698417393
 40
0.5010977315
 40
0.5635792039
 40
0.6260241877
 40
0.6884344341
 40
0.7508105804
 40
0.8131541318
 40
0.8754680892
 40
1.0
 40
1.0
 40
1.0
 40
1.0
 10
12.703426186
 20
9.6995509715
 30
0.0
 10
12.7009958899
 20
9.7096959246
 30
0.0
 10
12.6957856657
 20
9.7299015265
 30
0.0
 10
12.6884234817
 20
9.7549212478
 30
0.0
 10
12.6820395866
 20
9.7747765662
 30
0.0
 10
12.6753327788
 20
9.7945137714
 30
0.0
 10
12.6663370554
 20
9.8189606958
 30
0.0
 10
12.6545499927
 20
9.8478977101
 30
0.0
 10
12.6417650221
 20
9.8763890964
 30
0.0
 10
12.6303108092
 20
9.8997453121
 30
0.0
 10
12.6206872094
 20
9.9181842615
 30
0.0
 10
12.6107649878
 20
9.9364503282
 30
0.0
 10
12.5978000465
 20
9.9589596334
 30
0.0
 10
12.5813548198
 20
9.9854231677
 30
0.0
 10
12.5640376916
 20
10.0113037996
 30
0.0
 10
12.5458648657
 20
10.0365699767
 30
0.0
 10
12.5268501692
 20
10.0611895139
 30
0.0
 10
12.5004163135
 20
10.0931063649
 30
0.0
 10
12.4793883407
 20
10.1160213259
 30
0.0
 10
12.4648816507
 20
10.1307987115
 30
0.0
  0
SPLINE
  5
2C9
100
AcDbEntity
  8
0
100
AcDbSpline
 62
7
  6
CONTINUOUS
 70
0
 71
3
 72
23
 73
19
 74
0
 42
0.0000001
 43
0.0000001
 44
0.0000000001
 40
0.0
 40
0.0
 40
0.0
 40
0.0
 40
0.0605518229
 40
0.1211802674
 40
0.1819587296
 40
0.2429543277
 40
0.3042251762
 40
0.3658181137
 40
0.4277669716
 40
0.4900914447
 40
0.5527965749
 40
0.6158728186
 40
0.6792966604
 40
0.743031718
 40
0.8070301893
 40
0.8712351793
 40
0.9355809003
 40
1.0
 40
1.0
 40
1.0
 40
1.0
 10
12.0648183383
 20
4.8905544333
 30
0.0
 10
12.0648183383
 20
4.882868453
 30
0.0
 10
12.0640132963
 20
4.8674746889
 30
0.0
 10
12.0604031849
 20
4.8446218216
 30
0.0
 10
12.0544255004
 20
4.8222104924
 30
0.0
 10
12.046138494
 20
4.8004604815
 30
0.0
 10
12.0356227998
 20
4.7795807585
 30
0.0
 10
12.0229805576
 20
4.7597727755
 30
0.0
 10
12.0083343993
 20
4.741227064
 30
0.0
 10
11.9918261511
 20
4.7241218256
 30
0.0
 10
11.9736153826
 20
4.7086211906
 30
0.0
 10
11.9538778386
 20
4.6948737286
 30
0.0
 10
11.9328037535
 20
4.6830110848
 30
0.0
 10
11.9105959663
 20
4.6731467717
 30
0.0
 10
11.8874682746
 20
4.6653750135
 30
0.0
 10
11.8636423403
 20
4.6597702003
 30
0.0
 10
11.8393496637
 20
4.6563856189
 30
0.0
 10
11.8229952008
 20
4.6556312781
 30
0.0
 10
11.8148183383
 20
4.6556312781
 30
0.0
  0
SPLINE
  5
2CA
100
AcDbEntity
  8
0
100
AcDbSpline
 62
9
  6
CONTINUOUS
 70
0
 71
3
 72
21
 73
17
 74
0
 42
0.0000001
 43
0.0000001
 44
0.0000000001
 40
0.0
 40
0.0
 40
0.0
 40
0.0
 40
0.1249226388
 40
0.1874323804
 40
0.2499440762
 40
0.312455869
 40
0.3749689422
 40
0.4374839359
 40
0.5000000319
 40
0.5625160808
 40
0.6250310364
 40
0.6875441636
 40
0.7500560245
 40
0.8125676837
 40
0.8750773483
 40
1.0
 40
1.0
 40
1.0
 40
1.0
 10
12.703425802
 20
9.2684771614
 30
0.0
 10
12.7076457759
 20
9.2860969371
 30
0.0
 10
12.7132207121
 20
9.312723466
 30
0.0
 10
12.7191132808
 20
9.348495232
 30
0.0
 10
12.7227540577
 20
9.37545346
 30
0.0
 10
12.7255991715
 20
9.4025074392
 30
0.0
 10
12.7276325556
 20
9.429635183
 30
0.0
 10
12.7288510458
 20
9.4568122905
 30
0.0
 10
12.7292566965
 20
9.4840140906
 30
0.0
 10
12.728850166
 20
9.5112158702
 30
0.0
 10
12.7276312234
 20
9.5383929457
 30
0.0
 10
12.72559836
 20
9.5655207291
 30
0.0
 10
12.7227547781
 20
9.5925748757
 30
0.0
 10
12.7191154866
 20
9.6195333046
 30
0.0
 10
12.7132234133
 20
9.6553051539
 30
0.0
 10
12.7076471314
 20
9.6819314266
 30
0.0
 10
12.703426186
 20
9.6995509715
 30
0.0
  0
SPLINE
  5
2CB
100
AcDbEntity
  8
0
100
AcDbSpline
 62
9
  6
CONTINUOUS
 70
0
 71
3
 72
34
 73
30
 74
0
 42
0.0000001
 43
0.0000001
 44
0.0000000001
 40
0.0
 40
0.0
 40
0.0
 40
0.0
 40
0.0156296681
 40
0.0312761524
 40
0.0469124893
 40
0.0625445271
 40
0.0781871259
 40
0.0938239671
 40
0.1094590965
 40
0.1250908566
 40
0.1407234876
 40
0.1563566742
 40
0.1719857282
 40
0.1876154083
 40
0.2188658821
 40
0.2501173925
 40
0.2813665533
 40
0.3126156505
 40
0.3438640116
 40
0.3751118894
 40
0.4376006066
 40
0.5000900122
 40
0.5625793812
 40
0.6250688006
 40
0.6875585056
 40
0.750047857
 40
0.8125368537
 40
0.8750262653
 40
1.0
 40
1.0
 40
1.0
 40
1.0
 10
10.8972920225
 20
10.449795856
 30
0.0
 10
10.8962302875
 20
10.4497964426
 30
0.0
 10
10.8941033539
 20
10.4496493332
 30
0.0
 10
10.8909696072
 20
10.4490322041
 30
0.0
 10
10.8879290943
 20
10.448052937
 30
0.0
 10
10.8850220695
 20
10.4467319647
 30
0.0
 10
10.8822657428
 20
10.4451233941
 30
0.0
 10
10.8796598634
 20
10.4432826091
 30
0.0
 10
10.8772058625
 20
10.4412459442
 30
0.0
 10
10.8748987853
 20
10.4390455419
 30
0.0
 10
10.8727316108
 20
10.4367080539
 30
0.0
 10
10.8706940626
 20
10.434257543
 30
0.0
 10
10.8687756083
 20
10.4317132504
 30
0.0
 10
10.8663677133
 20
10.4282143808
 30
0.0
 10
10.8636131309
 20
10.4236718984
 30
0.0
 10
10.8606630443
 20
10.4180240087
 30
0.0
 10
10.8580172971
 20
10.4122282635
 30
0.0
 10
10.8556388132
 20
10.4063188086
 30
0.0
 10
10.8534950297
 20
10.4003207551
 30
0.0
 10
10.8509147143
 20
10.3922306126
 30
0.0
 10
10.8481535406
 20
10.3819773852
 30
0.0
 10
10.8454457479
 20
10.3695298397
 30
0.0
 10
10.8432431688
 20
10.3569839015
 30
0.0
 10
10.8414700089
 20
10.3443709701
 30
0.0
 10
10.8400678284
 20
10.3317119283
 30
0.0
 10
10.8389894731
 20
10.3190216181
 30
0.0
 10
10.8381973934
 20
10.306310444
 30
0.0
 10
10.8374830765
 20
10.2893452275
 30
0.0
 10
10.837292022
 20
10.2766090569
 30
0.0
 10
10.8372920225
 20
10.2681194967
 30
0.0
  0
SPLINE
  5
2CC
100
AcDbEntity
  8
0
100
AcDbSpline
 62
9
  6
CONTINUOUS
 70
0
 71
3
 72
77
 73
73
 74
0
 42
0.0000001
 43
0.0000001
 44
0.0000000001
 40
0.0
 40
0.0
 40
0.0
 40
0.0
 40
0.0156290671
 40
0.0312436042
 40
0.0468447167
 40
0.0624339102
 40
0.078013215
 40
0.093584699
 40
0.1091507045
 40
0.1247135008
 40
0.1402752476
 40
0.155838216
 40
0.1714043666
 40
0.1869752249
 40
0.2025524021
 40
0.218137316
 40
0.225933422
 40
0.2337318138
 40
0.2493349638
 40
0.2571407708
 40
0.2649490515
 40
0.2805720173
 40
0.2883877726
 40
0.2962061712
 40
0.3118496739
 40
0.3275029998
 40
0.3431656781
 40
0.3588367071
 40
0.3745148448
 40
0.3901994485
 40
0.4058895753
 40
0.4215834617
 40
0.4372797033
 40
0.4529773759
 40
0.4686747695
 40
0.4843704151
 40
0.5000633954
 40
0.5157520696
 40
0.5235947365
 40
0.5314357889
 40
0.5471119241
 40
0.5549477938
 40
0.5627816525
 40
0.5784416975
 40
0.586268638
 40
0.5940931357
 40
0.609733654
 40
0.6253638009
 40
0.6409838943
 40
0.6565941088
 40
0.6721943504
 40
0.6877852422
 40
0.7033678016
 40
0.7189429399
 40
0.7345122626
 40
0.7500773094
 40
0.7656396929
 40
0.7812015173
 40
0.796765033
 40
0.8123324016
 40
0.8279059435
 40
0.843487939
 40
0.8590804336
 40
0.8746853438
 40
0.8903040707
 40
0.9059374634
 40
0.9215857806
 40
0.9372483889
 40
0.9529234306
 40
0.9686093059
 40
0.9843041139
 40
1.0
 40
1.0
 40
1.0
 40
1.0
 10
12.0650519218
 20
8.618643176
 30
0.0
 10
12.0779069875
 20
8.6224049074
 30
0.0
 10
12.1034396643
 20
8.6305042771
 30
0.0
 10
12.1411358789
 20
8.6443507646
 30
0.0
 10
12.1781438613
 20
8.659857618
 30
0.0
 10
12.2143930061
 20
8.6769926149
 30
0.0
 10
12.2498192195
 20
8.6957156893
 30
0.0
 10
12.2843595633
 20
8.7159872848
 30
0.0
 10
12.3179527355
 20
8.7377665501
 30
0.0
 10
12.3505378647
 20
8.7610126394
 30
0.0
 10
12.3820532082
 20
8.7856855544
 30
0.0
 10
12.4124389191
 20
8.81174128
 30
0.0
 10
12.4416473711
 20
8.8391213092
 30
0.0
 10
12.4696278023
 20
8.8677723635
 30
0.0
 10
12.4963210682
 20
8.8976475353
 30
0.0
 10
12.5174434075
 20
8.9235195376
 30
0.0
 10
12.5336404462
 20
8.9447742821
 30
0.0
 10
12.5493661162
 20
8.9663992246
 30
0.0
 10
12.5643688922
 20
8.9885522932
 30
0.0
 10
12.5786303185
 20
9.0111894626
 30
0.0
 10
12.5923999135
 20
9.0341489312
 30
0.0
 10
12.6054108245
 20
9.0575663816
 30
0.0
 10
12.617632328
 20
9.0814053771
 30
0.0
 10
12.6293248254
 20
9.105527993
 30
0.0
 10
12.6429304828
 20
9.1361779312
 30
0.0
 10
12.6575958995
 20
9.1736692879
 30
0.0
 10
12.6705796153
 20
9.2118007809
 30
0.0
 10
12.6818683331
 20
9.2504899288
 30
0.0
 10
12.691428736
 20
9.2896617277
 30
0.0
 10
12.6992186581
 20
9.3292404328
 30
0.0
 10
12.705235963
 20
9.3691404069
 30
0.0
 10
12.7094838777
 20
9.4092773625
 30
0.0
 10
12.7119388007
 20
9.4495705545
 30
0.0
 10
12.7125792457
 20
9.4899364724
 30
0.0
 10
12.7114059557
 20
9.5302898682
 30
0.0
 10
12.7084221784
 20
9.5705458105
 30
0.0
 10
12.7036548838
 20
9.6106214816
 30
0.0
 10
12.6982074774
 20
9.6438047482
 30
0.0
 10
12.6929627038
 20
9.6701765027
 30
0.0
 10
12.6871273154
 20
9.6964126926
 30
0.0
 10
12.6804116702
 20
9.7224405389
 30
0.0
 10
12.6728373879
 20
9.7482159599
 30
0.0
 10
12.6646993184
 20
9.7738044971
 30
0.0
 10
12.6557136932
 20
9.7991090868
 30
0.0
 10
12.6458888943
 20
9.8240817856
 30
0.0
 10
12.6355113818
 20
9.8488119414
 30
0.0
 10
12.6215107583
 20
9.8792645398
 30
0.0
 10
12.6031019781
 20
9.9150002347
 30
0.0
 10
12.5831377231
 20
9.9498609697
 30
0.0
 10
12.5616743154
 20
9.9837886846
 30
0.0
 10
12.5387452901
 20
10.0167135905
 30
0.0
 10
12.5143789678
 20
10.0485597719
 30
0.0
 10
12.4886296819
 20
10.0792702569
 30
0.0
 10
12.4615527043
 20
10.1087915705
 30
0.0
 10
12.4332062913
 20
10.1370747391
 30
0.0
 10
12.4036478171
 20
10.1640725101
 30
0.0
 10
12.3729256045
 20
10.1897285349
 30
0.0
 10
12.3410898053
 20
10.2139868337
 30
0.0
 10
12.3082027636
 20
10.2368070048
 30
0.0
 10
12.2743254931
 20
10.2581483483
 30
0.0
 10
12.2395189569
 20
10.2779700174
 30
0.0
 10
12.2038448494
 20
10.2962315128
 30
0.0
 10
12.1673662942
 20
10.3128929048
 30
0.0
 10
12.1301490949
 20
10.3279160868
 30
0.0
 10
12.092263606
 20
10.3412697865
 30
0.0
 10
12.0537814709
 20
10.3529213093
 30
0.0
 10
12.014776361
 20
10.3628344292
 30
0.0
 10
11.9753283991
 20
10.3709830055
 30
0.0
 10
11.9355217532
 20
10.3773516039
 30
0.0
 10
11.8954403034
 20
10.3819194049
 30
0.0
 10
11.8551756456
 20
10.3846621255
 30
0.0
 10
11.8282697555
 20
10.3852719996
 30
0.0
 10
11.8148183383
 20
10.3852720058
 30
0.0
  0
SPLINE
  5
2CD
100
AcDbEntity
  8
0
100
AcDbSpline
 62
9
  6
CONTINUOUS
 70
0
 71
3
 72
34
 73
30
 74
0
 42
0.0000001
 43
0.0000001
 44
0.0000000001
 40
0.0
 40
0.0
 40
0.0
 40
0.0
 40
0.1249744685
 40
0.1874642437
 40
0.2499536134
 40
0.3124433344
 40
0.3749334193
 40
0.4374232221
 40
0.49991298
 40
0.5624027899
 40
0.6248919427
 40
0.6561400171
 40
0.6873886218
 40
0.7186379939
 40
0.7498874587
 40
0.7811391057
 40
0.812390029
 40
0.8280201828
 40
0.843649285
 40
0.8749032081
 40
0.8905357907
 40
0.9061722064
 40
0.9218076316
 40
0.9374488028
 40
0.9530829612
 40
0.9609042103
 40
0.9687261438
 40
0.9843693853
 40
1.0
 40
1.0
 40
1.0
 40
1.0
 10
10.8372920225
 20
8.6999132417
 30
0.0
 10
10.8372920202
 20
8.6914236912
 30
0.0
 10
10.8374830522
 20
8.6786875353
 30
0.0
 10
10.838197332
 20
8.6617223365
 30
0.0
 10
10.8389893837
 20
8.6490111748
 30
0.0
 10
10.8400677347
 20
8.6363208773
 30
0.0
 10
10.8414698855
 20
8.6236618448
 30
0.0
 10
10.8432430324
 20
8.6110489223
 30
0.0
 10
10.8454456426
 20
8.598502999
 30
0.0
 10
10.8481534414
 20
8.5860554614
 30
0.0
 10
10.8509146227
 20
8.5758022392
 30
0.0
 10
10.8534949844
 20
8.5677121116
 30
0.0
 10
10.855638779
 20
8.561714058
 30
0.0
 10
10.8580173351
 20
8.5558046181
 30
0.0
 10
10.8606631721
 20
8.5500089134
 30
0.0
 10
10.8636137598
 20
8.5443612273
 30
0.0
 10
10.866368702
 20
8.5398190343
 30
0.0
 10
10.8687767961
 20
8.5363200414
 30
0.0
 10
10.8713341542
 20
8.5329289543
 30
0.0
 10
10.8741327162
 20
8.5297215532
 30
0.0
 10
10.877207345
 20
8.5267876948
 30
0.0
 10
10.8796601684
 20
8.5247494956
 30
0.0
 10
10.8822659916
 20
8.5229086046
 30
0.0
 10
10.8850241425
 20
8.521303566
 30
0.0
 10
10.8874471105
 20
8.5202024256
 30
0.0
 10
10.8894498119
 20
8.519489726
 30
0.0
 10
10.8914908969
 20
8.5188936166
 30
0.0
 10
10.8941035123
 20
8.5183799143
 30
0.0
 10
10.8962302305
 20
8.5182366368
 30
0.0
 10
10.8972920225
 20
8.518236864
 30
0.0
  0
SPLINE
  5
2CE
100
AcDbEntity
  8
0
100
AcDbSpline
 62
9
  6
CONTINUOUS
 70
0
 71
3
 72
23
 73
19
 74
0
 42
0.0000001
 43
0.0000001
 44
0.0000000001
 40
0.0
 40
0.0
 40
0.0
 40
0.0
 40
0.0605518229
 40
0.1211802674
 40
0.1819587296
 40
0.2429543277
 40
0.3042251762
 40
0.3658181137
 40
0.4277669716
 40
0.4900914447
 40
0.5527965749
 40
0.6158728186
 40
0.6792966604
 40
0.743031718
 40
0.8070301893
 40
0.8712351793
 40
0.9355809003
 40
1.0
 40
1.0
 40
1.0
 40
1.0
 10
12.0648183383
 20
5.1197079293
 30
0.0
 10
12.0648183383
 20
5.112021949
 30
0.0
 10
12.0640132963
 20
5.0966281849
 30
0.0
 10
12.0604031849
 20
5.0737753177
 30
0.0
 10
12.0544255004
 20
5.0513639885
 30
0.0
 10
12.046138494
 20
5.0296139776
 30
0.0
 10
12.0356227998
 20
5.0087342546
 30
0.0
 10
12.0229805576
 20
4.9889262715
 30
0.0
 10
12.0083343993
 20
4.97038056
 30
0.0
 10
11.9918261511
 20
4.9532753216
 30
0.0
 10
11.9736153826
 20
4.9377746867
 30
0.0
 10
11.9538778386
 20
4.9240272247
 30
0.0
 10
11.9328037535
 20
4.9121645808
 30
0.0
 10
11.9105959663
 20
4.9023002678
 30
0.0
 10
11.8874682746
 20
4.8945285096
 30
0.0
 10
11.8636423403
 20
4.8889236963
 30
0.0
 10
11.8393496637
 20
4.885539115
 30
0.0
 10
11.8229952008
 20
4.8847847741
 30
0.0
 10
11.8148183383
 20
4.8847847741
 30
0.0
  0
SPLINE
  5
2CF
100
AcDbEntity
  8
0
100
AcDbSpline
 62
9
  6
CONTINUOUS
 70
0
 71
3
 72
18
 73
14
 74
0
 42
0.0000001
 43
0.0000001
 44
0.0000000001
 40
0.0
 40
0.0
 40
0.0
 40
0.0
 40
0.0108967665
 40
0.0282198445
 40
0.0525630312
 40
0.084074015
 40
0.122766718
 40
0.1686107355
 40
0.2815366681
 40
0.4221770852
 40
0.5895718487
 40
0.7826279415
 40
1.0
 40
1.0
 40
1.0
 40
1.0
 10
9.4522675362
 20
9.3193812455
 30
0.0
 10
9.4522710318
 20
9.3193676667
 30
0.0
 10
9.4522943536
 20
9.3193375846
 30
0.0
 10
9.4523461307
 20
9.319294859
 30
0.0
 10
9.4524252749
 20
9.3192430642
 30
0.0
 10
9.4525312588
 20
9.3191834689
 30
0.0
 10
9.4526646242
 20
9.319116122
 30
0.0
 10
9.4528951566
 20
9.3190092492
 30
0.0
 10
9.4532510819
 20
9.3188613737
 30
0.0
 10
9.4537586224
 20
9.3186718943
 30
0.0
 10
9.4543698482
 20
9.3184662414
 30
0.0
 10
9.4550814823
 20
9.3182505021
 30
0.0
 10
9.4555913012
 20
9.3181123227
 30
0.0
 10
9.4558622687
 20
9.3180429608
 30
0.0
  0
SPLINE
  5
2D0
100
AcDbEntity
  8
0
100
AcDbSpline
 62
9
  6
CONTINUOUS
 70
0
 71
3
 72
34
 73
30
 74
0
 42
0.0000001
 43
0.0000001
 44
0.0000000001
 40
0.0
 40
0.0
 40
0.0
 40
0.0
 40
0.1251027467
 40
0.2501546851
 40
0.3126621217
 40
0.3751557368
 40
0.437635302
 40
0.5001007169
 40
0.5625520313
 40
0.6249898738
 40
0.6562059188
 40
0.6874194927
 40
0.7186312002
 40
0.7498420749
 40
0.7810530173
 40
0.8122655963
 40
0.8434822997
 40
0.8747067634
 40
0.890328764
 40
0.8981425537
 40
0.9059595788
 40
0.9215955576
 40
0.9372444998
 40
0.9450762054
 40
0.9529169284
 40
0.9607605874
 40
0.9686073413
 40
0.984301389
 40
1.0
 40
1.0
 40
1.0
 40
1.0
 10
12.7723446541
 20
10.2681194928
 30
0.0
 10
12.7723446539
 20
10.275867977
 30
0.0
 10
12.7721961088
 20
10.2913622947
 30
0.0
 10
12.7715650947
 20
10.3107197045
 30
0.0
 10
12.7707274581
 20
10.3261851145
 30
0.0
 10
12.769910087
 20
10.3377688909
 30
0.0
 10
12.7688762061
 20
10.3493329148
 30
0.0
 10
12.7675904736
 20
10.3608693527
 30
0.0
 10
12.7660067715
 20
10.3723664042
 30
0.0
 10
12.7643870882
 20
10.3819007425
 30
0.0
 10
12.762867385
 20
10.3894844
 30
0.0
 10
12.7616003256
 20
10.3951447422
 30
0.0
 10
12.7601881811
 20
10.4007704844
 30
0.0
 10
12.7586082748
 20
10.4063515694
 30
0.0
 10
12.756830704
 20
10.4118733715
 30
0.0
 10
12.7548161761
 20
10.417314479
 30
0.0
 10
12.7525110365
 20
10.4226409189
 30
0.0
 10
12.7502836231
 20
10.4269390794
 30
0.0
 10
12.7485146511
 20
10.4298275587
 30
0.0
 10
12.7474325136
 20
10.4314328852
 30
0.0
 10
12.74630008
 20
10.4330041841
 30
0.0
 10
12.7447798092
 20
10.4348925225
 30
0.0
 10
12.7430984847
 20
10.4366431791
 30
0.0
 10
12.7416401797
 20
10.4379241816
 30
0.0
 10
12.7404862203
 20
10.4388146887
 30
0.0
 10
12.7392691081
 20
10.439619387
 30
0.0
 10
12.7375613917
 20
10.440552022
 30
0.0
 10
12.7352683438
 20
10.4414095764
 30
0.0
 10
12.7333169784
 20
10.4416599587
 30
0.0
 10
12.7323446541
 20
10.4416599693
 30
0.0
  0
SPLINE
  5
2D1
100
AcDbEntity
  8
0
100
AcDbSpline
 62
9
  6
CONTINUOUS
 70
0
 71
3
 72
23
 73
19
 74
0
 42
0.0000001
 43
0.0000001
 44
0.0000000001
 40
0.0
 40
0.0
 40
0.0
 40
0.0
 40
0.1245323777
 40
0.1868465782
 40
0.2491903286
 40
0.3115666595
 40
0.3739771648
 40
0.4364224483
 40
0.4989040935
 40
0.5614234786
 40
0.6239786158
 40
0.6865659933
 40
0.7491866945
 40
0.8118447162
 40
0.8431890154
 40
0.8745420568
 40
0.9372646202
 40
1.0
 40
1.0
 40
1.0
 40
1.0
 10
12.4651067933
 20
8.8374630856
 30
0.0
 10
12.4795990286
 20
8.8522357662
 30
0.0
 10
12.5006059286
 20
8.875142546
 30
0.0
 10
12.5270128338
 20
8.9070466741
 30
0.0
 10
12.5460079243
 20
8.9316557343
 30
0.0
 10
12.564162059
 20
8.9569103817
 30
0.0
 10
12.5814618995
 20
8.9827781238
 30
0.0
 10
12.5978921116
 20
9.0092272529
 30
0.0
 10
12.6134378295
 20
9.0362265557
 30
0.0
 10
12.6280862185
 20
9.0637436866
 30
0.0
 10
12.6418153707
 20
9.0917505255
 30
0.0
 10
12.6545874592
 20
9.1202254753
 30
0.0
 10
12.6663640244
 20
9.1491446551
 30
0.0
 10
12.6753526914
 20
9.1735760137
 30
0.0
 10
12.6820546162
 20
9.1933004563
 30
0.0
 10
12.6884340709
 20
9.2131428537
 30
0.0
 10
12.6957912989
 20
9.2381462268
 30
0.0
 10
12.7009976046
 20
9.2583387349
 30
0.0
 10
12.703425802
 20
9.2684771614
 30
0.0
  0
SPLINE
  5
2D2
100
AcDbEntity
  8
0
100
AcDbSpline
 62
7
  6
CONTINUOUS
 70
0
 71
3
 72
23
 73
19
 74
0
 42
0.0000001
 43
0.0000001
 44
0.0000000001
 40
0.0
 40
0.0
 40
0.0
 40
0.0
 40
0.0644190997
 40
0.1287648207
 40
0.1929698107
 40
0.256968282
 40
0.3207033396
 40
0.3841271814
 40
0.4472034251
 40
0.5099085553
 40
0.5722330284
 40
0.6341818863
 40
0.6957748238
 40
0.7570456723
 40
0.8180412704
 40
0.8788197326
 40
0.9394481771
 40
1.0
 40
1.0
 40
1.0
 40
1.0
 10
11.8148183383
 20
4.6556312781
 30
0.0
 10
11.8066414758
 20
4.6556312781
 30
0.0
 10
11.7902870129
 20
4.6563856189
 30
0.0
 10
11.7659943362
 20
4.6597702003
 30
0.0
 10
11.742168402
 20
4.6653750135
 30
0.0
 10
11.7190407103
 20
4.6731467717
 30
0.0
 10
11.6968329231
 20
4.6830110848
 30
0.0
 10
11.675758838
 20
4.6948737286
 30
0.0
 10
11.656021294
 20
4.7086211906
 30
0.0
 10
11.6378105255
 20
4.7241218256
 30
0.0
 10
11.6213022773
 20
4.741227064
 30
0.0
 10
11.606656119
 20
4.7597727755
 30
0.0
 10
11.5940138768
 20
4.7795807585
 30
0.0
 10
11.5834981826
 20
4.8004604815
 30
0.0
 10
11.5752111762
 20
4.8222104924
 30
0.0
 10
11.5692334917
 20
4.8446218216
 30
0.0
 10
11.5656233802
 20
4.8674746889
 30
0.0
 10
11.5648183383
 20
4.882868453
 30
0.0
 10
11.5648183383
 20
4.8905544333
 30
0.0
  0
SPLINE
  5
2D3
100
AcDbEntity
  8
0
100
AcDbSpline
 62
9
  6
CONTINUOUS
 70
0
 71
3
 72
23
 73
19
 74
0
 42
0.0000001
 43
0.0000001
 44
0.0000000001
 40
0.0
 40
0.0
 40
0.0
 40
0.0
 40
0.0644190997
 40
0.1287648207
 40
0.1929698107
 40
0.256968282
 40
0.3207033396
 40
0.3841271814
 40
0.4472034251
 40
0.5099085553
 40
0.5722330284
 40
0.6341818863
 40
0.6957748238
 40
0.7570456723
 40
0.8180412704
 40
0.8788197326
 40
0.9394481771
 40
1.0
 40
1.0
 40
1.0
 40
1.0
 10
11.8148183383
 20
4.8847847741
 30
0.0
 10
11.8066414758
 20
4.8847847741
 30
0.0
 10
11.7902870129
 20
4.885539115
 30
0.0
 10
11.7659943362
 20
4.8889236963
 30
0.0
 10
11.742168402
 20
4.8945285096
 30
0.0
 10
11.7190407103
 20
4.9023002678
 30
0.0
 10
11.6968329231
 20
4.9121645808
 30
0.0
 10
11.675758838
 20
4.9240272247
 30
0.0
 10
11.656021294
 20
4.9377746867
 30
0.0
 10
11.6378105255
 20
4.9532753216
 30
0.0
 10
11.6213022773
 20
4.97038056
 30
0.0
 10
11.606656119
 20
4.9889262715
 30
0.0
 10
11.5940138768
 20
5.0087342546
 30
0.0
 10
11.5834981826
 20
5.0296139776
 30
0.0
 10
11.5752111762
 20
5.0513639885
 30
0.0
 10
11.5692334917
 20
5.0737753177
 30
0.0
 10
11.5656233802
 20
5.0966281849
 30
0.0
 10
11.5648183383
 20
5.112021949
 30
0.0
 10
11.5648183383
 20
5.1197079293
 30
0.0
  0
SPLINE
  5
2D4
100
AcDbEntity
  8
0
100
AcDbSpline
 62
9
  6
CONTINUOUS
 70
0
 71
3
 72
21
 73
17
 74
0
 42
0.0000001
 43
0.0000001
 44
0.0000000001
 40
0.0
 40
0.0
 40
0.0
 40
0.0
 40
0.1729091811
 40
0.3357629424
 40
0.4124461465
 40
0.4854924004
 40
0.5546226291
 40
0.6196194174
 40
0.6803389154
 40
0.7367341805
 40
0.7888719033
 40
0.8369659921
 40
0.8814081487
 40
0.9228006049
 40
0.9619869527
 40
1.0
 40
1.0
 40
1.0
 40
1.0
 10
9.9147036113
 20
9.3188508569
 30
0.0
 10
9.9145048065
 20
9.3169563108
 30
0.0
 10
9.9139901572
 20
9.3132893686
 30
0.0
 10
9.9130083894
 20
9.3088467766
 30
0.0
 10
9.9120344867
 20
9.3055423699
 30
0.0
 10
9.9112380267
 20
9.3032653388
 30
0.0
 10
9.9103663248
 20
9.3011545263
 30
0.0
 10
9.9094249782
 20
9.299223573
 30
0.0
 10
9.9084198832
 20
9.2974849579
 30
0.0
 10
9.9073573825
 20
9.2959497346
 30
0.0
 10
9.9062436649
 20
9.2946277637
 30
0.0
 10
9.9050849472
 20
9.2935277081
 30
0.0
 10
9.9038875047
 20
9.2926572581
 30
0.0
 10
9.9026573407
 20
9.292023896
 30
0.0
 10
9.9014026846
 20
9.2916349536
 30
0.0
 10
9.9005508186
 20
9.2915421177
 30
0.0
 10
9.9001320463
 20
9.2915381117
 30
0.0
  0
SPLINE
  5
2D5
100
AcDbEntity
  8
0
100
AcDbSpline
 62
9
  6
CONTINUOUS
 70
0
 71
3
 72
11
 73
7
 74
0
 42
0.0000001
 43
0.0000001
 44
0.0000000001
 40
0.0
 40
0.0
 40
0.0
 40
0.0
 40
0.2891840486
 40
0.5548858375
 40
0.7928992624
 40
1.0
 40
1.0
 40
1.0
 40
1.0
 10
9.9147036113
 20
9.3188508569
 30
0.0
 10
9.916126445
 20
9.3188639582
 30
0.0
 10
9.9188574863
 20
9.3188345243
 30
0.0
 10
9.9227544627
 20
9.3186270653
 30
0.0
 10
9.9262373484
 20
9.3182992217
 30
0.0
 10
9.9284107864
 20
9.3180279666
 30
0.0
 10
9.9294211003
 20
9.317895098
 30
0.0
  0
SPLINE
  5
2D6
100
AcDbEntity
  8
0
100
AcDbSpline
 62
9
  6
CONTINUOUS
 70
0
 71
3
 72
10
 73
6
 74
0
 42
0.0000001
 43
0.0000001
 44
0.0000000001
 40
0.0
 40
0.0
 40
0.0
 40
0.0
 40
0.2764690437
 40
0.5346541036
 40
1.0
 40
1.0
 40
1.0
 40
1.0
 10
9.9294211003
 20
9.317895098
 30
0.0
 10
9.9298210795
 20
9.3178424852
 30
0.0
 10
9.9305987898
 20
9.3177674669
 30
0.0
 10
9.9320581902
 20
9.3177462423
 30
0.0
 10
9.9331170233
 20
9.3178744546
 30
0.0
 10
9.9337748163
 20
9.3180429665
 30
0.0
  0
SPLINE
  5
2D7
100
AcDbEntity
  8
0
100
AcDbSpline
 62
9
  6
CONTINUOUS
 70
0
 71
3
 72
18
 73
14
 74
0
 42
0.0000001
 43
0.0000001
 44
0.0000000001
 40
0.0
 40
0.0
 40
0.0
 40
0.0
 40
0.2173637588
 40
0.4103826239
 40
0.577797666
 40
0.71849635
 40
0.8314537904
 40
0.8772953074
 40
0.9159769836
 40
0.9474715503
 40
0.9717964772
 40
0.9891058546
 40
1.0
 40
1.0
 40
1.0
 40
1.0
 10
9.9337748163
 20
9.3180429665
 30
0.0
 10
9.9340457352
 20
9.3181123641
 30
0.0
 10
9.9345554253
 20
9.3182505968
 30
0.0
 10
9.9352669322
 20
9.3184663885
 30
0.0
 10
9.9358781668
 20
9.3186719775
 30
0.0
 10
9.9363858477
 20
9.318861332
 30
0.0
 10
9.9367418737
 20
9.319009163
 30
0.0
 10
9.9369724011
 20
9.3191160433
 30
0.0
 10
9.9371057072
 20
9.3191833897
 30
0.0
 10
9.9372116105
 20
9.3192429867
 30
0.0
 10
9.9372906656
 20
9.3192947832
 30
0.0
 10
9.9373423777
 20
9.3193375168
 30
0.0
 10
9.9373656498
 20
9.3193675965
 30
0.0
 10
9.9373691449
 20
9.3193811705
 30
0.0
  0
SPLINE
  5
2D8
100
AcDbEntity
  8
0
100
AcDbSpline
 62
9
  6
CONTINUOUS
 70
0
 71
3
 72
21
 73
17
 74
0
 42
0.0000001
 43
0.0000001
 44
0.0000000001
 40
0.0
 40
0.0
 40
0.0
 40
0.0
 40
0.172909179
 40
0.3357629219
 40
0.4124461132
 40
0.4854923536
 40
0.5546225692
 40
0.6196193458
 40
0.680338835
 40
0.7367340955
 40
0.788871819
 40
0.8369659147
 40
0.8814080845
 40
0.9228005594
 40
0.96198693
 40
1.0
 40
1.0
 40
1.0
 40
1.0
 10
9.4749330689
 20
9.3188508119
 30
0.0
 10
9.4751318743
 20
9.3169562685
 30
0.0
 10
9.4756465245
 20
9.3132893317
 30
0.0
 10
9.476628293
 20
9.3088467464
 30
0.0
 10
9.4776021959
 20
9.305542345
 30
0.0
 10
9.4783986558
 20
9.3032653177
 30
0.0
 10
9.4792703575
 20
9.3011545089
 30
0.0
 10
9.4802117038
 20
9.299223559
 30
0.0
 10
9.4812167982
 20
9.297484947
 30
0.0
 10
9.4822792983
 20
9.2959497265
 30
0.0
 10
9.4833930152
 20
9.2946277581
 30
0.0
 10
9.4845517323
 20
9.2935277045
 30
0.0
 10
9.4857491741
 20
9.2926572561
 30
0.0
 10
9.4869793373
 20
9.2920238952
 30
0.0
 10
9.4882339925
 20
9.2916349535
 30
0.0
 10
9.4890858579
 20
9.2915421177
 30
0.0
 10
9.4895046299
 20
9.2915381117
 30
0.0
  0
SPLINE
  5
2D9
100
AcDbEntity
  8
0
100
AcDbSpline
 62
9
  6
CONTINUOUS
 70
0
 71
3
 72
10
 73
6
 74
0
 42
0.0000001
 43
0.0000001
 44
0.0000000001
 40
0.0
 40
0.0
 40
0.0
 40
0.0
 40
0.4652871508
 40
0.7235242458
 40
1.0
 40
1.0
 40
1.0
 40
1.0
 10
9.4558622687
 20
9.3180429608
 30
0.0
 10
9.4565200557
 20
9.3178745945
 30
0.0
 10
9.4575789086
 20
9.3177461981
 30
0.0
 10
9.4590384094
 20
9.3177675776
 30
0.0
 10
9.4598162604
 20
9.3178424729
 30
0.0
 10
9.4602162855
 20
9.3178950113
 30
0.0
  0
SPLINE
  5
2DA
100
AcDbEntity
  8
0
100
AcDbSpline
 62
9
  6
CONTINUOUS
 70
0
 71
3
 72
11
 73
7
 74
0
 42
0.0000001
 43
0.0000001
 44
0.0000000001
 40
0.0
 40
0.0
 40
0.0
 40
0.0
 40
0.2070927589
 40
0.4450963591
 40
0.7107968762
 40
1.0
 40
1.0
 40
1.0
 40
1.0
 10
9.4602162855
 20
9.3178950113
 30
0.0
 10
9.4612265358
 20
9.3180276981
 30
0.0
 10
9.4633997132
 20
9.3182995251
 30
0.0
 10
9.4668823978
 20
9.3186267863
 30
0.0
 10
9.4707791936
 20
9.3188348822
 30
0.0
 10
9.4735102071
 20
9.3188638934
 30
0.0
 10
9.4749330686
 20
9.3188508151
 30
0.0
  0
SPLINE
  5
2DB
100
AcDbEntity
  8
0
100
AcDbSpline
 62
9
  6
CONTINUOUS
 70
0
 71
3
 72
34
 73
30
 74
0
 42
0.0000001
 43
0.0000001
 44
0.0000000001
 40
0.0
 40
0.0
 40
0.0
 40
0.0
 40
0.0156997977
 40
0.031395104
 40
0.0392418127
 40
0.0470850757
 40
0.0549266895
 40
0.0627590501
 40
0.0784075146
 40
0.0940429222
 40
0.1018601006
 40
0.1096741902
 40
0.1252960572
 40
0.1565200743
 40
0.1877366612
 40
0.2189492099
 40
0.250160107
 40
0.2813707918
 40
0.3125823839
 40
0.3437959025
 40
0.3750118701
 40
0.437449481
 40
0.4999006211
 40
0.5623658539
 40
0.6248452868
 40
0.6873387371
 40
0.7498459927
 40
0.8748975824
 40
1.0
 40
1.0
 40
1.0
 40
1.0
 10
12.732344654
 20
8.5263725976
 30
0.0
 10
12.7333170514
 20
8.5263725838
 30
0.0
 10
12.7352682709
 20
8.5266249538
 30
0.0
 10
12.7375618777
 20
8.5274808825
 30
0.0
 10
12.7392698333
 20
8.5284133111
 30
0.0
 10
12.7404867676
 20
8.529218336
 30
0.0
 10
12.741640498
 20
8.5301092403
 30
0.0
 10
12.7430991615
 20
8.5313899039
 30
0.0
 10
12.7447810895
 20
8.5331399963
 30
0.0
 10
12.7463006802
 20
8.5350288458
 30
0.0
 10
12.7474326619
 20
8.5366004519
 30
0.0
 10
12.7485147957
 20
8.5382057949
 30
0.0
 10
12.7502847945
 20
8.5410936273
 30
0.0
 10
12.752511307
 20
8.5453922713
 30
0.0
 10
12.7548161265
 20
8.5507187589
 30
0.0
 10
12.756830987
 20
8.5561597334
 30
0.0
 10
12.7586085543
 20
8.5616815211
 30
0.0
 10
12.7601882847
 20
8.56726263
 30
0.0
 10
12.7616004424
 20
8.5728883419
 30
0.0
 10
12.7628674945
 20
8.5785486679
 30
0.0
 10
12.7643871902
 20
8.5861323004
 30
0.0
 10
12.766006822
 20
8.5956666133
 30
0.0
 10
12.7675904776
 20
8.6071636288
 30
0.0
 10
12.7688762112
 20
8.6187000307
 30
0.0
 10
12.7699101251
 20
8.6302640168
 30
0.0
 10
12.7707274795
 20
8.6418477598
 30
0.0
 10
12.7715650994
 20
8.6573131207
 30
0.0
 10
12.7721961094
 20
8.6766704689
 30
0.0
 10
12.7723446545
 20
8.6921647378
 30
0.0
 10
12.7723446541
 20
8.6999131983
 30
0.0
  0
SPLINE
  5
2DC
100
AcDbEntity
  8
0
100
AcDbSpline
 62
9
  6
CONTINUOUS
 70
0
 71
3
 72
17
 73
13
 74
0
 42
0.0000001
 43
0.0000001
 44
0.0000000001
 40
0.0
 40
0.0
 40
0.0
 40
0.0
 40
0.124927112
 40
0.1874379619
 40
0.2499513854
 40
0.3749737515
 40
0.5000002488
 40
0.6250268196
 40
0.7500490599
 40
0.8125622469
 40
0.8750728978
 40
1.0
 40
1.0
 40
1.0
 40
1.0
 10
12.7323446541
 20
9.2630290026
 30
0.0
 10
12.7348650101
 20
9.2813186959
 30
0.0
 10
12.7381962895
 20
9.3088252454
 30
0.0
 10
12.7417065507
 20
9.3455988368
 30
0.0
 10
12.7445852963
 20
9.3824416666
 30
0.0
 10
12.7469923936
 20
9.4285813697
 30
0.0
 10
12.7479553023
 20
9.4840150607
 30
0.0
 10
12.7469920065
 20
9.5394487121
 30
0.0
 10
12.7445858274
 20
9.5855884132
 30
0.0
 10
12.741707588
 20
9.6224312024
 30
0.0
 10
12.7381973772
 20
9.6592047346
 30
0.0
 10
12.7348655536
 20
9.6867111972
 30
0.0
 10
12.7323446541
 20
9.7050008142
 30
0.0
  0
SPLINE
  5
2DD
100
AcDbEntity
  8
0
100
AcDbSpline
 62
9
  6
CONTINUOUS
 70
0
 71
3
 72
45
 73
41
 74
0
 42
0.0000001
 43
0.0000001
 44
0.0000000001
 40
0.0
 40
0.0
 40
0.0
 40
0.0
 40
0.0302505319
 40
0.0605644531
 40
0.0757594363
 40
0.0909815938
 40
0.1062342289
 40
0.1215203647
 40
0.1521948199
 40
0.1830316552
 40
0.214042707
 40
0.2452336362
 40
0.260900772
 40
0.2766121345
 40
0.3081548617
 40
0.3398575557
 40
0.3717023483
 40
0.4036667209
 40
0.4357242899
 40
0.4678456884
 40
0.4999995196
 40
0.532153359
 40
0.5642747816
 40
0.59633239
 40
0.6282968158
 40
0.6601416741
 40
0.6918444437
 40
0.7233872543
 40
0.7390986605
 40
0.7547658407
 40
0.78595686
 40
0.8169680006
 40
0.8478049203
 40
0.8784794525
 40
0.8937656231
 40
0.9090182902
 40
0.9242404765
 40
0.939435485
 40
0.9697494458
 40
1.0
 40
1.0
 40
1.0
 40
1.0
 10
12.1280622395
 20
4.7334266184
 30
0.0
 10
12.1272783481
 20
4.7242846994
 30
0.0
 10
12.124799592
 20
4.7060475822
 30
0.0
 10
12.1194642862
 20
4.6836568145
 30
0.0
 10
12.1138863995
 20
4.6660943393
 30
0.0
 10
12.1090503307
 20
4.6531075125
 30
0.0
 10
12.103576053
 20
4.6403464569
 30
0.0
 10
12.095434102
 20
4.6236532387
 30
0.0
 10
12.0837112629
 20
4.6034787497
 30
0.0
 10
12.0673323794
 20
4.5806395707
 30
0.0
 10
12.0487657313
 20
4.559332848
 30
0.0
 10
12.0316257411
 20
4.5430288785
 30
0.0
 10
12.0169981155
 20
4.5309281994
 30
0.0
 10
12.001744482
 20
4.5194483455
 30
0.0
 10
11.9816359042
 20
4.5063748092
 30
0.0
 10
11.9560992362
 20
4.492885641
 30
0.0
 10
11.929339278
 20
4.4816862831
 30
0.0
 10
11.9015889669
 20
4.4728741202
 30
0.0
 10
11.8730881372
 20
4.4665247444
 30
0.0
 10
11.8440834241
 20
4.4626928708
 30
0.0
 10
11.8148256428
 20
4.4614114672
 30
0.0
 10
11.7855677984
 20
4.4626915944
 30
0.0
 10
11.7565628963
 20
4.4665222029
 30
0.0
 10
11.7280617535
 20
4.4728703353
 30
0.0
 10
11.7003110077
 20
4.4816812875
 30
0.0
 10
11.6735504971
 20
4.4928794775
 30
0.0
 10
11.6480131635
 20
4.506367531
 30
0.0
 10
11.6279039415
 20
4.5194401886
 30
0.0
 10
11.6126497417
 20
4.5309193763
 30
0.0
 10
11.5980215179
 20
4.543019417
 30
0.0
 10
11.5808807226
 20
4.5593226379
 30
0.0
 10
11.5623130223
 20
4.5806285492
 30
0.0
 10
11.5459330106
 20
4.603467012
 30
0.0
 10
11.5342091737
 20
4.6236409897
 30
0.0
 10
11.5260663973
 20
4.6403338537
 30
0.0
 10
11.5205914887
 20
4.6530946702
 30
0.0
 10
11.5157547781
 20
4.6660812858
 30
0.0
 10
11.510176024
 20
4.6836435153
 30
0.0
 10
11.5048396119
 20
4.7060340464
 30
0.0
 10
11.5023599534
 20
4.7242710597
 30
0.0
 10
11.5015756098
 20
4.7334129468
 30
0.0
  0
SPLINE
  5
2DE
100
AcDbEntity
  8
0
100
AcDbSpline
 62
9
  6
CONTINUOUS
 70
0
 71
3
 72
45
 73
41
 74
0
 42
0.0000001
 43
0.0000001
 44
0.0000000001
 40
0.0
 40
0.0
 40
0.0
 40
0.0
 40
0.0151189506
 40
0.0302572039
 40
0.0454179287
 40
0.0606042198
 40
0.0910567771
 40
0.12164228
 40
0.1369936622
 40
0.1523837169
 40
0.1832770034
 40
0.2143356623
 40
0.2455607627
 40
0.2769484554
 40
0.3084901605
 40
0.3401728831
 40
0.3719796414
 40
0.4038899894
 40
0.4358806175
 40
0.4679260158
 40
0.4999991822
 40
0.5320723608
 40
0.5641177954
 40
0.596108483
 40
0.6280189119
 40
0.6598257706
 40
0.6915086099
 40
0.723050445
 40
0.7544382772
 40
0.7856635227
 40
0.8167223279
 40
0.8476157574
 40
0.8630058812
 40
0.8783573299
 40
0.9089429569
 40
0.9393956228
 40
0.9545819613
 40
0.9697427283
 40
0.9848810182
 40
1.0
 40
1.0
 40
1.0
 40
1.0
 10
12.115268564
 20
4.7096282899
 30
0.0
 10
12.1144341863
 20
4.7055677724
 30
0.0
 10
12.1125784748
 20
4.6974784713
 30
0.0
 10
12.1092427167
 20
4.6854765536
 30
0.0
 10
12.10535937
 20
4.6736205319
 30
0.0
 10
12.0994565952
 20
4.6580253034
 30
0.0
 10
12.0907393038
 20
4.6389975364
 30
0.0
 10
12.0803321781
 20
4.6207875782
 30
0.0
 10
12.0710351242
 20
4.60677105
 30
0.0
 10
12.0610790931
 20
4.5931101479
 30
0.0
 10
12.0474680229
 20
4.5768106003
 30
0.0
 10
12.0294303028
 20
4.5586748221
 30
0.0
 10
12.0097980625
 20
4.5420670573
 30
0.0
 10
11.9887182064
 20
4.5271113644
 30
0.0
 10
11.9663473734
 20
4.5139181625
 30
0.0
 10
11.9428519228
 20
4.5025851217
 30
0.0
 10
11.9184063922
 20
4.4931960147
 30
0.0
 10
11.8931922981
 20
4.48582024
 30
0.0
 10
11.8673967804
 20
4.4805122929
 30
0.0
 10
11.8412112376
 20
4.4773113838
 30
0.0
 10
11.8148299225
 20
4.4762411545
 30
0.0
 10
11.7884485216
 20
4.4773095092
 30
0.0
 10
11.7622627216
 20
4.4805085575
 30
0.0
 10
11.7364667775
 20
4.4858146714
 30
0.0
 10
11.7112520906
 20
4.493188654
 30
0.0
 10
11.6868058055
 20
4.5025760234
 30
0.0
 10
11.6633094439
 20
4.5139073937
 30
0.0
 10
11.6409375503
 20
4.5270990048
 30
0.0
 10
11.6198564916
 20
4.5420531982
 30
0.0
 10
11.6002229157
 20
4.5586595663
 30
0.0
 10
11.5821837369
 20
4.5767940609
 30
0.0
 10
11.5685713545
 20
4.5930926402
 30
0.0
 10
11.5586142236
 20
4.6067528352
 30
0.0
 10
11.5493160419
 20
4.6207687006
 30
0.0
 10
11.5389074518
 20
4.6389779159
 30
0.0
 10
11.5301886272
 20
4.6580050645
 30
0.0
 10
11.524284596
 20
4.6735998755
 30
0.0
 10
11.5204002949
 20
4.6854556208
 30
0.0
 10
11.5170635702
 20
4.6974573012
 30
0.0
 10
11.5152072071
 20
4.7055464718
 30
0.0
 10
11.5143725025
 20
4.7096069308
 30
0.0
  0
SPLINE
  5
2DF
100
AcDbEntity
  8
0
100
AcDbSpline
 62
9
  6
CONTINUOUS
 70
0
 71
3
 72
29
 73
25
 74
0
 42
0.0000001
 43
0.0000001
 44
0.0000000001
 40
0.0
 40
0.0
 40
0.0
 40
0.0
 40
0.0305870649
 40
0.0612806173
 40
0.0920808817
 40
0.1229867676
 40
0.1539958921
 40
0.1851045928
 40
0.2475773678
 40
0.3103762793
 40
0.3734339584
 40
0.4366710346
 40
0.4999999106
 40
0.5633287902
 40
0.626565877
 40
0.6896235733
 40
0.7524225077
 40
0.8148953103
 40
0.8460040262
 40
0.8770131664
 40
0.9079190686
 40
0.9387193496
 40
0.9694129186
 40
1.0
 40
1.0
 40
1.0
 40
1.0
 10
12.0362962597
 20
4.6205446969
 30
0.0
 10
12.0329791675
 20
4.6166592681
 30
0.0
 10
12.026111333
 20
4.6090614554
 30
0.0
 10
12.0151681758
 20
4.5982439432
 30
0.0
 10
12.0035986275
 20
4.5880178783
 30
0.0
 10
11.9914394751
 20
4.5784156901
 30
0.0
 10
11.9787280471
 20
4.5694670455
 30
0.0
 10
11.9610757975
 20
4.5584310112
 30
0.0
 10
11.9378243755
 20
4.5464102974
 30
0.0
 10
11.908439757
 20
4.535022776
 30
0.0
 10
11.8778878379
 20
4.5267858157
 30
0.0
 10
11.8465512464
 20
4.5218026921
 30
0.0
 10
11.8148195752
 20
4.5201347229
 30
0.0
 10
11.7830878885
 20
4.5218024329
 30
0.0
 10
11.751751251
 20
4.5267853004
 30
0.0
 10
11.7211992559
 20
4.5350220111
 30
0.0
 10
11.6918145323
 20
4.5464092922
 30
0.0
 10
11.6685629996
 20
4.5584298157
 30
0.0
 10
11.6509106481
 20
4.5694657055
 30
0.0
 10
11.6381991374
 20
4.5784142462
 30
0.0
 10
11.6260398961
 20
4.588016335
 30
0.0
 10
11.6144702531
 20
4.5982423052
 30
0.0
 10
11.6035269958
 20
4.6090597279
 30
0.0
 10
11.5966590909
 20
4.6166574845
 30
0.0
 10
11.5933419628
 20
4.6205428861
 30
0.0
  0
SPLINE
  5
2E0
100
AcDbEntity
  8
0
100
AcDbSpline
 62
9
  6
CONTINUOUS
 70
0
 71
3
 72
37
 73
33
 74
0
 42
0.0000001
 43
0.0000001
 44
0.0000000001
 40
0.0
 40
0.0
 40
0.0
 40
0.0
 40
0.062616403
 40
0.093888207
 40
0.1251344796
 40
0.1563572531
 40
0.1875591292
 40
0.2187432079
 40
0.2499126039
 40
0.3122120062
 40
0.3744922266
 40
0.4056370111
 40
0.4367863285
 40
0.4679429817
 40
0.499109071
 40
0.5302865605
 40
0.561477671
 40
0.592683723
 40
0.6239057475
 40
0.655145211
 40
0.6864032025
 40
0.7176800325
 40
0.7489761243
 40
0.7802920789
 40
0.8116272107
 40
0.8429796288
 40
0.8743493231
 40
0.90573812
 40
0.9214403776
 40
0.9371472232
 40
0.9685699402
 40
1.0
 40
1.0
 40
1.0
 40
1.0
 10
12.0648245881
 20
8.5788029489
 30
0.0
 10
12.0850616824
 20
8.5842045819
 30
0.0
 10
12.1151494869
 20
8.5933146116
 30
0.0
 10
12.1545625626
 20
8.6074268817
 30
0.0
 10
12.1837217416
 20
8.6189765691
 30
0.0
 10
12.2124562244
 20
8.6314857757
 30
0.0
 10
12.2407355634
 20
8.6449443098
 30
0.0
 10
12.2685317056
 20
8.6593361992
 30
0.0
 10
12.3049011059
 20
8.679743745
 30
0.0
 10
12.3490303564
 20
8.7075154642
 30
0.0
 10
12.391185494
 20
8.7381879948
 30
0.0
 10
12.4235957024
 20
8.7643910553
 30
0.0
 10
12.4472319475
 20
8.7848579119
 30
0.0
 10
12.4701747306
 20
8.8061090896
 30
0.0
 10
12.4924032662
 20
8.8281198013
 30
0.0
 10
12.5138907285
 20
8.8508704503
 30
0.0
 10
12.5346103118
 20
8.8743404685
 30
0.0
 10
12.5545363719
 20
8.8985071995
 30
0.0
 10
12.5736424115
 20
8.9233477977
 30
0.0
 10
12.5919052103
 20
8.9488360616
 30
0.0
 10
12.6093129725
 20
8.9749376408
 30
0.0
 10
12.6258532463
 20
9.0016196121
 30
0.0
 10
12.6415091672
 20
9.0288522577
 30
0.0
 10
12.6562638067
 20
9.0566056662
 30
0.0
 10
12.6700952666
 20
9.0848516118
 30
0.0
 10
12.682970048
 20
9.1135663457
 30
0.0
 10
12.6948523801
 20
9.1427249903
 30
0.0
 10
12.7039298214
 20
9.1673564975
 30
0.0
 10
12.7107028523
 20
9.1872417706
 30
0.0
 10
12.7171535699
 20
9.2072458914
 30
0.0
 10
12.7246007682
 20
9.2324524397
 30
0.0
 10
12.7298798186
 20
9.2528083715
 30
0.0
 10
12.7323446541
 20
9.2630289119
 30
0.0
  0
SPLINE
  5
2E1
100
AcDbEntity
  8
0
100
AcDbSpline
 62
9
  6
CONTINUOUS
 70
0
 71
3
 72
25
 73
21
 74
0
 42
0.0000001
 43
0.0000001
 44
0.0000000001
 40
0.0
 40
0.0
 40
0.0
 40
0.0
 40
0.0626325422
 40
0.1252114206
 40
0.1564840211
 40
0.1877449014
 40
0.2502292986
 40
0.3126741427
 40
0.3750878335
 40
0.4374786038
 40
0.4686710217
 40
0.4998622276
 40
0.5622428445
 40
0.6246368697
 40
0.6870576534
 40
0.7495190386
 40
0.8120339284
 40
0.8746140228
 40
0.9372678334
 40
1.0
 40
1.0
 40
1.0
 40
1.0
 10
11.0057525593
 20
8.9986740088
 30
0.0
 10
11.0134719851
 20
8.985856937
 30
0.0
 10
11.0295134281
 20
8.9605953367
 30
0.0
 10
11.0510450544
 20
8.930018561
 30
0.0
 10
11.0691320367
 20
8.9062214009
 30
0.0
 10
11.0877769031
 20
8.8828878446
 30
0.0
 10
11.112120009
 20
8.8545899256
 30
0.0
 10
11.1429162163
 20
8.8220933718
 30
0.0
 10
11.1752132088
 20
8.7911205449
 30
0.0
 10
11.2033224499
 20
8.7666302871
 30
0.0
 10
11.2264932702
 20
8.7478758093
 30
0.0
 10
11.2501104084
 20
8.7296905897
 30
0.0
 10
11.2804491476
 20
8.7080359723
 30
0.0
 10
11.3180698143
 20
8.6838293251
 30
0.0
 10
11.356827195
 20
8.6614482534
 30
0.0
 10
11.3966403076
 20
8.6409412228
 30
0.0
 10
11.4374268765
 20
8.6223539799
 30
0.0
 10
11.4791001718
 20
8.6057257484
 30
0.0
 10
11.5215653275
 20
8.5910825536
 30
0.0
 10
11.5503266869
 20
8.5826695294
 30
0.0
 10
11.5648057426
 20
8.5788047464
 30
0.0
  0
SPLINE
  5
2E2
100
AcDbEntity
  8
0
100
AcDbSpline
 62
9
  6
CONTINUOUS
 70
0
 71
3
 72
34
 73
30
 74
0
 42
0.0000001
 43
0.0000001
 44
0.0000000001
 40
0.0
 40
0.0
 40
0.0
 40
0.0
 40
0.1251027486
 40
0.2501546792
 40
0.3126621132
 40
0.3751557238
 40
0.4376352934
 40
0.5001006937
 40
0.5625520193
 40
0.6249898558
 40
0.6562058896
 40
0.6874194622
 40
0.7186311795
 40
0.7498420691
 40
0.7810530084
 40
0.8122655555
 40
0.843482229
 40
0.8747067256
 40
0.89032876
 40
0.8981425668
 40
0.9059596022
 40
0.9215955867
 40
0.9372445278
 40
0.9450762293
 40
0.9529169481
 40
0.9607606016
 40
0.9686073513
 40
0.984301392
 40
1.0
 40
1.0
 40
1.0
 40
1.0
 10
10.8572920225
 20
8.6999132405
 30
0.0
 10
10.8572920218
 20
8.6921647647
 30
0.0
 10
10.8574405611
 20
8.6766704643
 30
0.0
 10
10.8580715838
 20
8.6573130765
 30
0.0
 10
10.8589092136
 20
8.6418476843
 30
0.0
 10
10.859726567
 20
8.6302639194
 30
0.0
 10
10.8607604748
 20
8.6186999117
 30
0.0
 10
10.8620461852
 20
8.6071634845
 30
0.0
 10
10.8636298712
 20
8.5956664438
 30
0.0
 10
10.8652495742
 20
8.58613212
 30
0.0
 10
10.8667692693
 20
8.5785484709
 30
0.0
 10
10.8680362994
 20
8.5728881291
 30
0.0
 10
10.8694484056
 20
8.567262382
 30
0.0
 10
10.8710283521
 20
8.5616813127
 30
0.0
 10
10.8728059796
 20
8.5561595373
 30
0.0
 10
10.874820466
 20
8.5507184284
 30
0.0
 10
10.8771254259
 20
8.5453919214
 30
0.0
 10
10.8793527814
 20
8.5410937267
 30
0.0
 10
10.8811218419
 20
8.5382052983
 30
0.0
 10
10.8822040357
 20
8.5366000079
 30
0.0
 10
10.8833365227
 20
8.5350287475
 30
0.0
 10
10.8848568514
 20
8.5331404587
 30
0.0
 10
10.8865382088
 20
8.5313898386
 30
0.0
 10
10.8879965307
 20
8.5301088595
 30
0.0
 10
10.8891504989
 20
8.529218368
 30
0.0
 10
10.8903676147
 20
8.5284136804
 30
0.0
 10
10.8920753253
 20
8.5274810418
 30
0.0
 10
10.8943683428
 20
8.5266234373
 30
0.0
 10
10.8963196994
 20
8.5263729679
 30
0.0
 10
10.8972920225
 20
8.5263729534
 30
0.0
  0
SPLINE
  5
2E3
100
AcDbEntity
  8
0
100
AcDbSpline
 62
9
  6
CONTINUOUS
 70
0
 71
3
 72
34
 73
30
 74
0
 42
0.0000001
 43
0.0000001
 44
0.0000000001
 40
0.0
 40
0.0
 40
0.0
 40
0.0
 40
0.0156997973
 40
0.0313951031
 40
0.0392418138
 40
0.0470850782
 40
0.0549266928
 40
0.0627590552
 40
0.0784075379
 40
0.0940429756
 40
0.1018601643
 40
0.1096742614
 40
0.1252961373
 40
0.1565201186
 40
0.1877366815
 40
0.218949224
 40
0.250160145
 40
0.2813708507
 40
0.3125824199
 40
0.3437959198
 40
0.3750118859
 40
0.4374495202
 40
0.499900633
 40
0.5623658796
 40
0.6248452988
 40
0.687338751
 40
0.7498460069
 40
0.8748975888
 40
1.0
 40
1.0
 40
1.0
 40
1.0
 10
10.8972920225
 20
10.4416598104
 30
0.0
 10
10.896319626
 20
10.4416598241
 30
0.0
 10
10.8943684093
 20
10.4414074503
 30
0.0
 10
10.8920748003
 20
10.4405515404
 30
0.0
 10
10.8903668307
 20
10.4396191414
 30
0.0
 10
10.8891498803
 20
10.4388141429
 30
0.0
 10
10.8879961308
 20
10.4379232651
 30
0.0
 10
10.8865374399
 20
10.4366426334
 30
0.0
 10
10.8848554715
 20
10.4348925792
 30
0.0
 10
10.8833358282
 20
10.4330037694
 30
0.0
 10
10.8822038269
 20
10.4314321756
 30
0.0
 10
10.881121699
 20
10.4298268284
 30
0.0
 10
10.8793517631
 20
10.4269389608
 30
0.0
 10
10.8771253953
 20
10.4226402523
 30
0.0
 10
10.8748205785
 20
10.4173137776
 30
0.0
 10
10.8728056611
 20
10.4118728299
 30
0.0
 10
10.8710280587
 20
10.406351056
 30
0.0
 10
10.869448334
 20
10.4007699488
 30
0.0
 10
10.8680362371
 20
10.3951442282
 30
0.0
 10
10.8667691895
 20
10.3894839099
 30
0.0
 10
10.8652494492
 20
10.3819002931
 30
0.0
 10
10.863629848
 20
10.3723659836
 30
0.0
 10
10.8620461869
 20
10.3608689791
 30
0.0
 10
10.860760464
 20
10.3493325881
 30
0.0
 10
10.8597265404
 20
10.3377686133
 30
0.0
 10
10.8589091944
 20
10.3261848808
 30
0.0
 10
10.8580715771
 20
10.3107195341
 30
0.0
 10
10.8574405665
 20
10.2913622042
 30
0.0
 10
10.8572920223
 20
10.2758679501
 30
0.0
 10
10.8572920225
 20
10.2681194969
 30
0.0
  0
SPLINE
  5
2E4
100
AcDbEntity
  8
0
100
AcDbSpline
 62
9
  6
CONTINUOUS
 70
0
 71
3
 72
39
 73
35
 74
0
 42
0.0000001
 43
0.0000001
 44
0.0000000001
 40
0.0
 40
0.0
 40
0.0
 40
0.0
 40
0.0302721677
 40
0.0605853705
 40
0.0909768146
 40
0.1214788794
 40
0.1521197832
 40
0.1829221094
 40
0.2139020236
 40
0.2450687503
 40
0.276424331
 40
0.3079636819
 40
0.3396749077
 40
0.3715398413
 40
0.4035347901
 40
0.4356314527
 40
0.4677979579
 40
0.5
 40
0.5322020421
 40
0.5643685473
 40
0.5964652099
 40
0.6284601587
 40
0.6603250923
 40
0.6920363181
 40
0.723575669
 40
0.7549312497
 40
0.7860979764
 40
0.8170778906
 40
0.8478802168
 40
0.8785211206
 40
0.9090231854
 40
0.9394146295
 40
0.9697278323
 40
1.0
 40
1.0
 40
1.0
 40
1.0
 10
12.1602966572
 20
4.8738057703
 30
0.0
 10
12.1601708404
 20
4.8632591995
 30
0.0
 10
12.158821651
 20
4.8421485385
 30
0.0
 10
12.1535292166
 20
4.8108410881
 30
0.0
 10
12.1450179266
 20
4.7801651836
 30
0.0
 10
12.1333694831
 20
4.7504170515
 30
0.0
 10
12.1186956666
 20
4.7218784752
 30
0.0
 10
12.10113702
 20
4.6948207939
 30
0.0
 10
12.0808613386
 20
4.6695005695
 30
0.0
 10
12.0580620659
 20
4.6461576908
 30
0.0
 10
12.0329564802
 20
4.6250128982
 30
0.0
 10
12.0057834067
 20
4.6062659617
 30
0.0
 10
11.9768009618
 20
4.5900938932
 30
0.0
 10
11.946284205
 20
4.5766492164
 30
0.0
 10
11.9145225183
 20
4.5660585813
 30
0.0
 10
11.8818168388
 20
4.5584217646
 30
0.0
 10
11.8484768916
 20
4.5538107688
 30
0.0
 10
11.8148183383
 20
4.5522689455
 30
0.0
 10
11.781159785
 20
4.5538107688
 30
0.0
 10
11.7478198378
 20
4.5584217646
 30
0.0
 10
11.7151141583
 20
4.5660585813
 30
0.0
 10
11.6833524716
 20
4.5766492164
 30
0.0
 10
11.6528357148
 20
4.5900938932
 30
0.0
 10
11.6238532699
 20
4.6062659617
 30
0.0
 10
11.5966801964
 20
4.6250128982
 30
0.0
 10
11.5715746107
 20
4.6461576908
 30
0.0
 10
11.548775338
 20
4.6695005695
 30
0.0
 10
11.5284996566
 20
4.6948207939
 30
0.0
 10
11.51094101
 20
4.7218784752
 30
0.0
 10
11.4962671935
 20
4.7504170515
 30
0.0
 10
11.48461875
 20
4.7801651836
 30
0.0
 10
11.47610746
 20
4.8108410881
 30
0.0
 10
11.4708150256
 20
4.8421485385
 30
0.0
 10
11.4694658362
 20
4.8632591995
 30
0.0
 10
11.4693400194
 20
4.8738057703
 30
0.0
  0
LINE
  5
2E5
100
AcDbEntity
  8
0
100
AcDbLine
 62
9
  6
CONTINUOUS
 10
12.1601407168
 20
4.8777843933
 11
12.1601405383
 21
4.877454628
  0
SPLINE
  5
2E6
100
AcDbEntity
  8
0
100
AcDbSpline
 62
9
  6
CONTINUOUS
 70
0
 71
3
 72
39
 73
35
 74
0
 42
0.0000001
 43
0.0000001
 44
0.0000000001
 40
0.0
 40
0.0
 40
0.0
 40
0.0
 40
0.0302758135
 40
0.0605896451
 40
0.0909791246
 40
0.1214772995
 40
0.1521132169
 40
0.1829102146
 40
0.2138851388
 40
0.2450477849
 40
0.276400628
 40
0.307938865
 40
0.3396507259
 40
0.3715180198
 40
0.4035168913
 40
0.435618758
 40
0.4677913752
 40
0.5
 40
0.5322086248
 40
0.564381242
 40
0.5964831087
 40
0.6284819802
 40
0.6603492741
 40
0.692061135
 40
0.723599372
 40
0.7549522151
 40
0.7861148612
 40
0.8170897854
 40
0.8478867831
 40
0.8785227005
 40
0.9090208754
 40
0.9394103549
 40
0.9697241865
 40
1.0
 40
1.0
 40
1.0
 40
1.0
 10
12.1601405383
 20
4.877454628
 30
0.0
 10
12.1601290534
 20
4.8668447518
 30
0.0
 10
12.1589955487
 20
4.8455962228
 30
0.0
 10
12.1539811416
 20
4.8140546243
 30
0.0
 10
12.1457014671
 20
4.7831249381
 30
0.0
 10
12.1342367392
 20
4.7531099385
 30
0.0
 10
12.1196985037
 20
4.7242977436
 30
0.0
 10
12.1022278708
 20
4.6969658979
 30
0.0
 10
12.081994048
 20
4.6713769652
 30
0.0
 10
12.0591926133
 20
4.6477765912
 30
0.0
 10
12.0340437399
 20
4.6263908943
 30
0.0
 10
12.006789843
 20
4.6074245503
 30
0.0
 10
11.9776932206
 20
4.5910589725
 30
0.0
 10
11.9470336285
 20
4.5774505551
 30
0.0
 10
11.9151056272
 20
4.5667291479
 30
0.0
 10
11.8822156938
 20
4.558997068
 30
0.0
 10
11.848679373
 20
4.5543281684
 30
0.0
 10
11.8148183383
 20
4.5527669222
 30
0.0
 10
11.7809573036
 20
4.5543281684
 30
0.0
 10
11.7474209828
 20
4.558997068
 30
0.0
 10
11.7145310494
 20
4.5667291479
 30
0.0
 10
11.6826030481
 20
4.5774505551
 30
0.0
 10
11.651943456
 20
4.5910589725
 30
0.0
 10
11.6228468336
 20
4.6074245503
 30
0.0
 10
11.5955929367
 20
4.6263908943
 30
0.0
 10
11.5704440633
 20
4.6477765912
 30
0.0
 10
11.5476426286
 20
4.6713769652
 30
0.0
 10
11.5274088058
 20
4.6969658979
 30
0.0
 10
11.509938173
 20
4.7242977436
 30
0.0
 10
11.4953999374
 20
4.7531099385
 30
0.0
 10
11.4839352095
 20
4.7831249381
 30
0.0
 10
11.475655535
 20
4.8140546243
 30
0.0
 10
11.4706411279
 20
4.8455962228
 30
0.0
 10
11.4695076232
 20
4.8668447518
 30
0.0
 10
11.4694961383
 20
4.877454628
 30
0.0
  0
LINE
  5
2E7
100
AcDbEntity
  8
0
100
AcDbLine
 62
9
  6
CONTINUOUS
 10
11.4694961383
 20
4.877454628
 11
11.4694959598
 21
4.8777843933
  0
SPLINE
  5
2E8
100
AcDbEntity
  8
0
100
AcDbSpline
 62
9
  6
CONTINUOUS
 70
0
 71
3
 72
11
 73
7
 74
0
 42
0.0000001
 43
0.0000001
 44
0.0000000001
 40
0.0
 40
0.0
 40
0.0
 40
0.0
 40
0.2891873061
 40
0.5548886292
 40
0.7928971721
 40
1.0
 40
1.0
 40
1.0
 40
1.0
 10
9.4749330658
 20
9.6491817957
 30
0.0
 10
9.4735102271
 20
9.6491686987
 30
0.0
 10
9.470779192
 20
9.6491980564
 30
0.0
 10
9.4668822593
 20
9.6494055999
 30
0.0
 10
9.4633994188
 20
9.6497334423
 30
0.0
 10
9.4612260053
 20
9.6500046513
 30
0.0
 10
9.4602156944
 20
9.6501375607
 30
0.0
  0
SPLINE
  5
2E9
100
AcDbEntity
  8
0
100
AcDbSpline
 62
9
  6
CONTINUOUS
 70
0
 71
3
 72
10
 73
6
 74
0
 42
0.0000001
 43
0.0000001
 44
0.0000000001
 40
0.0
 40
0.0
 40
0.0
 40
0.0
 40
0.2764644105
 40
0.5346521522
 40
1.0
 40
1.0
 40
1.0
 40
1.0
 10
9.4602156944
 20
9.6501375607
 30
0.0
 10
9.4598157179
 20
9.6501901886
 30
0.0
 10
9.4590379958
 20
9.6502651825
 30
0.0
 10
9.4575785737
 20
9.6502864206
 30
0.0
 10
9.4565197215
 20
9.6501581866
 30
0.0
 10
9.4558619124
 20
9.6499896849
 30
0.0
  0
SPLINE
  5
2EA
100
AcDbEntity
  8
0
100
AcDbSpline
 62
9
  6
CONTINUOUS
 70
0
 71
3
 72
18
 73
14
 74
0
 42
0.0000001
 43
0.0000001
 44
0.0000000001
 40
0.0
 40
0.0
 40
0.0
 40
0.0
 40
0.2173628655
 40
0.4103848143
 40
0.5778002951
 40
0.7184964269
 40
0.8314508837
 40
0.877291367
 40
0.9159725952
 40
0.9474675337
 40
0.9717937816
 40
0.9891047921
 40
1.0
 40
1.0
 40
1.0
 40
1.0
 10
9.4558619124
 20
9.6499896849
 30
0.0
 10
9.4555909899
 20
9.6499202918
 30
0.0
 10
9.4550812885
 20
9.6497820646
 30
0.0
 10
9.4543697677
 20
9.6495662749
 30
0.0
 10
9.4537585256
 20
9.6493606782
 30
0.0
 10
9.4532508482
 20
9.6491713139
 30
0.0
 10
9.4528948262
 20
9.649023483
 30
0.0
 10
9.4526642991
 20
9.6489166082
 30
0.0
 10
9.4525309909
 20
9.6488492651
 30
0.0
 10
9.4524250832
 20
9.6487896696
 30
0.0
 10
9.4523460222
 20
9.6487378719
 30
0.0
 10
9.4522943048
 20
9.6486951356
 30
0.0
 10
9.452271029
 20
9.6486650534
 30
0.0
 10
9.4522675334
 20
9.648651478
 30
0.0
  0
SPLINE
  5
2EB
100
AcDbEntity
  8
0
100
AcDbSpline
 62
9
  6
CONTINUOUS
 70
0
 71
3
 72
21
 73
17
 74
0
 42
0.0000001
 43
0.0000001
 44
0.0000000001
 40
0.0
 40
0.0
 40
0.0
 40
0.0
 40
0.1729091869
 40
0.3357629537
 40
0.4124461602
 40
0.4854924165
 40
0.5546226474
 40
0.6196194375
 40
0.6803389367
 40
0.7367342021
 40
0.788871924
 40
0.8369660105
 40
0.8814081634
 40
0.9228006148
 40
0.9619869573
 40
1.0
 40
1.0
 40
1.0
 40
1.0
 10
9.4749330658
 20
9.6491817957
 30
0.0
 10
9.4751318707
 20
9.6510763418
 30
0.0
 10
9.4756465202
 20
9.6547432839
 30
0.0
 10
9.4766282882
 20
9.6591858759
 30
0.0
 10
9.477602191
 20
9.6624902826
 30
0.0
 10
9.478398651
 20
9.6647673136
 30
0.0
 10
9.479270353
 20
9.6668781261
 30
0.0
 10
9.4802116997
 20
9.6688090793
 30
0.0
 10
9.4812167946
 20
9.6705476944
 30
0.0
 10
9.4822792952
 20
9.6720829177
 30
0.0
 10
9.4833930127
 20
9.6734048885
 30
0.0
 10
9.4845517303
 20
9.6745049442
 30
0.0
 10
9.4857491725
 20
9.6753753941
 30
0.0
 10
9.4869793364
 20
9.6760087562
 30
0.0
 10
9.4882339922
 20
9.6763976986
 30
0.0
 10
9.4890858581
 20
9.6764905345
 30
0.0
 10
9.4895046303
 20
9.6764945405
 30
0.0
  0
SPLINE
  5
2EC
100
AcDbEntity
  8
0
100
AcDbSpline
 62
9
  6
CONTINUOUS
 70
0
 71
3
 72
21
 73
17
 74
0
 42
0.0000001
 43
0.0000001
 44
0.0000000001
 40
0.0
 40
0.0
 40
0.0
 40
0.0
 40
0.1729091791
 40
0.3357629218
 40
0.4124461131
 40
0.4854923535
 40
0.554622569
 40
0.6196193455
 40
0.6803388347
 40
0.7367340951
 40
0.7888718186
 40
0.8369659144
 40
0.8814080842
 40
0.9228005592
 40
0.9619869299
 40
1.0
 40
1.0
 40
1.0
 40
1.0
 10
9.9147036076
 20
9.6491818406
 30
0.0
 10
9.9145048022
 20
9.651076384
 30
0.0
 10
9.913990152
 20
9.6547433208
 30
0.0
 10
9.9130083835
 20
9.6591859061
 30
0.0
 10
9.9120344806
 20
9.6624903074
 30
0.0
 10
9.9112380207
 20
9.6647673346
 30
0.0
 10
9.910366319
 20
9.6668781434
 30
0.0
 10
9.9094249727
 20
9.6688090933
 30
0.0
 10
9.9084198783
 20
9.6705477053
 30
0.0
 10
9.9073573782
 20
9.6720829258
 30
0.0
 10
9.9062436613
 20
9.6734048942
 30
0.0
 10
9.9050849442
 20
9.6745049478
 30
0.0
 10
9.9038875025
 20
9.6753753961
 30
0.0
 10
9.9026573392
 20
9.6760087571
 30
0.0
 10
9.901402684
 20
9.6763976987
 30
0.0
 10
9.9005508187
 20
9.6764905345
 30
0.0
 10
9.9001320467
 20
9.6764945405
 30
0.0
  0
SPLINE
  5
2ED
100
AcDbEntity
  8
0
100
AcDbSpline
 62
9
  6
CONTINUOUS
 70
0
 71
3
 72
11
 73
7
 74
0
 42
0.0000001
 43
0.0000001
 44
0.0000000001
 40
0.0
 40
0.0
 40
0.0
 40
0.0
 40
0.2070937264
 40
0.4450976803
 40
0.710798689
 40
1.0
 40
1.0
 40
1.0
 40
1.0
 10
9.929420343
 20
9.6501376374
 30
0.0
 10
9.9284100937
 20
9.6500049321
 30
0.0
 10
9.926236913
 20
9.6497331373
 30
0.0
 10
9.9227542349
 20
9.6494058326
 30
0.0
 10
9.9188574528
 20
9.6491978028
 30
0.0
 10
9.9161264558
 20
9.6491687584
 30
0.0
 10
9.9147036079
 20
9.6491818375
 30
0.0
  0
SPLINE
  5
2EE
100
AcDbEntity
  8
0
100
AcDbSpline
 62
9
  6
CONTINUOUS
 70
0
 71
3
 72
39
 73
35
 74
0
 42
0.0000001
 43
0.0000001
 44
0.0000000001
 40
0.0
 40
0.0
 40
0.0
 40
0.0
 40
0.0302760905
 40
0.0605899731
 40
0.0909793086
 40
0.1214770944
 40
0.1521125234
 40
0.1829090008
 40
0.2138834338
 40
0.2450456743
 40
0.2763982453
 40
0.3079363751
 40
0.3396483028
 40
0.3715158328
 40
0.4035150969
 40
0.4356174858
 40
0.467790716
 40
0.5
 40
0.532209284
 40
0.5643825142
 40
0.5964849031
 40
0.6284841672
 40
0.6603516972
 40
0.6920636249
 40
0.7236017547
 40
0.7549543257
 40
0.7861165662
 40
0.8170909992
 40
0.8478874766
 40
0.8785229056
 40
0.9090206914
 40
0.9394100269
 40
0.9697239095
 40
1.0
 40
1.0
 40
1.0
 40
1.0
 10
12.1113183398
 20
4.8905544333
 30
0.0
 10
12.1113183398
 20
4.8814388067
 30
0.0
 10
12.1103636057
 20
4.8631818456
 30
0.0
 10
12.1060819264
 20
4.836078377
 30
0.0
 10
12.0989924872
 20
4.8094985949
 30
0.0
 10
12.0891640814
 20
4.7837030539
 30
0.0
 10
12.0766924595
 20
4.7589397066
 30
0.0
 10
12.0616987435
 20
4.7354474433
 30
0.0
 10
12.0443284138
 20
4.7134522128
 30
0.0
 10
12.0247496509
 20
4.6931653753
 30
0.0
 10
12.0031516859
 20
4.6747816028
 30
0.0
 10
11.979742933
 20
4.65847714
 30
0.0
 10
11.9547490414
 20
4.6444080674
 30
0.0
 10
11.9284106491
 20
4.6327089533
 30
0.0
 10
11.9009810902
 20
4.6234916422
 30
0.0
 10
11.8727239996
 20
4.6168442422
 30
0.0
 10
11.8439108414
 20
4.6128302728
 30
0.0
 10
11.8148183383
 20
4.6114880139
 30
0.0
 10
11.7857258352
 20
4.6128302728
 30
0.0
 10
11.756912677
 20
4.6168442422
 30
0.0
 10
11.7286555864
 20
4.6234916422
 30
0.0
 10
11.7012260275
 20
4.6327089533
 30
0.0
 10
11.6748876352
 20
4.6444080674
 30
0.0
 10
11.6498937436
 20
4.65847714
 30
0.0
 10
11.6264849907
 20
4.6747816028
 30
0.0
 10
11.6048870257
 20
4.6931653753
 30
0.0
 10
11.5853082628
 20
4.7134522128
 30
0.0
 10
11.5679379331
 20
4.7354474433
 30
0.0
 10
11.5529442171
 20
4.7589397066
 30
0.0
 10
11.5404725952
 20
4.7837030539
 30
0.0
 10
11.5306441895
 20
4.8094985949
 30
0.0
 10
11.5235547502
 20
4.836078377
 30
0.0
 10
11.5192730709
 20
4.8631818456
 30
0.0
 10
11.5183183368
 20
4.8814388067
 30
0.0
 10
11.5183183368
 20
4.8905544333
 30
0.0
  0
SPLINE
  5
2EF
100
AcDbEntity
  8
0
100
AcDbSpline
 62
9
  6
CONTINUOUS
 70
0
 71
3
 72
39
 73
35
 74
0
 42
0.0000001
 43
0.0000001
 44
0.0000000001
 40
0.0
 40
0.0
 40
0.0
 40
0.0
 40
0.0302761661
 40
0.0605900661
 40
0.0909793753
 40
0.121477165
 40
0.1521125905
 40
0.1829090597
 40
0.2138834863
 40
0.2450457215
 40
0.2763982887
 40
0.3079364125
 40
0.3396483326
 40
0.3715158561
 40
0.4035151157
 40
0.4356174989
 40
0.4677907222
 40
0.5
 40
0.5322092778
 40
0.5643825011
 40
0.5964848843
 40
0.6284841439
 40
0.6603516674
 40
0.6920635875
 40
0.7236017113
 40
0.7549542785
 40
0.7861165137
 40
0.8170909403
 40
0.8478874095
 40
0.878522835
 40
0.9090206247
 40
0.9394099339
 40
0.9697238339
 40
1.0
 40
1.0
 40
1.0
 40
1.0
 10
12.1524849713
 20
4.8836352342
 30
0.0
 10
12.1524849713
 20
4.8732539504
 30
0.0
 10
12.1513976724
 20
4.8524621259
 30
0.0
 10
12.1465215126
 20
4.8215955368
 30
0.0
 10
12.1384477581
 20
4.7913253694
 30
0.0
 10
12.1272547575
 20
4.7619483338
 30
0.0
 10
12.1130515139
 20
4.7337468176
 30
0.0
 10
12.0959760524
 20
4.7069928452
 30
0.0
 10
12.0761940144
 20
4.681943746
 30
0.0
 10
12.053896905
 20
4.6588402427
 30
0.0
 10
12.0293001988
 20
4.6379040839
 30
0.0
 10
12.0026413358
 20
4.6193358835
 30
0.0
 10
11.9741772697
 20
4.6033134027
 30
0.0
 10
11.944182018
 20
4.5899899403
 30
0.0
 10
11.9129440713
 20
4.5794929381
 30
0.0
 10
11.8807637125
 20
4.5719226325
 30
0.0
 10
11.8479500942
 20
4.5673513095
 30
0.0
 10
11.8148183383
 20
4.5658226462
 30
0.0
 10
11.7816865824
 20
4.5673513095
 30
0.0
 10
11.7488729641
 20
4.5719226325
 30
0.0
 10
11.7166926054
 20
4.5794929381
 30
0.0
 10
11.6854546586
 20
4.5899899403
 30
0.0
 10
11.6554594069
 20
4.6033134027
 30
0.0
 10
11.6269953409
 20
4.6193358835
 30
0.0
 10
11.6003364778
 20
4.6379040839
 30
0.0
 10
11.5757397716
 20
4.6588402427
 30
0.0
 10
11.5534426622
 20
4.681943746
 30
0.0
 10
11.5336606242
 20
4.7069928452
 30
0.0
 10
11.5165851627
 20
4.7337468176
 30
0.0
 10
11.5023819191
 20
4.7619483338
 30
0.0
 10
11.4911889185
 20
4.7913253694
 30
0.0
 10
11.483115164
 20
4.8215955368
 30
0.0
 10
11.4782390042
 20
4.8524621259
 30
0.0
 10
11.4771517053
 20
4.8732539504
 30
0.0
 10
11.4771517053
 20
4.8836352342
 30
0.0
  0
SPLINE
  5
2F0
100
AcDbEntity
  8
0
100
AcDbSpline
 62
9
  6
CONTINUOUS
 70
0
 71
3
 72
10
 73
6
 74
0
 42
0.0000001
 43
0.0000001
 44
0.0000000001
 40
0.0
 40
0.0
 40
0.0
 40
0.0
 40
0.4652940626
 40
0.723528385
 40
1.0
 40
1.0
 40
1.0
 40
1.0
 10
9.9337743518
 20
9.6499896966
 30
0.0
 10
9.9331165579
 20
9.6501580726
 30
0.0
 10
9.9320576985
 20
9.6502864677
 30
0.0
 10
9.9305982004
 20
9.6502650803
 30
0.0
 10
9.9298203604
 20
9.6501901835
 30
0.0
 10
9.929420343
 20
9.6501376374
 30
0.0
  0
SPLINE
  5
2F1
100
AcDbEntity
  8
0
100
AcDbSpline
 62
9
  6
CONTINUOUS
 70
0
 71
3
 72
11
 73
7
 74
0
 42
0.0000001
 43
0.0000001
 44
0.0000000001
 40
0.0
 40
0.0
 40
0.0
 40
0.0
 40
0.2230317861
 40
0.4658060528
 40
0.7256417993
 40
1.0
 40
1.0
 40
1.0
 40
1.0
 10
9.4466932933
 20
9.3317854338
 30
0.0
 10
9.4483863851
 20
9.3319161081
 30
0.0
 10
9.4519229401
 20
9.3321833376
 30
0.0
 10
9.457439124
 20
9.3325019569
 30
0.0
 10
9.4633524204
 20
9.332693981
 30
0.0
 10
9.467420288
 20
9.3327112829
 30
0.0
 10
9.4695091167
 20
9.3326919735
 30
0.0
  0
SPLINE
  5
2F2
100
AcDbEntity
  8
0
100
AcDbSpline
 62
9
  6
CONTINUOUS
 70
0
 71
3
 72
22
 73
18
 74
0
 42
0.0000001
 43
0.0000001
 44
0.0000000001
 40
0.0
 40
0.0
 40
0.0
 40
0.0
 40
0.0788199348
 40
0.1571689652
 40
0.310514546
 40
0.3846882406
 40
0.4566354477
 40
0.525984689
 40
0.5924019838
 40
0.6556019173
 40
0.7153563444
 40
0.7715078065
 40
0.8239871018
 40
0.8728290236
 40
0.918197699
 40
0.9604254583
 40
1.0
 40
1.0
 40
1.0
 40
1.0
 10
9.4319997096
 20
9.3710912667
 30
0.0
 10
9.4319899401
 20
9.369939119
 30
0.0
 10
9.4320169002
 20
9.3676409833
 30
0.0
 10
9.4322511042
 20
9.3631071901
 30
0.0
 10
9.4327509332
 20
9.3586575818
 30
0.0
 10
9.4335269904
 20
9.3543481073
 30
0.0
 10
9.4342283714
 20
9.3512761662
 30
0.0
 10
9.4350502917
 20
9.3483517927
 30
0.0
 10
9.4359866433
 20
9.3455965389
 30
0.0
 10
9.4370304673
 20
9.3430307453
 30
0.0
 10
9.4381741775
 20
9.3406732802
 30
0.0
 10
9.4394095435
 20
9.3385413906
 30
0.0
 10
9.440727855
 20
9.3366505858
 30
0.0
 10
9.442120055
 20
9.3350147165
 30
0.0
 10
9.4435772854
 20
9.333645813
 30
0.0
 10
9.4450896389
 20
9.3325552579
 30
0.0
 10
9.4461580776
 20
9.3320050221
 30
0.0
 10
9.4466932835
 20
9.3317854377
 30
0.0
  0
SPLINE
  5
2F3
100
AcDbEntity
  8
0
100
AcDbSpline
 62
9
  6
CONTINUOUS
 70
0
 71
3
 72
13
 73
9
 74
0
 42
0.0000001
 43
0.0000001
 44
0.0000000001
 40
0.0
 40
0.0
 40
0.0
 40
0.0
 40
0.2673293677
 40
0.5243761332
 40
0.6481945888
 40
0.7685487336
 40
0.8856535557
 40
1.0
 40
1.0
 40
1.0
 40
1.0
 10
9.4602162864
 20
9.3178950114
 30
0.0
 10
9.4597079226
 20
9.3196319012
 30
0.0
 10
9.4583235362
 20
9.322940052
 30
0.0
 10
9.4556850765
 20
9.3265086926
 30
0.0
 10
9.453156876
 20
9.3287860491
 30
0.0
 10
9.4511208678
 20
9.3301571288
 30
0.0
 10
9.4489620068
 20
9.3311834541
 30
0.0
 10
9.4474513577
 20
9.3316286625
 30
0.0
 10
9.4466933003
 20
9.3317854343
 30
0.0
  0
SPLINE
  5
2F4
100
AcDbEntity
  8
0
100
AcDbSpline
 62
9
  6
CONTINUOUS
 70
0
 71
3
 72
15
 73
11
 74
0
 42
0.0000001
 43
0.0000001
 44
0.0000000001
 40
0.0
 40
0.0
 40
0.0
 40
0.0
 40
0.1571907986
 40
0.3079643345
 40
0.4505148682
 40
0.5833232162
 40
0.7051587806
 40
0.8152232578
 40
0.9133102479
 40
1.0
 40
1.0
 40
1.0
 40
1.0
 10
9.9147038114
 20
9.3188508546
 30
0.0
 10
9.9147871091
 20
9.3196427657
 30
0.0
 10
9.9149923523
 20
9.3211902488
 30
0.0
 10
9.9154250812
 20
9.3234324232
 30
0.0
 10
9.9159708963
 20
9.3255226916
 30
0.0
 10
9.9166211895
 20
9.3274289827
 30
0.0
 10
9.917366115
 20
9.329122514
 30
0.0
 10
9.9181950055
 20
9.3305785039
 30
0.0
 10
9.9190961264
 20
9.3317752696
 30
0.0
 10
9.9197781356
 20
9.3324259972
 30
0.0
 10
9.9201275363
 20
9.3326920162
 30
0.0
  0
SPLINE
  5
2F5
100
AcDbEntity
  8
0
100
AcDbSpline
 62
9
  6
CONTINUOUS
 70
0
 71
3
 72
9
 73
5
 74
0
 42
0.0000001
 43
0.0000001
 44
0.0000000001
 40
0.0
 40
0.0
 40
0.0
 40
0.0
 40
0.5253052095
 40
1.0
 40
1.0
 40
1.0
 40
1.0
 10
9.9429434829
 20
9.3317854867
 30
0.0
 10
9.9435239681
 20
9.331706527
 30
0.0
 10
9.9446379555
 20
9.3316125553
 30
0.0
 10
9.9457566433
 20
9.3316662421
 30
0.0
 10
9.9462813701
 20
9.3317363458
 30
0.0
  0
SPLINE
  5
2F6
100
AcDbEntity
  8
0
100
AcDbSpline
 62
9
  6
CONTINUOUS
 70
0
 71
3
 72
22
 73
18
 74
0
 42
0.0000001
 43
0.0000001
 44
0.0000000001
 40
0.0
 40
0.0
 40
0.0
 40
0.0
 40
0.0788199536
 40
0.1571690611
 40
0.3105145344
 40
0.3846882399
 40
0.4566354403
 40
0.5259846958
 40
0.5924020161
 40
0.655601981
 40
0.7153564465
 40
0.7715079475
 40
0.8239872771
 40
0.8728292172
 40
0.9181978809
 40
0.9604255932
 40
1.0
 40
1.0
 40
1.0
 40
1.0
 10
9.9576369671
 20
9.3710912667
 30
0.0
 10
9.9576467364
 20
9.3699391238
 30
0.0
 10
9.9576196586
 20
9.367640997
 30
0.0
 10
9.9573853636
 20
9.3631072319
 30
0.0
 10
9.956885618
 20
9.3586576352
 30
0.0
 10
9.9561095541
 20
9.354348182
 30
0.0
 10
9.9554081922
 20
9.3512762508
 30
0.0
 10
9.9545862847
 20
9.3483518869
 30
0.0
 10
9.9536499495
 20
9.34559664
 30
0.0
 10
9.9526061437
 20
9.3430308507
 30
0.0
 10
9.9514624529
 20
9.3406733872
 30
0.0
 10
9.9502271077
 20
9.3385414963
 30
0.0
 10
9.948908818
 20
9.3366506871
 30
0.0
 10
9.9475166409
 20
9.33501481
 30
0.0
 10
9.9460594329
 20
9.3336458965
 30
0.0
 10
9.9445471047
 20
9.332555326
 30
0.0
 10
9.9434786818
 20
9.332005076
 30
0.0
 10
9.9429434829
 20
9.3317854867
 30
0.0
  0
LINE
  5
2F7
100
AcDbEntity
  8
0
100
AcDbLine
 62
9
  6
CONTINUOUS
 10
9.6948125967
 20
9.3316947172
 11
9.6948262367
 21
9.3698546504
  0
SPLINE
  5
2F8
100
AcDbEntity
  8
0
100
AcDbSpline
 62
9
  6
CONTINUOUS
 70
0
 71
3
 72
11
 73
7
 74
0
 42
0.0000001
 43
0.0000001
 44
0.0000000001
 40
0.0
 40
0.0
 40
0.0
 40
0.0
 40
0.2743495965
 40
0.5341923437
 40
0.7769608321
 40
1.0
 40
1.0
 40
1.0
 40
1.0
 10
9.9201275346
 20
9.3326920162
 30
0.0
 10
9.9222163012
 20
9.3327114205
 30
0.0
 10
9.9262841632
 20
9.3326937457
 30
0.0
 10
9.9321974256
 20
9.3325020849
 30
0.0
 10
9.9377136712
 20
9.3321831808
 30
0.0
 10
9.9412502663
 20
9.331916238
 30
0.0
 10
9.9429434098
 20
9.3317854572
 30
0.0
  0
SPLINE
  5
2F9
100
AcDbEntity
  8
0
100
AcDbSpline
 62
9
  6
CONTINUOUS
 70
0
 71
3
 72
15
 73
11
 74
0
 42
0.0000001
 43
0.0000001
 44
0.0000000001
 40
0.0
 40
0.0
 40
0.0
 40
0.0
 40
0.1306120658
 40
0.2594959616
 40
0.3865549283
 40
0.5118298072
 40
0.6354792584
 40
0.7577876044
 40
0.8791299189
 40
1.0
 40
1.0
 40
1.0
 40
1.0
 10
9.9337743319
 20
9.6499897007
 30
0.0
 10
9.9339586002
 20
9.6491621546
 30
0.0
 10
9.9344263282
 20
9.6475385901
 30
0.0
 10
9.9354228511
 20
9.6452286056
 30
0.0
 10
9.9366937972
 20
9.6430969131
 30
0.0
 10
9.9382175706
 20
9.6411808843
 30
0.0
 10
9.9399683299
 20
9.6395137451
 30
0.0
 10
9.9419162581
 20
9.6381247981
 30
0.0
 10
9.9440271831
 20
9.6370384242
 30
0.0
 10
9.9455213432
 20
9.6365282132
 30
0.0
 10
9.9462803814
 20
9.6363296625
 30
0.0
  0
SPLINE
  5
2FA
100
AcDbEntity
  8
0
100
AcDbSpline
 62
9
  6
CONTINUOUS
 70
0
 71
3
 72
13
 73
9
 74
0
 42
0.0000001
 43
0.0000001
 44
0.0000000001
 40
0.0
 40
0.0
 40
0.0
 40
0.0
 40
0.2673313342
 40
0.5243794246
 40
0.6481981181
 40
0.7685519904
 40
0.8856557574
 40
1.0
 40
1.0
 40
1.0
 40
1.0
 10
9.4602156985
 20
9.6501375604
 30
0.0
 10
9.4597073723
 20
9.6484006822
 30
0.0
 10
9.4583230489
 20
9.6450925535
 30
0.0
 10
9.4556846657
 20
9.6415239334
 30
0.0
 10
9.4531565373
 20
9.6392465824
 30
0.0
 10
9.4511205953
 20
9.6378755028
 30
0.0
 10
9.4489618158
 20
9.6368491703
 30
0.0
 10
9.4474512259
 20
9.6364039472
 30
0.0
 10
9.4466932006
 20
9.6362471678
 30
0.0
  0
SPLINE
  5
2FB
100
AcDbEntity
  8
0
100
AcDbSpline
 62
9
  6
CONTINUOUS
 70
0
 71
3
 72
15
 73
11
 74
0
 42
0.0000001
 43
0.0000001
 44
0.0000000001
 40
0.0
 40
0.0
 40
0.0
 40
0.0
 40
0.1306143561
 40
0.2595002355
 40
0.3865607323
 40
0.5118365138
 40
0.6354860594
 40
0.7577934806
 40
0.8791336295
 40
1.0
 40
1.0
 40
1.0
 40
1.0
 10
9.4558619145
 20
9.6499896854
 30
0.0
 10
9.4556776479
 20
9.6491621026
 30
0.0
 10
9.4552099148
 20
9.6475384673
 30
0.0
 10
9.4542133602
 20
9.6452283881
 30
0.0
 10
9.4529423649
 20
9.6430966205
 30
0.0
 10
9.4514185312
 20
9.6411805417
 30
0.0
 10
9.4496677081
 20
9.6395133825
 30
0.0
 10
9.4477197212
 20
9.6381244496
 30
0.0
 10
9.4456087532
 20
9.6370381275
 30
0.0
 10
9.4441145719
 20
9.6365279743
 30
0.0
 10
9.4433555292
 20
9.6363294605
 30
0.0
  0
SPLINE
  5
2FC
100
AcDbEntity
  8
0
100
AcDbSpline
 62
9
  6
CONTINUOUS
 70
0
 71
3
 72
15
 73
11
 74
0
 42
0.0000001
 43
0.0000001
 44
0.0000000001
 40
0.0
 40
0.0
 40
0.0
 40
0.0
 40
0.1306122034
 40
0.2594962269
 40
0.3865552977
 40
0.5118302475
 40
0.6354797164
 40
0.7577880073
 40
0.8791301727
 40
1.0
 40
1.0
 40
1.0
 40
1.0
 10
9.4558622891
 20
9.3180429566
 30
0.0
 10
9.4556780264
 20
9.3188704768
 30
0.0
 10
9.4552103169
 20
9.3204939913
 30
0.0
 10
9.4542138421
 20
9.32280391
 30
0.0
 10
9.4529429619
 20
9.3249355502
 30
0.0
 10
9.4514192696
 20
9.3268515434
 30
0.0
 10
9.4496686033
 20
9.3285186665
 30
0.0
 10
9.4477207762
 20
9.3299076191
 30
0.0
 10
9.4456099563
 20
9.3309940219
 30
0.0
 10
9.4441158654
 20
9.3315042685
 30
0.0
 10
9.4433568607
 20
9.3317028409
 30
0.0
  0
SPLINE
  5
2FD
100
AcDbEntity
  8
0
100
AcDbSpline
 62
9
  6
CONTINUOUS
 70
0
 71
3
 72
13
 73
9
 74
0
 42
0.0000001
 43
0.0000001
 44
0.0000000001
 40
0.0
 40
0.0
 40
0.0
 40
0.0
 40
0.267331935
 40
0.5243802465
 40
0.6481988852
 40
0.7685525939
 40
0.885656099
 40
1.0
 40
1.0
 40
1.0
 40
1.0
 10
9.9294210958
 20
9.3178950984
 30
0.0
 10
9.9299294176
 20
9.319631974
 30
0.0
 10
9.9313137279
 20
9.3229400972
 30
0.0
 10
9.9339520891
 20
9.3265087163
 30
0.0
 10
9.9364801974
 20
9.3287860678
 30
0.0
 10
9.9385161224
 20
9.3301571479
 30
0.0
 10
9.9406748842
 20
9.3311834818
 30
0.0
 10
9.9421854624
 20
9.3316287065
 30
0.0
 10
9.9429434819
 20
9.3317854868
 30
0.0
  0
SPLINE
  5
2FE
100
AcDbEntity
  8
0
100
AcDbSpline
 62
9
  6
CONTINUOUS
 70
0
 71
3
 72
15
 73
11
 74
0
 42
0.0000001
 43
0.0000001
 44
0.0000000001
 40
0.0
 40
0.0
 40
0.0
 40
0.0
 40
0.130614514
 40
0.2595005266
 40
0.3865611255
 40
0.5118369676
 40
0.6354865206
 40
0.7577938812
 40
0.8791338853
 40
1.0
 40
1.0
 40
1.0
 40
1.0
 10
9.9337748147
 20
9.3180429661
 30
0.0
 10
9.9339590778
 20
9.318870549
 30
0.0
 10
9.9344268042
 20
9.3204941847
 30
0.0
 10
9.9354233504
 20
9.3228042647
 30
0.0
 10
9.9366943383
 20
9.3249360333
 30
0.0
 10
9.9382181651
 20
9.3268521127
 30
0.0
 10
9.9399689814
 20
9.328519272
 30
0.0
 10
9.9419169613
 20
9.3299082044
 30
0.0
 10
9.9440279212
 20
9.3309945251
 30
0.0
 10
9.9455220968
 20
9.331504677
 30
0.0
 10
9.9462811365
 20
9.3317031899
 30
0.0
  0
SPLINE
  5
2FF
100
AcDbEntity
  8
0
100
AcDbSpline
 62
9
  6
CONTINUOUS
 70
0
 71
3
 72
13
 73
9
 74
0
 42
0.0000001
 43
0.0000001
 44
0.0000000001
 40
0.0
 40
0.0
 40
0.0
 40
0.0
 40
0.2673289634
 40
0.5243756081
 40
0.6481941212
 40
0.7685483897
 40
0.8856533794
 40
1.0
 40
1.0
 40
1.0
 40
1.0
 10
9.9294203427
 20
9.6501376374
 30
0.0
 10
9.9299287073
 20
9.6484007477
 30
0.0
 10
9.9313130988
 20
9.6450925962
 30
0.0
 10
9.9339515686
 20
9.6415239579
 30
0.0
 10
9.9364797782
 20
9.6392466027
 30
0.0
 10
9.9385157941
 20
9.6378755231
 30
0.0
 10
9.9406746626
 20
9.6368491975
 30
0.0
 10
9.9421853165
 20
9.6364039884
 30
0.0
 10
9.9429433763
 20
9.6362472163
 30
0.0
  0
SPLINE
  5
300
100
AcDbEntity
  8
0
100
AcDbSpline
 62
9
  6
CONTINUOUS
 70
0
 71
3
 72
15
 73
11
 74
0
 42
0.0000001
 43
0.0000001
 44
0.0000000001
 40
0.0
 40
0.0
 40
0.0
 40
0.0
 40
0.1571895709
 40
0.3079622151
 40
0.4505123046
 40
0.5833207005
 40
0.7051567823
 40
0.8152221115
 40
0.9133099547
 40
1.0
 40
1.0
 40
1.0
 40
1.0
 10
9.9147034954
 20
9.6491818417
 30
0.0
 10
9.9147867936
 20
9.6483899287
 30
0.0
 10
9.9149920438
 20
9.646842441
 30
0.0
 10
9.9154248068
 20
9.6446002621
 30
0.0
 10
9.9159706733
 20
9.6425099906
 30
0.0
 10
9.9166210289
 20
9.6406036981
 30
0.0
 10
9.9173660212
 20
9.6389101674
 30
0.0
 10
9.9181949754
 20
9.637454181
 30
0.0
 10
9.919096147
 20
9.6362574223
 30
0.0
 10
9.9197781786
 20
9.6356066969
 30
0.0
 10
9.9201275875
 20
9.6353406788
 30
0.0
  0
SPLINE
  5
301
100
AcDbEntity
  8
0
100
AcDbSpline
 62
9
  6
CONTINUOUS
 70
0
 71
3
 72
15
 73
11
 74
0
 42
0.0000001
 43
0.0000001
 44
0.0000000001
 40
0.0
 40
0.0
 40
0.0
 40
0.0
 40
0.1571906761
 40
0.3079641178
 40
0.4505145906
 40
0.5833229149
 40
0.7051584955
 40
0.8152230301
 40
0.9133101175
 40
1.0
 40
1.0
 40
1.0
 40
1.0
 10
9.4749328822
 20
9.6491817978
 30
0.0
 10
9.4748495831
 20
9.6483898866
 30
0.0
 10
9.474644337
 20
9.6468424034
 30
0.0
 10
9.4742116035
 20
9.6446002289
 30
0.0
 10
9.4736657833
 20
9.6425099604
 30
0.0
 10
9.4730154848
 20
9.6406036692
 30
0.0
 10
9.4722705541
 20
9.6389101378
 30
0.0
 10
9.4714416584
 20
9.6374541478
 30
0.0
 10
9.4705405325
 20
9.6362573821
 30
0.0
 10
9.4698585202
 20
9.6356066547
 30
0.0
 10
9.469509118
 20
9.6353406358
 30
0.0
  0
SPLINE
  5
302
100
AcDbEntity
  8
0
100
AcDbSpline
 62
9
  6
CONTINUOUS
 70
0
 71
3
 72
15
 73
11
 74
0
 42
0.0000001
 43
0.0000001
 44
0.0000000001
 40
0.0
 40
0.0
 40
0.0
 40
0.0
 40
0.1571895632
 40
0.3079622016
 40
0.4505122873
 40
0.5833206814
 40
0.705156764
 40
0.8152220965
 40
0.9133099457
 40
1.0
 40
1.0
 40
1.0
 40
1.0
 10
9.4749331796
 20
9.3188508109
 30
0.0
 10
9.4748498813
 20
9.3196427239
 30
0.0
 10
9.474644631
 20
9.3211902116
 30
0.0
 10
9.4742118676
 20
9.3234323905
 30
0.0
 10
9.473666001
 20
9.3255226619
 30
0.0
 10
9.4730156451
 20
9.3274289545
 30
0.0
 10
9.4722706525
 20
9.3291224851
 30
0.0
 10
9.4714416982
 20
9.3305784715
 30
0.0
 10
9.4705405263
 20
9.3317752303
 30
0.0
 10
9.4698584946
 20
9.3324259557
 30
0.0
 10
9.4695090856
 20
9.3326919738
 30
0.0
  0
LINE
  5
303
100
AcDbEntity
  8
0
100
AcDbLine
 62
9
  6
CONTINUOUS
 10
9.6948032477
 20
9.5981779975
 11
9.6948256673
 21
9.6363379345
  0
SPLINE
  5
304
100
AcDbEntity
  8
0
100
AcDbSpline
 62
9
  6
CONTINUOUS
 70
0
 71
3
 72
11
 73
7
 74
0
 42
0.0000001
 43
0.0000001
 44
0.0000000001
 40
0.0
 40
0.0
 40
0.0
 40
0.0
 40
0.2743511754
 40
0.5341937735
 40
0.7769602789
 40
1.0
 40
1.0
 40
1.0
 40
1.0
 10
9.4695091192
 20
9.6353406358
 30
0.0
 10
9.4674203429
 20
9.6353212424
 30
0.0
 10
9.4633524749
 20
9.6353388732
 30
0.0
 10
9.4574392231
 20
9.6355305462
 30
0.0
 10
9.4519229989
 20
9.6358494912
 30
0.0
 10
9.4483864171
 20
9.6361164108
 30
0.0
 10
9.4466932718
 20
9.636247197
 30
0.0
  0
SPLINE
  5
305
100
AcDbEntity
  8
0
100
AcDbSpline
 62
9
  6
CONTINUOUS
 70
0
 71
3
 72
9
 73
5
 74
0
 42
0.0000001
 43
0.0000001
 44
0.0000000001
 40
0.0
 40
0.0
 40
0.0
 40
0.0
 40
0.5253005236
 40
1.0
 40
1.0
 40
1.0
 40
1.0
 10
9.4466931996
 20
9.6362471679
 30
0.0
 10
9.446112717
 20
9.6363261301
 30
0.0
 10
9.4449987233
 20
9.6364201007
 30
0.0
 10
9.4438800301
 20
9.6363664091
 30
0.0
 10
9.4433552955
 20
9.6362963041
 30
0.0
  0
SPLINE
  5
306
100
AcDbEntity
  8
0
100
AcDbSpline
 62
9
  6
CONTINUOUS
 70
0
 71
3
 72
22
 73
18
 74
0
 42
0.0000001
 43
0.0000001
 44
0.0000000001
 40
0.0
 40
0.0
 40
0.0
 40
0.0
 40
0.0788199611
 40
0.157169076
 40
0.3105145614
 40
0.3846882716
 40
0.4566354756
 40
0.5259847332
 40
0.5924020542
 40
0.6556020181
 40
0.7153564811
 40
0.771507978
 40
0.8239873023
 40
0.872829236
 40
0.9181978928
 40
0.9604255983
 40
1.0
 40
1.0
 40
1.0
 40
1.0
 10
9.4319997096
 20
9.5969413855
 30
0.0
 10
9.4319899403
 20
9.5980935287
 30
0.0
 10
9.4320170185
 20
9.600391656
 30
0.0
 10
9.4322513138
 20
9.6049254221
 30
0.0
 10
9.4327510594
 20
9.6093750198
 30
0.0
 10
9.4335271238
 20
9.6136844738
 30
0.0
 10
9.4342284859
 20
9.6167564055
 30
0.0
 10
9.4350503937
 20
9.6196807698
 30
0.0
 10
9.4359867293
 20
9.6224360171
 30
0.0
 10
9.4370305355
 20
9.6250018066
 30
0.0
 10
9.4381742267
 20
9.6273592701
 30
0.0
 10
9.4394095725
 20
9.629491161
 30
0.0
 10
9.4407278626
 20
9.63138197
 30
0.0
 10
9.4421200401
 20
9.6330178467
 30
0.0
 10
9.4435772486
 20
9.6343867597
 30
0.0
 10
9.4450895774
 20
9.6354773295
 30
0.0
 10
9.4461580005
 20
9.6360275789
 30
0.0
 10
9.4466931996
 20
9.6362471679
 30
0.0
  0
SPLINE
  5
307
100
AcDbEntity
  8
0
100
AcDbSpline
 62
9
  6
CONTINUOUS
 70
0
 71
3
 72
11
 73
7
 74
0
 42
0.0000001
 43
0.0000001
 44
0.0000000001
 40
0.0
 40
0.0
 40
0.0
 40
0.0
 40
0.2230321835
 40
0.4658060499
 40
0.7256424243
 40
1.0
 40
1.0
 40
1.0
 40
1.0
 10
9.9429433869
 20
9.636247217
 30
0.0
 10
9.9412502921
 20
9.6361165357
 30
0.0
 10
9.9377137348
 20
9.635849325
 30
0.0
 10
9.9321975456
 20
9.6355306868
 30
0.0
 10
9.9262842497
 20
9.6353386888
 30
0.0
 10
9.9222163811
 20
9.6353213683
 30
0.0
 10
9.9201275566
 20
9.6353406791
 30
0.0
  0
SPLINE
  5
308
100
AcDbEntity
  8
0
100
AcDbSpline
 62
9
  6
CONTINUOUS
 70
0
 71
3
 72
22
 73
18
 74
0
 42
0.0000001
 43
0.0000001
 44
0.0000000001
 40
0.0
 40
0.0
 40
0.0
 40
0.0
 40
0.078819924
 40
0.1571689437
 40
0.3105145073
 40
0.3846881951
 40
0.4566353971
 40
0.5259846354
 40
0.5924019293
 40
0.6556018642
 40
0.7153562951
 40
0.771507763
 40
0.8239870662
 40
0.8728289974
 40
0.9181976826
 40
0.960425452
 40
1.0
 40
1.0
 40
1.0
 40
1.0
 10
9.9576369671
 20
9.5969413855
 30
0.0
 10
9.9576467365
 20
9.5980935328
 30
0.0
 10
9.9576197772
 20
9.6003916677
 30
0.0
 10
9.9573855739
 20
9.6049254596
 30
0.0
 10
9.9568857448
 20
9.6093750664
 30
0.0
 10
9.9561096881
 20
9.6136845398
 30
0.0
 10
9.9554083075
 20
9.6167564801
 30
0.0
 10
9.9545863877
 20
9.6196808529
 30
0.0
 10
9.9536500366
 20
9.6224361063
 30
0.0
 10
9.9526062132
 20
9.6250018997
 30
0.0
 10
9.9514625036
 20
9.6273593646
 30
0.0
 10
9.9502271383
 20
9.6294912544
 30
0.0
 10
9.9489088274
 20
9.6313820595
 30
0.0
 10
9.9475166281
 20
9.6330179293
 30
0.0
 10
9.9460593983
 20
9.6343868335
 30
0.0
 10
9.9445470456
 20
9.6354773896
 30
0.0
 10
9.9434786073
 20
9.6360276264
 30
0.0
 10
9.9429434016
 20
9.6362472111
 30
0.0
  0
ENDSEC
  0
SECTION
  2
OBJECTS
  0
DICTIONARY
  5
C
100
AcDbDictionary
280
0
281
1
  3
ACAD_GROUP
350
D
  3
ACAD_MLINESTYLE
350
17
  3
ACAD_LAYOUT
350
1A
  3
ACAD_PLOTSETTINGS
350
19
  3
ACAD_PLOTSTYLENAME
350
E
  0
DICTIONARY
  5
D
102
{ACAD_REACTORS
330
C
102
}
100
AcDbDictionary
280
0
281
1
  0
ACDBDICTIONARYWDFLT
  5
E
102
{ACAD_REACTORS
330
C
102
}
100
AcDbDictionary
281
1
  3
Normal
350
F
100
AcDbDictionaryWithDefault
340
F
  0
DICTIONARY
  5
17
102
{ACAD_REACTORS
330
C
102
}
100
AcDbDictionary
280
0
281
1
  3
Standard
350
18
  0
DICTIONARY
  5
19
102
{ACAD_REACTORS
330
C
102
}
100
AcDbDictionary
281
1
  0
DICTIONARY
  5
1A
102
{ACAD_REACTORS
330
C
102
}
100
AcDbDictionary
281
1
  3
Model
350
309
  3
Layout1
350
30A
  0
ACDBPLACEHOLDER
  5
F
102
{ACAD_REACTORS
330
E
102
}
  0
MLINESTYLE
  5
18
102
{ACAD_REACTORS
330
17
102
}
100
AcDbMlineStyle
  2
STANDARD
 70
0
  3

 62
256
 51
90.0
 52
90.0
 71
2
 49
0.5
 62
256
  6
BYLAYER
 49
-0.5
 62
256
  6
BYLAYER
  0
LAYOUT
  5
309
102
{ACAD_REACTORS
330
1A
102
}
100
AcDbPlotSettings
  1

  2
none_device
  4
ANSI_C_(22.00_x_17.00_Inches)
  6

 40
0.0
 41
0.0
 42
0.0
 43
0.0
 44
558.8
 45
431.8
 46
0.0
 47
0.0
 48
0.0
 49
0.0
140
0.0
141
0.0
142
1.0
143
1.0
 70
1024
 72
0
 73
0
 74
0
  7

 75
0
147
1.0
148
0.0
149
0.0
100
AcDbLayout
  1
Model
 70
0
 71
0
 10
0.0
 20
0.0
 11
22.0
 21
17.0
 12
0.0
 22
0.0
 32
0.0
 14
0.0
 24
0.0
 34
0.0
 15
0.0
 25
0.0
 35
0.0
146
0.0
 13
0.0
 23
0.0
 33
0.0
 16
1.0
 26
0.0
 36
0.0
 17
0.0
 27
1.0
 37
0.0
 76
0
330
205
345
0
346
0
  0
LAYOUT
  5
30A
102
{ACAD_REACTORS
330
1A
102
}
100
AcDbPlotSettings
  1

  2
none_device
  4
ANSI_C_(22.00_x_17.00_Inches)
  6

 40
0.0
 41
0.0
 42
0.0
 43
0.0
 44
558.8
 45
431.8
 46
0.0
 47
0.0
 48
0.0
 49
0.0
140
0.0
141
0.0
142
1.0
143
1.0
 70
0
 72
0
 73
0
 74
0
  7

 75
0
147
1.0
148
0.0
149
0.0
100
AcDbLayout
  1
Layout1
 70
0
 71
1
 10
0.0
 20
0.0
 11
22.0
 21
17.0
 12
0.0
 22
0.0
 32
0.0
 14
0.0
 24
0.0
 34
0.0
 15
0.0
 25
0.0
 35
0.0
146
0.0
 13
0.0
 23
0.0
 33
0.0
 16
1.0
 26
0.0
 36
0.0
 17
0.0
 27
1.0
 37
0.0
 76
0
330
206
345
0
346
0
  0
ENDSEC
  0
EOF
