999
DXF file: E:\BT Custom\CADOUTPUT\_RIGHT.dxf
999
Pro/ENGINEER 2018400 by Parametric Technology Corporation
  0
SECTION
  2
HEADER
  9
$ACADVER
  1
AC1018
  9
$DWGCODEPAGE
  3
ANSI_1252
  9
$EXTMAX
 10
22.0
 20
17.0
 30
0.0
  9
$EXTMIN
 10
0.0
 20
0.0
 30
0.0
  9
$LIMMIN
 10
0.0
 20
0.0
  9
$LIMMAX
 10
22.0
 20
17.0
  9
$VIEWCTR
 10
11.0
 20
8.5
  9
$VIEWSIZE
 40
17.0
  9
$CLAYER
  8
0
  9
$LTSCALE
 40
1.21
  9
$CELTYPE
  6
BYLAYER
  9
$DIMSCALE
 40
1.0
  9
$DIMASZ
 40
0.1
  9
$DIMEXO
 40
0.0625
  9
$DIMDLI
 40
0.836
  9
$DIMEXE
 40
0.125
  9
$DIMCEN
 40
0.198
  9
$DIMLFAC
 40
1.0
  9
$DIMBLK
  1
_FILLED
  9
$DIMALT
 70
1
  9
$DIMALTD
 70
2
  9
$DIMALTTD
 70
2
  9
$DIMALTF
 40
25.4
  9
$DIMTXT
 40
0.08
  9
$DIMTOL
 70
1
  9
$DIMLIM
 70
0
  9
$DIMTFAC
 40
1.0
  9
$DIMTP
 40
0.001
  9
$DIMTM
 40
0.001
  9
$DIMGAP
 40
0.09
  9
$DIMDSEP
 70
46
  9
$AUNITS
 70
0
  9
$PDMODE
 70
3
  9
$PDSIZE
 40
0.06
  9
$HANDSEED
  5
347
  9
$TILEMODE
 70
1
  9
$MEASUREMENT
 70
0
  9
$INSUNITS
 70
1
  0
ENDSEC
  0
SECTION
  2
CLASSES
  0
CLASS
  1
ACDBDICTIONARYWDFLT
  2
AcDbDictionaryWithDefault
  3
AutoCAD 2000
 90
0
 91
1
280
0
281
0
  0
CLASS
  1
ACDBPLACEHOLDER
  2
AcDbPlaceHolder
  3
AutoCAD 2000
 90
0
 91
1
280
0
281
0
  0
CLASS
  1
LAYOUT
  2
AcDbLayout
  3
AutoCAD 2000
 90
0
 91
0
280
0
281
0
  0
ENDSEC
  0
SECTION
  2
TABLES
  0
TABLE
  2
VPORT
  5
8
100
AcDbSymbolTable
 70
2
  0
VPORT
  5
1F4
100
AcDbSymbolTableRecord
100
AcDbViewportTableRecord
  2
*ACTIVE
 70
0
 10
0.0
 20
0.0
 11
1.0
 21
1.0
 12
11.0
 22
8.5
 13
0.0
 23
0.0
 14
1.0
 24
1.0
 15
0.0
 25
0.0
 16
0.0
 26
0.0
 36
1.0
 17
0.0
 27
0.0
 37
0.0
 40
17.0
 41
1.2941176471
 42
50.0
 43
0.0
 44
0.0
 50
0.0
 51
0.0
 71
0
 72
100
 73
1
 74
1
 75
0
 76
0
 77
0
 78
0
  0
ENDTAB
  0
TABLE
  2
LTYPE
  5
5
100
AcDbSymbolTable
 70
6
  0
LTYPE
  5
14
100
AcDbSymbolTableRecord
100
AcDbLinetypeTableRecord
  2
BYBLOCK
 70
0
  3

 72
65
 73
0
 40
0.0
  0
LTYPE
  5
15
100
AcDbSymbolTableRecord
100
AcDbLinetypeTableRecord
  2
BYLAYER
 70
0
  3

 72
65
 73
0
 40
0.0
  0
LTYPE
  5
16
100
AcDbSymbolTableRecord
100
AcDbLinetypeTableRecord
  2
CONTINUOUS
 70
64
  3
Solid line
 72
65
 73
0
 40
0.0
  0
LTYPE
  5
1F5
100
AcDbSymbolTableRecord
100
AcDbLinetypeTableRecord
  2
CENTER
 70
64
  3
____ _ ____ _ ____ _ ____ _ ____ _ ____ _ ____
 72
65
 73
4
 40
0.6
 49
0.375
 74
0
 49
-0.075
 74
0
 49
0.075
 74
0
 49
-0.075
 74
0
  0
LTYPE
  5
1F6
100
AcDbSymbolTableRecord
100
AcDbLinetypeTableRecord
  2
HIDDEN
 70
64
  3
- - - - - - - - - - - - - - - - - - - -
 72
65
 73
2
 40
0.2
 49
0.1
 74
0
 49
-0.1
 74
0
  0
LTYPE
  5
1F7
100
AcDbSymbolTableRecord
100
AcDbLinetypeTableRecord
  2
PHANTOM
 70
64
  3
_____ _ _ _____ _ _ _____ _ _ _____
 72
65
 73
6
 40
0.8
 49
0.45
 74
0
 49
-0.05
 74
0
 49
0.1
 74
0
 49
-0.05
 74
0
 49
0.1
 74
0
 49
-0.05
 74
0
  0
LTYPE
  5
1F8
100
AcDbSymbolTableRecord
100
AcDbLinetypeTableRecord
  2
DOT
 70
64
  3
. . . . . . . . . . . . . . . . . . . .
 72
65
 73
2
 40
0.2
 49
0.1
 74
0
 49
-0.1
 74
0
  0
LTYPE
  5
1F9
100
AcDbSymbolTableRecord
100
AcDbLinetypeTableRecord
  2
DASHED
 70
64
  3
- - - - - - - - - - - - - - - - - - - -
 72
65
 73
2
 40
0.2
 49
0.1
 74
0
 49
-0.1
 74
0
  0
ENDTAB
  0
TABLE
  2
LAYER
  5
2
100
AcDbSymbolTable
 70
36
  0
LAYER
  5
10
100
AcDbSymbolTableRecord
100
AcDbLayerTableRecord
  2
0
 70
0
 62
7
  6
CONTINUOUS
370
-3
390
F
  0
LAYER
  5
1FA
100
AcDbSymbolTableRecord
100
AcDbLayerTableRecord
  2
DEFAULT_1
 70
0
 62
7
  6
CENTER
370
-3
390
F
  0
LAYER
  5
1FB
100
AcDbSymbolTableRecord
100
AcDbLayerTableRecord
  2
DEFAULT_2
 70
0
 62
8
  6
HIDDEN
370
-3
390
F
  0
LAYER
  5
1FC
100
AcDbSymbolTableRecord
100
AcDbLayerTableRecord
  2
DEFAULT_3
 70
0
 62
7
  6
PHANTOM
370
-3
390
F
  0
LAYER
  5
1FD
100
AcDbSymbolTableRecord
100
AcDbLayerTableRecord
  2
ALL_FEATURES
 70
0
 62
7
  6
CONTINUOUS
370
-3
390
F
  0
LAYER
  5
1FE
100
AcDbSymbolTableRecord
100
AcDbLayerTableRecord
  2
AXES_FEATURES
 70
0
 62
7
  6
CONTINUOUS
370
-3
390
F
  0
LAYER
  5
1FF
100
AcDbSymbolTableRecord
100
AcDbLayerTableRecord
  2
DEFAULT_COORDINATE_SYSTEM
 70
0
 62
7
  6
CONTINUOUS
370
-3
390
F
  0
LAYER
  5
200
100
AcDbSymbolTableRecord
100
AcDbLayerTableRecord
  2
DEFAULT_DATUM_AXES
 70
0
 62
7
  6
CONTINUOUS
370
-3
390
F
  0
LAYER
  5
201
100
AcDbSymbolTableRecord
100
AcDbLayerTableRecord
  2
DEFAULT_DATUM_PLANES
 70
0
 62
7
  6
CONTINUOUS
370
-3
390
F
  0
LAYER
  5
202
100
AcDbSymbolTableRecord
100
AcDbLayerTableRecord
  2
DIMENSIONS
 70
0
 62
7
  6
CONTINUOUS
370
-3
390
F
  0
ENDTAB
  0
TABLE
  2
STYLE
  5
3
100
AcDbSymbolTable
 70
1
  0
STYLE
  5
11
100
AcDbSymbolTableRecord
100
AcDbTextStyleTableRecord
  2
STANDARD
 70
0
 40
0.0
 41
0.8
 50
0.0
 71
0
 42
0.2
  3
txt
  4

  0
STYLE
  5
203
100
AcDbSymbolTableRecord
100
AcDbTextStyleTableRecord
  2
TEXTSTYLE_1
 70
0
 40
0.0
 41
0.8
 50
0.0
 71
0
 42
0.2
  3
gdt
  4

  0
ENDTAB
  0
TABLE
  2
VIEW
  5
6
100
AcDbSymbolTable
 70
0
  0
ENDTAB
  0
TABLE
  2
UCS
  5
7
100
AcDbSymbolTable
 70
0
  0
ENDTAB
  0
TABLE
  2
APPID
  5
9
100
AcDbSymbolTable
 70
1
  0
APPID
  5
204
100
AcDbSymbolTableRecord
100
AcDbRegAppTableRecord
  2
ACAD
 70
0
  0
ENDTAB
  0
TABLE
  2
BLOCK_RECORD
  5
1
100
AcDbSymbolTable
 70
0
  0
BLOCK_RECORD
  5
205
100
AcDbSymbolTableRecord
100
AcDbBlockTableRecord
  2
*Model_Space
  0
BLOCK_RECORD
  5
206
100
AcDbSymbolTableRecord
100
AcDbBlockTableRecord
  2
*Paper_Space
  0
BLOCK_RECORD
  5
207
100
AcDbSymbolTableRecord
100
AcDbBlockTableRecord
  2
_FILLED
  0
ENDTAB
  0
TABLE
  2
DIMSTYLE
  5
A
100
AcDbSymbolTable
 70
1
100
AcDbDimStyleTable
 71
0
  0
DIMSTYLE
105
208
100
AcDbSymbolTableRecord
100
AcDbDimStyleTableRecord
  2
STANDARD
 70
0
  3

  4

 40
1.0
 41
0.1
 42
0.0625
 43
0.38
 44
0.125
 45
0.0
 46
0.0
 47
0.001
 48
0.001
140
0.08
141
0.09
142
0.0
143
25.4
144
1.0
145
0.0
146
1.0
147
0.09
 71
1.0
 72
0.0
 73
1
 74
1
 75
0
 76
0
 77
0
 78
4
 79
1
170
1
171
2
172
0
173
0
174
0
175
0
176
0
177
0
178
0
270
2
179
3
271
3
272
3
273
2
274
2
275
0
280
0
281
0
282
0
283
1
284
4
285
0
286
0
287
3
288
0
340
11
278
46
341
207
342
207
343
207
344
207
  0
ENDTAB
  0
ENDSEC
  0
SECTION
  2
BLOCKS
  0
BLOCK
  5
20
100
AcDbEntity
  8
0
100
AcDbBlockBegin
  2
*Model_Space
 70
0
 10
0.0
 20
0.0
 30
0.0
  3
*Model_Space
  1

  0
ENDBLK
  5
21
100
AcDbEntity
  8
0
100
AcDbBlockEnd
  0
BLOCK
  5
1C
100
AcDbEntity
  8
0
100
AcDbBlockBegin
  2
*Paper_Space
 70
0
 10
0.0
 20
0.0
 30
0.0
  3
*Paper_Space
  1

  0
ENDBLK
  5
1D
100
AcDbEntity
  8
0
100
AcDbBlockEnd
  0
BLOCK
  5
209
100
AcDbEntity
  8
0
100
AcDbBlockBegin
  2
_FILLED
 70
64
 10
0.0
 20
0.0
  3
_FILLED
  1

  0
SOLID
  5
20A
100
AcDbEntity
  8
0
  6
BYBLOCK
 62
0
100
AcDbTrace
 10
0.0
 20
0.0
 11
-1.0
 21
0.2
 12
-1.0
 22
-0.2
 13
-1.0
 23
-0.2
  0
ENDBLK
  5
20B
100
AcDbEntity
  8
0
  6
BYBLOCK
 62
0
100
AcDbBlockEnd
  0
ENDSEC
  0
SECTION
  2
ENTITIES
  0
LINE
  5
20C
100
AcDbEntity
  8
0
100
AcDbLine
 62
7
  6
CONTINUOUS
 10
13.2511220168
 20
4.372885863
 11
11.4738449615
 21
4.372885863
  0
LINE
  5
20D
100
AcDbEntity
  8
0
100
AcDbLine
 62
9
  6
CONTINUOUS
 10
13.2733024483
 20
4.3771361683
 11
11.45166453
 21
4.3771361683
  0
LINE
  5
20E
100
AcDbEntity
  8
0
100
AcDbLine
 62
9
  6
CONTINUOUS
 10
11.4323523014
 20
4.4052526094
 11
11.6402911062
 21
4.4052526094
  0
LINE
  5
20F
100
AcDbEntity
  8
0
100
AcDbLine
 62
9
  6
CONTINUOUS
 10
12.1545446844
 20
4.4052526094
 11
12.5704222939
 21
4.4052526094
  0
LINE
  5
210
100
AcDbEntity
  8
0
100
AcDbLine
 62
9
  6
CONTINUOUS
 10
13.0846758721
 20
4.4052526094
 11
13.2926146769
 21
4.4052526094
  0
LINE
  5
211
100
AcDbEntity
  8
0
100
AcDbLine
 62
9
  6
CONTINUOUS
 10
11.4212720354
 20
4.4234174415
 11
11.6316879287
 21
4.4234174415
  0
LINE
  5
212
100
AcDbEntity
  8
0
100
AcDbLine
 62
9
  6
CONTINUOUS
 10
12.1520675959
 20
4.4234174415
 11
12.5728993824
 21
4.4234174415
  0
LINE
  5
213
100
AcDbEntity
  8
0
100
AcDbLine
 62
9
  6
CONTINUOUS
 10
13.0932790496
 20
4.4234174415
 11
13.3036949429
 21
4.4234174415
  0
LINE
  5
214
100
AcDbEntity
  8
0
100
AcDbLine
 62
9
  6
CONTINUOUS
 10
13.3036949429
 20
4.6123542844
 11
13.0932790496
 21
4.6123542844
  0
LINE
  5
215
100
AcDbEntity
  8
0
100
AcDbLine
 62
9
  6
CONTINUOUS
 10
12.5728993824
 20
4.6123542844
 11
12.1520675959
 21
4.6123542844
  0
LINE
  5
216
100
AcDbEntity
  8
0
100
AcDbLine
 62
9
  6
CONTINUOUS
 10
11.6316879287
 20
4.6123542844
 11
11.4212720354
 21
4.6123542844
  0
LINE
  5
217
100
AcDbEntity
  8
0
100
AcDbLine
 62
9
  6
CONTINUOUS
 10
13.2926146769
 20
4.6305191166
 11
13.0846758721
 21
4.6305191166
  0
LINE
  5
218
100
AcDbEntity
  8
0
100
AcDbLine
 62
9
  6
CONTINUOUS
 10
12.5704222939
 20
4.6305191166
 11
12.1545446844
 21
4.6305191166
  0
LINE
  5
219
100
AcDbEntity
  8
0
100
AcDbLine
 62
9
  6
CONTINUOUS
 10
11.6402911062
 20
4.6305191166
 11
11.4323523014
 21
4.6305191166
  0
LINE
  5
21A
100
AcDbEntity
  8
0
100
AcDbLine
 62
9
  6
CONTINUOUS
 10
11.45166453
 20
4.6586355576
 11
13.2733024483
 21
4.6586355576
  0
LINE
  5
21B
100
AcDbEntity
  8
0
100
AcDbLine
 62
7
  6
CONTINUOUS
 10
13.2511220168
 20
4.662885863
 11
11.4738449615
 21
4.662885863
  0
LINE
  5
21C
100
AcDbEntity
  8
0
100
AcDbLine
 62
7
  6
CONTINUOUS
 10
11.4874834891
 20
4.797885863
 11
13.2374834891
 21
4.797885863
  0
LINE
  5
21D
100
AcDbEntity
  8
0
100
AcDbLine
 62
7
  6
CONTINUOUS
 10
11.429764113
 20
4.3860734299
 11
11.45166453
 21
4.3771361683
  0
LINE
  5
21E
100
AcDbEntity
  8
0
100
AcDbLine
 62
7
  6
CONTINUOUS
 10
13.2733024483
 20
4.6586355576
 11
13.2952028653
 21
4.6496982961
  0
LINE
  5
21F
100
AcDbEntity
  8
0
100
AcDbLine
 62
7
  6
CONTINUOUS
 10
8.1124834891
 20
11.397885863
 11
8.1124834891
 21
10.897885863
  0
LINE
  5
220
100
AcDbEntity
  8
0
100
AcDbLine
 62
7
  6
CONTINUOUS
 10
8.6124834891
 20
11.397885863
 11
8.6124834891
 21
10.897885863
  0
LINE
  5
221
100
AcDbEntity
  8
0
100
AcDbLine
 62
7
  6
CONTINUOUS
 10
12.2074834891
 20
5.6171018371
 11
11.9274834891
 21
5.7787599124
  0
LINE
  5
222
100
AcDbEntity
  8
0
100
AcDbLine
 62
7
  6
CONTINUOUS
 10
13.1874833534
 20
7.147885863
 11
12.5964834891
 21
7.147885863
  0
LINE
  5
223
100
AcDbEntity
  8
0
100
AcDbLine
 62
7
  6
CONTINUOUS
 10
12.1284834891
 20
7.147885863
 11
11.5374836248
 21
7.147885863
  0
LINE
  5
224
100
AcDbEntity
  8
0
100
AcDbLine
 62
9
  6
CONTINUOUS
 10
11.5077383862
 20
7.1798225863
 11
11.6949103236
 21
7.1798225863
  0
LINE
  5
225
100
AcDbEntity
  8
0
100
AcDbLine
 62
9
  6
CONTINUOUS
 10
13.0300566546
 20
7.1798225863
 11
13.2172285921
 21
7.1798225863
  0
LINE
  5
226
100
AcDbEntity
  8
0
100
AcDbLine
 62
9
  6
CONTINUOUS
 10
11.4973894566
 20
7.1976222579
 11
11.6868276009
 21
7.1976222579
  0
LINE
  5
227
100
AcDbEntity
  8
0
100
AcDbLine
 62
9
  6
CONTINUOUS
 10
13.0381393774
 20
7.1976222579
 11
13.2275775217
 21
7.1976222579
  0
LINE
  5
228
100
AcDbEntity
  8
0
100
AcDbLine
 62
9
  6
CONTINUOUS
 10
13.2275775217
 20
7.3981494681
 11
13.0381393774
 21
7.3981494681
  0
LINE
  5
229
100
AcDbEntity
  8
0
100
AcDbLine
 62
9
  6
CONTINUOUS
 10
11.6868276009
 20
7.3981494681
 11
11.4973894566
 21
7.3981494681
  0
LINE
  5
22A
100
AcDbEntity
  8
0
100
AcDbLine
 62
9
  6
CONTINUOUS
 10
13.2172285921
 20
7.4159491396
 11
13.0300566546
 21
7.4159491396
  0
LINE
  5
22B
100
AcDbEntity
  8
0
100
AcDbLine
 62
9
  6
CONTINUOUS
 10
11.6949103236
 20
7.4159491396
 11
11.5077383862
 21
7.4159491396
  0
LINE
  5
22C
100
AcDbEntity
  8
0
100
AcDbLine
 62
7
  6
CONTINUOUS
 10
13.1874833534
 20
7.447885863
 11
12.5964834891
 21
7.447885863
  0
LINE
  5
22D
100
AcDbEntity
  8
0
100
AcDbLine
 62
7
  6
CONTINUOUS
 10
12.1284834891
 20
7.447885863
 11
11.5374836248
 21
7.447885863
  0
LINE
  5
22E
100
AcDbEntity
  8
0
100
AcDbLine
 62
7
  6
CONTINUOUS
 10
12.1284834891
 20
7.517885863
 11
11.5874838861
 21
7.517885863
  0
LINE
  5
22F
100
AcDbEntity
  8
0
100
AcDbLine
 62
7
  6
CONTINUOUS
 10
12.5964834891
 20
7.517885863
 11
13.1374830922
 21
7.517885863
  0
LINE
  5
230
100
AcDbEntity
  8
0
100
AcDbLine
 62
7
  6
CONTINUOUS
 10
11.505701159
 20
7.1603008252
 11
11.5374834891
 21
7.147885863
  0
LINE
  5
231
100
AcDbEntity
  8
0
100
AcDbLine
 62
7
  6
CONTINUOUS
 10
12.1284834891
 20
7.678885863
 11
11.9624845639
 21
7.678885863
  0
LINE
  5
232
100
AcDbEntity
  8
0
100
AcDbLine
 62
7
  6
CONTINUOUS
 10
12.5964834891
 20
7.678885863
 11
12.7624824144
 21
7.678885863
  0
LINE
  5
233
100
AcDbEntity
  8
0
100
AcDbLine
 62
7
  6
CONTINUOUS
 10
12.7974834891
 20
6.6390118135
 11
12.5665446285
 21
6.7723444269
  0
LINE
  5
234
100
AcDbEntity
  8
0
100
AcDbLine
 62
7
  6
CONTINUOUS
 10
13.1874834891
 20
7.447885863
 11
13.2192658185
 21
7.435470901
  0
LINE
  5
235
100
AcDbEntity
  8
0
100
AcDbLine
 62
7
  6
CONTINUOUS
 10
12.3620494221
 20
8.8028859665
 11
12.3629175562
 21
8.8028859665
  0
LINE
  5
236
100
AcDbEntity
  8
0
100
AcDbLine
 62
7
  6
CONTINUOUS
 10
11.4174834891
 20
4.4045236663
 11
11.4174834891
 21
4.6312480596
  0
LINE
  5
237
100
AcDbEntity
  8
0
100
AcDbLine
 62
9
  6
CONTINUOUS
 10
11.4212720354
 20
4.4234174415
 11
11.4212720354
 21
4.6123542844
  0
LINE
  5
238
100
AcDbEntity
  8
0
100
AcDbLine
 62
7
  6
CONTINUOUS
 10
12.210930822
 20
6.6154131456
 11
12.1305505429
 21
6.8556444769
  0
LINE
  5
239
100
AcDbEntity
  8
0
100
AcDbLine
 62
7
  6
CONTINUOUS
 10
11.4874834891
 20
4.797885863
 11
11.4874834891
 21
4.662885863
  0
LINE
  5
23A
100
AcDbEntity
  8
0
100
AcDbLine
 62
7
  6
CONTINUOUS
 10
11.4934834891
 20
7.1787658676
 11
11.4934834891
 21
7.4170058629
  0
LINE
  5
23B
100
AcDbEntity
  8
0
100
AcDbLine
 62
9
  6
CONTINUOUS
 10
11.4973894566
 20
7.1976222579
 11
11.4973894566
 21
7.3981494681
  0
LINE
  5
23C
100
AcDbEntity
  8
0
100
AcDbLine
 62
7
  6
CONTINUOUS
 10
11.5574834891
 20
4.797885863
 11
11.5574834891
 21
7.147885863
  0
LINE
  5
23D
100
AcDbEntity
  8
0
100
AcDbLine
 62
7
  6
CONTINUOUS
 10
11.5874834891
 20
7.517885863
 11
11.5874834891
 21
7.447885863
  0
LINE
  5
23E
100
AcDbEntity
  8
0
100
AcDbLine
 62
9
  6
CONTINUOUS
 10
11.6316879287
 20
4.6123542844
 11
11.6316879287
 21
4.4234174415
  0
LINE
  5
23F
100
AcDbEntity
  8
0
100
AcDbLine
 62
9
  6
CONTINUOUS
 10
11.6508616583
 20
4.6135803479
 11
11.6508616583
 21
4.422191378
  0
LINE
  5
240
100
AcDbEntity
  8
0
100
AcDbLine
 62
9
  6
CONTINUOUS
 10
11.6868276009
 20
7.3981494681
 11
11.6868276009
 21
7.1976222579
  0
LINE
  5
241
100
AcDbEntity
  8
0
100
AcDbLine
 62
9
  6
CONTINUOUS
 10
11.7062585751
 20
7.3995425825
 11
11.7062585751
 21
7.1962291434
  0
LINE
  5
242
100
AcDbEntity
  8
0
100
AcDbLine
 62
7
  6
CONTINUOUS
 10
11.7724834891
 20
6.3705439383
 11
11.7724834891
 21
6.0472277876
  0
LINE
  5
243
100
AcDbEntity
  8
0
100
AcDbLine
 62
7
  6
CONTINUOUS
 10
11.9624834891
 20
7.678885863
 11
11.9624834891
 21
7.517885863
  0
LINE
  5
244
100
AcDbEntity
  8
0
100
AcDbLine
 62
7
  6
CONTINUOUS
 10
12.1124834891
 20
7.678885863
 11
12.1124834891
 21
11.397885863
  0
LINE
  5
245
100
AcDbEntity
  8
0
100
AcDbLine
 62
7
  6
CONTINUOUS
 10
12.1284834891
 20
8.741079476
 11
12.1284834891
 21
6.8683366631
  0
LINE
  5
246
100
AcDbEntity
  8
0
100
AcDbLine
 62
9
  6
CONTINUOUS
 10
12.12910532
 20
4.422191378
 11
12.12910532
 21
4.6135803479
  0
LINE
  5
247
100
AcDbEntity
  8
0
100
AcDbLine
 62
9
  6
CONTINUOUS
 10
12.1520675959
 20
4.4234174415
 11
12.1520675959
 21
4.6123542844
  0
LINE
  5
248
100
AcDbEntity
  8
0
100
AcDbLine
 62
9
  6
CONTINUOUS
 10
12.1884834891
 20
8.7385275326
 11
12.1884834891
 21
6.9007965566
  0
LINE
  5
249
100
AcDbEntity
  8
0
100
AcDbLine
 62
9
  6
CONTINUOUS
 10
12.3024834891
 20
8.7385275326
 11
12.3024834891
 21
6.9007965566
  0
LINE
  5
24A
100
AcDbEntity
  8
0
100
AcDbLine
 62
9
  6
CONTINUOUS
 10
12.4224834891
 20
8.7385275326
 11
12.4224834891
 21
6.9007965566
  0
LINE
  5
24B
100
AcDbEntity
  8
0
100
AcDbLine
 62
7
  6
CONTINUOUS
 10
11.5374834891
 20
7.447885863
 11
11.5057011598
 21
7.435470901
  0
LINE
  5
24C
100
AcDbEntity
  8
0
100
AcDbLine
 62
9
  6
CONTINUOUS
 10
12.5364834891
 20
8.7385275326
 11
12.5364834891
 21
6.9007965566
  0
LINE
  5
24D
100
AcDbEntity
  8
0
100
AcDbLine
 62
9
  6
CONTINUOUS
 10
12.5728993824
 20
4.6123542844
 11
12.5728993824
 21
4.4234174415
  0
LINE
  5
24E
100
AcDbEntity
  8
0
100
AcDbLine
 62
9
  6
CONTINUOUS
 10
12.5958616583
 20
4.6135803479
 11
12.5958616583
 21
4.422191378
  0
LINE
  5
24F
100
AcDbEntity
  8
0
100
AcDbLine
 62
7
  6
CONTINUOUS
 10
12.5964834891
 20
8.741079476
 11
12.5964834891
 21
6.8683366631
  0
LINE
  5
250
100
AcDbEntity
  8
0
100
AcDbLine
 62
7
  6
CONTINUOUS
 10
12.6124834891
 20
7.678885863
 11
12.6124834891
 21
11.397885863
  0
LINE
  5
251
100
AcDbEntity
  8
0
100
AcDbLine
 62
7
  6
CONTINUOUS
 10
12.7624834891
 20
7.678885863
 11
12.7624834891
 21
7.517885863
  0
LINE
  5
252
100
AcDbEntity
  8
0
100
AcDbLine
 62
7
  6
CONTINUOUS
 10
8.6124834891
 20
10.897885863
 11
8.1124834891
 21
10.897885863
  0
LINE
  5
253
100
AcDbEntity
  8
0
100
AcDbLine
 62
7
  6
CONTINUOUS
 10
12.9524834891
 20
6.3705439383
 11
12.9524834891
 21
6.0472277876
  0
LINE
  5
254
100
AcDbEntity
  8
0
100
AcDbLine
 62
9
  6
CONTINUOUS
 10
13.0187084032
 20
7.1962291434
 11
13.0187084032
 21
7.3995425825
  0
LINE
  5
255
100
AcDbEntity
  8
0
100
AcDbLine
 62
9
  6
CONTINUOUS
 10
13.0381393774
 20
7.1976222579
 11
13.0381393774
 21
7.3981494681
  0
LINE
  5
256
100
AcDbEntity
  8
0
100
AcDbLine
 62
9
  6
CONTINUOUS
 10
13.07410532
 20
4.422191378
 11
13.07410532
 21
4.6135803479
  0
LINE
  5
257
100
AcDbEntity
  8
0
100
AcDbLine
 62
9
  6
CONTINUOUS
 10
13.0932790496
 20
4.4234174415
 11
13.0932790496
 21
4.6123542844
  0
LINE
  5
258
100
AcDbEntity
  8
0
100
AcDbLine
 62
7
  6
CONTINUOUS
 10
13.1374834891
 20
7.517885863
 11
13.1374834891
 21
7.447885863
  0
LINE
  5
259
100
AcDbEntity
  8
0
100
AcDbLine
 62
7
  6
CONTINUOUS
 10
13.1674834891
 20
4.797885863
 11
13.1674834891
 21
7.147885863
  0
LINE
  5
25A
100
AcDbEntity
  8
0
100
AcDbLine
 62
9
  6
CONTINUOUS
 10
13.2275775217
 20
7.3981494681
 11
13.2275775217
 21
7.1976222579
  0
LINE
  5
25B
100
AcDbEntity
  8
0
100
AcDbLine
 62
7
  6
CONTINUOUS
 10
13.2314834891
 20
7.4170058629
 11
13.2314834891
 21
7.1787658676
  0
LINE
  5
25C
100
AcDbEntity
  8
0
100
AcDbLine
 62
7
  6
CONTINUOUS
 10
13.2374834891
 20
4.797885863
 11
13.2374834891
 21
4.662885863
  0
LINE
  5
25D
100
AcDbEntity
  8
0
100
AcDbLine
 62
7
  6
CONTINUOUS
 10
12.5140361563
 20
6.6154131456
 11
12.5944164353
 21
6.8556444769
  0
LINE
  5
25E
100
AcDbEntity
  8
0
100
AcDbLine
 62
9
  6
CONTINUOUS
 10
8.6124834891
 20
11.397885863
 11
8.1124834891
 21
11.397885863
  0
LINE
  5
25F
100
AcDbEntity
  8
0
100
AcDbLine
 62
9
  6
CONTINUOUS
 10
12.1124834891
 20
11.397885863
 11
12.6124834891
 21
11.397885863
  0
LINE
  5
260
100
AcDbEntity
  8
0
100
AcDbLine
 62
9
  6
CONTINUOUS
 10
13.3036949429
 20
4.6123542844
 11
13.3036949429
 21
4.4234174415
  0
LINE
  5
261
100
AcDbEntity
  8
0
100
AcDbLine
 62
7
  6
CONTINUOUS
 10
13.3074834891
 20
4.6312480596
 11
13.3074834891
 21
4.4045236663
  0
LINE
  5
262
100
AcDbEntity
  8
0
100
AcDbLine
 62
7
  6
CONTINUOUS
 10
12.1584223498
 20
6.7723444269
 11
11.9274834891
 21
6.6390118135
  0
LINE
  5
263
100
AcDbEntity
  8
0
100
AcDbLine
 62
7
  6
CONTINUOUS
 10
13.2192658193
 20
7.1603008252
 11
13.1874834891
 21
7.147885863
  0
LINE
  5
264
100
AcDbEntity
  8
0
100
AcDbLine
 62
7
  6
CONTINUOUS
 10
12.7974834891
 20
5.7787599124
 11
12.5174834891
 21
5.6171018371
  0
LINE
  5
265
100
AcDbEntity
  8
0
100
AcDbLine
 62
7
  6
CONTINUOUS
 10
11.45166453
 20
4.6586355576
 11
11.4297641129
 21
4.6496982961
  0
LINE
  5
266
100
AcDbEntity
  8
0
100
AcDbLine
 62
7
  6
CONTINUOUS
 10
13.2952028653
 20
4.3860734299
 11
13.2733024483
 21
4.3771361683
  0
ARC
  5
267
100
AcDbEntity
  8
0
100
AcDbCircle
 62
9
  6
CONTINUOUS
 10
6.7226544791
 20
6.2087205214
 40
6.223693715
100
AcDbArc
 50
358.4826040118
 51
1.5204392082
  0
ARC
  5
268
100
AcDbEntity
  8
0
100
AcDbCircle
 62
7
  6
CONTINUOUS
 10
12.0824834891
 20
6.0472277876
 40
0.31
100
AcDbArc
 50
180.0
 51
240.0
  0
ARC
  5
269
100
AcDbEntity
  8
0
100
AcDbCircle
 62
9
  6
CONTINUOUS
 10
12.089837487
 20
6.0517528978
 40
0.3091369291
100
AcDbArc
 50
181.452986235
 51
194.8382186057
  0
ARC
  5
26A
100
AcDbEntity
  8
0
100
AcDbCircle
 62
9
  6
CONTINUOUS
 10
12.0900792136
 20
6.0513338098
 40
0.3091367122
100
AcDbArc
 50
225.1617766784
 51
238.5470184808
  0
ARC
  5
26B
100
AcDbEntity
  8
0
100
AcDbCircle
 62
9
  6
CONTINUOUS
 10
12.3622415423
 20
5.8942008034
 40
0.3091367011
100
AcDbArc
 50
241.4529812784
 51
254.8382235623
  0
ARC
  5
26C
100
AcDbEntity
  8
0
100
AcDbCircle
 62
9
  6
CONTINUOUS
 10
12.0704222575
 20
6.0402638276
 40
0.2874919714
100
AcDbArc
 50
193.6156736567
 51
226.3841923445
  0
ARC
  5
26D
100
AcDbEntity
  8
0
100
AcDbCircle
 62
7
  6
CONTINUOUS
 10
11.4738449615
 20
4.432885863
 40
0.06
100
AcDbArc
 50
248.3044952522
 51
270.0
  0
ARC
  5
26E
100
AcDbEntity
  8
0
100
AcDbCircle
 62
7
  6
CONTINUOUS
 10
11.4738449615
 20
4.602885863
 40
0.06
100
AcDbArc
 50
90.0
 51
111.6955047478
  0
ARC
  5
26F
100
AcDbEntity
  8
0
100
AcDbCircle
 62
7
  6
CONTINUOUS
 10
11.4374834891
 20
4.4045236663
 40
0.02
100
AcDbArc
 50
180.0
 51
247.2961015209
  0
ARC
  5
270
100
AcDbEntity
  8
0
100
AcDbCircle
 62
7
  6
CONTINUOUS
 10
11.4374834891
 20
4.6312480596
 40
0.02
100
AcDbArc
 50
112.7038984821
 51
180.0
  0
ARC
  5
271
100
AcDbEntity
  8
0
100
AcDbCircle
 62
9
  6
CONTINUOUS
 10
9.5529641248
 20
11.0751250554
 40
6.202916261
100
AcDbArc
 50
298.4759528154
 51
301.5239649265
  0
ARC
  5
272
100
AcDbEntity
  8
0
100
AcDbCircle
 62
7
  6
CONTINUOUS
 10
10.3624834891
 20
11.397885863
 40
2.25
100
AcDbArc
 50
0.0
 51
180.0
  0
ARC
  5
273
100
AcDbEntity
  8
0
100
AcDbCircle
 62
7
  6
CONTINUOUS
 10
10.3624834891
 20
11.397885863
 40
1.75
100
AcDbArc
 50
0.0
 51
180.0
  0
ARC
  5
274
100
AcDbEntity
  8
0
100
AcDbCircle
 62
7
  6
CONTINUOUS
 10
12.3620494221
 20
7.8928859665
 40
0.91
100
AcDbArc
 50
90.0
 51
102.8553001022
  0
ARC
  5
275
100
AcDbEntity
  8
0
100
AcDbCircle
 62
9
  6
CONTINUOUS
 10
12.2610331685
 20
8.1130247491
 40
0.6670521294
100
AcDbArc
 50
84.8725759656
 51
95.1274240344
  0
ARC
  5
276
100
AcDbEntity
  8
0
100
AcDbCircle
 62
9
  6
CONTINUOUS
 10
12.2454834891
 20
8.1032344408
 40
0.6378450537
100
AcDbArc
 50
84.8730152137
 51
95.1269847863
  0
ARC
  5
277
100
AcDbEntity
  8
0
100
AcDbCircle
 62
7
  6
CONTINUOUS
 10
12.0824834891
 20
6.3705439383
 40
0.31
100
AcDbArc
 50
120.0
 51
180.0
  0
ARC
  5
278
100
AcDbEntity
  8
0
100
AcDbCircle
 62
9
  6
CONTINUOUS
 10
12.0898380893
 20
6.3660187419
 40
0.3091375333
100
AcDbArc
 50
165.1617945358
 51
178.5470006235
  0
ARC
  5
279
100
AcDbEntity
  8
0
100
AcDbCircle
 62
9
  6
CONTINUOUS
 10
12.0900792067
 20
6.3664379249
 40
0.3091367011
100
AcDbArc
 50
121.4529812782
 51
134.8382235625
  0
ARC
  5
27A
100
AcDbEntity
  8
0
100
AcDbCircle
 62
9
  6
CONTINUOUS
 10
12.0704219071
 20
6.3775072913
 40
0.2874919714
100
AcDbArc
 50
133.6156736598
 51
166.3841923414
  0
ARC
  5
27B
100
AcDbEntity
  8
0
100
AcDbCircle
 62
7
  6
CONTINUOUS
 10
12.1540314027
 20
6.5963748662
 40
0.06
100
AcDbArc
 50
354.5122189007
 51
18.5
  0
ARC
  5
27C
100
AcDbEntity
  8
0
100
AcDbCircle
 62
7
  6
CONTINUOUS
 10
12.1684834891
 20
6.8683366631
 40
0.04
100
AcDbArc
 50
180.0
 51
198.4999999778
  0
ARC
  5
27D
100
AcDbEntity
  8
0
100
AcDbCircle
 62
7
  6
CONTINUOUS
 10
12.1684834891
 20
8.741079476
 40
0.04
100
AcDbArc
 50
102.8553001022
 51
180.0
  0
ARC
  5
27E
100
AcDbEntity
  8
0
100
AcDbCircle
 62
9
  6
CONTINUOUS
 10
12.1683852845
 20
8.7384798856
 40
0.0399060653
100
AcDbArc
 50
102.7415889424
 51
179.9315827359
  0
ARC
  5
27F
100
AcDbEntity
  8
0
100
AcDbCircle
 62
7
  6
CONTINUOUS
 10
11.5134834891
 20
7.1787245962
 40
0.02
100
AcDbArc
 50
180.0
 51
247.1004628641
  0
ARC
  5
280
100
AcDbEntity
  8
0
100
AcDbCircle
 62
7
  6
CONTINUOUS
 10
11.5134834891
 20
7.4170471317
 40
0.02
100
AcDbArc
 50
112.8995368895
 51
180.0
  0
ARC
  5
281
100
AcDbEntity
  8
0
100
AcDbCircle
 62
9
  6
CONTINUOUS
 10
15.1814838526
 20
1.3258246457
 40
6.2222169066
100
AcDbArc
 50
119.0440447839
 51
121.5173932323
  0
ARC
  5
282
100
AcDbEntity
  8
0
100
AcDbCircle
 62
7
  6
CONTINUOUS
 10
12.3624834891
 20
5.8855697122
 40
0.31
100
AcDbArc
 50
240.0
 51
300.0
  0
ARC
  5
283
100
AcDbEntity
  8
0
100
AcDbCircle
 62
9
  6
CONTINUOUS
 10
12.3627254318
 20
5.8942008137
 40
0.3091367122
100
AcDbArc
 50
285.1617766785
 51
298.5470184808
  0
ARC
  5
284
100
AcDbEntity
  8
0
100
AcDbCircle
 62
9
  6
CONTINUOUS
 10
12.3624838305
 20
5.8716423992
 40
0.2874919714
100
AcDbArc
 50
253.6156753802
 51
286.3841940689
  0
ARC
  5
285
100
AcDbEntity
  8
0
100
AcDbCircle
 62
9
  6
CONTINUOUS
 10
12.3624834891
 20
6.208885863
 40
0.6184014245
100
AcDbArc
 50
322.4647091898
 51
337.5352908102
  0
ARC
  5
286
100
AcDbEntity
  8
0
100
AcDbCircle
 62
9
  6
CONTINUOUS
 10
12.3624834891
 20
6.208885863
 40
0.6184014245
100
AcDbArc
 50
22.4647091898
 51
37.5352908102
  0
ARC
  5
287
100
AcDbEntity
  8
0
100
AcDbCircle
 62
9
  6
CONTINUOUS
 10
12.3624834891
 20
6.208885863
 40
0.6184014245
100
AcDbArc
 50
142.4647091898
 51
157.5352908102
  0
ARC
  5
288
100
AcDbEntity
  8
0
100
AcDbCircle
 62
9
  6
CONTINUOUS
 10
12.3624834891
 20
6.208885863
 40
0.6184014245
100
AcDbArc
 50
202.4647091898
 51
217.5352908102
  0
ARC
  5
289
100
AcDbEntity
  8
0
100
AcDbCircle
 62
9
  6
CONTINUOUS
 10
12.3624834891
 20
6.208885863
 40
0.6184014245
100
AcDbArc
 50
262.4647091898
 51
277.5352908102
  0
ARC
  5
28A
100
AcDbEntity
  8
0
100
AcDbCircle
 62
9
  6
CONTINUOUS
 10
12.3624834891
 20
6.208885863
 40
0.5324725648
100
AcDbArc
 50
110.0864823484
 51
69.9135176516
  0
ARC
  5
28B
100
AcDbEntity
  8
0
100
AcDbCircle
 62
9
  6
CONTINUOUS
 10
12.3624834891
 20
6.208885863
 40
0.5073188532
100
AcDbArc
 50
110.1651756924
 51
69.8348243076
  0
ARC
  5
28C
100
AcDbEntity
  8
0
100
AcDbCircle
 62
9
  6
CONTINUOUS
 10
12.3624834891
 20
6.208885863
 40
0.4958024692
100
AcDbArc
 50
110.2035619132
 51
69.7964380868
  0
ARC
  5
28D
100
AcDbEntity
  8
0
100
AcDbCircle
 62
9
  6
CONTINUOUS
 10
12.3624834891
 20
6.208885863
 40
0.4561206515
100
AcDbArc
 50
110.3517373578
 51
69.6482626458
  0
ARC
  5
28E
100
AcDbEntity
  8
0
100
AcDbCircle
 62
9
  6
CONTINUOUS
 10
12.3624834891
 20
6.208885863
 40
0.44
100
AcDbArc
 50
110.4190129152
 51
69.5809870847
  0
CIRCLE
  5
28F
100
AcDbEntity
  8
0
100
AcDbCircle
 62
7
  6
CONTINUOUS
 10
12.3624834891
 20
6.208885863
 40
0.41
  0
CIRCLE
  5
290
100
AcDbEntity
  8
0
100
AcDbCircle
 62
9
  6
CONTINUOUS
 10
12.3624834891
 20
6.208885863
 40
0.3574596669
  0
ARC
  5
291
100
AcDbEntity
  8
0
100
AcDbCircle
 62
7
  6
CONTINUOUS
 10
12.6424834891
 20
6.0472277876
 40
0.31
100
AcDbArc
 50
300.0
 51
360.0
  0
ARC
  5
292
100
AcDbEntity
  8
0
100
AcDbCircle
 62
9
  6
CONTINUOUS
 10
12.635128889
 20
6.051752984
 40
0.3091375333
100
AcDbArc
 50
345.1617945358
 51
358.5470006235
  0
ARC
  5
293
100
AcDbEntity
  8
0
100
AcDbCircle
 62
9
  6
CONTINUOUS
 10
12.6348877715
 20
6.051333801
 40
0.3091367011
100
AcDbArc
 50
301.4529812782
 51
314.8382235625
  0
ARC
  5
294
100
AcDbEntity
  8
0
100
AcDbCircle
 62
9
  6
CONTINUOUS
 10
12.6545450667
 20
6.0402644279
 40
0.2874919714
100
AcDbArc
 50
313.6156752231
 51
346.384193844
  0
ARC
  5
295
100
AcDbEntity
  8
0
100
AcDbCircle
 62
7
  6
CONTINUOUS
 10
13.2511220168
 20
4.432885863
 40
0.06
100
AcDbArc
 50
270.0
 51
291.6955047478
  0
ARC
  5
296
100
AcDbEntity
  8
0
100
AcDbCircle
 62
7
  6
CONTINUOUS
 10
13.2511220168
 20
4.602885863
 40
0.06
100
AcDbArc
 50
68.3044952522
 51
90.0
  0
ARC
  5
297
100
AcDbEntity
  8
0
100
AcDbCircle
 62
7
  6
CONTINUOUS
 10
13.2874834891
 20
4.4045236663
 40
0.02
100
AcDbArc
 50
292.7038984791
 51
360.0
  0
ARC
  5
298
100
AcDbEntity
  8
0
100
AcDbCircle
 62
7
  6
CONTINUOUS
 10
13.2874834891
 20
4.6312480596
 40
0.02
100
AcDbArc
 50
0.0
 51
67.2961015179
  0
ARC
  5
299
100
AcDbEntity
  8
0
100
AcDbCircle
 62
9
  6
CONTINUOUS
 10
18.0023124993
 20
6.2090510801
 40
6.223693715
100
AcDbArc
 50
178.4826028671
 51
181.5204380635
  0
ARC
  5
29A
100
AcDbEntity
  8
0
100
AcDbCircle
 62
9
  6
CONTINUOUS
 10
15.1719686309
 20
11.0750479524
 40
6.2028323852
100
AcDbArc
 50
238.4759321579
 51
241.5239854841
  0
ARC
  5
29B
100
AcDbEntity
  8
0
100
AcDbCircle
 62
7
  6
CONTINUOUS
 10
12.3629175562
 20
7.8928859665
 40
0.91
100
AcDbArc
 50
77.1446998978
 51
90.0
  0
ARC
  5
29C
100
AcDbEntity
  8
0
100
AcDbCircle
 62
9
  6
CONTINUOUS
 10
12.4639338097
 20
8.1130247464
 40
0.667052132
100
AcDbArc
 50
84.872575986
 51
95.127424014
  0
ARC
  5
29D
100
AcDbEntity
  8
0
100
AcDbCircle
 62
9
  6
CONTINUOUS
 10
12.4794834891
 20
8.1032344096
 40
0.6378450848
100
AcDbArc
 50
84.8730154641
 51
95.1269845359
  0
ARC
  5
29E
100
AcDbEntity
  8
0
100
AcDbCircle
 62
7
  6
CONTINUOUS
 10
12.6424834891
 20
6.3705439383
 40
0.31
100
AcDbArc
 50
0.0
 51
60.0
  0
ARC
  5
29F
100
AcDbEntity
  8
0
100
AcDbCircle
 62
9
  6
CONTINUOUS
 10
12.6351294912
 20
6.3660188281
 40
0.3091369291
100
AcDbArc
 50
1.452986235
 51
14.8382186057
  0
ARC
  5
2A0
100
AcDbEntity
  8
0
100
AcDbCircle
 62
9
  6
CONTINUOUS
 10
12.6348877646
 20
6.3664379161
 40
0.3091367122
100
AcDbArc
 50
45.1617766784
 51
58.5470184808
  0
ARC
  5
2A1
100
AcDbEntity
  8
0
100
AcDbCircle
 62
9
  6
CONTINUOUS
 10
12.6545447242
 20
6.3775078911
 40
0.2874919714
100
AcDbArc
 50
13.615675213
 51
46.3841938322
  0
ARC
  5
2A2
100
AcDbEntity
  8
0
100
AcDbCircle
 62
7
  6
CONTINUOUS
 10
12.5709355756
 20
6.5963748662
 40
0.06
100
AcDbArc
 50
161.5
 51
185.4877811001
  0
ARC
  5
2A3
100
AcDbEntity
  8
0
100
AcDbCircle
 62
7
  6
CONTINUOUS
 10
12.5564834891
 20
6.8683366631
 40
0.04
100
AcDbArc
 50
341.5000000222
 51
360.0
  0
ARC
  5
2A4
100
AcDbEntity
  8
0
100
AcDbCircle
 62
7
  6
CONTINUOUS
 10
12.5564834891
 20
8.741079476
 40
0.04
100
AcDbArc
 50
0.0
 51
77.1446998978
  0
ARC
  5
2A5
100
AcDbEntity
  8
0
100
AcDbCircle
 62
9
  6
CONTINUOUS
 10
12.5565816889
 20
8.7384798822
 40
0.0399060664
100
AcDbArc
 50
0.0684222004
 51
77.258405334
  0
ARC
  5
2A6
100
AcDbEntity
  8
0
100
AcDbCircle
 62
7
  6
CONTINUOUS
 10
13.2114834891
 20
7.1787245962
 40
0.02
100
AcDbArc
 50
292.8995371359
 51
360.0
  0
ARC
  5
2A7
100
AcDbEntity
  8
0
100
AcDbCircle
 62
7
  6
CONTINUOUS
 10
13.2114834891
 20
7.4170471317
 40
0.02
100
AcDbArc
 50
0.0
 51
67.1004631105
  0
SPLINE
  5
2A8
100
AcDbEntity
  8
0
100
AcDbSpline
 62
9
  6
CONTINUOUS
 70
0
 71
3
 72
16
 73
12
 74
0
 42
0.0000001
 43
0.0000001
 44
0.0000000001
 40
0.0
 40
0.0
 40
0.0
 40
0.0
 40
0.0923132789
 40
0.1800043251
 40
0.2719238249
 40
0.3760445611
 40
0.4346047295
 40
0.498146619
 40
0.6415770446
 40
0.8084956021
 40
1.0
 40
1.0
 40
1.0
 40
1.0
 10
13.2201284492
 20
7.417388262
 30
0.0
 10
13.2201330916
 20
7.4172772848
 30
0.0
 10
13.2201151174
 20
7.4170577114
 30
0.0
 10
13.2199824812
 20
7.4167519826
 30
0.0
 10
13.2197479374
 20
7.4164965284
 30
0.0
 10
13.2194852392
 20
7.4163334214
 30
0.0
 10
13.2192356398
 20
7.4162243385
 30
0.0
 10
13.2189325849
 20
7.4161219644
 30
0.0
 10
13.2184915555
 20
7.4160266702
 30
0.0
 10
13.2178905272
 20
7.4159615525
 30
0.0
 10
13.2174590163
 20
7.4159491403
 30
0.0
 10
13.2172285921
 20
7.4159491396
 30
0.0
  0
SPLINE
  5
2A9
100
AcDbEntity
  8
0
100
AcDbSpline
 62
9
  6
CONTINUOUS
 70
0
 71
3
 72
11
 73
7
 74
0
 42
0.0000001
 43
0.0000001
 44
0.0000000001
 40
0.0
 40
0.0
 40
0.0
 40
0.0
 40
0.2246123088
 40
0.4672312124
 40
0.7263041549
 40
1.0
 40
1.0
 40
1.0
 40
1.0
 10
13.0300566546
 20
7.4159491396
 30
0.0
 10
13.0289445115
 20
7.4159491405
 30
0.0
 10
13.0266308057
 20
7.416017989
 30
0.0
 10
13.0230443754
 20
7.4162973078
 30
0.0
 10
13.019231311
 20
7.4167528718
 30
0.0
 10
13.016624264
 20
7.4171591217
 30
0.0
 10
13.0152886017
 20
7.417388262
 30
0.0
  0
SPLINE
  5
2AA
100
AcDbEntity
  8
0
100
AcDbSpline
 62
9
  6
CONTINUOUS
 70
0
 71
3
 72
15
 73
11
 74
0
 42
0.0000001
 43
0.0000001
 44
0.0000000001
 40
0.0
 40
0.0
 40
0.0
 40
0.0
 40
0.1255880247
 40
0.2509195569
 40
0.3760451288
 40
0.5010035125
 40
0.6258311202
 40
0.7505688032
 40
0.8752680992
 40
1.0
 40
1.0
 40
1.0
 40
1.0
 10
13.0152886017
 20
7.417388262
 30
0.0
 10
12.9979415407
 20
7.4203642629
 30
0.0
 10
12.9631357559
 20
7.4254788864
 30
0.0
 10
12.910700502
 20
7.430895436
 30
0.0
 10
12.85818302
 20
7.4342578988
 30
0.0
 10
12.8056501228
 20
7.4357060024
 30
0.0
 10
12.753153408
 20
7.4353028463
 30
0.0
 10
12.7007396877
 20
7.4330303953
 30
0.0
 10
12.6484611088
 20
7.4287913463
 30
0.0
 10
12.6137509739
 20
7.4245404157
 30
0.0
 10
12.5964529462
 20
7.4220212318
 30
0.0
  0
SPLINE
  5
2AB
100
AcDbEntity
  8
0
100
AcDbSpline
 62
9
  6
CONTINUOUS
 70
0
 71
3
 72
16
 73
12
 74
0
 42
0.0000001
 43
0.0000001
 44
0.0000000001
 40
0.0
 40
0.0
 40
0.0
 40
0.0
 40
0.206651107
 40
0.3868489445
 40
0.5409329093
 40
0.6697505774
 40
0.7750724271
 40
0.8602574345
 40
0.9316674873
 40
0.9655123151
 40
1.0
 40
1.0
 40
1.0
 40
1.0
 10
11.4212720354
 20
4.6123542844
 30
0.0
 10
11.4209774278
 20
4.6123542845
 30
0.0
 10
11.4204258043
 20
4.6123647826
 30
0.0
 10
11.4196561437
 20
4.6124196296
 30
0.0
 10
11.4190017547
 20
4.612512209
 30
0.0
 10
11.4184625482
 20
4.6126422667
 30
0.0
 10
11.4180373161
 20
4.6128105107
 30
0.0
 10
11.4177229431
 20
4.6130196395
 30
0.0
 10
11.4175546259
 20
4.6132423632
 30
0.0
 10
11.4174929867
 20
4.6134334075
 30
0.0
 10
11.4174834894
 20
4.6135311813
 30
0.0
 10
11.4174834891
 20
4.6135803479
 30
0.0
  0
SPLINE
  5
2AC
100
AcDbEntity
  8
0
100
AcDbSpline
 62
9
  6
CONTINUOUS
 70
0
 71
3
 72
16
 73
12
 74
0
 42
0.0000001
 43
0.0000001
 44
0.0000000001
 40
0.0
 40
0.0
 40
0.0
 40
0.0
 40
0.0923132789
 40
0.1800043251
 40
0.2719238249
 40
0.3760445611
 40
0.4346047295
 40
0.498146619
 40
0.6415770446
 40
0.8084956021
 40
1.0
 40
1.0
 40
1.0
 40
1.0
 10
11.5048385291
 20
7.178383464
 30
0.0
 10
11.5048338867
 20
7.1784944412
 30
0.0
 10
11.5048518608
 20
7.1787140145
 30
0.0
 10
11.5049844971
 20
7.1790197434
 30
0.0
 10
11.5052190409
 20
7.1792751976
 30
0.0
 10
11.5054817391
 20
7.1794383046
 30
0.0
 10
11.5057313385
 20
7.1795473874
 30
0.0
 10
11.5060343934
 20
7.1796497615
 30
0.0
 10
11.5064754228
 20
7.1797450557
 30
0.0
 10
11.5070764511
 20
7.1798101735
 30
0.0
 10
11.507507962
 20
7.1798225857
 30
0.0
 10
11.5077383862
 20
7.1798225863
 30
0.0
  0
SPLINE
  5
2AD
100
AcDbEntity
  8
0
100
AcDbSpline
 62
9
  6
CONTINUOUS
 70
0
 71
3
 72
11
 73
7
 74
0
 42
0.0000001
 43
0.0000001
 44
0.0000000001
 40
0.0
 40
0.0
 40
0.0
 40
0.0
 40
0.2246123088
 40
0.4672312124
 40
0.7263041549
 40
1.0
 40
1.0
 40
1.0
 40
1.0
 10
11.6949103236
 20
7.1798225863
 30
0.0
 10
11.6960224668
 20
7.1798225854
 30
0.0
 10
11.6983361725
 20
7.1797537369
 30
0.0
 10
11.7019226029
 20
7.1794744181
 30
0.0
 10
11.7057356672
 20
7.1790188541
 30
0.0
 10
11.7083427143
 20
7.1786126042
 30
0.0
 10
11.7096783766
 20
7.178383464
 30
0.0
  0
SPLINE
  5
2AE
100
AcDbEntity
  8
0
100
AcDbSpline
 62
9
  6
CONTINUOUS
 70
0
 71
3
 72
15
 73
11
 74
0
 42
0.0000001
 43
0.0000001
 44
0.0000000001
 40
0.0
 40
0.0
 40
0.0
 40
0.0
 40
0.1255880241
 40
0.2509195577
 40
0.376045132
 40
0.5010035146
 40
0.6258311207
 40
0.7505688015
 40
0.8752680985
 40
1.0
 40
1.0
 40
1.0
 40
1.0
 10
11.7096783766
 20
7.178383464
 30
0.0
 10
11.7270254374
 20
7.1754074631
 30
0.0
 10
11.7618312223
 20
7.1702928399
 30
0.0
 10
11.8142664765
 20
7.1648762898
 30
0.0
 10
11.8667839588
 20
7.1615138258
 30
0.0
 10
11.9193168559
 20
7.160065723
 30
0.0
 10
11.9718135699
 20
7.1604688794
 30
0.0
 10
12.0242272897
 20
7.1627413316
 30
0.0
 10
12.0765058685
 20
7.1669803798
 30
0.0
 10
12.1112160036
 20
7.1712313098
 30
0.0
 10
12.1285140313
 20
7.1737504939
 30
0.0
  0
SPLINE
  5
2AF
100
AcDbEntity
  8
0
100
AcDbSpline
 62
9
  6
CONTINUOUS
 70
0
 71
3
 72
15
 73
11
 74
0
 42
0.0000001
 43
0.0000001
 44
0.0000000001
 40
0.0
 40
0.0
 40
0.0
 40
0.0
 40
0.1247319024
 40
0.2494312021
 40
0.3741688815
 40
0.4989964853
 40
0.6239548653
 40
0.7490804405
 40
0.8744119771
 40
1.0
 40
1.0
 40
1.0
 40
1.0
 10
12.5964529503
 20
7.173750493
 30
0.0
 10
12.613750978
 20
7.1712313085
 30
0.0
 10
12.6484611135
 20
7.1669803796
 30
0.0
 10
12.7007396923
 20
7.1627413329
 30
0.0
 10
12.7531534114
 20
7.1604688798
 30
0.0
 10
12.8056501241
 20
7.1600657229
 30
0.0
 10
12.8581830202
 20
7.1615138247
 30
0.0
 10
12.9107005023
 20
7.164876289
 30
0.0
 10
12.9631357561
 20
7.1702928414
 30
0.0
 10
12.9979415412
 20
7.1754074628
 30
0.0
 10
13.0152886017
 20
7.178383464
 30
0.0
  0
SPLINE
  5
2B0
100
AcDbEntity
  8
0
100
AcDbSpline
 62
9
  6
CONTINUOUS
 70
0
 71
3
 72
11
 73
7
 74
0
 42
0.0000001
 43
0.0000001
 44
0.0000000001
 40
0.0
 40
0.0
 40
0.0
 40
0.0
 40
0.273695984
 40
0.5327690505
 40
0.7753877817
 40
1.0
 40
1.0
 40
1.0
 40
1.0
 10
13.0152886017
 20
7.178383464
 30
0.0
 10
13.0166242646
 20
7.1786126048
 30
0.0
 10
13.019231313
 20
7.1790188546
 30
0.0
 10
13.0230443778
 20
7.1794744184
 30
0.0
 10
13.0266308075
 20
7.179753737
 30
0.0
 10
13.028944512
 20
7.1798225849
 30
0.0
 10
13.0300566546
 20
7.1798225863
 30
0.0
  0
SPLINE
  5
2B1
100
AcDbEntity
  8
0
100
AcDbSpline
 62
9
  6
CONTINUOUS
 70
0
 71
3
 72
16
 73
12
 74
0
 42
0.0000001
 43
0.0000001
 44
0.0000000001
 40
0.0
 40
0.0
 40
0.0
 40
0.0
 40
0.1915046409
 40
0.3584232288
 40
0.5018537154
 40
0.565395608
 40
0.6239557534
 40
0.7280764077
 40
0.8199958093
 40
0.9076868126
 40
1.0
 40
1.0
 40
1.0
 40
1.0
 10
13.2172285921
 20
7.1798225863
 30
0.0
 10
13.2174590165
 20
7.1798225859
 30
0.0
 10
13.2178905277
 20
7.1798101739
 30
0.0
 10
13.2184915563
 20
7.1797450557
 30
0.0
 10
13.2189325857
 20
7.1796497614
 30
0.0
 10
13.2192356406
 20
7.1795473871
 30
0.0
 10
13.2194852397
 20
7.1794383041
 30
0.0
 10
13.2197479375
 20
7.179275197
 30
0.0
 10
13.2199824809
 20
7.1790197428
 30
0.0
 10
13.2201151163
 20
7.178714014
 30
0.0
 10
13.220133091
 20
7.1784944411
 30
0.0
 10
13.2201284492
 20
7.178383464
 30
0.0
  0
LINE
  5
2B2
100
AcDbEntity
  8
0
100
AcDbLine
 62
9
  6
CONTINUOUS
 10
13.2201284492
 20
7.178383464
 11
13.2192657768
 21
7.1603006144
  0
SPLINE
  5
2B3
100
AcDbEntity
  8
0
100
AcDbSpline
 62
9
  6
CONTINUOUS
 70
0
 71
3
 72
19
 73
15
 74
0
 42
0.0000001
 43
0.0000001
 44
0.0000000001
 40
0.0
 40
0.0
 40
0.0
 40
0.0
 40
0.1994995551
 40
0.3800369721
 40
0.539258187
 40
0.6756417771
 40
0.7349823825
 40
0.7883434298
 40
0.8357868906
 40
0.8775217503
 40
0.9139297662
 40
0.9456763571
 40
0.973843257
 40
1.0
 40
1.0
 40
1.0
 40
1.0
 10
11.9287720825
 20
6.6301527551
 30
0.0
 10
11.9285434677
 20
6.6307289495
 30
0.0
 10
11.9281266292
 20
6.6318341432
 30
0.0
 10
11.9276016284
 20
6.6334260372
 30
0.0
 10
11.9272127185
 20
6.6348542524
 30
0.0
 10
11.9269961676
 20
6.6359371889
 30
0.0
 10
11.9269026237
 20
6.6367058518
 30
0.0
 10
11.9268725504
 20
6.6372029267
 30
0.0
 10
11.9268792552
 20
6.637646303
 30
0.0
 10
11.9269227118
 20
6.6380348755
 30
0.0
 10
11.9270031674
 20
6.63836791
 30
0.0
 10
11.9271215978
 20
6.6386447757
 30
0.0
 10
11.9272790666
 20
6.6388641097
 30
0.0
 10
11.9274131029
 20
6.638971176
 30
0.0
 10
11.9274834891
 20
6.6390118135
 30
0.0
  0
SPLINE
  5
2B4
100
AcDbEntity
  8
0
100
AcDbSpline
 62
9
  6
CONTINUOUS
 70
0
 71
3
 72
22
 73
18
 74
0
 42
0.0000001
 43
0.0000001
 44
0.0000000001
 40
0.0
 40
0.0
 40
0.0
 40
0.0
 40
0.2129317896
 40
0.4050320682
 40
0.5732981825
 40
0.6477410071
 40
0.7153636674
 40
0.7759250601
 40
0.8292513784
 40
0.8752057579
 40
0.9137215643
 40
0.9448576312
 40
0.9688633291
 40
0.9784163422
 40
0.9865560755
 40
0.9935918309
 40
1.0
 40
1.0
 40
1.0
 40
1.0
 10
11.7910094149
 20
6.4451858933
 30
0.0
 10
11.7903524116
 20
6.4453077502
 30
0.0
 10
11.7891007892
 20
6.4455295907
 30
0.0
 10
11.7873233067
 20
6.4458083446
 30
0.0
 10
11.7859702484
 20
6.4459863402
 30
0.0
 10
11.785001654
 20
6.446088001
 30
0.0
 10
11.7843679811
 20
6.4461414703
 30
0.0
 10
11.7837993058
 20
6.4461751763
 30
0.0
 10
11.7832977792
 20
6.4461891226
 30
0.0
 10
11.782865263
 20
6.4461833805
 30
0.0
 10
11.7825030037
 20
6.4461581812
 30
0.0
 10
11.7822122065
 20
6.4461138385
 30
0.0
 10
11.7820156593
 20
6.4460579296
 30
0.0
 10
11.781898152
 20
6.4459994237
 30
0.0
 10
11.7818349183
 20
6.4459536181
 30
0.0
 10
11.7817898834
 20
6.4459020346
 30
0.0
 10
11.7817725115
 20
6.4458626501
 30
0.0
 10
11.7817676269
 20
6.4458431427
 30
0.0
  0
SPLINE
  5
2B5
100
AcDbEntity
  8
0
100
AcDbSpline
 62
9
  6
CONTINUOUS
 70
0
 71
3
 72
19
 73
15
 74
0
 42
0.0000001
 43
0.0000001
 44
0.0000000001
 40
0.0
 40
0.0
 40
0.0
 40
0.0
 40
0.199499553
 40
0.3800369682
 40
0.5392581818
 40
0.675641771
 40
0.7349823762
 40
0.7883434236
 40
0.8357868846
 40
0.8775217449
 40
0.9139297615
 40
0.9456763537
 40
0.9738432551
 40
1.0
 40
1.0
 40
1.0
 40
1.0
 10
11.7807999555
 20
6.0439142129
 30
0.0
 10
11.7801866491
 20
6.0440043239
 30
0.0
 10
11.7790211041
 20
6.0441959281
 30
0.0
 10
11.7773799829
 20
6.0445372109
 30
0.0
 10
11.7759486574
 20
6.0449145127
 30
0.0
 10
11.7749025314
 20
6.0452684424
 30
0.0
 10
11.7741900778
 20
6.0455717624
 30
0.0
 10
11.7737445617
 20
6.0457942556
 30
0.0
 10
11.773363939
 20
6.0460217503
 30
0.0
 10
11.7730491536
 20
6.0462536711
 30
0.0
 10
11.772800965
 20
6.0464898649
 30
0.0
 10
11.7726204075
 20
6.0467308615
 30
0.0
 10
11.7725091932
 20
6.0469769005
 30
0.0
 10
11.7724834891
 20
6.0471465126
 30
0.0
 10
11.7724834891
 20
6.0472277876
 30
0.0
  0
SPLINE
  5
2B6
100
AcDbEntity
  8
0
100
AcDbSpline
 62
9
  6
CONTINUOUS
 70
0
 71
3
 72
22
 73
18
 74
0
 42
0.0000001
 43
0.0000001
 44
0.0000000001
 40
0.0
 40
0.0
 40
0.0
 40
0.0
 40
0.2129318242
 40
0.4050321346
 40
0.5732982767
 40
0.647741113
 40
0.7153637834
 40
0.7759251839
 40
0.8292515072
 40
0.8752058883
 40
0.9137216915
 40
0.9448577484
 40
0.9688634259
 40
0.9784164229
 40
0.9865561349
 40
0.9935918633
 40
1.0
 40
1.0
 40
1.0
 40
1.0
 10
11.8721046228
 20
5.8321248123
 30
0.0
 10
11.8716705903
 20
5.8316167589
 30
0.0
 10
11.87085266
 20
5.830643742
 30
0.0
 10
11.8697225113
 20
5.8292437734
 30
0.0
 10
11.8688918338
 20
5.828160988
 30
0.0
 10
11.8683194959
 20
5.8273729909
 30
0.0
 10
11.8679563537
 20
5.8268509487
 30
0.0
 10
11.8676428258
 20
5.8263753144
 30
0.0
 10
11.8673799846
 20
5.8259479529
 30
0.0
 10
11.8671686992
 20
5.8255705119
 30
0.0
 10
11.8670093926
 20
5.8252441867
 30
0.0
 10
11.8669023957
 20
5.8249701778
 30
0.0
 10
11.8668525404
 20
5.8247720088
 30
0.0
 10
11.866844454
 20
5.8246409917
 30
0.0
 10
11.8668525058
 20
5.8245633271
 30
0.0
 10
11.8668746608
 20
5.8244985342
 30
0.0
 10
11.8669000826
 20
5.8244637976
 30
0.0
 10
11.8669145342
 20
5.8244498137
 30
0.0
  0
SPLINE
  5
2B7
100
AcDbEntity
  8
0
100
AcDbSpline
 62
9
  6
CONTINUOUS
 70
0
 71
3
 72
16
 73
12
 74
0
 42
0.0000001
 43
0.0000001
 44
0.0000000001
 40
0.0
 40
0.0
 40
0.0
 40
0.0
 40
0.0344883445
 40
0.0683334203
 40
0.1397433027
 40
0.2249280303
 40
0.3302497483
 40
0.4590673392
 40
0.6131512439
 40
0.7933490264
 40
1.0
 40
1.0
 40
1.0
 40
1.0
 10
11.4174834891
 20
4.422191378
 30
0.0
 10
11.4174834893
 20
4.4222405456
 30
0.0
 10
11.4174929862
 20
4.4223383208
 30
0.0
 10
11.4175546251
 20
4.4225293665
 30
0.0
 10
11.417722943
 20
4.4227520897
 30
0.0
 10
11.4180373167
 20
4.4229612161
 30
0.0
 10
11.4184625485
 20
4.4231294591
 30
0.0
 10
11.4190017549
 20
4.4232595165
 30
0.0
 10
11.4196561439
 20
4.423352096
 30
0.0
 10
11.4204258044
 20
4.4234069431
 30
0.0
 10
11.4209774279
 20
4.4234174414
 30
0.0
 10
11.4212720354
 20
4.4234174415
 30
0.0
  0
SPLINE
  5
2B8
100
AcDbEntity
  8
0
100
AcDbSpline
 62
9
  6
CONTINUOUS
 70
0
 71
3
 72
11
 73
7
 74
0
 42
0.0000001
 43
0.0000001
 44
0.0000000001
 40
0.0
 40
0.0
 40
0.0
 40
0.0
 40
0.2727708962
 40
0.5314104012
 40
0.7743005965
 40
1.0
 40
1.0
 40
1.0
 40
1.0
 10
11.6508616583
 20
4.6135803479
 30
0.0
 10
11.6491250505
 20
4.6133833263
 30
0.0
 10
11.6457375717
 20
4.6130354415
 30
0.0
 10
11.6407909179
 20
4.6126482215
 30
0.0
 10
11.6361366567
 20
4.6124120739
 30
0.0
 10
11.6331340718
 20
4.6123542848
 30
0.0
 10
11.6316879287
 20
4.6123542844
 30
0.0
  0
SPLINE
  5
2B9
100
AcDbEntity
  8
0
100
AcDbSpline
 62
9
  6
CONTINUOUS
 70
0
 71
3
 72
11
 73
7
 74
0
 42
0.0000001
 43
0.0000001
 44
0.0000000001
 40
0.0
 40
0.0
 40
0.0
 40
0.0
 40
0.2256994218
 40
0.4685896502
 40
0.7272291317
 40
1.0
 40
1.0
 40
1.0
 40
1.0
 10
11.6316879287
 20
4.4234174415
 30
0.0
 10
11.6331340719
 20
4.4234174413
 30
0.0
 10
11.6361366571
 20
4.4233596524
 30
0.0
 10
11.6407909186
 20
4.4231235054
 30
0.0
 10
11.6457375719
 20
4.4227362807
 30
0.0
 10
11.6491250501
 20
4.4223883946
 30
0.0
 10
11.6508616583
 20
4.422191378
 30
0.0
  0
SPLINE
  5
2BA
100
AcDbEntity
  8
0
100
AcDbSpline
 62
9
  6
CONTINUOUS
 70
0
 71
3
 72
9
 73
5
 74
0
 42
0.0000001
 43
0.0000001
 44
0.0000000001
 40
0.0
 40
0.0
 40
0.0
 40
0.0
 40
0.5148210699
 40
1.0
 40
1.0
 40
1.0
 40
1.0
 10
12.1520675959
 20
4.6123542844
 30
0.0
 10
12.1481199441
 20
4.6123542849
 30
0.0
 10
12.1404504638
 20
4.6125457478
 30
0.0
 10
12.1328019625
 20
4.6131609675
 30
0.0
 10
12.12910532
 20
4.6135803479
 30
0.0
  0
SPLINE
  5
2BB
100
AcDbEntity
  8
0
100
AcDbSpline
 62
9
  6
CONTINUOUS
 70
0
 71
3
 72
22
 73
18
 74
0
 42
0.0000001
 43
0.0000001
 44
0.0000000001
 40
0.0
 40
0.0
 40
0.0
 40
0.0
 40
0.0626227415
 40
0.1252012854
 40
0.1877418758
 40
0.2502473852
 40
0.3127263086
 40
0.3751874
 40
0.4376368133
 40
0.5000792399
 40
0.5625196458
 40
0.6249630383
 40
0.6874143316
 40
0.7498783039
 40
0.8123615891
 40
0.8748734113
 40
1.0
 40
1.0
 40
1.0
 40
1.0
 10
13.0187084032
 20
7.3995425825
 30
0.0
 10
13.0099831044
 20
7.4010144064
 30
0.0
 10
12.992502364
 20
7.4037457722
 30
0.0
 10
12.9662034348
 20
7.4072390056
 30
0.0
 10
12.9398516134
 20
7.4101602787
 30
0.0
 10
12.9134600965
 20
7.4125438622
 30
0.0
 10
12.887038306
 20
7.4144099033
 30
0.0
 10
12.8605940856
 20
7.4157770978
 30
0.0
 10
12.8341347643
 20
7.4166667259
 30
0.0
 10
12.8076668167
 20
7.4170899353
 30
0.0
 10
12.7811963558
 20
7.4170447998
 30
0.0
 10
12.7547296089
 20
7.4165313804
 30
0.0
 10
12.7282726425
 20
7.4155513716
 30
0.0
 10
12.7018322227
 20
7.4140895
 30
0.0
 10
12.6754154202
 20
7.412125004
 30
0.0
 10
12.6402277675
 20
7.4088107238
 30
0.0
 10
12.6139096046
 20
7.4055097064
 30
0.0
 10
12.596422475
 20
7.4029031031
 30
0.0
  0
SPLINE
  5
2BC
100
AcDbEntity
  8
0
100
AcDbSpline
 62
9
  6
CONTINUOUS
 70
0
 71
3
 72
22
 73
18
 74
0
 42
0.0000001
 43
0.0000001
 44
0.0000000001
 40
0.0
 40
0.0
 40
0.0
 40
0.0
 40
0.1251265885
 40
0.1876384105
 40
0.2501216961
 40
0.3125856689
 40
0.3750369627
 40
0.4374803556
 40
0.4999207616
 40
0.562363188
 40
0.6248126008
 40
0.6872736914
 40
0.7497526142
 40
0.8122581235
 40
0.8747987143
 40
0.9373772584
 40
1.0
 40
1.0
 40
1.0
 40
1.0
 10
12.5964224761
 20
7.1928686224
 30
0.0
 10
12.6139096056
 20
7.1902620183
 30
0.0
 10
12.6402277679
 20
7.186960998
 30
0.0
 10
12.6754154203
 20
7.1836467163
 30
0.0
 10
12.7018322229
 20
7.1816822211
 30
0.0
 10
12.7282726429
 20
7.1802203515
 30
0.0
 10
12.7547296095
 20
7.1792403456
 30
0.0
 10
12.7811963566
 20
7.1787269291
 30
0.0
 10
12.8076668174
 20
7.1786817962
 30
0.0
 10
12.8341347647
 20
7.1791050076
 30
0.0
 10
12.8605940857
 20
7.1799946368
 30
0.0
 10
12.8870383057
 20
7.1813618307
 30
0.0
 10
12.9134600961
 20
7.18322787
 30
0.0
 10
12.9398516131
 20
7.185611451
 30
0.0
 10
12.9662034346
 20
7.1885327216
 30
0.0
 10
12.992502364
 20
7.1920259537
 30
0.0
 10
13.0099831044
 20
7.1947573194
 30
0.0
 10
13.0187084032
 20
7.1962291434
 30
0.0
  0
SPLINE
  5
2BD
100
AcDbEntity
  8
0
100
AcDbSpline
 62
9
  6
CONTINUOUS
 70
0
 71
3
 72
22
 73
18
 74
0
 42
0.0000001
 43
0.0000001
 44
0.0000000001
 40
0.0
 40
0.0
 40
0.0
 40
0.0
 40
0.1251265883
 40
0.18763841
 40
0.2501216955
 40
0.3125856683
 40
0.375036962
 40
0.4374803547
 40
0.4999207606
 40
0.5623631872
 40
0.6248126002
 40
0.6872736909
 40
0.7497526138
 40
0.8122581233
 40
0.8747987142
 40
0.9373772584
 40
1.0
 40
1.0
 40
1.0
 40
1.0
 10
12.1285445012
 20
7.4029031039
 30
0.0
 10
12.1110573719
 20
7.4055097084
 30
0.0
 10
12.0847392098
 20
7.4088107296
 30
0.0
 10
12.0495515578
 20
7.4121250131
 30
0.0
 10
12.0231347553
 20
7.4140895092
 30
0.0
 10
11.9966943354
 20
7.4155513789
 30
0.0
 10
11.970237369
 20
7.4165313841
 30
0.0
 10
11.943770622
 20
7.4170447978
 30
0.0
 10
11.9173001612
 20
7.4170899273
 30
0.0
 10
11.8908322139
 20
7.416666713
 30
0.0
 10
11.864372893
 20
7.4157770833
 30
0.0
 10
11.837928673
 20
7.4144098898
 30
0.0
 10
11.8115068826
 20
7.4125438517
 30
0.0
 10
11.7851153654
 20
7.4101602724
 30
0.0
 10
11.7587635437
 20
7.4072390032
 30
0.0
 10
11.7324646142
 20
7.403745772
 30
0.0
 10
11.7149838738
 20
7.4010144065
 30
0.0
 10
11.7062585751
 20
7.3995425825
 30
0.0
  0
SPLINE
  5
2BE
100
AcDbEntity
  8
0
100
AcDbSpline
 62
9
  6
CONTINUOUS
 70
0
 71
3
 72
22
 73
18
 74
0
 42
0.0000001
 43
0.0000001
 44
0.0000000001
 40
0.0
 40
0.0
 40
0.0
 40
0.0
 40
0.0626227415
 40
0.1252012856
 40
0.1877418762
 40
0.2502473858
 40
0.3127263091
 40
0.3751874005
 40
0.437636814
 40
0.5000792409
 40
0.5625196468
 40
0.6249630391
 40
0.6874143322
 40
0.7498783044
 40
0.8123615896
 40
0.8748734114
 40
1.0
 40
1.0
 40
1.0
 40
1.0
 10
11.7062585751
 20
7.1962291434
 30
0.0
 10
11.7149838739
 20
7.1947573196
 30
0.0
 10
11.7324646143
 20
7.1920259539
 30
0.0
 10
11.7587635436
 20
7.1885327211
 30
0.0
 10
11.785115365
 20
7.1856114494
 30
0.0
 10
11.8115068821
 20
7.183227868
 30
0.0
 10
11.8379286727
 20
7.181361829
 30
0.0
 10
11.8643728931
 20
7.1799946358
 30
0.0
 10
11.8908322144
 20
7.1791050079
 30
0.0
 10
11.9173001619
 20
7.1786817963
 30
0.0
 10
11.9437706227
 20
7.1787269287
 30
0.0
 10
11.9702373696
 20
7.1792403453
 30
0.0
 10
11.9966943359
 20
7.1802203526
 30
0.0
 10
12.0231347556
 20
7.1816822232
 30
0.0
 10
12.0495515581
 20
7.1836467188
 30
0.0
 10
12.0847392105
 20
7.1869609998
 30
0.0
 10
12.111057373
 20
7.1902620185
 30
0.0
 10
12.1285445025
 20
7.1928686224
 30
0.0
  0
SPLINE
  5
2BF
100
AcDbEntity
  8
0
100
AcDbSpline
 62
9
  6
CONTINUOUS
 70
0
 71
3
 72
9
 73
5
 74
0
 42
0.0000001
 43
0.0000001
 44
0.0000000001
 40
0.0
 40
0.0
 40
0.0
 40
0.0
 40
0.4851789799
 40
1.0
 40
1.0
 40
1.0
 40
1.0
 10
12.12910532
 20
4.422191378
 30
0.0
 10
12.1328019616
 20
4.4226107693
 30
0.0
 10
12.1404504649
 20
4.4232259722
 30
0.0
 10
12.1481199445
 20
4.4234174408
 30
0.0
 10
12.1520675959
 20
4.4234174415
 30
0.0
  0
SPLINE
  5
2C0
100
AcDbEntity
  8
0
100
AcDbSpline
 62
9
  6
CONTINUOUS
 70
0
 71
3
 72
9
 73
5
 74
0
 42
0.0000001
 43
0.0000001
 44
0.0000000001
 40
0.0
 40
0.0
 40
0.0
 40
0.0
 40
0.4851789799
 40
1.0
 40
1.0
 40
1.0
 40
1.0
 10
12.5958616583
 20
4.6135803479
 30
0.0
 10
12.5921650166
 20
4.6131609566
 30
0.0
 10
12.5845165134
 20
4.6125457537
 30
0.0
 10
12.5768470338
 20
4.6123542851
 30
0.0
 10
12.5728993824
 20
4.6123542844
 30
0.0
  0
SPLINE
  5
2C1
100
AcDbEntity
  8
0
100
AcDbSpline
 62
9
  6
CONTINUOUS
 70
0
 71
3
 72
9
 73
5
 74
0
 42
0.0000001
 43
0.0000001
 44
0.0000000001
 40
0.0
 40
0.0
 40
0.0
 40
0.0
 40
0.5148210699
 40
1.0
 40
1.0
 40
1.0
 40
1.0
 10
12.5728993824
 20
4.4234174415
 30
0.0
 10
12.5768470341
 20
4.423417441
 30
0.0
 10
12.5845165144
 20
4.4232259781
 30
0.0
 10
12.5921650158
 20
4.4226107584
 30
0.0
 10
12.5958616583
 20
4.422191378
 30
0.0
  0
SPLINE
  5
2C2
100
AcDbEntity
  8
0
100
AcDbSpline
 62
9
  6
CONTINUOUS
 70
0
 71
3
 72
11
 73
7
 74
0
 42
0.0000001
 43
0.0000001
 44
0.0000000001
 40
0.0
 40
0.0
 40
0.0
 40
0.0
 40
0.2256994218
 40
0.4685896502
 40
0.7272291317
 40
1.0
 40
1.0
 40
1.0
 40
1.0
 10
13.0932790496
 20
4.6123542844
 30
0.0
 10
13.0918329064
 20
4.6123542847
 30
0.0
 10
13.0888303212
 20
4.6124120736
 30
0.0
 10
13.0841760597
 20
4.6126482206
 30
0.0
 10
13.0792294064
 20
4.6130354452
 30
0.0
 10
13.0758419282
 20
4.6133833313
 30
0.0
 10
13.07410532
 20
4.6135803479
 30
0.0
  0
SPLINE
  5
2C3
100
AcDbEntity
  8
0
100
AcDbSpline
 62
9
  6
CONTINUOUS
 70
0
 71
3
 72
15
 73
11
 74
0
 42
0.0000001
 43
0.0000001
 44
0.0000000001
 40
0.0
 40
0.0
 40
0.0
 40
0.0
 40
0.1491064919
 40
0.2947593523
 40
0.4347814409
 40
0.5673904353
 40
0.691018474
 40
0.8045405696
 40
0.9074687456
 40
1.0
 40
1.0
 40
1.0
 40
1.0
 10
13.0187084032
 20
7.3995425825
 30
0.0
 10
13.0188247899
 20
7.4004625381
 30
0.0
 10
13.0189919824
 20
7.4022897924
 30
0.0
 10
13.019045118
 20
7.4049955053
 30
0.0
 10
13.0188974664
 20
7.4075953761
 30
0.0
 10
13.0185523771
 20
7.4100386798
 30
0.0
 10
13.0180160768
 20
7.4122787905
 30
0.0
 10
13.0172984434
 20
7.4142738764
 30
0.0
 10
13.016411962
 20
7.4159856415
 30
0.0
 10
13.0156799594
 20
7.4169663844
 30
0.0
 10
13.0152886017
 20
7.417388262
 30
0.0
  0
SPLINE
  5
2C4
100
AcDbEntity
  8
0
100
AcDbSpline
 62
9
  6
CONTINUOUS
 70
0
 71
3
 72
19
 73
15
 74
0
 42
0.0000001
 43
0.0000001
 44
0.0000000001
 40
0.0
 40
0.0
 40
0.0
 40
0.0
 40
0.1994995669
 40
0.3800369949
 40
0.5392582195
 40
0.6756418169
 40
0.7349824247
 40
0.7883434733
 40
0.8357869337
 40
0.8775217912
 40
0.9139298021
 40
0.9456763849
 40
0.9738432727
 40
1.0
 40
1.0
 40
1.0
 40
1.0
 10
12.2145113621
 20
5.6226473208
 30
0.0
 10
12.2141266704
 20
5.6221612374
 30
0.0
 10
12.2133779637
 20
5.621247648
 30
0.0
 10
12.2122618433
 20
5.619997037
 30
0.0
 10
12.2112194275
 20
5.6189461237
 30
0.0
 10
12.2103898524
 20
5.6182171168
 30
0.0
 10
12.2097709428
 20
5.617751774
 30
0.0
 10
12.2093555
 20
5.6174771923
 30
0.0
 10
12.2089681724
 20
5.6172613107
 30
0.0
 10
12.2086099305
 20
5.6171046589
 30
0.0
 10
12.2082812865
 20
5.6170078182
 30
0.0
 10
12.2079822986
 20
5.616971949
 30
0.0
 10
12.2077136156
 20
5.616998654
 30
0.0
 10
12.2075538753
 20
5.6170611996
 30
0.0
 10
12.2074834891
 20
5.6171018371
 30
0.0
  0
SPLINE
  5
2C5
100
AcDbEntity
  8
0
100
AcDbSpline
 62
9
  6
CONTINUOUS
 70
0
 71
3
 72
22
 73
18
 74
0
 42
0.0000001
 43
0.0000001
 44
0.0000000001
 40
0.0
 40
0.0
 40
0.0
 40
0.0
 40
0.2129318223
 40
0.405032131
 40
0.5732982716
 40
0.6477411073
 40
0.7153637771
 40
0.7759251772
 40
0.8292515003
 40
0.8752058814
 40
0.9137216848
 40
0.9448577422
 40
0.9688634208
 40
0.9784164187
 40
0.9865561318
 40
0.9935918616
 40
1.0
 40
1.0
 40
1.0
 40
1.0
 10
12.443578697
 20
5.5958247819
 30
0.0
 10
12.4438016679
 20
5.595194872
 30
0.0
 10
12.4442353601
 20
5.5940000151
 30
0.0
 10
12.4448826941
 20
5.5923212934
 30
0.0
 10
12.4454050749
 20
5.5910605128
 30
0.0
 10
12.4458013314
 20
5.5901708552
 30
0.0
 10
12.4460718622
 20
5.5895953436
 30
0.0
 10
12.4463270096
 20
5.5890860034
 30
0.0
 10
12.446565695
 20
5.5886446955
 30
0.0
 10
12.4467869257
 20
5.5882729965
 30
0.0
 10
12.4469898784
 20
5.5879718703
 30
0.0
 10
12.4471736786
 20
5.5877422039
 30
0.0
 10
12.4473203704
 20
5.5875999433
 30
0.0
 10
12.4474297913
 20
5.5875274318
 30
0.0
 10
12.4475010768
 20
5.5874955726
 30
0.0
 10
12.4475682666
 20
5.5874823629
 30
0.0
 10
12.4476110603
 20
5.5874870106
 30
0.0
 10
12.4476303964
 20
5.587492534
 30
0.0
  0
SPLINE
  5
2C6
100
AcDbEntity
  8
0
100
AcDbSpline
 62
9
  6
CONTINUOUS
 70
0
 71
3
 72
19
 73
15
 74
0
 42
0.0000001
 43
0.0000001
 44
0.0000000001
 40
0.0
 40
0.0
 40
0.0
 40
0.0
 40
0.1994995551
 40
0.3800369721
 40
0.539258187
 40
0.6756417771
 40
0.7349823825
 40
0.7883434298
 40
0.8357868906
 40
0.8775217503
 40
0.9139297662
 40
0.9456763571
 40
0.973843257
 40
1.0
 40
1.0
 40
1.0
 40
1.0
 10
12.7961948958
 20
5.7876189709
 30
0.0
 10
12.7964235106
 20
5.7870427764
 30
0.0
 10
12.796840349
 20
5.7859375828
 30
0.0
 10
12.7973653499
 20
5.7843456888
 30
0.0
 10
12.7977542597
 20
5.7829174736
 30
0.0
 10
12.7979708107
 20
5.781834537
 30
0.0
 10
12.7980643546
 20
5.7810658742
 30
0.0
 10
12.7980944279
 20
5.7805687993
 30
0.0
 10
12.798087723
 20
5.780125423
 30
0.0
 10
12.7980442665
 20
5.7797368504
 30
0.0
 10
12.7979638109
 20
5.7794038159
 30
0.0
 10
12.7978453805
 20
5.7791269502
 30
0.0
 10
12.7976879117
 20
5.7789076163
 30
0.0
 10
12.7975538753
 20
5.7788005499
 30
0.0
 10
12.7974834891
 20
5.7787599124
 30
0.0
  0
SPLINE
  5
2C7
100
AcDbEntity
  8
0
100
AcDbSpline
 62
9
  6
CONTINUOUS
 70
0
 71
3
 72
15
 73
11
 74
0
 42
0.0000001
 43
0.0000001
 44
0.0000000001
 40
0.0
 40
0.0
 40
0.0
 40
0.0
 40
0.1245543347
 40
0.2492102951
 40
0.3739226113
 40
0.4987893443
 40
0.6238234447
 40
0.7490243957
 40
0.8744522108
 40
1.0
 40
1.0
 40
1.0
 40
1.0
 10
11.4934834891
 20
7.3995425825
 30
0.0
 10
11.4934834891
 20
7.4004683924
 30
0.0
 10
11.4936155003
 20
7.4023234314
 30
0.0
 10
11.4942045478
 20
7.4050487548
 30
0.0
 10
11.4951740264
 20
7.4076660834
 30
0.0
 10
11.4965038706
 20
7.410123025
 30
0.0
 10
11.4981684614
 20
7.4123711988
 30
0.0
 10
11.5001346872
 20
7.4143669352
 30
0.0
 10
11.5023634431
 20
7.4160698137
 30
0.0
 10
11.5039953693
 20
7.4169883457
 30
0.0
 10
11.5048385291
 20
7.417388262
 30
0.0
  0
SPLINE
  5
2C8
100
AcDbEntity
  8
0
100
AcDbSpline
 62
9
  6
CONTINUOUS
 70
0
 71
3
 72
15
 73
11
 74
0
 42
0.0000001
 43
0.0000001
 44
0.0000000001
 40
0.0
 40
0.0
 40
0.0
 40
0.0
 40
0.1491064921
 40
0.2947593526
 40
0.4347814414
 40
0.567390436
 40
0.6910184749
 40
0.8045405704
 40
0.9074687462
 40
1.0
 40
1.0
 40
1.0
 40
1.0
 10
11.7062585751
 20
7.1962291434
 30
0.0
 10
11.7061421883
 20
7.1953091878
 30
0.0
 10
11.7059749959
 20
7.1934819336
 30
0.0
 10
11.7059218603
 20
7.1907762206
 30
0.0
 10
11.7060695119
 20
7.1881763499
 30
0.0
 10
11.7064146012
 20
7.1857330462
 30
0.0
 10
11.7069509015
 20
7.1834929355
 30
0.0
 10
11.7076685349
 20
7.1814978495
 30
0.0
 10
11.7085550163
 20
7.1797860844
 30
0.0
 10
11.7092870189
 20
7.1788053416
 30
0.0
 10
11.7096783766
 20
7.178383464
 30
0.0
  0
SPLINE
  5
2C9
100
AcDbEntity
  8
0
100
AcDbSpline
 62
9
  6
CONTINUOUS
 70
0
 71
3
 72
22
 73
18
 74
0
 42
0.0000001
 43
0.0000001
 44
0.0000000001
 40
0.0
 40
0.0
 40
0.0
 40
0.0
 40
0.2129317896
 40
0.4050320682
 40
0.5732981825
 40
0.6477410071
 40
0.7153636674
 40
0.7759250602
 40
0.8292513784
 40
0.875205758
 40
0.9137215644
 40
0.9448576313
 40
0.9688633292
 40
0.9784163423
 40
0.9865560756
 40
0.993591831
 40
1.0
 40
1.0
 40
1.0
 40
1.0
 10
12.9339575634
 20
5.9725858326
 30
0.0
 10
12.9346145667
 20
5.9724639758
 30
0.0
 10
12.9358661891
 20
5.9722421353
 30
0.0
 10
12.9376436716
 20
5.9719633814
 30
0.0
 10
12.9389967299
 20
5.9717853858
 30
0.0
 10
12.9399653242
 20
5.971683725
 30
0.0
 10
12.9405989972
 20
5.9716302557
 30
0.0
 10
12.9411676725
 20
5.9715965497
 30
0.0
 10
12.9416691991
 20
5.9715826034
 30
0.0
 10
12.9421017153
 20
5.9715883455
 30
0.0
 10
12.9424639746
 20
5.9716135447
 30
0.0
 10
12.9427547717
 20
5.9716578875
 30
0.0
 10
12.9429513189
 20
5.9717137964
 30
0.0
 10
12.9430688263
 20
5.9717723022
 30
0.0
 10
12.94313206
 20
5.9718181079
 30
0.0
 10
12.9431770949
 20
5.9718696914
 30
0.0
 10
12.9431944668
 20
5.9719090758
 30
0.0
 10
12.9431993514
 20
5.9719285833
 30
0.0
  0
SPLINE
  5
2CA
100
AcDbEntity
  8
0
100
AcDbSpline
 62
9
  6
CONTINUOUS
 70
0
 71
3
 72
19
 73
15
 74
0
 42
0.0000001
 43
0.0000001
 44
0.0000000001
 40
0.0
 40
0.0
 40
0.0
 40
0.0
 40
0.199499553
 40
0.3800369682
 40
0.5392581818
 40
0.675641771
 40
0.7349823762
 40
0.7883434236
 40
0.8357868846
 40
0.8775217449
 40
0.9139297615
 40
0.9456763537
 40
0.9738432551
 40
1.0
 40
1.0
 40
1.0
 40
1.0
 10
12.9441670228
 20
6.373857513
 30
0.0
 10
12.9447803292
 20
6.373767402
 30
0.0
 10
12.9459458742
 20
6.3735757979
 30
0.0
 10
12.9475869953
 20
6.373234515
 30
0.0
 10
12.9490183209
 20
6.3728572132
 30
0.0
 10
12.9500644469
 20
6.3725032835
 30
0.0
 10
12.9507769004
 20
6.3721999635
 30
0.0
 10
12.9512224165
 20
6.3719774703
 30
0.0
 10
12.9516030393
 20
6.3717499756
 30
0.0
 10
12.9519178247
 20
6.3715180548
 30
0.0
 10
12.9521660132
 20
6.371281861
 30
0.0
 10
12.9523465707
 20
6.3710408644
 30
0.0
 10
12.9524577851
 20
6.3707948254
 30
0.0
 10
12.9524834891
 20
6.3706252133
 30
0.0
 10
12.9524834891
 20
6.3705439383
 30
0.0
  0
SPLINE
  5
2CB
100
AcDbEntity
  8
0
100
AcDbSpline
 62
9
  6
CONTINUOUS
 70
0
 71
3
 72
22
 73
18
 74
0
 42
0.0000001
 43
0.0000001
 44
0.0000000001
 40
0.0
 40
0.0
 40
0.0
 40
0.0
 40
0.2129318242
 40
0.4050321347
 40
0.5732982767
 40
0.6477411131
 40
0.7153637834
 40
0.775925184
 40
0.8292515073
 40
0.8752058884
 40
0.9137216916
 40
0.9448577485
 40
0.968863426
 40
0.978416423
 40
0.986556135
 40
0.9935918633
 40
1.0
 40
1.0
 40
1.0
 40
1.0
 10
12.8528623554
 20
6.5856469137
 30
0.0
 10
12.853296388
 20
6.5861549671
 30
0.0
 10
12.8541143183
 20
6.587127984
 30
0.0
 10
12.855244467
 20
6.5885279526
 30
0.0
 10
12.8560751445
 20
6.589610738
 30
0.0
 10
12.8566474824
 20
6.590398735
 30
0.0
 10
12.8570106246
 20
6.5909207773
 30
0.0
 10
12.8573241524
 20
6.5913964115
 30
0.0
 10
12.8575869936
 20
6.5918237731
 30
0.0
 10
12.8577982791
 20
6.592201214
 30
0.0
 10
12.8579575857
 20
6.5925275393
 30
0.0
 10
12.8580645825
 20
6.5928015481
 30
0.0
 10
12.8581144379
 20
6.5929997172
 30
0.0
 10
12.8581225242
 20
6.5931307342
 30
0.0
 10
12.8581144724
 20
6.5932083988
 30
0.0
 10
12.8580923175
 20
6.5932731918
 30
0.0
 10
12.8580668956
 20
6.5933079284
 30
0.0
 10
12.8580524441
 20
6.5933219122
 30
0.0
  0
SPLINE
  5
2CC
100
AcDbEntity
  8
0
100
AcDbSpline
 62
9
  6
CONTINUOUS
 70
0
 71
3
 72
15
 73
11
 74
0
 42
0.0000001
 43
0.0000001
 44
0.0000000001
 40
0.0
 40
0.0
 40
0.0
 40
0.0
 40
0.1245543347
 40
0.2492102953
 40
0.3739226115
 40
0.4987893445
 40
0.6238234449
 40
0.7490243958
 40
0.8744522109
 40
1.0
 40
1.0
 40
1.0
 40
1.0
 10
13.2314834891
 20
7.1962291434
 30
0.0
 10
13.2314834891
 20
7.1953033335
 30
0.0
 10
13.231351478
 20
7.1934482945
 30
0.0
 10
13.2307624305
 20
7.1907229712
 30
0.0
 10
13.2297929519
 20
7.1881056426
 30
0.0
 10
13.2284631077
 20
7.1856487009
 30
0.0
 10
13.2267985169
 20
7.1834005271
 30
0.0
 10
13.2248322911
 20
7.1814047907
 30
0.0
 10
13.2226035352
 20
7.1797019123
 30
0.0
 10
13.220971609
 20
7.1787833802
 30
0.0
 10
13.2201284492
 20
7.178383464
 30
0.0
  0
SPLINE
  5
2CD
100
AcDbEntity
  8
0
100
AcDbSpline
 62
9
  6
CONTINUOUS
 70
0
 71
3
 72
15
 73
11
 74
0
 42
0.0000001
 43
0.0000001
 44
0.0000000001
 40
0.0
 40
0.0
 40
0.0
 40
0.0
 40
0.2032546461
 40
0.3805994706
 40
0.5325014079
 40
0.6600125545
 40
0.765221597
 40
0.8519300121
 40
0.9268659842
 40
1.0
 40
1.0
 40
1.0
 40
1.0
 10
11.4973894566
 20
7.3981494681
 30
0.0
 10
11.4970856507
 20
7.3981494682
 30
0.0
 10
11.496516613
 20
7.3981614599
 30
0.0
 10
11.4957225904
 20
7.3982240904
 30
0.0
 10
11.4950472103
 20
7.398329786
 30
0.0
 10
11.4944903365
 20
7.3984785127
 30
0.0
 10
11.4940506264
 20
7.3986709007
 30
0.0
 10
11.49372603
 20
7.3989113975
 30
0.0
 10
11.4935239106
 20
7.3992085651
 30
0.0
 10
11.4934834898
 20
7.3994332687
 30
0.0
 10
11.4934834891
 20
7.3995425825
 30
0.0
  0
SPLINE
  5
2CE
100
AcDbEntity
  8
0
100
AcDbSpline
 62
9
  6
CONTINUOUS
 70
0
 71
3
 72
15
 73
11
 74
0
 42
0.0000001
 43
0.0000001
 44
0.0000000001
 40
0.0
 40
0.0
 40
0.0
 40
0.0
 40
0.0731351371
 40
0.148070959
 40
0.2347790143
 40
0.3399878468
 40
0.4674988727
 40
0.619400736
 40
0.7967454984
 40
1.0
 40
1.0
 40
1.0
 40
1.0
 10
11.4934834891
 20
7.1962291434
 30
0.0
 10
11.4934834895
 20
7.196338459
 30
0.0
 10
11.4935239088
 20
7.1965631646
 30
0.0
 10
11.4937260296
 20
7.196860333
 30
0.0
 10
11.4940506271
 20
7.1971008269
 30
0.0
 10
11.4944903369
 20
7.1972932132
 30
0.0
 10
11.4950472107
 20
7.1974419389
 30
0.0
 10
11.4957225907
 20
7.1975476346
 30
0.0
 10
11.4965166131
 20
7.1976102657
 30
0.0
 10
11.4970856507
 20
7.1976222577
 30
0.0
 10
11.4973894566
 20
7.1976222579
 30
0.0
  0
SPLINE
  5
2CF
100
AcDbEntity
  8
0
100
AcDbSpline
 62
9
  6
CONTINUOUS
 70
0
 71
3
 72
11
 73
7
 74
0
 42
0.0000001
 43
0.0000001
 44
0.0000000001
 40
0.0
 40
0.0
 40
0.0
 40
0.0
 40
0.2732652443
 40
0.5321093896
 40
0.7748487877
 40
1.0
 40
1.0
 40
1.0
 40
1.0
 10
11.7062585751
 20
7.3995425825
 30
0.0
 10
11.704497073
 20
7.3993197449
 30
0.0
 10
11.7010618305
 20
7.3989254332
 30
0.0
 10
11.6960458774
 20
7.3984849146
 30
0.0
 10
11.6913308301
 20
7.398215604
 30
0.0
 10
11.6882905211
 20
7.3981494684
 30
0.0
 10
11.6868276009
 20
7.3981494681
 30
0.0
  0
SPLINE
  5
2D0
100
AcDbEntity
  8
0
100
AcDbSpline
 62
9
  6
CONTINUOUS
 70
0
 71
3
 72
11
 73
7
 74
0
 42
0.0000001
 43
0.0000001
 44
0.0000000001
 40
0.0
 40
0.0
 40
0.0
 40
0.0
 40
0.2251512314
 40
0.4678906644
 40
0.726734788
 40
1.0
 40
1.0
 40
1.0
 40
1.0
 10
11.6868276009
 20
7.1976222579
 30
0.0
 10
11.6882905212
 20
7.1976222576
 30
0.0
 10
11.6913308306
 20
7.1975561232
 30
0.0
 10
11.6960458781
 20
7.1972868122
 30
0.0
 10
11.7010618305
 20
7.1968462873
 30
0.0
 10
11.7044970724
 20
7.1964519747
 30
0.0
 10
11.7062585751
 20
7.1962291434
 30
0.0
  0
SPLINE
  5
2D1
100
AcDbEntity
  8
0
100
AcDbSpline
 62
9
  6
CONTINUOUS
 70
0
 71
3
 72
11
 73
7
 74
0
 42
0.0000001
 43
0.0000001
 44
0.0000000001
 40
0.0
 40
0.0
 40
0.0
 40
0.0
 40
0.2251512314
 40
0.4678906644
 40
0.726734788
 40
1.0
 40
1.0
 40
1.0
 40
1.0
 10
13.0381393774
 20
7.3981494681
 30
0.0
 10
13.0366764571
 20
7.3981494684
 30
0.0
 10
13.0336361477
 20
7.3982156027
 30
0.0
 10
13.0289211002
 20
7.3984849137
 30
0.0
 10
13.0239051477
 20
7.3989254387
 30
0.0
 10
13.0204699059
 20
7.3993197513
 30
0.0
 10
13.0187084032
 20
7.3995425825
 30
0.0
  0
SPLINE
  5
2D2
100
AcDbEntity
  8
0
100
AcDbSpline
 62
9
  6
CONTINUOUS
 70
0
 71
3
 72
11
 73
7
 74
0
 42
0.0000001
 43
0.0000001
 44
0.0000000001
 40
0.0
 40
0.0
 40
0.0
 40
0.0
 40
0.2732652443
 40
0.5321093896
 40
0.7748487877
 40
1.0
 40
1.0
 40
1.0
 40
1.0
 10
13.0187084032
 20
7.1962291434
 30
0.0
 10
13.0204699053
 20
7.196451981
 30
0.0
 10
13.0239051478
 20
7.1968462928
 30
0.0
 10
13.0289211009
 20
7.1972868113
 30
0.0
 10
13.0336361481
 20
7.197556122
 30
0.0
 10
13.0366764572
 20
7.1976222575
 30
0.0
 10
13.0381393774
 20
7.1976222579
 30
0.0
  0
SPLINE
  5
2D3
100
AcDbEntity
  8
0
100
AcDbSpline
 62
9
  6
CONTINUOUS
 70
0
 71
3
 72
15
 73
11
 74
0
 42
0.0000001
 43
0.0000001
 44
0.0000000001
 40
0.0
 40
0.0
 40
0.0
 40
0.0
 40
0.0731351371
 40
0.148070959
 40
0.2347790143
 40
0.3399878468
 40
0.4674988727
 40
0.619400736
 40
0.7967454984
 40
1.0
 40
1.0
 40
1.0
 40
1.0
 10
13.2314834891
 20
7.3995425825
 30
0.0
 10
13.2314834887
 20
7.399433267
 30
0.0
 10
13.2314430694
 20
7.3992085614
 30
0.0
 10
13.2312409486
 20
7.3989113929
 30
0.0
 10
13.2309163512
 20
7.398670899
 30
0.0
 10
13.2304766413
 20
7.3984785128
 30
0.0
 10
13.2299197676
 20
7.398329787
 30
0.0
 10
13.2292443876
 20
7.3982240913
 30
0.0
 10
13.2284503652
 20
7.3981614602
 30
0.0
 10
13.2278813275
 20
7.3981494682
 30
0.0
 10
13.2275775217
 20
7.3981494681
 30
0.0
  0
SPLINE
  5
2D4
100
AcDbEntity
  8
0
100
AcDbSpline
 62
9
  6
CONTINUOUS
 70
0
 71
3
 72
15
 73
11
 74
0
 42
0.0000001
 43
0.0000001
 44
0.0000000001
 40
0.0
 40
0.0
 40
0.0
 40
0.0
 40
0.2032546461
 40
0.3805994706
 40
0.5325014079
 40
0.6600125545
 40
0.765221597
 40
0.8519300121
 40
0.9268659842
 40
1.0
 40
1.0
 40
1.0
 40
1.0
 10
13.2275775217
 20
7.1976222579
 30
0.0
 10
13.2278813276
 20
7.1976222577
 30
0.0
 10
13.2284503653
 20
7.197610266
 30
0.0
 10
13.2292443878
 20
7.1975476355
 30
0.0
 10
13.2299197679
 20
7.19744194
 30
0.0
 10
13.2304766418
 20
7.1972932133
 30
0.0
 10
13.2309163519
 20
7.1971008252
 30
0.0
 10
13.2312409483
 20
7.1968603284
 30
0.0
 10
13.2314430676
 20
7.1965631608
 30
0.0
 10
13.2314834885
 20
7.1963384573
 30
0.0
 10
13.2314834891
 20
7.1962291434
 30
0.0
  0
SPLINE
  5
2D5
100
AcDbEntity
  8
0
100
AcDbSpline
 62
9
  6
CONTINUOUS
 70
0
 71
3
 72
11
 73
7
 74
0
 42
0.0000001
 43
0.0000001
 44
0.0000000001
 40
0.0
 40
0.0
 40
0.0
 40
0.0
 40
0.2727708962
 40
0.5314104012
 40
0.7743005965
 40
1.0
 40
1.0
 40
1.0
 40
1.0
 10
13.07410532
 20
4.422191378
 30
0.0
 10
13.0758419278
 20
4.4223883997
 30
0.0
 10
13.0792294066
 20
4.4227362844
 30
0.0
 10
13.0841760604
 20
4.4231235045
 30
0.0
 10
13.0888303216
 20
4.423359652
 30
0.0
 10
13.0918329065
 20
4.4234174411
 30
0.0
 10
13.0932790496
 20
4.4234174415
 30
0.0
  0
SPLINE
  5
2D6
100
AcDbEntity
  8
0
100
AcDbSpline
 62
9
  6
CONTINUOUS
 70
0
 71
3
 72
16
 73
12
 74
0
 42
0.0000001
 43
0.0000001
 44
0.0000000001
 40
0.0
 40
0.0
 40
0.0
 40
0.0
 40
0.0344883445
 40
0.0683334203
 40
0.1397433027
 40
0.2249280303
 40
0.3302497483
 40
0.4590673392
 40
0.6131512439
 40
0.7933490264
 40
1.0
 40
1.0
 40
1.0
 40
1.0
 10
13.3074834891
 20
4.6135803479
 30
0.0
 10
13.3074834889
 20
4.6135311804
 30
0.0
 10
13.307473992
 20
4.6134334052
 30
0.0
 10
13.3074123531
 20
4.6132423595
 30
0.0
 10
13.3072440352
 20
4.6130196363
 30
0.0
 10
13.3069296616
 20
4.6128105099
 30
0.0
 10
13.3065044298
 20
4.6126422668
 30
0.0
 10
13.3059652234
 20
4.6125122095
 30
0.0
 10
13.3053108343
 20
4.61241963
 30
0.0
 10
13.3045411739
 20
4.6123647828
 30
0.0
 10
13.3039895504
 20
4.6123542846
 30
0.0
 10
13.3036949429
 20
4.6123542844
 30
0.0
  0
SPLINE
  5
2D7
100
AcDbEntity
  8
0
100
AcDbSpline
 62
9
  6
CONTINUOUS
 70
0
 71
3
 72
16
 73
12
 74
0
 42
0.0000001
 43
0.0000001
 44
0.0000000001
 40
0.0
 40
0.0
 40
0.0
 40
0.0
 40
0.206651107
 40
0.3868489445
 40
0.5409329093
 40
0.6697505774
 40
0.7750724271
 40
0.8602574345
 40
0.9316674873
 40
0.9655123151
 40
1.0
 40
1.0
 40
1.0
 40
1.0
 10
13.3036949429
 20
4.4234174415
 30
0.0
 10
13.3039895505
 20
4.4234174414
 30
0.0
 10
13.304541174
 20
4.4234069433
 30
0.0
 10
13.3053108345
 20
4.4233520964
 30
0.0
 10
13.3059652236
 20
4.423259517
 30
0.0
 10
13.3065044301
 20
4.4231294593
 30
0.0
 10
13.3069296622
 20
4.4229612153
 30
0.0
 10
13.3072440351
 20
4.4227520864
 30
0.0
 10
13.3074123523
 20
4.4225293628
 30
0.0
 10
13.3074739916
 20
4.4223383185
 30
0.0
 10
13.3074834888
 20
4.4222405446
 30
0.0
 10
13.3074834891
 20
4.422191378
 30
0.0
  0
SPLINE
  5
2D8
100
AcDbEntity
  8
0
100
AcDbSpline
 62
9
  6
CONTINUOUS
 70
0
 71
3
 72
11
 73
7
 74
0
 42
0.0000001
 43
0.0000001
 44
0.0000000001
 40
0.0
 40
0.0
 40
0.0
 40
0.0
 40
0.2501707422
 40
0.4999999997
 40
0.7498292572
 40
1.0
 40
1.0
 40
1.0
 40
1.0
 10
11.6508616583
 20
4.422191378
 30
0.0
 10
11.6904289937
 20
4.4162056519
 30
0.0
 10
11.7700177632
 20
4.4074017346
 30
0.0
 10
11.889983489
 20
4.4030856158
 30
0.0
 10
12.0099492152
 20
4.407401732
 30
0.0
 10
12.0895379845
 20
4.4162056517
 30
0.0
 10
12.12910532
 20
4.422191378
 30
0.0
  0
LINE
  5
2D9
100
AcDbEntity
  8
0
100
AcDbLine
 62
9
  6
CONTINUOUS
 10
11.5057012015
 20
7.1603006144
 11
11.5048385291
 21
7.178383464
  0
SPLINE
  5
2DA
100
AcDbEntity
  8
0
100
AcDbSpline
 62
9
  6
CONTINUOUS
 70
0
 71
3
 72
11
 73
7
 74
0
 42
0.0000001
 43
0.0000001
 44
0.0000000001
 40
0.0
 40
0.0
 40
0.0
 40
0.0
 40
0.2431984022
 40
0.4892927569
 40
0.7408536533
 40
1.0
 40
1.0
 40
1.0
 40
1.0
 10
12.1284834891
 20
6.9007965565
 30
0.0
 10
12.1284834891
 20
6.899700459
 30
0.0
 10
12.1286591783
 20
6.8974913949
 30
0.0
 10
12.1294428423
 20
6.8942325003
 30
0.0
 10
12.1307361527
 20
6.8910632342
 30
0.0
 10
12.1319054333
 20
6.8890706059
 30
0.0
 10
12.1325616
 20
6.8881043704
 30
0.0
  0
SPLINE
  5
2DB
100
AcDbEntity
  8
0
100
AcDbSpline
 62
9
  6
CONTINUOUS
 70
0
 71
3
 72
11
 73
7
 74
0
 42
0.0000001
 43
0.0000001
 44
0.0000000001
 40
0.0
 40
0.0
 40
0.0
 40
0.0
 40
0.2730279422
 40
0.5324146288
 40
0.7754878985
 40
1.0
 40
1.0
 40
1.0
 40
1.0
 10
12.1884834891
 20
6.9007965566
 30
0.0
 10
12.1875922462
 20
6.8997247991
 30
0.0
 10
12.1859015391
 20
6.8975948621
 30
0.0
 10
12.1835989716
 20
6.8943718317
 30
0.0
 10
12.1816156961
 20
6.8912322426
 30
0.0
 10
12.1804741936
 20
6.8891328437
 30
0.0
 10
12.179968175
 20
6.8881043704
 30
0.0
  0
SPLINE
  5
2DC
100
AcDbEntity
  8
0
100
AcDbSpline
 62
9
  6
CONTINUOUS
 70
0
 71
3
 72
13
 73
9
 74
0
 42
0.0000001
 43
0.0000001
 44
0.0000000001
 40
0.0
 40
0.0
 40
0.0
 40
0.0
 40
0.2687722321
 40
0.5288028519
 40
0.6535050314
 40
0.7737068615
 40
0.8892016321
 40
1.0
 40
1.0
 40
1.0
 40
1.0
 10
13.0381393774
 20
7.3981494681
 30
0.0
 10
13.0381393774
 20
7.3999650025
 30
0.0
 10
13.0377791455
 20
7.4035470575
 30
0.0
 10
13.0364277964
 20
7.4077891099
 30
0.0
 10
13.0348398081
 20
7.4108159531
 30
0.0
 10
13.0334472508
 20
7.4128213181
 30
0.0
 10
13.0318626179
 20
7.4145534673
 30
0.0
 10
13.0306727654
 20
7.4155242151
 30
0.0
 10
13.0300566546
 20
7.4159491396
 30
0.0
  0
SPLINE
  5
2DD
100
AcDbEntity
  8
0
100
AcDbSpline
 62
9
  6
CONTINUOUS
 70
0
 71
3
 72
15
 73
11
 74
0
 42
0.0000001
 43
0.0000001
 44
0.0000000001
 40
0.0
 40
0.0
 40
0.0
 40
0.0
 40
0.1268774645
 40
0.2535794743
 40
0.3798071094
 40
0.505439305
 40
0.6303257483
 40
0.7543711165
 40
0.8776103132
 40
1.0
 40
1.0
 40
1.0
 40
1.0
 10
13.2275775217
 20
7.3981494681
 30
0.0
 10
13.2275775217
 20
7.3990628288
 30
0.0
 10
13.2274581313
 20
7.4008905136
 30
0.0
 10
13.2269249445
 20
7.4035797581
 30
0.0
 10
13.2260466873
 20
7.4061679828
 30
0.0
 10
13.2248404442
 20
7.4086060107
 30
0.0
 10
13.2233280415
 20
7.4108481512
 30
0.0
 10
13.2215378537
 20
7.4128527771
 30
0.0
 10
13.219503564
 20
7.4145810126
 30
0.0
 10
13.2180042704
 20
7.4155313123
 30
0.0
 10
13.2172285921
 20
7.4159491396
 30
0.0
  0
SPLINE
  5
2DE
100
AcDbEntity
  8
0
100
AcDbSpline
 62
9
  6
CONTINUOUS
 70
0
 71
3
 72
15
 73
11
 74
0
 42
0.0000001
 43
0.0000001
 44
0.0000000001
 40
0.0
 40
0.0
 40
0.0
 40
0.0
 40
0.1245543351
 40
0.2492102959
 40
0.3739226124
 40
0.4987893454
 40
0.6238234458
 40
0.7490243965
 40
0.8744522113
 40
1.0
 40
1.0
 40
1.0
 40
1.0
 10
13.2314834891
 20
7.3995425825
 30
0.0
 10
13.2314834891
 20
7.4004683924
 30
0.0
 10
13.231351478
 20
7.4023234314
 30
0.0
 10
13.2307624305
 20
7.4050487548
 30
0.0
 10
13.2297929519
 20
7.4076660834
 30
0.0
 10
13.2284631077
 20
7.410123025
 30
0.0
 10
13.2267985169
 20
7.4123711989
 30
0.0
 10
13.2248322911
 20
7.4143669353
 30
0.0
 10
13.2226035352
 20
7.4160698137
 30
0.0
 10
13.220971609
 20
7.4169883457
 30
0.0
 10
13.2201284492
 20
7.417388262
 30
0.0
  0
SPLINE
  5
2DF
100
AcDbEntity
  8
0
100
AcDbSpline
 62
9
  6
CONTINUOUS
 70
0
 71
3
 72
18
 73
14
 74
0
 42
0.0000001
 43
0.0000001
 44
0.0000000001
 40
0.0
 40
0.0
 40
0.0
 40
0.0
 40
0.1506262496
 40
0.2989033707
 40
0.4417733532
 40
0.5764419603
 40
0.6399839471
 40
0.7006629102
 40
0.758307165
 40
0.8128054262
 40
0.8641220769
 40
0.9123226828
 40
1.0
 40
1.0
 40
1.0
 40
1.0
 10
12.3024834891
 20
8.7385275326
 30
0.0
 10
12.3026338217
 20
8.7407625745
 30
0.0
 10
12.3031176483
 20
8.7451875563
 30
0.0
 10
12.3043795472
 20
8.7516432018
 30
0.0
 10
12.3061416233
 20
8.7577347612
 30
0.0
 10
12.30802156
 20
8.762457223
 30
0.0
 10
12.3097477538
 20
8.7659009985
 30
0.0
 10
12.311107388
 20
8.7682412817
 30
0.0
 10
12.3125473637
 20
8.770372893
 30
0.0
 10
12.3140577424
 20
8.7722807138
 30
0.0
 10
12.3156293207
 20
8.7739522758
 30
0.0
 10
12.3177226313
 20
8.7757898564
 30
0.0
 10
12.3194555031
 20
8.7768808771
 30
0.0
 10
12.3206483054
 20
8.7774076046
 30
0.0
  0
SPLINE
  5
2E0
100
AcDbEntity
  8
0
100
AcDbSpline
 62
9
  6
CONTINUOUS
 70
0
 71
3
 72
19
 73
15
 74
0
 42
0.0000001
 43
0.0000001
 44
0.0000000001
 40
0.0
 40
0.0
 40
0.0
 40
0.0
 40
0.1555503861
 40
0.3069409802
 40
0.4511310853
 40
0.5854550437
 40
0.6482838241
 40
0.7079494231
 40
0.7643446731
 40
0.8174394053
 40
0.8672991003
 40
0.9141125574
 40
0.9582025827
 40
1.0
 40
1.0
 40
1.0
 40
1.0
 10
12.1884834891
 20
8.7385275326
 30
0.0
 10
12.1883340041
 20
8.7407499713
 30
0.0
 10
12.1882210898
 20
8.7451500189
 30
0.0
 10
12.1886113264
 20
8.7516066541
 30
0.0
 10
12.1895506874
 20
8.7577001397
 30
0.0
 10
12.1907962638
 20
8.7624389853
 30
0.0
 10
12.1920626189
 20
8.7658941987
 30
0.0
 10
12.1931073985
 20
8.7682355971
 30
0.0
 10
12.1942608125
 20
8.7703685992
 30
0.0
 10
12.1955154521
 20
8.7722783516
 30
0.0
 10
12.1968630025
 20
8.7739516028
 30
0.0
 10
12.1982953225
 20
8.7753765843
 30
0.0
 10
12.1998029955
 20
8.7765417551
 30
0.0
 10
12.2008762358
 20
8.777153244
 30
0.0
 10
12.2014180317
 20
8.7774076046
 30
0.0
  0
SPLINE
  5
2E1
100
AcDbEntity
  8
0
100
AcDbSpline
 62
9
  6
CONTINUOUS
 70
0
 71
3
 72
11
 73
7
 74
0
 42
0.0000001
 43
0.0000001
 44
0.0000000001
 40
0.0
 40
0.0
 40
0.0
 40
0.0
 40
0.2730282167
 40
0.532415069
 40
0.7754882917
 40
1.0
 40
1.0
 40
1.0
 40
1.0
 10
12.536483489
 20
6.9007965565
 30
0.0
 10
12.5373747263
 20
6.899724793
 30
0.0
 10
12.5390654247
 20
6.8975948472
 30
0.0
 10
12.5413679865
 20
6.8943718117
 30
0.0
 10
12.543351265
 20
6.8912322275
 30
0.0
 10
12.5444927776
 20
6.8891328376
 30
0.0
 10
12.5449988032
 20
6.8881043704
 30
0.0
  0
SPLINE
  5
2E2
100
AcDbEntity
  8
0
100
AcDbSpline
 62
9
  6
CONTINUOUS
 70
0
 71
3
 72
11
 73
7
 74
0
 42
0.0000001
 43
0.0000001
 44
0.0000000001
 40
0.0
 40
0.0
 40
0.0
 40
0.0
 40
0.2431969488
 40
0.4892907921
 40
0.7408521801
 40
1.0
 40
1.0
 40
1.0
 40
1.0
 10
12.5964834891
 20
6.9007965566
 30
0.0
 10
12.5964834891
 20
6.8997004659
 30
0.0
 10
12.596307799
 20
6.8974914112
 30
0.0
 10
12.5955241339
 20
6.8942325247
 30
0.0
 10
12.5942308226
 20
6.8910632531
 30
0.0
 10
12.593061544
 20
6.8890706145
 30
0.0
 10
12.5924053783
 20
6.8881043705
 30
0.0
  0
SPLINE
  5
2E3
100
AcDbEntity
  8
0
100
AcDbSpline
 62
9
  6
CONTINUOUS
 70
0
 71
3
 72
11
 73
7
 74
0
 42
0.0000001
 43
0.0000001
 44
0.0000000001
 40
0.0
 40
0.0
 40
0.0
 40
0.0
 40
0.2428737266
 40
0.4923899124
 40
0.7457314925
 40
1.0
 40
1.0
 40
1.0
 40
1.0
 10
12.302483489
 20
6.9007965565
 30
0.0
 10
12.3034100254
 20
6.899682344
 30
0.0
 10
12.3053421465
 20
6.8974676494
 30
0.0
 10
12.3084107971
 20
6.8942439517
 30
0.0
 10
12.3116602803
 20
6.8911040143
 30
0.0
 10
12.3139231886
 20
6.8890895216
 30
0.0
 10
12.315076914
 20
6.8881043704
 30
0.0
  0
SPLINE
  5
2E4
100
AcDbEntity
  8
0
100
AcDbSpline
 62
9
  6
CONTINUOUS
 70
0
 71
3
 72
11
 73
7
 74
0
 42
0.0000001
 43
0.0000001
 44
0.0000000001
 40
0.0
 40
0.0
 40
0.0
 40
0.0
 40
0.242873638
 40
0.4923898314
 40
0.7457314612
 40
1.0
 40
1.0
 40
1.0
 40
1.0
 10
12.4224834891
 20
6.9007965566
 30
0.0
 10
12.4215569469
 20
6.8996823499
 30
0.0
 10
12.4196248172
 20
6.8974676643
 30
0.0
 10
12.416556162
 20
6.8942439724
 30
0.0
 10
12.413306683
 20
6.8911040312
 30
0.0
 10
12.4110437837
 20
6.8890895285
 30
0.0
 10
12.4098900642
 20
6.8881043704
 30
0.0
  0
SPLINE
  5
2E5
100
AcDbEntity
  8
0
100
AcDbSpline
 62
9
  6
CONTINUOUS
 70
0
 71
3
 72
19
 73
15
 74
0
 42
0.0000001
 43
0.0000001
 44
0.0000000001
 40
0.0
 40
0.0
 40
0.0
 40
0.0
 40
0.1555503902
 40
0.306940989
 40
0.4511310986
 40
0.5854550604
 40
0.6482838417
 40
0.7079494411
 40
0.7643446906
 40
0.8174394214
 40
0.8672991141
 40
0.9141125678
 40
0.9582025884
 40
1.0
 40
1.0
 40
1.0
 40
1.0
 10
12.5364834891
 20
8.7385275326
 30
0.0
 10
12.536632974
 20
8.7407499713
 30
0.0
 10
12.5367458878
 20
8.745150019
 30
0.0
 10
12.5363556508
 20
8.7516066542
 30
0.0
 10
12.5354162895
 20
8.7577001398
 30
0.0
 10
12.5341707131
 20
8.7624389854
 30
0.0
 10
12.5329043579
 20
8.7658941989
 30
0.0
 10
12.5318595784
 20
8.7682355972
 30
0.0
 10
12.5307061645
 20
8.7703685993
 30
0.0
 10
12.5294515251
 20
8.7722783516
 30
0.0
 10
12.5281039749
 20
8.7739516028
 30
0.0
 10
12.5266716552
 20
8.7753765844
 30
0.0
 10
12.5251639825
 20
8.7765417551
 30
0.0
 10
12.5240907423
 20
8.777153244
 30
0.0
 10
12.5235489466
 20
8.7774076046
 30
0.0
  0
SPLINE
  5
2E6
100
AcDbEntity
  8
0
100
AcDbSpline
 62
9
  6
CONTINUOUS
 70
0
 71
3
 72
18
 73
14
 74
0
 42
0.0000001
 43
0.0000001
 44
0.0000000001
 40
0.0
 40
0.0
 40
0.0
 40
0.0
 40
0.1506262637
 40
0.2989034023
 40
0.4417734023
 40
0.5764420233
 40
0.6399840143
 40
0.7006629792
 40
0.7583072328
 40
0.8128054894
 40
0.8641221313
 40
0.912322724
 40
1.0
 40
1.0
 40
1.0
 40
1.0
 10
12.4224834893
 20
8.7385275326
 30
0.0
 10
12.4223331556
 20
8.7407625745
 30
0.0
 10
12.4218493271
 20
8.7451875561
 30
0.0
 10
12.4205874261
 20
8.7516432014
 30
0.0
 10
12.4188253487
 20
8.7577347606
 30
0.0
 10
12.4169454116
 20
8.7624572223
 30
0.0
 10
12.4152192181
 20
8.7659009978
 30
0.0
 10
12.4138595842
 20
8.7682412811
 30
0.0
 10
12.412419609
 20
8.7703728925
 30
0.0
 10
12.4109092311
 20
8.7722807133
 30
0.0
 10
12.4093376538
 20
8.7739522754
 30
0.0
 10
12.4072443448
 20
8.775789856
 30
0.0
 10
12.4055114743
 20
8.776880877
 30
0.0
 10
12.4043186729
 20
8.7774076046
 30
0.0
  0
SPLINE
  5
2E7
100
AcDbEntity
  8
0
100
AcDbSpline
 62
9
  6
CONTINUOUS
 70
0
 71
3
 72
15
 73
11
 74
0
 42
0.0000001
 43
0.0000001
 44
0.0000000001
 40
0.0
 40
0.0
 40
0.0
 40
0.0
 40
0.1268774645
 40
0.2535794743
 40
0.3798071093
 40
0.5054393049
 40
0.6303257481
 40
0.7543711163
 40
0.8776103131
 40
1.0
 40
1.0
 40
1.0
 40
1.0
 10
11.4973894566
 20
7.3981494681
 30
0.0
 10
11.4973894566
 20
7.3990628288
 30
0.0
 10
11.4975088469
 20
7.4008905136
 30
0.0
 10
11.4980420338
 20
7.4035797581
 30
0.0
 10
11.498920291
 20
7.4061679828
 30
0.0
 10
11.500126534
 20
7.4086060107
 30
0.0
 10
11.5016389367
 20
7.4108481512
 30
0.0
 10
11.5034291246
 20
7.4128527771
 30
0.0
 10
11.5054634142
 20
7.4145810126
 30
0.0
 10
11.5069627078
 20
7.4155313123
 30
0.0
 10
11.5077383862
 20
7.4159491396
 30
0.0
  0
SPLINE
  5
2E8
100
AcDbEntity
  8
0
100
AcDbSpline
 62
9
  6
CONTINUOUS
 70
0
 71
3
 72
13
 73
9
 74
0
 42
0.0000001
 43
0.0000001
 44
0.0000000001
 40
0.0
 40
0.0
 40
0.0
 40
0.0
 40
0.2687722319
 40
0.5288028516
 40
0.653505031
 40
0.7737068612
 40
0.8892016319
 40
1.0
 40
1.0
 40
1.0
 40
1.0
 10
11.6868276009
 20
7.3981494681
 30
0.0
 10
11.6868276009
 20
7.3999650025
 30
0.0
 10
11.6871878327
 20
7.4035470575
 30
0.0
 10
11.6885391818
 20
7.4077891099
 30
0.0
 10
11.6901271702
 20
7.4108159531
 30
0.0
 10
11.6915197275
 20
7.4128213181
 30
0.0
 10
11.6931043604
 20
7.4145534673
 30
0.0
 10
11.6942942128
 20
7.4155242151
 30
0.0
 10
11.6949103236
 20
7.4159491396
 30
0.0
  0
SPLINE
  5
2E9
100
AcDbEntity
  8
0
100
AcDbSpline
 62
9
  6
CONTINUOUS
 70
0
 71
3
 72
15
 73
11
 74
0
 42
0.0000001
 43
0.0000001
 44
0.0000000001
 40
0.0
 40
0.0
 40
0.0
 40
0.0
 40
0.149106493
 40
0.2947593545
 40
0.4347814444
 40
0.5673904399
 40
0.6910184793
 40
0.8045405746
 40
0.9074687491
 40
1.0
 40
1.0
 40
1.0
 40
1.0
 10
11.7062585751
 20
7.3995425825
 30
0.0
 10
11.7061421883
 20
7.4004625381
 30
0.0
 10
11.7059749959
 20
7.4022897924
 30
0.0
 10
11.7059218604
 20
7.4049955053
 30
0.0
 10
11.7060695121
 20
7.4075953761
 30
0.0
 10
11.7064146013
 20
7.4100386798
 30
0.0
 10
11.7069509017
 20
7.4122787905
 30
0.0
 10
11.707668535
 20
7.4142738764
 30
0.0
 10
11.7085550164
 20
7.4159856415
 30
0.0
 10
11.7092870189
 20
7.4169663844
 30
0.0
 10
11.7096783766
 20
7.417388262
 30
0.0
  0
SPLINE
  5
2EA
100
AcDbEntity
  8
0
100
AcDbSpline
 62
9
  6
CONTINUOUS
 70
0
 71
3
 72
13
 73
9
 74
0
 42
0.0000001
 43
0.0000001
 44
0.0000000001
 40
0.0
 40
0.0
 40
0.0
 40
0.0
 40
0.2687722321
 40
0.528802852
 40
0.6535050314
 40
0.7737068616
 40
0.8892016321
 40
1.0
 40
1.0
 40
1.0
 40
1.0
 10
11.6868276009
 20
7.1976222579
 30
0.0
 10
11.6868276009
 20
7.1958067234
 30
0.0
 10
11.6871878327
 20
7.1922246685
 30
0.0
 10
11.6885391818
 20
7.1879826161
 30
0.0
 10
11.6901271702
 20
7.1849557728
 30
0.0
 10
11.6915197275
 20
7.1829504078
 30
0.0
 10
11.6931043604
 20
7.1812182586
 30
0.0
 10
11.6942942128
 20
7.1802475108
 30
0.0
 10
11.6949103236
 20
7.1798225863
 30
0.0
  0
SPLINE
  5
2EB
100
AcDbEntity
  8
0
100
AcDbSpline
 62
9
  6
CONTINUOUS
 70
0
 71
3
 72
15
 73
11
 74
0
 42
0.0000001
 43
0.0000001
 44
0.0000000001
 40
0.0
 40
0.0
 40
0.0
 40
0.0
 40
0.1268774645
 40
0.2535794743
 40
0.3798071094
 40
0.505439305
 40
0.6303257483
 40
0.7543711165
 40
0.8776103132
 40
1.0
 40
1.0
 40
1.0
 40
1.0
 10
11.4973894566
 20
7.1976222579
 30
0.0
 10
11.4973894566
 20
7.1967088972
 30
0.0
 10
11.497508847
 20
7.1948812124
 30
0.0
 10
11.4980420338
 20
7.1921919678
 30
0.0
 10
11.498920291
 20
7.1896037432
 30
0.0
 10
11.500126534
 20
7.1871657152
 30
0.0
 10
11.5016389367
 20
7.1849235747
 30
0.0
 10
11.5034291246
 20
7.1829189488
 30
0.0
 10
11.5054634142
 20
7.1811907134
 30
0.0
 10
11.5069627078
 20
7.1802404137
 30
0.0
 10
11.5077383862
 20
7.1798225863
 30
0.0
  0
SPLINE
  5
2EC
100
AcDbEntity
  8
0
100
AcDbSpline
 62
9
  6
CONTINUOUS
 70
0
 71
3
 72
15
 73
11
 74
0
 42
0.0000001
 43
0.0000001
 44
0.0000000001
 40
0.0
 40
0.0
 40
0.0
 40
0.0
 40
0.1245543351
 40
0.2492102959
 40
0.3739226124
 40
0.4987893454
 40
0.6238234458
 40
0.7490243965
 40
0.8744522113
 40
1.0
 40
1.0
 40
1.0
 40
1.0
 10
11.4934834891
 20
7.1962291434
 30
0.0
 10
11.4934834891
 20
7.1953033335
 30
0.0
 10
11.4936155003
 20
7.1934482945
 30
0.0
 10
11.4942045478
 20
7.1907229712
 30
0.0
 10
11.4951740264
 20
7.1881056426
 30
0.0
 10
11.4965038706
 20
7.1856487009
 30
0.0
 10
11.4981684614
 20
7.1834005271
 30
0.0
 10
11.5001346872
 20
7.1814047907
 30
0.0
 10
11.5023634431
 20
7.1797019123
 30
0.0
 10
11.5039953693
 20
7.1787833802
 30
0.0
 10
11.5048385291
 20
7.178383464
 30
0.0
  0
SPLINE
  5
2ED
100
AcDbEntity
  8
0
100
AcDbSpline
 62
9
  6
CONTINUOUS
 70
0
 71
3
 72
32
 73
28
 74
0
 42
0.0000001
 43
0.0000001
 44
0.0000000001
 40
0.0
 40
0.0
 40
0.0
 40
0.0
 40
0.0552124961
 40
0.1059661457
 40
0.1525955107
 40
0.1746382622
 40
0.1960234024
 40
0.2169616125
 40
0.2377221171
 40
0.2586190475
 40
0.2799749625
 40
0.3020747493
 40
0.3251847775
 40
0.3495629889
 40
0.3754147941
 40
0.4028755221
 40
0.4320239204
 40
0.4955604947
 40
0.5299592294
 40
0.566027257
 40
0.6036999047
 40
0.6429057093
 40
0.6835552521
 40
0.7255430456
 40
0.8131087505
 40
0.9048476195
 40
1.0
 40
1.0
 40
1.0
 40
1.0
 10
12.1284834891
 20
6.9007965566
 30
0.0
 10
12.1284835314
 20
6.9022414257
 30
0.0
 10
12.1286041064
 20
6.9050176458
 30
0.0
 10
12.1292430942
 20
6.9089701247
 30
0.0
 10
12.1302099033
 20
6.9119610333
 30
0.0
 10
12.1312623692
 20
6.9140741199
 30
0.0
 10
12.1321750099
 20
6.9154942927
 30
0.0
 10
12.1332298472
 20
6.9167697256
 30
0.0
 10
12.1344299312
 20
6.9178914486
 30
0.0
 10
12.1357746597
 20
6.9188538798
 30
0.0
 10
12.1372627005
 20
6.9196520524
 30
0.0
 10
12.1388928333
 20
6.9202786473
 30
0.0
 10
12.1406632624
 20
6.9207226598
 30
0.0
 10
12.1425686344
 20
6.9209800068
 30
0.0
 10
12.1446026813
 20
6.9210604441
 30
0.0
 10
12.1467609215
 20
6.920970651
 30
0.0
 10
12.1498863024
 20
6.9206043168
 30
0.0
 10
12.1531377233
 20
6.9198583293
 30
0.0
 10
12.1564879337
 20
6.9188211338
 30
0.0
 10
12.1591523348
 20
6.9178643232
 30
0.0
 10
12.1618913633
 20
6.9167515385
 30
0.0
 10
12.1646949768
 20
6.9154852575
 30
0.0
 10
12.1675544691
 20
6.9140732668
 30
0.0
 10
12.1714862449
 20
6.911979215
 30
0.0
 10
12.176481247
 20
6.9090433798
 30
0.0
 10
12.1824978727
 20
6.9051170958
 30
0.0
 10
12.1864820461
 20
6.9022779925
 30
0.0
 10
12.1884834891
 20
6.9007965566
 30
0.0
  0
SPLINE
  5
2EE
100
AcDbEntity
  8
0
100
AcDbSpline
 62
9
  6
CONTINUOUS
 70
0
 71
3
 72
29
 73
25
 74
0
 42
0.0000001
 43
0.0000001
 44
0.0000000001
 40
0.0
 40
0.0
 40
0.0
 40
0.0
 40
0.2163221758
 40
0.4119209449
 40
0.5008852438
 40
0.583437092
 40
0.6592231551
 40
0.7279202875
 40
0.7892439037
 40
0.8429398653
 40
0.8668624422
 40
0.8888028195
 40
0.9087431904
 40
0.9266703424
 40
0.9425736151
 40
0.9564481348
 40
0.9683008247
 40
0.9781515117
 40
0.986044323
 40
0.9920817499
 40
0.9944781327
 40
0.9965276459
 40
0.9983230207
 40
1.0
 40
1.0
 40
1.0
 40
1.0
 10
12.1884834891
 20
8.7385275326
 30
0.0
 10
12.1841365766
 20
8.7382677697
 30
0.0
 10
12.1758570504
 20
8.7378077741
 30
0.0
 10
12.1657839331
 20
8.7373542282
 30
0.0
 10
12.1583981281
 20
8.7370977837
 30
0.0
 10
12.153421572
 20
8.7369634804
 30
0.0
 10
12.1488519129
 20
8.7368814952
 30
0.0
 10
12.1447089236
 20
8.7368523205
 30
0.0
 10
12.1410105739
 20
8.736875716
 30
0.0
 10
12.1382141442
 20
8.7369405731
 30
0.0
 10
12.1362115977
 20
8.7370223844
 30
0.0
 10
12.1348888571
 20
8.7370944152
 30
0.0
 10
12.133687832
 20
8.7371793349
 30
0.0
 10
12.1326097261
 20
8.7372769901
 30
0.0
 10
12.1316556311
 20
8.7373871938
 30
0.0
 10
12.1308263936
 20
8.7375097327
 30
0.0
 10
12.1301227073
 20
8.7376442131
 30
0.0
 10
12.1295444071
 20
8.7377901249
 30
0.0
 10
12.1290917009
 20
8.737947122
 30
0.0
 10
12.1287962527
 20
8.7380967494
 30
0.0
 10
12.1286302201
 20
8.7382282886
 30
0.0
 10
12.1285466891
 20
8.7383233718
 30
0.0
 10
12.1284950866
 20
8.7384233961
 30
0.0
 10
12.1284834967
 20
8.7384937742
 30
0.0
 10
12.1284834891
 20
8.7385275326
 30
0.0
  0
SPLINE
  5
2EF
100
AcDbEntity
  8
0
100
AcDbSpline
 62
9
  6
CONTINUOUS
 70
0
 71
3
 72
32
 73
28
 74
0
 42
0.0000001
 43
0.0000001
 44
0.0000000001
 40
0.0
 40
0.0
 40
0.0
 40
0.0
 40
0.0951519737
 40
0.1868917377
 40
0.2744571844
 40
0.3164430606
 40
0.3570915872
 40
0.3962993161
 40
0.4339759468
 40
0.47004601
 40
0.5044429395
 40
0.5679762964
 40
0.5971249477
 40
0.6245856577
 40
0.6504371891
 40
0.67481524
 40
0.6979275854
 40
0.7200329927
 40
0.7413918212
 40
0.7622822982
 40
0.7830321114
 40
0.8039659299
 40
0.8253547384
 40
0.8474030935
 40
0.8940329791
 40
0.9447853958
 40
1.0
 40
1.0
 40
1.0
 40
1.0
 10
12.5364834891
 20
6.9007965566
 30
0.0
 10
12.5384849301
 20
6.902277973
 30
0.0
 10
12.5424692332
 20
6.9051169103
 30
0.0
 10
12.5484857928
 20
6.909043269
 30
0.0
 10
12.5534806324
 20
6.9119793358
 30
0.0
 10
12.5574127023
 20
6.9140726591
 30
0.0
 10
12.5602723797
 20
6.915484196
 30
0.0
 10
12.5630759283
 20
6.9167508866
 30
0.0
 10
12.5658145643
 20
6.9178651574
 30
0.0
 10
12.5684786521
 20
6.9188231978
 30
0.0
 10
12.5718290837
 20
6.9198595996
 30
0.0
 10
12.5750809258
 20
6.9206028473
 30
0.0
 10
12.5782061052
 20
6.9209697376
 30
0.0
 10
12.5803643001
 20
6.9210604792
 30
0.0
 10
12.5823983715
 20
6.9209809531
 30
0.0
 10
12.5843038752
 20
6.9207239545
 30
0.0
 10
12.5860743031
 20
6.9202788873
 30
0.0
 10
12.5877040865
 20
6.9196506134
 30
0.0
 10
12.5891918378
 20
6.9188519461
 30
0.0
 10
12.5905368794
 20
6.9178906791
 30
0.0
 10
12.5917374164
 20
6.9167702294
 30
0.0
 10
12.5927922774
 20
6.9154951552
 30
0.0
 10
12.5937046982
 20
6.9140746805
 30
0.0
 10
12.5947568986
 20
6.9119611925
 30
0.0
 10
12.5957239072
 20
6.9089702467
 30
0.0
 10
12.5963629067
 20
6.905017717
 30
0.0
 10
12.5964834629
 20
6.9022414794
 30
0.0
 10
12.5964834891
 20
6.9007965566
 30
0.0
  0
SPLINE
  5
2F0
100
AcDbEntity
  8
0
100
AcDbSpline
 62
9
  6
CONTINUOUS
 70
0
 71
3
 72
29
 73
25
 74
0
 42
0.0000001
 43
0.0000001
 44
0.0000000001
 40
0.0
 40
0.0
 40
0.0
 40
0.0
 40
0.0016767412
 40
0.0034718362
 40
0.0055210794
 40
0.0079172331
 40
0.0139543819
 40
0.0218471753
 40
0.0316980231
 40
0.0435509032
 40
0.0574255566
 40
0.0733288834
 40
0.0912560581
 40
0.1111964477
 40
0.1331368522
 40
0.1570594844
 40
0.2107555778
 40
0.2720793558
 40
0.3407766765
 40
0.4165628967
 40
0.4991148207
 40
0.5880792457
 40
0.7836782109
 40
1.0
 40
1.0
 40
1.0
 40
1.0
 10
12.5964834891
 20
8.7385275326
 30
0.0
 10
12.5964834799
 20
8.7384937791
 30
0.0
 10
12.5964718875
 20
8.7384234118
 30
0.0
 10
12.5964202818
 20
8.738323407
 30
0.0
 10
12.5963367493
 20
8.7382283463
 30
0.0
 10
12.5961707139
 20
8.7380968366
 30
0.0
 10
12.5958752658
 20
8.7379472373
 30
0.0
 10
12.5954225662
 20
8.7377902351
 30
0.0
 10
12.5948442703
 20
8.7376442822
 30
0.0
 10
12.5941405845
 20
8.7375097505
 30
0.0
 10
12.5933113458
 20
8.7373871708
 30
0.0
 10
12.592357248
 20
8.7372769609
 30
0.0
 10
12.5912791399
 20
8.7371793204
 30
0.0
 10
12.5900781133
 20
8.7370944211
 30
0.0
 10
12.5887553717
 20
8.7370223986
 30
0.0
 10
12.5867528236
 20
8.7369405751
 30
0.0
 10
12.5839563896
 20
8.736875706
 30
0.0
 10
12.5802580331
 20
8.736852426
 30
0.0
 10
12.5761150391
 20
8.7368816524
 30
0.0
 10
12.5715453737
 20
8.7369634694
 30
0.0
 10
12.5665688105
 20
8.7370975775
 30
0.0
 10
12.5591829987
 20
8.7373538939
 30
0.0
 10
12.5491099538
 20
8.7378087743
 30
0.0
 10
12.5408304044
 20
8.7382680227
 30
0.0
 10
12.5364834891
 20
8.7385275326
 30
0.0
  0
SPLINE
  5
2F1
100
AcDbEntity
  8
0
100
AcDbSpline
 62
9
  6
CONTINUOUS
 70
0
 71
3
 72
31
 73
27
 74
0
 42
0.0000001
 43
0.0000001
 44
0.0000000001
 40
0.0
 40
0.0
 40
0.0
 40
0.0
 40
0.0593506983
 40
0.1196684882
 40
0.180970679
 40
0.2432653431
 40
0.274769428
 40
0.3064917315
 40
0.3384125579
 40
0.3705100092
 40
0.4027505954
 40
0.4350999457
 40
0.4675283441
 40
0.5000000613
 40
0.5324719615
 40
0.564900433
 40
0.5972494673
 40
0.629489966
 40
0.6615877877
 40
0.6935087505
 40
0.7252306618
 40
0.7567343765
 40
0.8190293781
 40
0.8803316673
 40
0.9406493506
 40
1.0
 40
1.0
 40
1.0
 40
1.0
 10
12.3024834891
 20
6.9007965566
 30
0.0
 10
12.304531803
 20
6.9023126654
 30
0.0
 10
12.3087701096
 20
6.9052264062
 30
0.0
 10
12.3154789478
 20
6.9091602809
 30
0.0
 10
12.3225770381
 20
6.9126381183
 30
0.0
 10
12.3287739067
 20
6.9150982054
 30
0.0
 10
12.3338960304
 20
6.9167789605
 30
0.0
 10
12.3378284311
 20
6.9178909429
 30
0.0
 10
12.3418279353
 20
6.9188461518
 30
0.0
 10
12.3458850981
 20
6.9196409832
 30
0.0
 10
12.3499903756
 20
6.9202673837
 30
0.0
 10
12.3541335194
 20
6.9207137369
 30
0.0
 10
12.3583022986
 20
6.9209752546
 30
0.0
 10
12.3624835044
 20
6.9210605756
 30
0.0
 10
12.3666647283
 20
6.9209759107
 30
0.0
 10
12.3708335332
 20
6.9207146616
 30
0.0
 10
12.3749765956
 20
6.9202675426
 30
0.0
 10
12.3790816696
 20
6.9196398277
 30
0.0
 10
12.3831387282
 20
6.9188444691
 30
0.0
 10
12.3871384289
 20
6.9178901234
 30
0.0
 10
12.3910711339
 20
6.9167793002
 30
0.0
 10
12.3961934467
 20
6.915099123
 30
0.0
 10
12.4023900277
 20
6.912638256
 30
0.0
 10
12.4094880356
 20
6.9091602742
 30
0.0
 10
12.4161968688
 20
6.9052263889
 30
0.0
 10
12.4204351687
 20
6.902312653
 30
0.0
 10
12.4224834891
 20
6.9007965566
 30
0.0
  0
SPLINE
  5
2F2
100
AcDbEntity
  8
0
100
AcDbSpline
 62
9
  6
CONTINUOUS
 70
0
 71
3
 72
15
 73
11
 74
0
 42
0.0000001
 43
0.0000001
 44
0.0000000001
 40
0.0
 40
0.0
 40
0.0
 40
0.0
 40
0.1173386077
 40
0.2411976785
 40
0.3694824226
 40
0.4999999966
 40
0.6305175914
 40
0.7588023625
 40
0.8826614368
 40
1.0
 40
1.0
 40
1.0
 40
1.0
 10
12.4224834891
 20
8.7385275326
 30
0.0
 10
12.417795855
 20
8.7382476067
 30
0.0
 10
12.4081547084
 20
8.7377602468
 30
0.0
 10
12.393376234
 20
8.7372438967
 30
0.0
 10
12.3780645006
 20
8.7369310229
 30
0.0
 10
12.3624834885
 20
8.7368259045
 30
0.0
 10
12.3469024762
 20
8.7369310272
 30
0.0
 10
12.3315907375
 20
8.7372437917
 30
0.0
 10
12.3168122709
 20
8.73776035
 30
0.0
 10
12.3071711234
 20
8.7382476382
 30
0.0
 10
12.3024834891
 20
8.7385275326
 30
0.0
  0
LINE
  5
2F3
100
AcDbEntity
  8
0
100
AcDbLine
 62
9
  6
CONTINUOUS
 10
12.5653830723
 20
8.7800768788
 11
12.5653841303
 21
8.7774076046
  0
LINE
  5
2F4
100
AcDbEntity
  8
0
100
AcDbLine
 62
9
  6
CONTINUOUS
 10
12.159582848
 20
8.7774076046
 11
12.159583906
 21
8.7800768788
  0
SPLINE
  5
2F5
100
AcDbEntity
  8
0
100
AcDbSpline
 62
9
  6
CONTINUOUS
 70
0
 71
3
 72
15
 73
11
 74
0
 42
0.0000001
 43
0.0000001
 44
0.0000000001
 40
0.0
 40
0.0
 40
0.0
 40
0.0
 40
0.1268774645
 40
0.2535794742
 40
0.3798071093
 40
0.5054393049
 40
0.6303257481
 40
0.7543711163
 40
0.8776103131
 40
1.0
 40
1.0
 40
1.0
 40
1.0
 10
13.2275775217
 20
7.1976222579
 30
0.0
 10
13.2275775217
 20
7.1967088972
 30
0.0
 10
13.2274581313
 20
7.1948812124
 30
0.0
 10
13.2269249445
 20
7.1921919678
 30
0.0
 10
13.2260466873
 20
7.1896037432
 30
0.0
 10
13.2248404442
 20
7.1871657152
 30
0.0
 10
13.2233280415
 20
7.1849235747
 30
0.0
 10
13.2215378537
 20
7.1829189488
 30
0.0
 10
13.219503564
 20
7.1811907134
 30
0.0
 10
13.2180042704
 20
7.1802404137
 30
0.0
 10
13.2172285921
 20
7.1798225863
 30
0.0
  0
SPLINE
  5
2F6
100
AcDbEntity
  8
0
100
AcDbSpline
 62
9
  6
CONTINUOUS
 70
0
 71
3
 72
13
 73
9
 74
0
 42
0.0000001
 43
0.0000001
 44
0.0000000001
 40
0.0
 40
0.0
 40
0.0
 40
0.0
 40
0.2687722319
 40
0.5288028515
 40
0.6535050309
 40
0.7737068611
 40
0.8892016318
 40
1.0
 40
1.0
 40
1.0
 40
1.0
 10
13.0381393774
 20
7.1976222579
 30
0.0
 10
13.0381393774
 20
7.1958067234
 30
0.0
 10
13.0377791455
 20
7.1922246685
 30
0.0
 10
13.0364277965
 20
7.1879826161
 30
0.0
 10
13.0348398081
 20
7.1849557728
 30
0.0
 10
13.0334472508
 20
7.1829504078
 30
0.0
 10
13.0318626179
 20
7.1812182586
 30
0.0
 10
13.0306727654
 20
7.1802475108
 30
0.0
 10
13.0300566546
 20
7.1798225863
 30
0.0
  0
SPLINE
  5
2F7
100
AcDbEntity
  8
0
100
AcDbSpline
 62
9
  6
CONTINUOUS
 70
0
 71
3
 72
15
 73
11
 74
0
 42
0.0000001
 43
0.0000001
 44
0.0000000001
 40
0.0
 40
0.0
 40
0.0
 40
0.0
 40
0.149106493
 40
0.2947593545
 40
0.4347814444
 40
0.5673904399
 40
0.6910184793
 40
0.8045405746
 40
0.9074687491
 40
1.0
 40
1.0
 40
1.0
 40
1.0
 10
13.0187084032
 20
7.1962291434
 30
0.0
 10
13.0188247899
 20
7.1953091878
 30
0.0
 10
13.0189919823
 20
7.1934819336
 30
0.0
 10
13.0190451179
 20
7.1907762206
 30
0.0
 10
13.0188974662
 20
7.1881763498
 30
0.0
 10
13.0185523769
 20
7.1857330461
 30
0.0
 10
13.0180160766
 20
7.1834929354
 30
0.0
 10
13.0172984432
 20
7.1814978495
 30
0.0
 10
13.0164119619
 20
7.1797860844
 30
0.0
 10
13.0156799594
 20
7.1788053416
 30
0.0
 10
13.0152886017
 20
7.178383464
 30
0.0
  0
SPLINE
  5
2F8
100
AcDbEntity
  8
0
100
AcDbSpline
 62
9
  6
CONTINUOUS
 70
0
 71
3
 72
25
 73
21
 74
0
 42
0.0000001
 43
0.0000001
 44
0.0000000001
 40
0.0
 40
0.0
 40
0.0
 40
0.0
 40
0.2152803683
 40
0.4099479666
 40
0.4984699608
 40
0.5806060191
 40
0.6559963263
 40
0.7243278503
 40
0.7853165003
 40
0.8387361728
 40
0.8843989331
 40
0.9221859928
 40
0.9381131908
 40
0.9520774107
 40
0.964110804
 40
0.9742692094
 40
0.9826529933
 40
0.9894505725
 40
0.9950203734
 40
1.0
 40
1.0
 40
1.0
 40
1.0
 10
12.2014180317
 20
8.7774076046
 30
0.0
 10
12.1983902674
 20
8.7771360605
 30
0.0
 10
12.1926212807
 20
8.7766554474
 30
0.0
 10
12.1855981264
 20
8.7761807686
 30
0.0
 10
12.1804463554
 20
8.7759123239
 30
0.0
 10
12.1769747251
 20
8.7757717599
 30
0.0
 10
12.1737864848
 20
8.7756860301
 30
0.0
 10
12.1708958265
 20
8.7756553175
 30
0.0
 10
12.1683153212
 20
8.7756797332
 30
0.0
 10
12.1660560195
 20
8.7757585048
 30
0.0
 10
12.1641275043
 20
8.7758911242
 30
0.0
 10
12.1627325284
 20
8.776052236
 30
0.0
 10
12.1617906587
 20
8.7762156093
 30
0.0
 10
12.161212478
 20
8.776344094
 30
0.0
 10
12.1607213864
 20
8.776485227
 30
0.0
 10
12.1603171735
 20
8.7766388648
 30
0.0
 10
12.1599990552
 20
8.7768052796
 30
0.0
 10
12.15976564
 20
8.776986036
 30
0.0
 10
12.1596170629
 20
8.7771866736
 30
0.0
 10
12.1595828625
 20
8.7773372887
 30
0.0
 10
12.159582848
 20
8.7774076046
 30
0.0
  0
SPLINE
  5
2F9
100
AcDbEntity
  8
0
100
AcDbSpline
 62
9
  6
CONTINUOUS
 70
0
 71
3
 72
15
 73
11
 74
0
 42
0.0000001
 43
0.0000001
 44
0.0000000001
 40
0.0
 40
0.0
 40
0.0
 40
0.0
 40
0.1173672264
 40
0.2412188947
 40
0.3694919197
 40
0.4999999396
 40
0.6305080165
 40
0.7587811518
 40
0.8826320824
 40
1.0
 40
1.0
 40
1.0
 40
1.0
 10
12.4043186729
 20
8.7774076046
 30
0.0
 10
12.4010545569
 20
8.7771148915
 30
0.0
 10
12.3943375013
 20
8.7766056597
 30
0.0
 10
12.3840336322
 20
8.7760654841
 30
0.0
 10
12.3733536999
 20
8.7757375684
 30
0.0
 10
12.3624834925
 20
8.7756277737
 30
0.0
 10
12.3516132827
 20
8.7757375615
 30
0.0
 10
12.3409333637
 20
8.7760654311
 30
0.0
 10
12.3306295002
 20
8.7766057327
 30
0.0
 10
12.3239124397
 20
8.7771148797
 30
0.0
 10
12.3206483054
 20
8.7774076046
 30
0.0
  0
SPLINE
  5
2FA
100
AcDbEntity
  8
0
100
AcDbSpline
 62
9
  6
CONTINUOUS
 70
0
 71
3
 72
25
 73
21
 74
0
 42
0.0000001
 43
0.0000001
 44
0.0000000001
 40
0.0
 40
0.0
 40
0.0
 40
0.0
 40
0.004979633
 40
0.0105503681
 40
0.017349428
 40
0.0257341601
 40
0.0358920417
 40
0.0479236035
 40
0.0618852701
 40
0.0778098604
 40
0.1155938792
 40
0.1612587553
 40
0.2146859818
 40
0.2756789306
 40
0.3440040523
 40
0.4193842152
 40
0.5015159819
 40
0.5900446349
 40
0.7847398388
 40
1.0
 40
1.0
 40
1.0
 40
1.0
 10
12.5653841303
 20
8.7774076046
 30
0.0
 10
12.5653841054
 20
8.7773372888
 30
0.0
 10
12.5653498422
 20
8.7771866676
 30
0.0
 10
12.5652011511
 20
8.7769860757
 30
0.0
 10
12.5649676537
 20
8.7768053573
 30
0.0
 10
12.5646495011
 20
8.7766389585
 30
0.0
 10
12.5642453187
 20
8.7764853045
 30
0.0
 10
12.5637543092
 20
8.7763441438
 30
0.0
 10
12.5631762392
 20
8.7762156259
 30
0.0
 10
12.5622344987
 20
8.7760522031
 30
0.0
 10
12.5608395804
 20
8.7758910576
 30
0.0
 10
12.5589109752
 20
8.7757584689
 30
0.0
 10
12.5566514799
 20
8.7756798186
 30
0.0
 10
12.5540709077
 20
8.7756554602
 30
0.0
 10
12.5511804323
 20
8.7756860623
 30
0.0
 10
12.5479924938
 20
8.7757716485
 30
0.0
 10
12.5445209827
 20
8.7759121411
 30
0.0
 10
12.5393688123
 20
8.7761807237
 30
0.0
 10
12.5323455283
 20
8.7766560035
 30
0.0
 10
12.5265764168
 20
8.7771360994
 30
0.0
 10
12.5235489466
 20
8.7774076046
 30
0.0
  0
LINE
  5
2FB
100
AcDbEntity
  8
0
100
AcDbLine
 62
9
  6
CONTINUOUS
 10
12.5924053783
 20
6.8881043704
 11
12.5944164353
 21
6.8556444769
  0
SPLINE
  5
2FC
100
AcDbEntity
  8
0
100
AcDbSpline
 62
9
  6
CONTINUOUS
 70
0
 71
3
 72
31
 73
27
 74
0
 42
0.0000001
 43
0.0000001
 44
0.0000000001
 40
0.0
 40
0.0
 40
0.0
 40
0.0
 40
0.0902940237
 40
0.1776102552
 40
0.261174333
 40
0.3401543895
 40
0.4136071923
 40
0.4480029337
 40
0.4807287244
 40
0.5117276856
 40
0.5409733514
 40
0.5685056133
 40
0.5944471867
 40
0.6189755562
 40
0.6423368402
 40
0.6648402089
 40
0.6868510443
 40
0.7087287959
 40
0.7308092774
 40
0.7533899943
 40
0.7767078695
 40
0.8009309267
 40
0.8261590662
 40
0.8798083574
 40
0.9378309815
 40
1.0
 40
1.0
 40
1.0
 40
1.0
 10
12.5449988032
 20
6.8881043704
 30
0.0
 10
12.5464476986
 20
6.8895216117
 30
0.0
 10
12.5493481645
 20
6.8922585643
 30
0.0
 10
12.5537814557
 20
6.896097572
 30
0.0
 10
12.5582050901
 20
6.8995501772
 30
0.0
 10
12.5625773742
 20
6.902547669
 30
0.0
 10
12.5662155715
 20
6.9046461548
 30
0.0
 10
12.5690633026
 20
6.906008505
 30
0.0
 10
12.5711026207
 20
6.9068440701
 30
0.0
 10
12.5730831463
 20
6.9075071912
 30
0.0
 10
12.5749960214
 20
6.9079886798
 30
0.0
 10
12.5768325098
 20
6.90828041
 30
0.0
 10
12.5785837275
 20
6.9083817245
 30
0.0
 10
12.5802423743
 20
6.9082910944
 30
0.0
 10
12.5818015573
 20
6.9080079872
 30
0.0
 10
12.5832537267
 20
6.907530515
 30
0.0
 10
12.5845935402
 20
6.9068666088
 30
0.0
 10
12.5858189555
 20
6.9060269198
 30
0.0
 10
12.586929209
 20
6.9050215282
 30
0.0
 10
12.587925222
 20
6.903860672
 30
0.0
 10
12.5888086176
 20
6.9025543103
 30
0.0
 10
12.589584548
 20
6.9011142321
 30
0.0
 10
12.5905011207
 20
6.8989866006
 30
0.0
 10
12.5913864845
 20
6.896033257
 30
0.0
 10
12.5920777772
 20
6.8921872552
 30
0.0
 10
12.592323633
 20
6.8894974534
 30
0.0
 10
12.5924053783
 20
6.8881043704
 30
0.0
  0
SPLINE
  5
2FD
100
AcDbEntity
  8
0
100
AcDbSpline
 62
9
  6
CONTINUOUS
 70
0
 71
3
 72
31
 73
27
 74
0
 42
0.0000001
 43
0.0000001
 44
0.0000000001
 40
0.0
 40
0.0
 40
0.0
 40
0.0
 40
0.0653968645
 40
0.130272428
 40
0.1945313106
 40
0.258110682
 40
0.2896353556
 40
0.3209730433
 40
0.3521240219
 40
0.3830985495
 40
0.4139049009
 40
0.4445603766
 40
0.4750872837
 40
0.5055149305
 40
0.5358761992
 40
0.5662081459
 40
0.5965427573
 40
0.6269014898
 40
0.6573191577
 40
0.687831438
 40
0.7184610103
 40
0.7492100604
 40
0.8110786253
 40
0.8735131312
 40
0.9365040362
 40
1.0
 40
1.0
 40
1.0
 40
1.0
 10
12.4098900642
 20
6.8881043704
 30
0.0
 10
12.4123477441
 20
6.8858299694
 30
0.0
 10
12.4173574652
 20
6.8814200503
 30
0.0
 10
12.4252064901
 20
6.8752770847
 30
0.0
 10
12.4333770701
 20
6.8697288092
 30
0.0
 10
12.4404829625
 20
6.8656943418
 30
0.0
 10
12.4463224047
 20
6.8628932734
 30
0.0
 10
12.4507623345
 20
6.8610274222
 30
0.0
 10
12.4552694113
 20
6.8594110294
 30
0.0
 10
12.4598358578
 20
6.8580631035
 30
0.0
 10
12.4644502377
 20
6.856996291
 30
0.0
 10
12.4690999482
 20
6.8562241574
 30
0.0
 10
12.4737705767
 20
6.85575467
 30
0.0
 10
12.4784471185
 20
6.8555961104
 30
0.0
 10
12.4831139056
 20
6.8557518895
 30
0.0
 10
12.4877543355
 20
6.8562254287
 30
0.0
 10
12.4923534116
 20
6.8570011238
 30
0.0
 10
12.4968990561
 20
6.8580638903
 30
0.0
 10
12.5013796455
 20
6.8594060539
 30
0.0
 10
12.5057836098
 20
6.8610215784
 30
0.0
 10
12.5101046784
 20
6.8628895563
 30
0.0
 10
12.5157622737
 20
6.8656906731
 30
0.0
 10
12.5226145395
 20
6.8697245246
 30
0.0
 10
12.5304458775
 20
6.8752761774
 30
0.0
 10
12.5379258846
 20
6.881420905
 30
0.0
 10
12.5426748072
 20
6.8858306638
 30
0.0
 10
12.5449988032
 20
6.8881043704
 30
0.0
  0
SPLINE
  5
2FE
100
AcDbEntity
  8
0
100
AcDbSpline
 62
9
  6
CONTINUOUS
 70
0
 71
3
 72
23
 73
19
 74
0
 42
0.0000001
 43
0.0000001
 44
0.0000000001
 40
0.0
 40
0.0
 40
0.0
 40
0.0
 40
0.1213356635
 40
0.1829423825
 40
0.214001871
 40
0.2452316169
 40
0.3081681591
 40
0.3717132008
 40
0.435725716
 40
0.500000027
 40
0.5642743831
 40
0.6282866302
 40
0.6918320037
 40
0.7547684502
 40
0.7859982213
 40
0.8170577405
 40
0.8786643563
 40
1.0
 40
1.0
 40
1.0
 40
1.0
 10
12.315076914
 20
6.8881043704
 30
0.0
 10
12.3182100529
 20
6.8910026741
 30
0.0
 10
12.3232376785
 20
6.8950673494
 30
0.0
 10
12.3296189149
 20
6.8990748656
 30
0.0
 10
12.3334536783
 20
6.9011488089
 30
0.0
 10
12.3374203259
 20
6.9030671954
 30
0.0
 10
12.3425838612
 20
6.9051221542
 30
0.0
 10
12.349041093
 20
6.9069566743
 30
0.0
 10
12.355706134
 20
6.9080971459
 30
0.0
 10
12.362483473
 20
6.9084764406
 30
0.0
 10
12.3692608585
 20
6.9080974022
 30
0.0
 10
12.3759257636
 20
6.9069561337
 30
0.0
 10
12.3823830645
 20
6.9051220028
 30
0.0
 10
12.3875467727
 20
6.9030674013
 30
0.0
 10
12.3915133797
 20
6.901148929
 30
0.0
 10
12.395348093
 20
6.8990748968
 30
0.0
 10
12.4017292575
 20
6.8950672841
 30
0.0
 10
12.4067569541
 20
6.8910027042
 30
0.0
 10
12.4098900642
 20
6.8881043704
 30
0.0
  0
SPLINE
  5
2FF
100
AcDbEntity
  8
0
100
AcDbSpline
 62
9
  6
CONTINUOUS
 70
0
 71
3
 72
32
 73
28
 74
0
 42
0.0000001
 43
0.0000001
 44
0.0000000001
 40
0.0
 40
0.0
 40
0.0
 40
0.0
 40
0.0634976004
 40
0.1264874346
 40
0.1889193471
 40
0.2507870848
 40
0.2815325587
 40
0.3121586283
 40
0.3426736769
 40
0.3730992446
 40
0.4034609103
 40
0.4337910854
 40
0.4641200629
 40
0.4944824854
 40
0.5249090329
 40
0.5554318482
 40
0.5860864903
 40
0.6168958047
 40
0.6478715985
 40
0.6790214185
 40
0.7103586044
 40
0.7418836918
 40
0.8054621383
 40
0.8697197529
 40
0.9020911505
 40
0.9346034213
 40
1.0
 40
1.0
 40
1.0
 40
1.0
 10
12.1799681751
 20
6.8881043704
 30
0.0
 10
12.1822921855
 20
6.885830522
 30
0.0
 10
12.1870405998
 20
6.8814201166
 30
0.0
 10
12.1945204572
 20
6.8752751534
 30
0.0
 10
12.2023525626
 20
6.8697249114
 30
0.0
 10
12.2092042591
 20
6.865690642
 30
0.0
 10
12.2148623378
 20
6.8628912172
 30
0.0
 10
12.2191840026
 20
6.8610251157
 30
0.0
 10
12.2235880132
 20
6.859408803
 30
0.0
 10
12.2280677515
 20
6.8580614262
 30
0.0
 10
12.2326130316
 20
6.8569949957
 30
0.0
 10
12.2372125538
 20
6.8562224303
 30
0.0
 10
12.2418530379
 20
6.855752979
 30
0.0
 10
12.2465195892
 20
6.8555962178
 30
0.0
 10
12.2511960836
 20
6.8557535651
 30
0.0
 10
12.2558661473
 20
6.856226703
 30
0.0
 10
12.260515192
 20
6.8570018099
 30
0.0
 10
12.2651304897
 20
6.8580650815
 30
0.0
 10
12.2696986584
 20
6.8594080418
 30
0.0
 10
12.2742059277
 20
6.8610242351
 30
0.0
 10
12.2786448099
 20
6.8628925241
 30
0.0
 10
12.2844834925
 20
6.8656950675
 30
0.0
 10
12.2915904419
 20
6.8697273709
 30
0.0
 10
12.2983820997
 20
6.8743418731
 30
0.0
 10
12.3036577543
 20
6.8783301219
 30
0.0
 10
12.3088531095
 20
6.8825159343
 30
0.0
 10
12.3126191386
 20
6.8858300552
 30
0.0
 10
12.315076914
 20
6.8881043704
 30
0.0
  0
SPLINE
  5
300
100
AcDbEntity
  8
0
100
AcDbSpline
 62
9
  6
CONTINUOUS
 70
0
 71
3
 72
31
 73
27
 74
0
 42
0.0000001
 43
0.0000001
 44
0.0000000001
 40
0.0
 40
0.0
 40
0.0
 40
0.0
 40
0.0621688622
 40
0.1201917248
 40
0.1738406756
 40
0.1990679544
 40
0.2232903605
 40
0.2466087445
 40
0.2691911501
 40
0.2912727938
 40
0.3131503588
 40
0.3351608377
 40
0.3576643889
 40
0.3810256718
 40
0.4055535804
 40
0.4314946156
 40
0.4590268151
 40
0.4882736719
 40
0.5192744554
 40
0.5520005766
 40
0.586394526
 40
0.6598446055
 40
0.7388258714
 40
0.8223900538
 40
0.9097059746
 40
1.0
 40
1.0
 40
1.0
 40
1.0
 10
12.1325616
 20
6.8881043704
 30
0.0
 10
12.1326433563
 20
6.8894974502
 30
0.0
 10
12.1328892147
 20
6.8921872552
 30
0.0
 10
12.1335804844
 20
6.8960332562
 30
0.0
 10
12.1344658349
 20
6.8989865891
 30
0.0
 10
12.1353824827
 20
6.9011141468
 30
0.0
 10
12.1361584747
 20
6.9025541668
 30
0.0
 10
12.1370418646
 20
6.9038605666
 30
0.0
 10
12.1380377114
 20
6.9050216552
 30
0.0
 10
12.1391478031
 20
6.9060273266
 30
0.0
 10
12.1403732527
 20
6.9068670261
 30
0.0
 10
12.1417132224
 20
6.9075306168
 30
0.0
 10
12.1431654608
 20
6.9080078305
 30
0.0
 10
12.1447246258
 20
6.908290953
 30
0.0
 10
12.1463832429
 20
6.9083817127
 30
0.0
 10
12.1481344478
 20
6.9082805388
 30
0.0
 10
12.1499709613
 20
6.907988829
 30
0.0
 10
12.1518838492
 20
6.9075070913
 30
0.0
 10
12.1538643517
 20
6.9068436715
 30
0.0
 10
12.1559036687
 20
6.9060080976
 30
0.0
 10
12.1587514748
 20
6.9046461211
 30
0.0
 10
12.1623897337
 20
6.9025478508
 30
0.0
 10
12.1667618543
 20
6.8995501669
 30
0.0
 10
12.1711855198
 20
6.8960975664
 30
0.0
 10
12.1756188212
 20
6.8922585683
 30
0.0
 10
12.1785192848
 20
6.8895216192
 30
0.0
 10
12.1799681751
 20
6.8881043704
 30
0.0
  0
LINE
  5
301
100
AcDbEntity
  8
0
100
AcDbLine
 62
9
  6
CONTINUOUS
 10
12.1305505429
 20
6.8556444769
 11
12.1325616
 21
6.8881043704
  0
SPLINE
  5
302
100
AcDbEntity
  8
0
100
AcDbSpline
 62
9
  6
CONTINUOUS
 70
0
 71
3
 72
41
 73
37
 74
0
 42
0.0000001
 43
0.0000001
 44
0.0000000001
 40
0.0
 40
0.0
 40
0.0
 40
0.0
 40
0.0987694754
 40
0.1477398739
 40
0.1962146631
 40
0.2911096823
 40
0.3824705689
 40
0.469533724
 40
0.5517245662
 40
0.62859488
 40
0.6997507668
 40
0.7647904141
 40
0.8232534682
 40
0.8498508748
 40
0.8745891994
 40
0.8973822672
 40
0.9181398545
 40
0.9367675231
 40
0.9531679342
 40
0.9672462547
 40
0.9733861648
 40
0.9789113308
 40
0.9838118639
 40
0.9880795333
 40
0.9917061577
 40
0.9946835317
 40
0.9959264558
 40
0.9970048845
 40
0.9979184423
 40
0.9986667533
 40
0.9992494411
 40
0.9996661295
 40
0.9998121061
 40
0.9999164414
 40
0.9999790885
 40
1.0
 40
1.0
 40
1.0
 40
1.0
 10
12.3624834891
 20
6.6679241424
 30
0.0
 10
12.357103319
 20
6.6679239832
 30
0.0
 10
12.3490525146
 20
6.6676567746
 30
0.0
 10
12.3383985139
 20
6.6667864309
 30
0.0
 10
12.3279876893
 20
6.6655945115
 30
0.0
 10
12.3153595439
 20
6.6635319772
 30
0.0
 10
12.3008333513
 20
6.6602281647
 30
0.0
 10
12.2871947913
 20
6.656259339
 30
0.0
 10
12.2745478797
 20
6.6517893233
 30
0.0
 10
12.2629585394
 20
6.6469843296
 30
0.0
 10
12.2524676612
 20
6.6420096853
 30
0.0
 10
12.2431024551
 20
6.6370300337
 30
0.0
 10
12.2360478549
 20
6.6328922218
 30
0.0
 10
12.2309780832
 20
6.6297185171
 30
0.0
 10
12.2275931441
 20
6.6275165166
 30
0.0
 10
12.2245081658
 20
6.6254377712
 30
0.0
 10
12.2217275248
 20
6.6235037552
 30
0.0
 10
12.219256388
 20
6.6217351327
 30
0.0
 10
12.2170998867
 20
6.6201524107
 30
0.0
 10
12.2155041318
 20
6.6189555437
 30
0.0
 10
12.2143882552
 20
6.6181062751
 30
0.0
 10
12.2136723258
 20
6.6175569977
 30
0.0
 10
12.2130389848
 20
6.6170676257
 30
0.0
 10
12.212488857
 20
6.6166397078
 30
0.0
 10
12.2120224645
 20
6.6162747676
 30
0.0
 10
12.2116864467
 20
6.6160105799
 30
0.0
 10
12.2114597566
 20
6.6158319179
 30
0.0
 10
12.2113214467
 20
6.615722734
 30
0.0
 10
12.2112043487
 20
6.6156301637
 30
0.0
 10
12.2111085078
 20
6.6155542439
 30
0.0
 10
12.2110338865
 20
6.6154951356
 30
0.0
 10
12.2109850971
 20
6.6154562342
 30
0.0
 10
12.2109565728
 20
6.6154337511
 30
0.0
 10
12.2109433779
 20
6.6154229189
 30
0.0
 10
12.2109351173
 20
6.6154169255
 30
0.0
 10
12.2109318213
 20
6.6154136923
 30
0.0
 10
12.210930822
 20
6.6154131456
 30
0.0
  0
SPLINE
  5
303
100
AcDbEntity
  8
0
100
AcDbSpline
 62
9
  6
CONTINUOUS
 70
0
 71
3
 72
34
 73
30
 74
0
 42
0.0000001
 43
0.0000001
 44
0.0000000001
 40
0.0
 40
0.0
 40
0.0
 40
0.0
 40
0.0000835545
 40
0.0003338562
 40
0.0007505305
 40
0.0013332029
 40
0.0029950449
 40
0.0053163922
 40
0.0082938016
 40
0.0119205045
 40
0.0161882784
 40
0.0210889246
 40
0.0327541931
 40
0.0468327382
 40
0.0632334019
 40
0.0818613669
 40
0.1026192781
 40
0.1254126848
 40
0.1767472281
 40
0.2352111627
 40
0.3002517783
 40
0.3714087095
 40
0.448280139
 40
0.530472261
 40
0.6175365354
 40
0.7088989431
 40
0.8037955168
 40
0.9012290476
 40
1.0
 40
1.0
 40
1.0
 40
1.0
 10
12.5140361563
 20
6.6154131456
 30
0.0
 10
12.514032452
 20
6.61541579
 30
0.0
 10
12.5140185773
 20
6.6154275842
 30
0.0
 10
12.5139862387
 20
6.6154525786
 30
0.0
 10
12.5139331227
 20
6.6154951622
 30
0.0
 10
12.5138194185
 20
6.6155850671
 30
0.0
 10
12.5136244348
 20
6.615739465
 30
0.0
 10
12.5133266698
 20
6.6159741802
 30
0.0
 10
12.5129444871
 20
6.6162746938
 30
0.0
 10
12.5124780933
 20
6.6166396371
 30
0.0
 10
12.5119279741
 20
6.6170675758
 30
0.0
 10
12.5110299868
 20
6.6177614592
 30
0.0
 10
12.5097036033
 20
6.6187749336
 30
0.0
 10
12.5078670846
 20
6.6201524009
 30
0.0
 10
12.5057105782
 20
6.6217351223
 30
0.0
 10
12.5032394489
 20
6.6235037561
 30
0.0
 10
12.5004588052
 20
6.6254377829
 30
0.0
 10
12.4961723906
 20
6.6283260724
 30
0.0
 10
12.4900815343
 20
6.6322103844
 30
0.0
 10
12.4818645699
 20
6.6370300144
 30
0.0
 10
12.4724993142
 20
6.6420097411
 30
0.0
 10
12.462008417
 20
6.6469842721
 30
0.0
 10
12.4504191745
 20
6.6517895478
 30
0.0
 10
12.4377720094
 20
6.6562588134
 30
0.0
 10
12.4241337646
 20
6.6602285732
 30
0.0
 10
12.4096071375
 20
6.6635314176
 30
0.0
 10
12.3943458431
 20
6.6660238582
 30
0.0
 10
12.3785543602
 20
6.6675715033
 30
0.0
 10
12.3678636597
 20
6.6679238908
 30
0.0
 10
12.3624834891
 20
6.6679241424
 30
0.0
  0
SPLINE
  5
304
100
AcDbEntity
  8
0
100
AcDbSpline
 62
9
  6
CONTINUOUS
 70
0
 71
3
 72
31
 73
27
 74
0
 42
0.0000001
 43
0.0000001
 44
0.0000000001
 40
0.0
 40
0.0
 40
0.0
 40
0.0
 40
0.0646859851
 40
0.1288707814
 40
0.1924517562
 40
0.2553478881
 40
0.3174834585
 40
0.348272854
 40
0.378880919
 40
0.4093220002
 40
0.439626425
 40
0.4698321237
 40
0.4999866667
 40
0.5301406321
 40
0.5603458883
 40
0.5906515974
 40
0.6210922107
 40
0.6516984404
 40
0.6824871512
 40
0.7134728771
 40
0.7446481439
 40
0.8075411153
 40
0.8711224848
 40
0.9031515133
 40
0.9353150924
 40
1.0
 40
1.0
 40
1.0
 40
1.0
 10
12.4224834891
 20
6.9007965566
 30
0.0
 10
12.4244341428
 20
6.8986338522
 30
0.0
 10
12.4284187254
 20
6.8944121849
 30
0.0
 10
12.4347079161
 20
6.8884442418
 30
0.0
 10
12.4413212842
 20
6.8829586723
 30
0.0
 10
12.4482861357
 20
6.8780810279
 30
0.0
 10
12.4544197516
 20
6.8746422694
 30
0.0
 10
12.4595017915
 20
6.8723736947
 30
0.0
 10
12.4633844759
 20
6.8709417526
 30
0.0
 10
12.4673389113
 20
6.8697966164
 30
0.0
 10
12.4713522884
 20
6.8689619965
 30
0.0
 10
12.4754070847
 20
6.8684525277
 30
0.0
 10
12.4794836051
 20
6.8682818833
 30
0.0
 10
12.4835601742
 20
6.86845218
 30
0.0
 10
12.4876147635
 20
6.868963676
 30
0.0
 10
12.491627868
 20
6.8697992814
 30
0.0
 10
12.4955828415
 20
6.8709422788
 30
0.0
 10
12.4994660586
 20
6.8723723391
 30
0.0
 10
12.5032664444
 20
6.8740697482
 30
0.0
 10
12.5069789239
 20
6.876006618
 30
0.0
 10
12.5118227321
 20
6.8788816687
 30
0.0
 10
12.5176470432
 20
6.8829577964
 30
0.0
 10
12.5231437277
 20
6.8875194128
 30
0.0
 10
12.5273824857
 20
6.8914101495
 30
0.0
 10
12.5315379911
 20
6.8954611218
 30
0.0
 10
12.5345329949
 20
6.8986337738
 30
0.0
 10
12.5364834891
 20
6.9007965566
 30
0.0
  0
SPLINE
  5
305
100
AcDbEntity
  8
0
100
AcDbSpline
 62
9
  6
CONTINUOUS
 70
0
 71
3
 72
31
 73
27
 74
0
 42
0.0000001
 43
0.0000001
 44
0.0000000001
 40
0.0
 40
0.0
 40
0.0
 40
0.0
 40
0.0646859546
 40
0.1288707975
 40
0.1924517968
 40
0.2553477857
 40
0.3174836297
 40
0.3482729815
 40
0.3788807633
 40
0.4093218101
 40
0.4396264922
 40
0.4698320923
 40
0.4999863525
 40
0.5301404838
 40
0.5603458169
 40
0.5906511126
 40
0.621091756
 40
0.6516984691
 40
0.6824873386
 40
0.7134728159
 40
0.7446478355
 40
0.8075408365
 40
0.8711223996
 40
0.9031515139
 40
0.9353151158
 40
1.0
 40
1.0
 40
1.0
 40
1.0
 10
12.1884834891
 20
6.9007965566
 30
0.0
 10
12.1904341433
 20
6.8986338536
 30
0.0
 10
12.1944187422
 20
6.8944121982
 30
0.0
 10
12.200707935
 20
6.8884442565
 30
0.0
 10
12.2073212683
 20
6.8829586388
 30
0.0
 10
12.2142862312
 20
6.8780811441
 30
0.0
 10
12.2204197441
 20
6.8746422127
 30
0.0
 10
12.2255017365
 20
6.8723735196
 30
0.0
 10
12.2293844875
 20
6.8709417847
 30
0.0
 10
12.2333389747
 20
6.8697968633
 30
0.0
 10
12.2373522877
 20
6.8689619628
 30
0.0
 10
12.2414070499
 20
6.8684521555
 30
0.0
 10
12.2454835944
 20
6.8682819096
 30
0.0
 10
12.2495601271
 20
6.8684525596
 30
0.0
 10
12.2536147677
 20
6.8689634561
 30
0.0
 10
12.2576279759
 20
6.8697986026
 30
0.0
 10
12.2615828361
 20
6.8709420719
 30
0.0
 10
12.265465872
 20
6.8723726875
 30
0.0
 10
12.2692662565
 20
6.8740701182
 30
0.0
 10
12.2729788391
 20
6.8760067572
 30
0.0
 10
12.2778227759
 20
6.8788815562
 30
0.0
 10
12.283647158
 20
6.8829576031
 30
0.0
 10
12.2891437457
 20
6.8875193632
 30
0.0
 10
12.2933824657
 20
6.8914101615
 30
0.0
 10
12.297537977
 20
6.8954611342
 30
0.0
 10
12.3005330017
 20
6.8986337682
 30
0.0
 10
12.3024834891
 20
6.9007965566
 30
0.0
  0
SPLINE
  5
306
100
AcDbEntity
  8
0
100
AcDbSpline
 62
9
  6
CONTINUOUS
 70
0
 71
3
 72
15
 73
11
 74
0
 42
0.0000001
 43
0.0000001
 44
0.0000000001
 40
0.0
 40
0.0
 40
0.0
 40
0.0
 40
0.0850737976
 40
0.167974064
 40
0.2580000587
 40
0.3626747515
 40
0.4868910902
 40
0.6335751132
 40
0.804335587
 40
1.0
 40
1.0
 40
1.0
 40
1.0
 10
11.4295028477
 20
4.4040080253
 30
0.0
 10
11.4295015535
 20
4.4041050271
 30
0.0
 10
11.4295263655
 20
4.4042991024
 30
0.0
 10
11.4296664932
 20
4.4045646068
 30
0.0
 10
11.4299017012
 20
4.4047834436
 30
0.0
 10
11.4302239988
 20
4.4049575499
 30
0.0
 10
11.4306325135
 20
4.4050912956
 30
0.0
 10
11.4311281538
 20
4.4051859507
 30
0.0
 10
11.431711178
 20
4.4052419175
 30
0.0
 10
11.4321291835
 20
4.4052526089
 30
0.0
 10
11.4323523014
 20
4.4052526094
 30
0.0
  0
SPLINE
  5
307
100
AcDbEntity
  8
0
100
AcDbSpline
 62
9
  6
CONTINUOUS
 70
0
 71
3
 72
11
 73
7
 74
0
 42
0.0000001
 43
0.0000001
 44
0.0000000001
 40
0.0
 40
0.0
 40
0.0
 40
0.0
 40
0.2254598039
 40
0.4682853449
 40
0.7270254208
 40
1.0
 40
1.0
 40
1.0
 40
1.0
 10
11.6402911062
 20
4.4052526094
 30
0.0
 10
11.6413870616
 20
4.4052526086
 30
0.0
 10
11.6436635912
 20
4.4051936987
 30
0.0
 10
11.647190297
 20
4.4049533788
 30
0.0
 10
11.6509354523
 20
4.4045600189
 30
0.0
 10
11.6534964086
 20
4.4042074478
 30
0.0
 10
11.6548082612
 20
4.4040080253
 30
0.0
  0
SPLINE
  5
308
100
AcDbEntity
  8
0
100
AcDbSpline
 62
9
  6
CONTINUOUS
 70
0
 71
3
 72
15
 73
11
 74
0
 42
0.0000001
 43
0.0000001
 44
0.0000000001
 40
0.0
 40
0.0
 40
0.0
 40
0.0
 40
0.1252665247
 40
0.2503718832
 40
0.3753583881
 40
0.5002684121
 40
0.625142413
 40
0.7500229428
 40
0.8749583459
 40
1.0
 40
1.0
 40
1.0
 40
1.0
 10
11.6548082612
 20
4.4040080253
 30
0.0
 10
11.6747937545
 20
4.4009698961
 30
0.0
 10
11.7148651954
 20
4.3956990581
 30
0.0
 10
11.7751957854
 20
4.3901220352
 30
0.0
 10
11.8356354456
 20
4.3868067575
 30
0.0
 10
11.8961179859
 20
4.3857067404
 30
0.0
 10
11.9565834441
 20
4.3868061301
 30
0.0
 10
12.0169727514
 20
4.3901208835
 30
0.0
 10
12.0772222621
 20
4.39569756
 30
0.0
 10
12.1172293763
 20
4.4009693223
 30
0.0
 10
12.1371780756
 20
4.4040080253
 30
0.0
  0
SPLINE
  5
309
100
AcDbEntity
  8
0
100
AcDbSpline
 62
9
  6
CONTINUOUS
 70
0
 71
3
 72
9
 73
5
 74
0
 42
0.0000001
 43
0.0000001
 44
0.0000000001
 40
0.0
 40
0.0
 40
0.0
 40
0.0
 40
0.485173011
 40
1.0
 40
1.0
 40
1.0
 40
1.0
 10
12.1371780756
 20
4.4040080253
 30
0.0
 10
12.1399637346
 20
4.4044323512
 30
0.0
 10
12.1457448281
 20
4.4050576238
 30
0.0
 10
12.1515546684
 20
4.4052526072
 30
0.0
 10
12.1545446844
 20
4.4052526094
 30
0.0
  0
LINE
  5
30A
100
AcDbEntity
  8
0
100
AcDbLine
 62
9
  6
CONTINUOUS
 10
13.2192657772
 20
7.4354711113
 11
13.2201284492
 21
7.417388262
  0
SPLINE
  5
30B
100
AcDbEntity
  8
0
100
AcDbSpline
 62
9
  6
CONTINUOUS
 70
0
 71
3
 72
15
 73
11
 74
0
 42
0.0000001
 43
0.0000001
 44
0.0000000001
 40
0.0
 40
0.0
 40
0.0
 40
0.0
 40
0.12689341
 40
0.2536777697
 40
0.3799290856
 40
0.5055540577
 40
0.6304130528
 40
0.754423338
 40
0.8776644043
 40
1.0
 40
1.0
 40
1.0
 40
1.0
 10
11.4212720354
 20
4.6123542844
 30
0.0
 10
11.4212720354
 20
4.6133020664
 30
0.0
 10
11.421401224
 20
4.615199279
 30
0.0
 10
11.4219758849
 20
4.6179867313
 30
0.0
 10
11.4229224095
 20
4.6206614917
 30
0.0
 10
11.4242210496
 20
4.62316788
 30
0.0
 10
11.4258446879
 20
4.6254567558
 30
0.0
 10
11.4277626635
 20
4.6274814298
 30
0.0
 10
11.4299352255
 20
4.6291991295
 30
0.0
 10
11.4315297111
 20
4.6301212921
 30
0.0
 10
11.4323523014
 20
4.6305191166
 30
0.0
  0
SPLINE
  5
30C
100
AcDbEntity
  8
0
100
AcDbSpline
 62
9
  6
CONTINUOUS
 70
0
 71
3
 72
14
 73
10
 74
0
 42
0.0000001
 43
0.0000001
 44
0.0000000001
 40
0.0
 40
0.0
 40
0.0
 40
0.0
 40
0.1358223375
 40
0.2705449151
 40
0.531149963
 40
0.6556934319
 40
0.7754109377
 40
0.8901720967
 40
1.0
 40
1.0
 40
1.0
 40
1.0
 10
11.6316879287
 20
4.6123542844
 30
0.0
 10
11.6316879287
 20
4.6133011995
 30
0.0
 10
11.63178751
 20
4.6151892858
 30
0.0
 10
11.632371014
 20
4.6188502613
 30
0.0
 10
11.6335198128
 20
4.6223280444
 30
0.0
 10
11.6352158071
 20
4.6254209526
 30
0.0
 10
11.6366988271
 20
4.6274473989
 30
0.0
 10
11.6383816685
 20
4.6291704854
 30
0.0
 10
11.6396411824
 20
4.6301142968
 30
0.0
 10
11.6402911062
 20
4.6305191166
 30
0.0
  0
SPLINE
  5
30D
100
AcDbEntity
  8
0
100
AcDbSpline
 62
9
  6
CONTINUOUS
 70
0
 71
3
 72
15
 73
11
 74
0
 42
0.0000001
 43
0.0000001
 44
0.0000000001
 40
0.0
 40
0.0
 40
0.0
 40
0.0
 40
0.1500068515
 40
0.296588127
 40
0.4372717366
 40
0.5701863404
 40
0.693712232
 40
0.8066767539
 40
0.9086723651
 40
1.0
 40
1.0
 40
1.0
 40
1.0
 10
11.6508616583
 20
4.6135803479
 30
0.0
 10
11.6507536829
 20
4.6145320109
 30
0.0
 10
11.6506076407
 20
4.6164220105
 30
0.0
 10
11.6505982461
 20
4.6192164744
 30
0.0
 10
11.650801376
 20
4.6218946397
 30
0.0
 10
11.6512125979
 20
4.6244002768
 30
0.0
 10
11.6518225588
 20
4.6266831393
 30
0.0
 10
11.6526208761
 20
4.6286979924
 30
0.0
 10
11.6535927239
 20
4.6304031445
 30
0.0
 10
11.6543869081
 20
4.6313606116
 30
0.0
 10
11.6548082612
 20
4.6317637007
 30
0.0
  0
SPLINE
  5
30E
100
AcDbEntity
  8
0
100
AcDbSpline
 62
9
  6
CONTINUOUS
 70
0
 71
3
 72
16
 73
12
 74
0
 42
0.0000001
 43
0.0000001
 44
0.0000000001
 40
0.0
 40
0.0
 40
0.0
 40
0.0
 40
0.1539109849
 40
0.3050043517
 40
0.4501186769
 40
0.5865931732
 40
0.7118867012
 40
0.8237022951
 40
0.9202163641
 40
0.9622744754
 40
1.0
 40
1.0
 40
1.0
 40
1.0
 10
12.1520675959
 20
4.6123542844
 30
0.0
 10
12.1520675959
 20
4.6132999914
 30
0.0
 10
12.1520958979
 20
4.6151742181
 30
0.0
 10
12.1522220884
 20
4.6179375258
 30
0.0
 10
12.1524297447
 20
4.6205885474
 30
0.0
 10
12.1527143219
 20
4.623072979
 30
0.0
 10
12.1530692564
 20
4.6253416968
 30
0.0
 10
12.1534874036
 20
4.6273494638
 30
0.0
 10
12.153897202
 20
4.6288342665
 30
0.0
 10
12.1542583478
 20
4.629855968
 30
0.0
 10
12.1544474201
 20
4.6303087048
 30
0.0
 10
12.1545446844
 20
4.6305191166
 30
0.0
  0
SPLINE
  5
30F
100
AcDbEntity
  8
0
100
AcDbSpline
 62
9
  6
CONTINUOUS
 70
0
 71
3
 72
16
 73
12
 74
0
 42
0.0000001
 43
0.0000001
 44
0.0000000001
 40
0.0
 40
0.0
 40
0.0
 40
0.0
 40
0.1539109849
 40
0.3050043517
 40
0.4501186769
 40
0.5865931733
 40
0.7118867012
 40
0.8237022952
 40
0.9202163641
 40
0.9622744754
 40
1.0
 40
1.0
 40
1.0
 40
1.0
 10
12.5728993824
 20
4.6123542844
 30
0.0
 10
12.5728993824
 20
4.6132999914
 30
0.0
 10
12.5728710803
 20
4.6151742181
 30
0.0
 10
12.5727448899
 20
4.6179375258
 30
0.0
 10
12.5725372336
 20
4.6205885474
 30
0.0
 10
12.5722526564
 20
4.623072979
 30
0.0
 10
12.5718977219
 20
4.6253416968
 30
0.0
 10
12.5714795747
 20
4.6273494638
 30
0.0
 10
12.5710697762
 20
4.6288342665
 30
0.0
 10
12.5707086304
 20
4.629855968
 30
0.0
 10
12.5705195582
 20
4.6303087048
 30
0.0
 10
12.5704222939
 20
4.6305191166
 30
0.0
  0
SPLINE
  5
310
100
AcDbEntity
  8
0
100
AcDbSpline
 62
9
  6
CONTINUOUS
 70
0
 71
3
 72
19
 73
15
 74
0
 42
0.0000001
 43
0.0000001
 44
0.0000000001
 40
0.0
 40
0.0
 40
0.0
 40
0.0
 40
0.1994997807
 40
0.3800373872
 40
0.539258738
 40
0.6756424
 40
0.7349830128
 40
0.7883440456
 40
0.8357874676
 40
0.8775222634
 40
0.9139301898
 40
0.9456766657
 40
0.9738434232
 40
1.0
 40
1.0
 40
1.0
 40
1.0
 10
11.9287720824
 20
5.7876189709
 30
0.0
 10
11.9285434696
 20
5.7870427753
 30
0.0
 10
11.9281266345
 20
5.7859375798
 30
0.0
 10
11.9276016368
 20
5.784345684
 30
0.0
 10
11.9272127283
 20
5.7829174682
 30
0.0
 10
11.9269961771
 20
5.7818345317
 30
0.0
 10
11.9269026324
 20
5.7810658692
 30
0.0
 10
11.9268725582
 20
5.7805687949
 30
0.0
 10
11.926879262
 20
5.7801254192
 30
0.0
 10
11.9269227174
 20
5.7797368474
 30
0.0
 10
11.9270031716
 20
5.7794038136
 30
0.0
 10
11.9271216006
 20
5.7791269487
 30
0.0
 10
11.927279068
 20
5.7789076155
 30
0.0
 10
11.9274131034
 20
5.7788005496
 30
0.0
 10
11.9274834891
 20
5.7787599124
 30
0.0
  0
SPLINE
  5
311
100
AcDbEntity
  8
0
100
AcDbSpline
 62
9
  6
CONTINUOUS
 70
0
 71
3
 72
19
 73
15
 74
0
 42
0.0000001
 43
0.0000001
 44
0.0000000001
 40
0.0
 40
0.0
 40
0.0
 40
0.0
 40
0.1994997807
 40
0.3800373872
 40
0.539258738
 40
0.6756424
 40
0.7349830128
 40
0.7883440456
 40
0.8357874676
 40
0.8775222634
 40
0.9139301898
 40
0.9456766657
 40
0.9738434232
 40
1.0
 40
1.0
 40
1.0
 40
1.0
 10
12.7961948958
 20
6.6301527551
 30
0.0
 10
12.7964235087
 20
6.6307289506
 30
0.0
 10
12.7968403437
 20
6.6318341461
 30
0.0
 10
12.7973653414
 20
6.6334260419
 30
0.0
 10
12.79775425
 20
6.6348542578
 30
0.0
 10
12.7979708011
 20
6.6359371942
 30
0.0
 10
12.7980643459
 20
6.6367058567
 30
0.0
 10
12.79809442
 20
6.6372029311
 30
0.0
 10
12.7980877162
 20
6.6376463068
 30
0.0
 10
12.7980442609
 20
6.6380348786
 30
0.0
 10
12.7979638066
 20
6.6383679123
 30
0.0
 10
12.7978453776
 20
6.6386447772
 30
0.0
 10
12.7976879103
 20
6.6388641104
 30
0.0
 10
12.7975538749
 20
6.6389711763
 30
0.0
 10
12.7974834891
 20
6.6390118135
 30
0.0
  0
SPLINE
  5
312
100
AcDbEntity
  8
0
100
AcDbSpline
 62
9
  6
CONTINUOUS
 70
0
 71
3
 72
15
 73
11
 74
0
 42
0.0000001
 43
0.0000001
 44
0.0000000001
 40
0.0
 40
0.0
 40
0.0
 40
0.0
 40
0.1424529866
 40
0.2839621419
 40
0.422069299
 40
0.5547871717
 40
0.6802513522
 40
0.796890313
 40
0.9036799294
 40
1.0
 40
1.0
 40
1.0
 40
1.0
 10
12.5958616583
 20
4.6135803479
 30
0.0
 10
12.5957527933
 20
4.6145398523
 30
0.0
 10
12.5954665021
 20
4.6164453352
 30
0.0
 10
12.5948400946
 20
4.6192394859
 30
0.0
 10
12.5940276156
 20
4.6219167882
 30
0.0
 10
12.5930464359
 20
4.6244208018
 30
0.0
 10
12.5919175401
 20
4.6267009833
 30
0.0
 10
12.5906626388
 20
4.6287111284
 30
0.0
 10
12.5893072227
 20
4.6304091173
 30
0.0
 10
12.5883022405
 20
4.631360206
 30
0.0
 10
12.5877889027
 20
4.6317637007
 30
0.0
  0
SPLINE
  5
313
100
AcDbEntity
  8
0
100
AcDbSpline
 62
9
  6
CONTINUOUS
 70
0
 71
3
 72
14
 73
10
 74
0
 42
0.0000001
 43
0.0000001
 44
0.0000000001
 40
0.0
 40
0.0
 40
0.0
 40
0.0
 40
0.1358223375
 40
0.2705449152
 40
0.531149963
 40
0.6556934319
 40
0.7754109378
 40
0.8901720967
 40
1.0
 40
1.0
 40
1.0
 40
1.0
 10
13.0932790496
 20
4.6123542844
 30
0.0
 10
13.0932790496
 20
4.6133011995
 30
0.0
 10
13.0931794683
 20
4.6151892858
 30
0.0
 10
13.0925959643
 20
4.6188502613
 30
0.0
 10
13.0914471655
 20
4.6223280444
 30
0.0
 10
13.0897511712
 20
4.6254209526
 30
0.0
 10
13.0882681512
 20
4.6274473989
 30
0.0
 10
13.0865853098
 20
4.6291704854
 30
0.0
 10
13.0853257959
 20
4.6301142968
 30
0.0
 10
13.0846758721
 20
4.6305191166
 30
0.0
  0
SPLINE
  5
314
100
AcDbEntity
  8
0
100
AcDbSpline
 62
9
  6
CONTINUOUS
 70
0
 71
3
 72
22
 73
18
 74
0
 42
0.0000001
 43
0.0000001
 44
0.0000000001
 40
0.0
 40
0.0
 40
0.0
 40
0.0
 40
0.2129314905
 40
0.4050314911
 40
0.5732973587
 40
0.6477400768
 40
0.7153626454
 40
0.7759239648
 40
0.8292502331
 40
0.8752045931
 40
0.9137204218
 40
0.9448565723
 40
0.9688624499
 40
0.9784156073
 40
0.9865555327
 40
0.993591535
 40
1.0
 40
1.0
 40
1.0
 40
1.0
 10
11.8721046228
 20
6.5856469137
 30
0.0
 10
11.8716705882
 20
6.586154965
 30
0.0
 10
11.8708526541
 20
6.5871279782
 30
0.0
 10
11.8697225004
 20
6.588527942
 30
0.0
 10
11.8688918197
 20
6.5896107244
 30
0.0
 10
11.8683194803
 20
6.5903987199
 30
0.0
 10
11.8679563374
 20
6.5909207615
 30
0.0
 10
11.8676428093
 20
6.5913963956
 30
0.0
 10
11.8673799684
 20
6.5918237576
 30
0.0
 10
11.8671686839
 20
6.5922011994
 30
0.0
 10
11.8670093787
 20
6.5925275263
 30
0.0
 10
11.8669023839
 20
6.5928015375
 30
0.0
 10
11.8668525312
 20
6.592999709
 30
0.0
 10
11.8668444474
 20
6.5931307282
 30
0.0
 10
11.8668525013
 20
6.5932083948
 30
0.0
 10
11.8668746585
 20
6.5932731898
 30
0.0
 10
11.8669000818
 20
6.5933079276
 30
0.0
 10
11.8669145341
 20
6.5933219122
 30
0.0
  0
SPLINE
  5
315
100
AcDbEntity
  8
0
100
AcDbSpline
 62
9
  6
CONTINUOUS
 70
0
 71
3
 72
19
 73
15
 74
0
 42
0.0000001
 43
0.0000001
 44
0.0000000001
 40
0.0
 40
0.0
 40
0.0
 40
0.0
 40
0.1994995205
 40
0.3800369044
 40
0.5392580891
 40
0.6756416549
 40
0.7349822517
 40
0.7883432941
 40
0.8357867544
 40
0.8775216201
 40
0.9139296505
 40
0.9456762672
 40
0.9738432058
 40
1.0
 40
1.0
 40
1.0
 40
1.0
 10
11.7807999555
 20
6.373857513
 30
0.0
 10
11.7801866491
 20
6.3737674023
 30
0.0
 10
11.7790211041
 20
6.3735757985
 30
0.0
 10
11.777379983
 20
6.3732345161
 30
0.0
 10
11.7759486574
 20
6.3728572147
 30
0.0
 10
11.7749025314
 20
6.3725032852
 30
0.0
 10
11.7741900778
 20
6.3721999653
 30
0.0
 10
11.7737445617
 20
6.3719774721
 30
0.0
 10
11.773363939
 20
6.3717499773
 30
0.0
 10
11.7730491536
 20
6.3715180563
 30
0.0
 10
11.772800965
 20
6.3712818622
 30
0.0
 10
11.7726204075
 20
6.3710408653
 30
0.0
 10
11.7725091931
 20
6.3707948259
 30
0.0
 10
11.7724834891
 20
6.3706252135
 30
0.0
 10
11.7724834891
 20
6.3705439383
 30
0.0
  0
SPLINE
  5
316
100
AcDbEntity
  8
0
100
AcDbSpline
 62
9
  6
CONTINUOUS
 70
0
 71
3
 72
15
 73
11
 74
0
 42
0.0000001
 43
0.0000001
 44
0.0000000001
 40
0.0
 40
0.0
 40
0.0
 40
0.0
 40
0.12689341
 40
0.2536777697
 40
0.3799290857
 40
0.5055540578
 40
0.6304130528
 40
0.754423338
 40
0.8776644043
 40
1.0
 40
1.0
 40
1.0
 40
1.0
 10
13.3036949429
 20
4.6123542844
 30
0.0
 10
13.3036949429
 20
4.6133020664
 30
0.0
 10
13.3035657543
 20
4.615199279
 30
0.0
 10
13.3029910934
 20
4.6179867313
 30
0.0
 10
13.3020445688
 20
4.6206614917
 30
0.0
 10
13.3007459287
 20
4.62316788
 30
0.0
 10
13.2991222904
 20
4.6254567558
 30
0.0
 10
13.2972043147
 20
4.6274814298
 30
0.0
 10
13.2950317527
 20
4.6291991295
 30
0.0
 10
13.2934372672
 20
4.6301212921
 30
0.0
 10
13.2926146769
 20
4.6305191166
 30
0.0
  0
SPLINE
  5
317
100
AcDbEntity
  8
0
100
AcDbSpline
 62
9
  6
CONTINUOUS
 70
0
 71
3
 72
22
 73
18
 74
0
 42
0.0000001
 43
0.0000001
 44
0.0000000001
 40
0.0
 40
0.0
 40
0.0
 40
0.0
 40
0.2129314878
 40
0.4050314858
 40
0.5732973512
 40
0.6477400683
 40
0.7153626361
 40
0.7759239548
 40
0.8292502226
 40
0.8752045825
 40
0.9137204114
 40
0.9448565628
 40
0.968862442
 40
0.9784156007
 40
0.9865555279
 40
0.9935915324
 40
1.0
 40
1.0
 40
1.0
 40
1.0
 10
11.7910094149
 20
5.9725858326
 30
0.0
 10
11.7903524122
 20
5.9724639732
 30
0.0
 10
11.789100791
 20
5.9722421281
 30
0.0
 10
11.78732331
 20
5.9719633682
 30
0.0
 10
11.7859702526
 20
5.9717853687
 30
0.0
 10
11.7850016588
 20
5.971683706
 30
0.0
 10
11.784367986
 20
5.9716302358
 30
0.0
 10
11.7837993108
 20
5.9715965295
 30
0.0
 10
11.783297784
 20
5.9715825836
 30
0.0
 10
11.7828652675
 20
5.9715883268
 30
0.0
 10
11.7825030076
 20
5.9716135279
 30
0.0
 10
11.7822122095
 20
5.9716578733
 30
0.0
 10
11.7820156616
 20
5.9717137854
 30
0.0
 10
11.7818981537
 20
5.9717722943
 30
0.0
 10
11.7818349194
 20
5.9718181025
 30
0.0
 10
11.7817898839
 20
5.9718696887
 30
0.0
 10
11.7817725118
 20
5.9719090749
 30
0.0
 10
11.7817676269
 20
5.9719285832
 30
0.0
  0
SPLINE
  5
318
100
AcDbEntity
  8
0
100
AcDbSpline
 62
9
  6
CONTINUOUS
 70
0
 71
3
 72
15
 73
11
 74
0
 42
0.0000001
 43
0.0000001
 44
0.0000000001
 40
0.0
 40
0.0
 40
0.0
 40
0.0
 40
0.124585232
 40
0.2493418153
 40
0.3740999146
 40
0.4989836812
 40
0.6240086206
 40
0.7491789452
 40
0.8745847214
 40
1.0
 40
1.0
 40
1.0
 40
1.0
 10
13.3074834891
 20
4.6135803479
 30
0.0
 10
13.3074834891
 20
4.6145378714
 30
0.0
 10
13.3073423737
 20
4.6164571189
 30
0.0
 10
13.3067152312
 20
4.6192730874
 30
0.0
 10
13.3056829807
 20
4.6219702431
 30
0.0
 10
13.3042683437
 20
4.624490023
 30
0.0
 10
13.3025023046
 20
4.6267812489
 30
0.0
 10
13.3004199368
 20
4.6287953937
 30
0.0
 10
13.2980663563
 20
4.6304885716
 30
0.0
 10
13.2963491586
 20
4.6313818181
 30
0.0
 10
13.2954641306
 20
4.6317637007
 30
0.0
  0
SPLINE
  5
319
100
AcDbEntity
  8
0
100
AcDbSpline
 62
9
  6
CONTINUOUS
 70
0
 71
3
 72
22
 73
18
 74
0
 42
0.0000001
 43
0.0000001
 44
0.0000000001
 40
0.0
 40
0.0
 40
0.0
 40
0.0
 40
0.2129314874
 40
0.4050314849
 40
0.5732973499
 40
0.6477400669
 40
0.7153626345
 40
0.7759239531
 40
0.8292502208
 40
0.8752045807
 40
0.9137204098
 40
0.9448565613
 40
0.9688624409
 40
0.9784155998
 40
0.9865555272
 40
0.9935915321
 40
1.0
 40
1.0
 40
1.0
 40
1.0
 10
12.2813882812
 20
5.5958247819
 30
0.0
 10
12.2811653132
 20
5.5951948712
 30
0.0
 10
12.2807316262
 20
5.5940000129
 30
0.0
 10
12.2800842988
 20
5.5923212892
 30
0.0
 10
12.2795619222
 20
5.5910605074
 30
0.0
 10
12.2791656678
 20
5.5901708491
 30
0.0
 10
12.278895138
 20
5.5895953373
 30
0.0
 10
12.2786399908
 20
5.589085997
 30
0.0
 10
12.2784013049
 20
5.5886446892
 30
0.0
 10
12.2781800729
 20
5.5882729904
 30
0.0
 10
12.2779771181
 20
5.5879718647
 30
0.0
 10
12.2777933149
 20
5.5877421989
 30
0.0
 10
12.2776466196
 20
5.5875999394
 30
0.0
 10
12.2775371955
 20
5.5875274291
 30
0.0
 10
12.2774659073
 20
5.5874955706
 30
0.0
 10
12.2773987146
 20
5.5874823619
 30
0.0
 10
12.277355919
 20
5.5874870103
 30
0.0
 10
12.2773365819
 20
5.587492534
 30
0.0
  0
SPLINE
  5
31A
100
AcDbEntity
  8
0
100
AcDbSpline
 62
9
  6
CONTINUOUS
 70
0
 71
3
 72
19
 73
15
 74
0
 42
0.0000001
 43
0.0000001
 44
0.0000000001
 40
0.0
 40
0.0
 40
0.0
 40
0.0
 40
0.1994997811
 40
0.3800373881
 40
0.5392587392
 40
0.6756424014
 40
0.7349830142
 40
0.788344047
 40
0.835787469
 40
0.8775222647
 40
0.9139301909
 40
0.9456766666
 40
0.9738434237
 40
1.0
 40
1.0
 40
1.0
 40
1.0
 10
12.5104556161
 20
5.6226473208
 30
0.0
 10
12.5108403097
 20
5.6221612385
 30
0.0
 10
12.5115890195
 20
5.621247651
 30
0.0
 10
12.5127051429
 20
5.6199970418
 30
0.0
 10
12.5137475598
 20
5.6189461292
 30
0.0
 10
12.5145771347
 20
5.6182171221
 30
0.0
 10
12.5151960436
 20
5.6177517788
 30
0.0
 10
12.5156114856
 20
5.6174771966
 30
0.0
 10
12.515998812
 20
5.6172613144
 30
0.0
 10
12.5163570528
 20
5.6171046619
 30
0.0
 10
12.5166856956
 20
5.6170078205
 30
0.0
 10
12.5169846821
 20
5.6169719506
 30
0.0
 10
12.5172533639
 20
5.6169986547
 30
0.0
 10
12.5174131034
 20
5.6170611998
 30
0.0
 10
12.5174834891
 20
5.6171018371
 30
0.0
  0
SPLINE
  5
31B
100
AcDbEntity
  8
0
100
AcDbSpline
 62
9
  6
CONTINUOUS
 70
0
 71
3
 72
22
 73
18
 74
0
 42
0.0000001
 43
0.0000001
 44
0.0000000001
 40
0.0
 40
0.0
 40
0.0
 40
0.0
 40
0.2129314947
 40
0.4050314991
 40
0.5732973701
 40
0.6477400897
 40
0.7153626596
 40
0.77592398
 40
0.8292502489
 40
0.8752046092
 40
0.9137204376
 40
0.944856587
 40
0.9688624621
 40
0.9784156175
 40
0.9865555403
 40
0.9935915392
 40
1.0
 40
1.0
 40
1.0
 40
1.0
 10
12.8528623554
 20
5.8321248123
 30
0.0
 10
12.8532963901
 20
5.8316167609
 30
0.0
 10
12.8541143241
 20
5.8306437477
 30
0.0
 10
12.8552444777
 20
5.8292437838
 30
0.0
 10
12.8560751584
 20
5.8281610014
 30
0.0
 10
12.8566474978
 20
5.8273730059
 30
0.0
 10
12.8570106407
 20
5.8268509642
 30
0.0
 10
12.8573241688
 20
5.8263753301
 30
0.0
 10
12.8575870097
 20
5.8259479682
 30
0.0
 10
12.8577982942
 20
5.8255705263
 30
0.0
 10
12.8579575994
 20
5.8252441995
 30
0.0
 10
12.8580645942
 20
5.8249701884
 30
0.0
 10
12.858114447
 20
5.8247720168
 30
0.0
 10
12.8581225308
 20
5.8246409976
 30
0.0
 10
12.8581144769
 20
5.8245633311
 30
0.0
 10
12.8580923197
 20
5.8244985362
 30
0.0
 10
12.8580668964
 20
5.8244637983
 30
0.0
 10
12.8580524441
 20
5.8244498137
 30
0.0
  0
SPLINE
  5
31C
100
AcDbEntity
  8
0
100
AcDbSpline
 62
9
  6
CONTINUOUS
 70
0
 71
3
 72
19
 73
15
 74
0
 42
0.0000001
 43
0.0000001
 44
0.0000000001
 40
0.0
 40
0.0
 40
0.0
 40
0.0
 40
0.1994995205
 40
0.3800369044
 40
0.5392580891
 40
0.6756416549
 40
0.7349822517
 40
0.7883432941
 40
0.8357867544
 40
0.8775216201
 40
0.9139296505
 40
0.9456762672
 40
0.9738432058
 40
1.0
 40
1.0
 40
1.0
 40
1.0
 10
12.9441670228
 20
6.0439142129
 30
0.0
 10
12.9447803292
 20
6.0440043237
 30
0.0
 10
12.9459458742
 20
6.0441959275
 30
0.0
 10
12.9475869953
 20
6.0445372099
 30
0.0
 10
12.9490183209
 20
6.0449145112
 30
0.0
 10
12.9500644469
 20
6.0452684407
 30
0.0
 10
12.9507769004
 20
6.0455717607
 30
0.0
 10
12.9512224166
 20
6.0457942539
 30
0.0
 10
12.9516030393
 20
6.0460217487
 30
0.0
 10
12.9519178247
 20
6.0462536696
 30
0.0
 10
12.9521660133
 20
6.0464898637
 30
0.0
 10
12.9523465708
 20
6.0467308606
 30
0.0
 10
12.9524577851
 20
6.0469769001
 30
0.0
 10
12.9524834891
 20
6.0471465124
 30
0.0
 10
12.9524834891
 20
6.0472277876
 30
0.0
  0
SPLINE
  5
31D
100
AcDbEntity
  8
0
100
AcDbSpline
 62
9
  6
CONTINUOUS
 70
0
 71
3
 72
22
 73
18
 74
0
 42
0.0000001
 43
0.0000001
 44
0.0000000001
 40
0.0
 40
0.0
 40
0.0
 40
0.0
 40
0.2129314957
 40
0.4050315011
 40
0.5732973729
 40
0.6477400929
 40
0.7153626631
 40
0.7759239838
 40
0.8292502529
 40
0.8752046132
 40
0.9137204417
 40
0.9448565908
 40
0.9688624653
 40
0.9784156202
 40
0.9865555423
 40
0.9935915403
 40
1.0
 40
1.0
 40
1.0
 40
1.0
 10
12.9339575634
 20
6.4451858933
 30
0.0
 10
12.9346145661
 20
6.4453077526
 30
0.0
 10
12.9358661873
 20
6.4455295977
 30
0.0
 10
12.9376436683
 20
6.4458083574
 30
0.0
 10
12.9389967258
 20
6.4459863568
 30
0.0
 10
12.9399653196
 20
6.4460880195
 30
0.0
 10
12.9405989924
 20
6.4461414897
 30
0.0
 10
12.9411676676
 20
6.4461751959
 30
0.0
 10
12.9416691944
 20
6.4461891418
 30
0.0
 10
12.9421017109
 20
6.4461833987
 30
0.0
 10
12.9424639708
 20
6.4461581976
 30
0.0
 10
12.9427547688
 20
6.4461138523
 30
0.0
 10
12.9429513168
 20
6.4460579403
 30
0.0
 10
12.9430688246
 20
6.4459994314
 30
0.0
 10
12.9431320589
 20
6.4459536234
 30
0.0
 10
12.9431770944
 20
6.4459020372
 30
0.0
 10
12.9431944665
 20
6.4458626511
 30
0.0
 10
12.9431993514
 20
6.4458431427
 30
0.0
  0
SPLINE
  5
31E
100
AcDbEntity
  8
0
100
AcDbSpline
 62
9
  6
CONTINUOUS
 70
0
 71
3
 72
11
 73
7
 74
0
 42
0.0000001
 43
0.0000001
 44
0.0000000001
 40
0.0
 40
0.0
 40
0.0
 40
0.0
 40
0.2501707421
 40
0.4999999996
 40
0.7498292572
 40
1.0
 40
1.0
 40
1.0
 40
1.0
 10
13.07410532
 20
4.6135803479
 30
0.0
 10
13.0345379846
 20
4.619566074
 30
0.0
 10
12.9549492151
 20
4.6283699902
 30
0.0
 10
12.8349834893
 20
4.6326861126
 30
0.0
 10
12.7150177632
 20
4.6283699929
 30
0.0
 10
12.6354289937
 20
4.6195660742
 30
0.0
 10
12.5958616583
 20
4.6135803479
 30
0.0
  0
SPLINE
  5
31F
100
AcDbEntity
  8
0
100
AcDbSpline
 62
9
  6
CONTINUOUS
 70
0
 71
3
 72
9
 73
5
 74
0
 42
0.0000001
 43
0.0000001
 44
0.0000000001
 40
0.0
 40
0.0
 40
0.0
 40
0.0
 40
0.5148271834
 40
1.0
 40
1.0
 40
1.0
 40
1.0
 10
12.1545446844
 20
4.6305191166
 30
0.0
 10
12.1515546672
 20
4.630519118
 30
0.0
 10
12.1457448269
 20
4.630714102
 30
0.0
 10
12.1399637336
 20
4.6313393759
 30
0.0
 10
12.1371780756
 20
4.6317637007
 30
0.0
  0
SPLINE
  5
320
100
AcDbEntity
  8
0
100
AcDbSpline
 62
9
  6
CONTINUOUS
 70
0
 71
3
 72
15
 73
11
 74
0
 42
0.0000001
 43
0.0000001
 44
0.0000000001
 40
0.0
 40
0.0
 40
0.0
 40
0.0
 40
0.0850737976
 40
0.167974064
 40
0.2580000587
 40
0.3626747515
 40
0.4868910902
 40
0.6335751132
 40
0.8043355869
 40
1.0
 40
1.0
 40
1.0
 40
1.0
 10
13.2954641306
 20
4.6317637007
 30
0.0
 10
13.2954654247
 20
4.6316666989
 30
0.0
 10
13.2954406128
 20
4.6314726235
 30
0.0
 10
13.2953004851
 20
4.6312071191
 30
0.0
 10
13.2950652771
 20
4.6309882823
 30
0.0
 10
13.2947429794
 20
4.6308141761
 30
0.0
 10
13.2943344647
 20
4.6306804303
 30
0.0
 10
13.2938388244
 20
4.6305857753
 30
0.0
 10
13.2932558002
 20
4.6305298085
 30
0.0
 10
13.2928377948
 20
4.6305191171
 30
0.0
 10
13.2926146769
 20
4.6305191166
 30
0.0
  0
SPLINE
  5
321
100
AcDbEntity
  8
0
100
AcDbSpline
 62
9
  6
CONTINUOUS
 70
0
 71
3
 72
11
 73
7
 74
0
 42
0.0000001
 43
0.0000001
 44
0.0000000001
 40
0.0
 40
0.0
 40
0.0
 40
0.0
 40
0.2254598039
 40
0.4682853449
 40
0.7270254208
 40
1.0
 40
1.0
 40
1.0
 40
1.0
 10
13.0846758721
 20
4.6305191166
 30
0.0
 10
13.0835799166
 20
4.6305191173
 30
0.0
 10
13.0813033871
 20
4.6305780272
 30
0.0
 10
13.0777766812
 20
4.6308183471
 30
0.0
 10
13.074031526
 20
4.631211707
 30
0.0
 10
13.0714705697
 20
4.6315642781
 30
0.0
 10
13.0701587171
 20
4.6317637007
 30
0.0
  0
SPLINE
  5
322
100
AcDbEntity
  8
0
100
AcDbSpline
 62
9
  6
CONTINUOUS
 70
0
 71
3
 72
15
 73
11
 74
0
 42
0.0000001
 43
0.0000001
 44
0.0000000001
 40
0.0
 40
0.0
 40
0.0
 40
0.0
 40
0.1252665244
 40
0.2503718837
 40
0.3753583868
 40
0.5002684115
 40
0.6251424134
 40
0.7500229419
 40
0.874958346
 40
1.0
 40
1.0
 40
1.0
 40
1.0
 10
13.0701587171
 20
4.6317637007
 30
0.0
 10
13.0501732239
 20
4.6348018299
 30
0.0
 10
13.0101017828
 20
4.6400726676
 30
0.0
 10
12.9497711931
 20
4.6456496914
 30
0.0
 10
12.8893315328
 20
4.6489649678
 30
0.0
 10
12.8288489926
 20
4.6500649854
 30
0.0
 10
12.7683835343
 20
4.6489655966
 30
0.0
 10
12.707994227
 20
4.6456508418
 30
0.0
 10
12.6477447163
 20
4.6400741663
 30
0.0
 10
12.607737602
 20
4.6348024037
 30
0.0
 10
12.5877889027
 20
4.6317637007
 30
0.0
  0
SPLINE
  5
323
100
AcDbEntity
  8
0
100
AcDbSpline
 62
9
  6
CONTINUOUS
 70
0
 71
3
 72
15
 73
11
 74
0
 42
0.0000001
 43
0.0000001
 44
0.0000000001
 40
0.0
 40
0.0
 40
0.0
 40
0.0
 40
0.12689341
 40
0.2536777697
 40
0.3799290857
 40
0.5055540578
 40
0.6304130528
 40
0.754423338
 40
0.8776644043
 40
1.0
 40
1.0
 40
1.0
 40
1.0
 10
13.3036949429
 20
4.4234174415
 30
0.0
 10
13.3036949429
 20
4.4224696596
 30
0.0
 10
13.3035657543
 20
4.4205724469
 30
0.0
 10
13.3029910934
 20
4.4177849946
 30
0.0
 10
13.3020445688
 20
4.4151102342
 30
0.0
 10
13.3007459287
 20
4.4126038459
 30
0.0
 10
13.2991222904
 20
4.4103149701
 30
0.0
 10
13.2972043147
 20
4.4082902962
 30
0.0
 10
13.2950317527
 20
4.4065725965
 30
0.0
 10
13.2934372672
 20
4.4056504339
 30
0.0
 10
13.2926146769
 20
4.4052526094
 30
0.0
  0
SPLINE
  5
324
100
AcDbEntity
  8
0
100
AcDbSpline
 62
9
  6
CONTINUOUS
 70
0
 71
3
 72
14
 73
10
 74
0
 42
0.0000001
 43
0.0000001
 44
0.0000000001
 40
0.0
 40
0.0
 40
0.0
 40
0.0
 40
0.1358223375
 40
0.2705449151
 40
0.5311499629
 40
0.6556934318
 40
0.7754109376
 40
0.8901720966
 40
1.0
 40
1.0
 40
1.0
 40
1.0
 10
13.0932790496
 20
4.4234174415
 30
0.0
 10
13.0932790496
 20
4.4224705264
 30
0.0
 10
13.0931794683
 20
4.4205824401
 30
0.0
 10
13.0925959643
 20
4.4169214646
 30
0.0
 10
13.0914471655
 20
4.4134436815
 30
0.0
 10
13.0897511712
 20
4.4103507733
 30
0.0
 10
13.0882681512
 20
4.408324327
 30
0.0
 10
13.0865853098
 20
4.4066012406
 30
0.0
 10
13.0853257959
 20
4.4056574291
 30
0.0
 10
13.0846758721
 20
4.4052526094
 30
0.0
  0
SPLINE
  5
325
100
AcDbEntity
  8
0
100
AcDbSpline
 62
9
  6
CONTINUOUS
 70
0
 71
3
 72
15
 73
11
 74
0
 42
0.0000001
 43
0.0000001
 44
0.0000000001
 40
0.0
 40
0.0
 40
0.0
 40
0.0
 40
0.1500068515
 40
0.296588127
 40
0.4372717366
 40
0.5701863404
 40
0.693712232
 40
0.8066767539
 40
0.9086723651
 40
1.0
 40
1.0
 40
1.0
 40
1.0
 10
13.07410532
 20
4.422191378
 30
0.0
 10
13.0742132953
 20
4.4212397151
 30
0.0
 10
13.0743593375
 20
4.4193497154
 30
0.0
 10
13.0743687321
 20
4.4165552516
 30
0.0
 10
13.0741656023
 20
4.4138770863
 30
0.0
 10
13.0737543804
 20
4.4113714492
 30
0.0
 10
13.0731444195
 20
4.4090885867
 30
0.0
 10
13.0723461022
 20
4.4070737335
 30
0.0
 10
13.0713742544
 20
4.4053685814
 30
0.0
 10
13.0705800702
 20
4.4044111144
 30
0.0
 10
13.0701587171
 20
4.4040080253
 30
0.0
  0
SPLINE
  5
326
100
AcDbEntity
  8
0
100
AcDbSpline
 62
9
  6
CONTINUOUS
 70
0
 71
3
 72
16
 73
12
 74
0
 42
0.0000001
 43
0.0000001
 44
0.0000000001
 40
0.0
 40
0.0
 40
0.0
 40
0.0
 40
0.1539109849
 40
0.3050043517
 40
0.4501186769
 40
0.5865931732
 40
0.7118867012
 40
0.8237022951
 40
0.9202163641
 40
0.9622744754
 40
1.0
 40
1.0
 40
1.0
 40
1.0
 10
12.5728993824
 20
4.4234174415
 30
0.0
 10
12.5728993824
 20
4.4224717345
 30
0.0
 10
12.5728710803
 20
4.4205975078
 30
0.0
 10
12.5727448899
 20
4.4178342001
 30
0.0
 10
12.5725372336
 20
4.4151831785
 30
0.0
 10
12.5722526564
 20
4.4126987469
 30
0.0
 10
12.5718977219
 20
4.4104300292
 30
0.0
 10
12.5714795747
 20
4.4084222622
 30
0.0
 10
12.5710697762
 20
4.4069374594
 30
0.0
 10
12.5707086304
 20
4.4059157579
 30
0.0
 10
12.5705195582
 20
4.4054630211
 30
0.0
 10
12.5704222939
 20
4.4052526094
 30
0.0
  0
SPLINE
  5
327
100
AcDbEntity
  8
0
100
AcDbSpline
 62
9
  6
CONTINUOUS
 70
0
 71
3
 72
16
 73
12
 74
0
 42
0.0000001
 43
0.0000001
 44
0.0000000001
 40
0.0
 40
0.0
 40
0.0
 40
0.0
 40
0.1539109849
 40
0.3050043517
 40
0.4501186769
 40
0.5865931733
 40
0.7118867012
 40
0.8237022951
 40
0.9202163641
 40
0.9622744754
 40
1.0
 40
1.0
 40
1.0
 40
1.0
 10
12.1520675959
 20
4.4234174415
 30
0.0
 10
12.1520675959
 20
4.4224717345
 30
0.0
 10
12.1520958979
 20
4.4205975078
 30
0.0
 10
12.1522220884
 20
4.4178342001
 30
0.0
 10
12.1524297447
 20
4.4151831785
 30
0.0
 10
12.1527143219
 20
4.4126987469
 30
0.0
 10
12.1530692564
 20
4.4104300292
 30
0.0
 10
12.1534874036
 20
4.4084222622
 30
0.0
 10
12.153897202
 20
4.4069374594
 30
0.0
 10
12.1542583478
 20
4.4059157579
 30
0.0
 10
12.1544474201
 20
4.4054630211
 30
0.0
 10
12.1545446844
 20
4.4052526094
 30
0.0
  0
SPLINE
  5
328
100
AcDbEntity
  8
0
100
AcDbSpline
 62
9
  6
CONTINUOUS
 70
0
 71
3
 72
15
 73
11
 74
0
 42
0.0000001
 43
0.0000001
 44
0.0000000001
 40
0.0
 40
0.0
 40
0.0
 40
0.0
 40
0.1424529866
 40
0.2839621419
 40
0.422069299
 40
0.5547871717
 40
0.6802513522
 40
0.796890313
 40
0.9036799294
 40
1.0
 40
1.0
 40
1.0
 40
1.0
 10
12.12910532
 20
4.422191378
 30
0.0
 10
12.129214185
 20
4.4212318736
 30
0.0
 10
12.1295004761
 20
4.4193263908
 30
0.0
 10
12.1301268837
 20
4.4165322401
 30
0.0
 10
12.1309393627
 20
4.4138549378
 30
0.0
 10
12.1319205423
 20
4.4113509241
 30
0.0
 10
12.1330494381
 20
4.4090707427
 30
0.0
 10
12.1343043394
 20
4.4070605975
 30
0.0
 10
12.1356597556
 20
4.4053626086
 30
0.0
 10
12.1366647378
 20
4.4044115199
 30
0.0
 10
12.1371780756
 20
4.4040080253
 30
0.0
  0
SPLINE
  5
329
100
AcDbEntity
  8
0
100
AcDbSpline
 62
9
  6
CONTINUOUS
 70
0
 71
3
 72
14
 73
10
 74
0
 42
0.0000001
 43
0.0000001
 44
0.0000000001
 40
0.0
 40
0.0
 40
0.0
 40
0.0
 40
0.1358223375
 40
0.2705449151
 40
0.531149963
 40
0.6556934319
 40
0.7754109378
 40
0.8901720967
 40
1.0
 40
1.0
 40
1.0
 40
1.0
 10
11.6316879287
 20
4.4234174415
 30
0.0
 10
11.6316879287
 20
4.4224705264
 30
0.0
 10
11.63178751
 20
4.4205824401
 30
0.0
 10
11.632371014
 20
4.4169214646
 30
0.0
 10
11.6335198128
 20
4.4134436815
 30
0.0
 10
11.6352158071
 20
4.4103507733
 30
0.0
 10
11.6366988271
 20
4.408324327
 30
0.0
 10
11.6383816685
 20
4.4066012406
 30
0.0
 10
11.6396411824
 20
4.4056574291
 30
0.0
 10
11.6402911062
 20
4.4052526094
 30
0.0
  0
SPLINE
  5
32A
100
AcDbEntity
  8
0
100
AcDbSpline
 62
9
  6
CONTINUOUS
 70
0
 71
3
 72
15
 73
11
 74
0
 42
0.0000001
 43
0.0000001
 44
0.0000000001
 40
0.0
 40
0.0
 40
0.0
 40
0.0
 40
0.12689341
 40
0.2536777697
 40
0.3799290857
 40
0.5055540578
 40
0.6304130528
 40
0.754423338
 40
0.8776644043
 40
1.0
 40
1.0
 40
1.0
 40
1.0
 10
11.4212720354
 20
4.4234174415
 30
0.0
 10
11.4212720354
 20
4.4224696596
 30
0.0
 10
11.421401224
 20
4.4205724469
 30
0.0
 10
11.4219758849
 20
4.4177849946
 30
0.0
 10
11.4229224095
 20
4.4151102342
 30
0.0
 10
11.4242210496
 20
4.4126038459
 30
0.0
 10
11.4258446879
 20
4.4103149701
 30
0.0
 10
11.4277626635
 20
4.4082902962
 30
0.0
 10
11.4299352255
 20
4.4065725965
 30
0.0
 10
11.4315297111
 20
4.4056504339
 30
0.0
 10
11.4323523014
 20
4.4052526094
 30
0.0
  0
SPLINE
  5
32B
100
AcDbEntity
  8
0
100
AcDbSpline
 62
9
  6
CONTINUOUS
 70
0
 71
3
 72
15
 73
11
 74
0
 42
0.0000001
 43
0.0000001
 44
0.0000000001
 40
0.0
 40
0.0
 40
0.0
 40
0.0
 40
0.124585232
 40
0.2493418153
 40
0.3740999146
 40
0.4989836812
 40
0.6240086206
 40
0.7491789452
 40
0.8745847214
 40
1.0
 40
1.0
 40
1.0
 40
1.0
 10
11.4174834891
 20
4.422191378
 30
0.0
 10
11.4174834891
 20
4.4212338546
 30
0.0
 10
11.4176246045
 20
4.4193146071
 30
0.0
 10
11.4182517471
 20
4.4164986385
 30
0.0
 10
11.4192839976
 20
4.4138014829
 30
0.0
 10
11.4206986346
 20
4.411281703
 30
0.0
 10
11.4224646737
 20
4.408990477
 30
0.0
 10
11.4245470415
 20
4.4069763323
 30
0.0
 10
11.426900622
 20
4.4052831544
 30
0.0
 10
11.4286178197
 20
4.4043899078
 30
0.0
 10
11.4295028477
 20
4.4040080253
 30
0.0
  0
SPLINE
  5
32C
100
AcDbEntity
  8
0
100
AcDbSpline
 62
9
  6
CONTINUOUS
 70
0
 71
3
 72
9
 73
5
 74
0
 42
0.0000001
 43
0.0000001
 44
0.0000000001
 40
0.0
 40
0.0
 40
0.0
 40
0.0
 40
0.485173011
 40
1.0
 40
1.0
 40
1.0
 40
1.0
 10
12.5877889027
 20
4.6317637007
 30
0.0
 10
12.5850032437
 20
4.6313393747
 30
0.0
 10
12.5792221501
 20
4.6307141021
 30
0.0
 10
12.5734123099
 20
4.6305191188
 30
0.0
 10
12.5704222939
 20
4.6305191166
 30
0.0
  0
SPLINE
  5
32D
100
AcDbEntity
  8
0
100
AcDbSpline
 62
9
  6
CONTINUOUS
 70
0
 71
3
 72
15
 73
11
 74
0
 42
0.0000001
 43
0.0000001
 44
0.0000000001
 40
0.0
 40
0.0
 40
0.0
 40
0.0
 40
0.125041654
 40
0.2499770563
 40
0.3748575869
 40
0.4997315877
 40
0.6246416114
 40
0.7496281165
 40
0.8747334743
 40
1.0
 40
1.0
 40
1.0
 40
1.0
 10
12.1371780756
 20
4.6317637007
 30
0.0
 10
12.1172293763
 20
4.6348024036
 30
0.0
 10
12.0772222622
 20
4.6400741655
 30
0.0
 10
12.0169727516
 20
4.6456508428
 30
0.0
 10
11.9565834443
 20
4.6489655957
 30
0.0
 10
11.896117986
 20
4.6500649855
 30
0.0
 10
11.8356354458
 20
4.6489649687
 30
0.0
 10
11.7751957857
 20
4.6456496905
 30
0.0
 10
11.7148651956
 20
4.6400726683
 30
0.0
 10
11.6747937546
 20
4.63480183
 30
0.0
 10
11.6548082612
 20
4.6317637007
 30
0.0
  0
SPLINE
  5
32E
100
AcDbEntity
  8
0
100
AcDbSpline
 62
9
  6
CONTINUOUS
 70
0
 71
3
 72
9
 73
5
 74
0
 42
0.0000001
 43
0.0000001
 44
0.0000000001
 40
0.0
 40
0.0
 40
0.0
 40
0.0
 40
0.5148271834
 40
1.0
 40
1.0
 40
1.0
 40
1.0
 10
12.5704222939
 20
4.4052526094
 30
0.0
 10
12.573412311
 20
4.405252608
 30
0.0
 10
12.5792221514
 20
4.4050576239
 30
0.0
 10
12.5850032447
 20
4.40443235
 30
0.0
 10
12.5877889027
 20
4.4040080253
 30
0.0
  0
SPLINE
  5
32F
100
AcDbEntity
  8
0
100
AcDbSpline
 62
9
  6
CONTINUOUS
 70
0
 71
3
 72
15
 73
11
 74
0
 42
0.0000001
 43
0.0000001
 44
0.0000000001
 40
0.0
 40
0.0
 40
0.0
 40
0.0
 40
0.125041654
 40
0.2499770573
 40
0.3748575865
 40
0.4997315883
 40
0.6246416127
 40
0.749628116
 40
0.8747334746
 40
1.0
 40
1.0
 40
1.0
 40
1.0
 10
12.5877889027
 20
4.4040080253
 30
0.0
 10
12.607737602
 20
4.4009693224
 30
0.0
 10
12.6477447162
 20
4.3956975601
 30
0.0
 10
12.7079942268
 20
4.3901208838
 30
0.0
 10
12.7683835341
 20
4.3868061296
 30
0.0
 10
12.8288489925
 20
4.3857067405
 30
0.0
 10
12.8893315327
 20
4.386806758
 30
0.0
 10
12.9497711928
 20
4.3901220348
 30
0.0
 10
13.0101017826
 20
4.395699058
 30
0.0
 10
13.0501732237
 20
4.400969896
 30
0.0
 10
13.0701587171
 20
4.4040080253
 30
0.0
  0
SPLINE
  5
330
100
AcDbEntity
  8
0
100
AcDbSpline
 62
9
  6
CONTINUOUS
 70
0
 71
3
 72
11
 73
7
 74
0
 42
0.0000001
 43
0.0000001
 44
0.0000000001
 40
0.0
 40
0.0
 40
0.0
 40
0.0
 40
0.2729746774
 40
0.5317148517
 40
0.774540265
 40
1.0
 40
1.0
 40
1.0
 40
1.0
 10
13.0701587171
 20
4.4040080253
 30
0.0
 10
13.0714705701
 20
4.4042074482
 30
0.0
 10
13.0740315274
 20
4.4045600192
 30
0.0
 10
13.077776683
 20
4.4049533789
 30
0.0
 10
13.0813033884
 20
4.4051936989
 30
0.0
 10
13.083579917
 20
4.4052526082
 30
0.0
 10
13.0846758721
 20
4.4052526094
 30
0.0
  0
SPLINE
  5
331
100
AcDbEntity
  8
0
100
AcDbSpline
 62
9
  6
CONTINUOUS
 70
0
 71
3
 72
15
 73
11
 74
0
 42
0.0000001
 43
0.0000001
 44
0.0000000001
 40
0.0
 40
0.0
 40
0.0
 40
0.0
 40
0.1956646207
 40
0.3664250801
 40
0.5131091331
 40
0.6373254871
 40
0.7420001361
 40
0.8320260389
 40
0.9149262619
 40
1.0
 40
1.0
 40
1.0
 40
1.0
 10
13.2926146769
 20
4.4052526094
 30
0.0
 10
13.292837795
 20
4.4052526091
 30
0.0
 10
13.2932558007
 20
4.4052419178
 30
0.0
 10
13.293838825
 20
4.4051859507
 30
0.0
 10
13.2943344653
 20
4.4050912954
 30
0.0
 10
13.2947429799
 20
4.4049575497
 30
0.0
 10
13.2950652774
 20
4.4047834434
 30
0.0
 10
13.2953004851
 20
4.4045646065
 30
0.0
 10
13.2954406119
 20
4.404299102
 30
0.0
 10
13.2954654242
 20
4.404105027
 30
0.0
 10
13.2954641306
 20
4.4040080253
 30
0.0
  0
LINE
  5
332
100
AcDbEntity
  8
0
100
AcDbLine
 62
9
  6
CONTINUOUS
 10
13.2954641306
 20
4.4040080253
 11
13.2952028612
 21
4.3860732676
  0
SPLINE
  5
333
100
AcDbEntity
  8
0
100
AcDbSpline
 62
9
  6
CONTINUOUS
 70
0
 71
3
 72
11
 73
7
 74
0
 42
0.0000001
 43
0.0000001
 44
0.0000000001
 40
0.0
 40
0.0
 40
0.0
 40
0.0
 40
0.2729746774
 40
0.5317148517
 40
0.774540265
 40
1.0
 40
1.0
 40
1.0
 40
1.0
 10
11.6548082612
 20
4.6317637007
 30
0.0
 10
11.6534964081
 20
4.6315642777
 30
0.0
 10
11.6509354508
 20
4.6312117068
 30
0.0
 10
11.6471902953
 20
4.630818347
 30
0.0
 10
11.6436635899
 20
4.6305780271
 30
0.0
 10
11.6413870613
 20
4.6305191177
 30
0.0
 10
11.6402911062
 20
4.6305191166
 30
0.0
  0
LINE
  5
334
100
AcDbEntity
  8
0
100
AcDbLine
 62
9
  6
CONTINUOUS
 10
11.4297641171
 20
4.3860732676
 11
11.4295028477
 21
4.4040080253
  0
SPLINE
  5
335
100
AcDbEntity
  8
0
100
AcDbSpline
 62
9
  6
CONTINUOUS
 70
0
 71
3
 72
15
 73
11
 74
0
 42
0.0000001
 43
0.0000001
 44
0.0000000001
 40
0.0
 40
0.0
 40
0.0
 40
0.0
 40
0.1956646207
 40
0.3664250801
 40
0.5131091331
 40
0.6373254871
 40
0.7420001361
 40
0.8320260389
 40
0.9149262619
 40
1.0
 40
1.0
 40
1.0
 40
1.0
 10
11.4323523014
 20
4.6305191166
 30
0.0
 10
11.4321291833
 20
4.6305191169
 30
0.0
 10
11.4317111776
 20
4.6305298081
 30
0.0
 10
11.4311281533
 20
4.6305857752
 30
0.0
 10
11.430632513
 20
4.6306804305
 30
0.0
 10
11.4302239984
 20
4.6308141763
 30
0.0
 10
11.4299017009
 20
4.6309882825
 30
0.0
 10
11.4296664932
 20
4.6312071194
 30
0.0
 10
11.4295263664
 20
4.631472624
 30
0.0
 10
11.429501554
 20
4.6316666989
 30
0.0
 10
11.4295028477
 20
4.6317637007
 30
0.0
  0
LINE
  5
336
100
AcDbEntity
  8
0
100
AcDbLine
 62
9
  6
CONTINUOUS
 10
11.4295028477
 20
4.6317637007
 11
11.4297641171
 21
4.6496984584
  0
SPLINE
  5
337
100
AcDbEntity
  8
0
100
AcDbSpline
 62
9
  6
CONTINUOUS
 70
0
 71
3
 72
11
 73
7
 74
0
 42
0.0000001
 43
0.0000001
 44
0.0000000001
 40
0.0
 40
0.0
 40
0.0
 40
0.0
 40
0.2501707423
 40
0.4999999999
 40
0.7498292574
 40
1.0
 40
1.0
 40
1.0
 40
1.0
 10
12.5958616583
 20
4.422191378
 30
0.0
 10
12.6354289937
 20
4.416205652
 30
0.0
 10
12.7150177632
 20
4.407401735
 30
0.0
 10
12.8349834891
 20
4.4030856139
 30
0.0
 10
12.9549492152
 20
4.4074017325
 30
0.0
 10
13.0345379846
 20
4.4162056516
 30
0.0
 10
13.07410532
 20
4.422191378
 30
0.0
  0
SPLINE
  5
338
100
AcDbEntity
  8
0
100
AcDbSpline
 62
9
  6
CONTINUOUS
 70
0
 71
3
 72
15
 73
11
 74
0
 42
0.0000001
 43
0.0000001
 44
0.0000000001
 40
0.0
 40
0.0
 40
0.0
 40
0.0
 40
0.1245852319
 40
0.2493418151
 40
0.3740999142
 40
0.4989836809
 40
0.6240086203
 40
0.7491789449
 40
0.8745847212
 40
1.0
 40
1.0
 40
1.0
 40
1.0
 10
11.4174834891
 20
4.6135803479
 30
0.0
 10
11.4174834891
 20
4.6145378714
 30
0.0
 10
11.4176246045
 20
4.6164571189
 30
0.0
 10
11.4182517471
 20
4.6192730874
 30
0.0
 10
11.4192839976
 20
4.6219702431
 30
0.0
 10
11.4206986346
 20
4.624490023
 30
0.0
 10
11.4224646737
 20
4.6267812489
 30
0.0
 10
11.4245470415
 20
4.6287953936
 30
0.0
 10
11.426900622
 20
4.6304885716
 30
0.0
 10
11.4286178197
 20
4.6313818181
 30
0.0
 10
11.4295028477
 20
4.6317637007
 30
0.0
  0
SPLINE
  5
339
100
AcDbEntity
  8
0
100
AcDbSpline
 62
9
  6
CONTINUOUS
 70
0
 71
3
 72
15
 73
11
 74
0
 42
0.0000001
 43
0.0000001
 44
0.0000000001
 40
0.0
 40
0.0
 40
0.0
 40
0.0
 40
0.1424529868
 40
0.2839621425
 40
0.4220693
 40
0.554787173
 40
0.6802513538
 40
0.7968903146
 40
0.9036799306
 40
1.0
 40
1.0
 40
1.0
 40
1.0
 10
12.12910532
 20
4.6135803479
 30
0.0
 10
12.129214185
 20
4.6145398523
 30
0.0
 10
12.1295004762
 20
4.6164453352
 30
0.0
 10
12.1301268837
 20
4.6192394859
 30
0.0
 10
12.1309393627
 20
4.6219167882
 30
0.0
 10
12.1319205424
 20
4.6244208018
 30
0.0
 10
12.1330494382
 20
4.6267009833
 30
0.0
 10
12.1343043395
 20
4.6287111284
 30
0.0
 10
12.1356597557
 20
4.6304091173
 30
0.0
 10
12.1366647378
 20
4.631360206
 30
0.0
 10
12.1371780756
 20
4.6317637007
 30
0.0
  0
SPLINE
  5
33A
100
AcDbEntity
  8
0
100
AcDbSpline
 62
9
  6
CONTINUOUS
 70
0
 71
3
 72
15
 73
11
 74
0
 42
0.0000001
 43
0.0000001
 44
0.0000000001
 40
0.0
 40
0.0
 40
0.0
 40
0.0
 40
0.1500068511
 40
0.2965881261
 40
0.4372717351
 40
0.5701863385
 40
0.6937122298
 40
0.8066767518
 40
0.9086723636
 40
1.0
 40
1.0
 40
1.0
 40
1.0
 10
13.07410532
 20
4.6135803479
 30
0.0
 10
13.0742132953
 20
4.6145320109
 30
0.0
 10
13.0743593376
 20
4.6164220105
 30
0.0
 10
13.0743687322
 20
4.6192164744
 30
0.0
 10
13.0741656023
 20
4.6218946397
 30
0.0
 10
13.0737543805
 20
4.6244002767
 30
0.0
 10
13.0731444196
 20
4.6266831393
 30
0.0
 10
13.0723461023
 20
4.6286979924
 30
0.0
 10
13.0713742544
 20
4.6304031445
 30
0.0
 10
13.0705800702
 20
4.6313606116
 30
0.0
 10
13.0701587171
 20
4.6317637007
 30
0.0
  0
LINE
  5
33B
100
AcDbEntity
  8
0
100
AcDbLine
 62
9
  6
CONTINUOUS
 10
13.2952028612
 20
4.6496984584
 11
13.2954641306
 21
4.6317637007
  0
SPLINE
  5
33C
100
AcDbEntity
  8
0
100
AcDbSpline
 62
9
  6
CONTINUOUS
 70
0
 71
3
 72
11
 73
7
 74
0
 42
0.0000001
 43
0.0000001
 44
0.0000000001
 40
0.0
 40
0.0
 40
0.0
 40
0.0
 40
0.2501707423
 40
0.4999999998
 40
0.7498292573
 40
1.0
 40
1.0
 40
1.0
 40
1.0
 10
12.12910532
 20
4.6135803479
 30
0.0
 10
12.0895379846
 20
4.619566074
 30
0.0
 10
12.0099492151
 20
4.6283699915
 30
0.0
 10
11.8899834892
 20
4.63268611
 30
0.0
 10
11.770017763
 20
4.6283699941
 30
0.0
 10
11.6904289937
 20
4.6195660743
 30
0.0
 10
11.6508616583
 20
4.6135803479
 30
0.0
  0
SPLINE
  5
33D
100
AcDbEntity
  8
0
100
AcDbSpline
 62
9
  6
CONTINUOUS
 70
0
 71
3
 72
15
 73
11
 74
0
 42
0.0000001
 43
0.0000001
 44
0.0000000001
 40
0.0
 40
0.0
 40
0.0
 40
0.0
 40
0.1245852319
 40
0.2493418151
 40
0.3740999143
 40
0.4989836809
 40
0.6240086204
 40
0.749178945
 40
0.8745847212
 40
1.0
 40
1.0
 40
1.0
 40
1.0
 10
13.3074834891
 20
4.422191378
 30
0.0
 10
13.3074834891
 20
4.4212338546
 30
0.0
 10
13.3073423737
 20
4.4193146071
 30
0.0
 10
13.3067152312
 20
4.4164986385
 30
0.0
 10
13.3056829807
 20
4.4138014829
 30
0.0
 10
13.3042683437
 20
4.411281703
 30
0.0
 10
13.3025023046
 20
4.4089904771
 30
0.0
 10
13.3004199368
 20
4.4069763323
 30
0.0
 10
13.2980663563
 20
4.4052831544
 30
0.0
 10
13.2963491586
 20
4.4043899078
 30
0.0
 10
13.2954641306
 20
4.4040080253
 30
0.0
  0
SPLINE
  5
33E
100
AcDbEntity
  8
0
100
AcDbSpline
 62
9
  6
CONTINUOUS
 70
0
 71
3
 72
15
 73
11
 74
0
 42
0.0000001
 43
0.0000001
 44
0.0000000001
 40
0.0
 40
0.0
 40
0.0
 40
0.0
 40
0.1424529868
 40
0.2839621424
 40
0.4220692998
 40
0.5547871728
 40
0.6802513535
 40
0.7968903143
 40
0.9036799304
 40
1.0
 40
1.0
 40
1.0
 40
1.0
 10
12.5958616583
 20
4.422191378
 30
0.0
 10
12.5957527932
 20
4.4212318736
 30
0.0
 10
12.5954665021
 20
4.4193263908
 30
0.0
 10
12.5948400945
 20
4.4165322401
 30
0.0
 10
12.5940276155
 20
4.4138549378
 30
0.0
 10
12.5930464359
 20
4.4113509241
 30
0.0
 10
12.5919175401
 20
4.4090707427
 30
0.0
 10
12.5906626388
 20
4.4070605975
 30
0.0
 10
12.5893072226
 20
4.4053626086
 30
0.0
 10
12.5883022405
 20
4.4044115199
 30
0.0
 10
12.5877889027
 20
4.4040080253
 30
0.0
  0
SPLINE
  5
33F
100
AcDbEntity
  8
0
100
AcDbSpline
 62
9
  6
CONTINUOUS
 70
0
 71
3
 72
15
 73
11
 74
0
 42
0.0000001
 43
0.0000001
 44
0.0000000001
 40
0.0
 40
0.0
 40
0.0
 40
0.0
 40
0.1500068511
 40
0.2965881262
 40
0.4372717354
 40
0.5701863389
 40
0.6937122302
 40
0.8066767522
 40
0.9086723639
 40
1.0
 40
1.0
 40
1.0
 40
1.0
 10
11.6508616583
 20
4.422191378
 30
0.0
 10
11.6507536829
 20
4.4212397151
 30
0.0
 10
11.6506076407
 20
4.4193497154
 30
0.0
 10
11.6505982461
 20
4.4165552516
 30
0.0
 10
11.6508013759
 20
4.4138770863
 30
0.0
 10
11.6512125978
 20
4.4113714492
 30
0.0
 10
11.6518225587
 20
4.4090885867
 30
0.0
 10
11.652620876
 20
4.4070737335
 30
0.0
 10
11.6535927238
 20
4.4053685814
 30
0.0
 10
11.654386908
 20
4.4044111144
 30
0.0
 10
11.6548082612
 20
4.4040080253
 30
0.0
  0
SPLINE
  5
340
100
AcDbEntity
  8
0
100
AcDbSpline
 62
9
  6
CONTINUOUS
 70
0
 71
3
 72
15
 73
11
 74
0
 42
0.0000001
 43
0.0000001
 44
0.0000000001
 40
0.0
 40
0.0
 40
0.0
 40
0.0
 40
0.1247319028
 40
0.2494312042
 40
0.3741688821
 40
0.4989964844
 40
0.623954863
 40
0.749080439
 40
0.8744119775
 40
1.0
 40
1.0
 40
1.0
 40
1.0
 10
12.128514027
 20
7.4220212333
 30
0.0
 10
12.1112159994
 20
7.4245404179
 30
0.0
 10
12.0765058636
 20
7.4287913466
 30
0.0
 10
12.0242272848
 20
7.4330303919
 30
0.0
 10
11.971813566
 20
7.435302846
 30
0.0
 10
11.919316854
 20
7.4357060032
 30
0.0
 10
11.8667839583
 20
7.4342579022
 30
0.0
 10
11.8142664762
 20
7.4308954375
 30
0.0
 10
11.7618312223
 20
7.4254788841
 30
0.0
 10
11.727025437
 20
7.420364263
 30
0.0
 10
11.7096783766
 20
7.417388262
 30
0.0
  0
SPLINE
  5
341
100
AcDbEntity
  8
0
100
AcDbSpline
 62
9
  6
CONTINUOUS
 70
0
 71
3
 72
11
 73
7
 74
0
 42
0.0000001
 43
0.0000001
 44
0.0000000001
 40
0.0
 40
0.0
 40
0.0
 40
0.0
 40
0.273695984
 40
0.5327690505
 40
0.7753877817
 40
1.0
 40
1.0
 40
1.0
 40
1.0
 10
11.7096783766
 20
7.417388262
 30
0.0
 10
11.7083427137
 20
7.4171591212
 30
0.0
 10
11.7057356653
 20
7.4167528713
 30
0.0
 10
11.7019226005
 20
7.4162973076
 30
0.0
 10
11.6983361708
 20
7.4160179889
 30
0.0
 10
11.6960224663
 20
7.4159491411
 30
0.0
 10
11.6949103236
 20
7.4159491396
 30
0.0
  0
SPLINE
  5
342
100
AcDbEntity
  8
0
100
AcDbSpline
 62
9
  6
CONTINUOUS
 70
0
 71
3
 72
16
 73
12
 74
0
 42
0.0000001
 43
0.0000001
 44
0.0000000001
 40
0.0
 40
0.0
 40
0.0
 40
0.0
 40
0.1915046409
 40
0.3584232288
 40
0.5018537154
 40
0.565395608
 40
0.6239557534
 40
0.7280764077
 40
0.8199958093
 40
0.9076868126
 40
1.0
 40
1.0
 40
1.0
 40
1.0
 10
11.5077383862
 20
7.4159491396
 30
0.0
 10
11.5075079617
 20
7.41594914
 30
0.0
 10
11.5070764505
 20
7.4159615521
 30
0.0
 10
11.506475422
 20
7.4160266702
 30
0.0
 10
11.5060343926
 20
7.4161219645
 30
0.0
 10
11.5057313377
 20
7.4162243388
 30
0.0
 10
11.5054817385
 20
7.4163334218
 30
0.0
 10
11.5052190408
 20
7.4164965289
 30
0.0
 10
11.5049844974
 20
7.4167519831
 30
0.0
 10
11.504851862
 20
7.4170577119
 30
0.0
 10
11.5048338872
 20
7.4172772849
 30
0.0
 10
11.5048385291
 20
7.417388262
 30
0.0
  0
LINE
  5
343
100
AcDbEntity
  8
0
100
AcDbLine
 62
9
  6
CONTINUOUS
 10
11.5048385291
 20
7.417388262
 11
11.505701201
 21
7.4354711113
  0
SPLINE
  5
344
100
AcDbEntity
  8
0
100
AcDbSpline
 62
9
  6
CONTINUOUS
 70
0
 71
3
 72
12
 73
8
 74
0
 42
0.0000001
 43
0.0000001
 44
0.0000000001
 40
0.0
 40
0.0
 40
0.0
 40
0.0
 40
0.2480933445
 40
0.3730177459
 40
0.4984403637
 40
0.749810459
 40
1.0
 40
1.0
 40
1.0
 40
1.0
 10
12.7961948958
 20
6.6301527551
 30
0.0
 10
12.7772450457
 20
6.6417417465
 30
0.0
 10
12.7486811416
 20
6.6590490186
 30
0.0
 10
12.7103382911
 20
6.6818835694
 30
0.0
 10
12.6716187461
 20
6.7046577081
 30
0.0
 10
12.6229907452
 20
6.7327058591
 30
0.0
 10
12.5838368889
 20
6.7546978055
 30
0.0
 10
12.5642512723
 20
6.7655687809
 30
0.0
  0
ENDSEC
  0
SECTION
  2
OBJECTS
  0
DICTIONARY
  5
C
100
AcDbDictionary
280
0
281
1
  3
ACAD_GROUP
350
D
  3
ACAD_MLINESTYLE
350
17
  3
ACAD_LAYOUT
350
1A
  3
ACAD_PLOTSETTINGS
350
19
  3
ACAD_PLOTSTYLENAME
350
E
  0
DICTIONARY
  5
D
102
{ACAD_REACTORS
330
C
102
}
100
AcDbDictionary
280
0
281
1
  0
ACDBDICTIONARYWDFLT
  5
E
102
{ACAD_REACTORS
330
C
102
}
100
AcDbDictionary
281
1
  3
Normal
350
F
100
AcDbDictionaryWithDefault
340
F
  0
DICTIONARY
  5
17
102
{ACAD_REACTORS
330
C
102
}
100
AcDbDictionary
280
0
281
1
  3
Standard
350
18
  0
DICTIONARY
  5
19
102
{ACAD_REACTORS
330
C
102
}
100
AcDbDictionary
281
1
  0
DICTIONARY
  5
1A
102
{ACAD_REACTORS
330
C
102
}
100
AcDbDictionary
281
1
  3
Model
350
345
  3
Layout1
350
346
  0
ACDBPLACEHOLDER
  5
F
102
{ACAD_REACTORS
330
E
102
}
  0
MLINESTYLE
  5
18
102
{ACAD_REACTORS
330
17
102
}
100
AcDbMlineStyle
  2
STANDARD
 70
0
  3

 62
256
 51
90.0
 52
90.0
 71
2
 49
0.5
 62
256
  6
BYLAYER
 49
-0.5
 62
256
  6
BYLAYER
  0
LAYOUT
  5
345
102
{ACAD_REACTORS
330
1A
102
}
100
AcDbPlotSettings
  1

  2
none_device
  4
ANSI_C_(22.00_x_17.00_Inches)
  6

 40
0.0
 41
0.0
 42
0.0
 43
0.0
 44
558.8
 45
431.8
 46
0.0
 47
0.0
 48
0.0
 49
0.0
140
0.0
141
0.0
142
1.0
143
1.0
 70
1024
 72
0
 73
0
 74
0
  7

 75
0
147
1.0
148
0.0
149
0.0
100
AcDbLayout
  1
Model
 70
0
 71
0
 10
0.0
 20
0.0
 11
22.0
 21
17.0
 12
0.0
 22
0.0
 32
0.0
 14
0.0
 24
0.0
 34
0.0
 15
0.0
 25
0.0
 35
0.0
146
0.0
 13
0.0
 23
0.0
 33
0.0
 16
1.0
 26
0.0
 36
0.0
 17
0.0
 27
1.0
 37
0.0
 76
0
330
205
345
0
346
0
  0
LAYOUT
  5
346
102
{ACAD_REACTORS
330
1A
102
}
100
AcDbPlotSettings
  1

  2
none_device
  4
ANSI_C_(22.00_x_17.00_Inches)
  6

 40
0.0
 41
0.0
 42
0.0
 43
0.0
 44
558.8
 45
431.8
 46
0.0
 47
0.0
 48
0.0
 49
0.0
140
0.0
141
0.0
142
1.0
143
1.0
 70
0
 72
0
 73
0
 74
0
  7

 75
0
147
1.0
148
0.0
149
0.0
100
AcDbLayout
  1
Layout1
 70
0
 71
1
 10
0.0
 20
0.0
 11
22.0
 21
17.0
 12
0.0
 22
0.0
 32
0.0
 14
0.0
 24
0.0
 34
0.0
 15
0.0
 25
0.0
 35
0.0
146
0.0
 13
0.0
 23
0.0
 33
0.0
 16
1.0
 26
0.0
 36
0.0
 17
0.0
 27
1.0
 37
0.0
 76
0
330
206
345
0
346
0
  0
ENDSEC
  0
EOF
