999
DXF file: E:\BT Custom\CADOUTPUT\_TOP.dxf
999
Pro/ENGINEER 2018400 by Parametric Technology Corporation
  0
SECTION
  2
HEADER
  9
$ACADVER
  1
AC1018
  9
$DWGCODEPAGE
  3
ANSI_1252
  9
$EXTMAX
 10
22.0
 20
17.0
 30
0.0
  9
$EXTMIN
 10
0.0
 20
0.0
 30
0.0
  9
$LIMMIN
 10
0.0
 20
0.0
  9
$LIMMAX
 10
22.0
 20
17.0
  9
$VIEWCTR
 10
11.0
 20
8.5
  9
$VIEWSIZE
 40
17.0
  9
$CLAYER
  8
0
  9
$LTSCALE
 40
1.21
  9
$CELTYPE
  6
BYLAYER
  9
$DIMSCALE
 40
1.0
  9
$DIMASZ
 40
0.1
  9
$DIMEXO
 40
0.0625
  9
$DIMDLI
 40
0.836
  9
$DIMEXE
 40
0.125
  9
$DIMCEN
 40
0.198
  9
$DIMLFAC
 40
1.0
  9
$DIMBLK
  1
_FILLED
  9
$DIMALT
 70
1
  9
$DIMALTD
 70
2
  9
$DIMALTTD
 70
2
  9
$DIMALTF
 40
25.4
  9
$DIMTXT
 40
0.08
  9
$DIMTOL
 70
1
  9
$DIMLIM
 70
0
  9
$DIMTFAC
 40
1.0
  9
$DIMTP
 40
0.001
  9
$DIMTM
 40
0.001
  9
$DIMGAP
 40
0.09
  9
$DIMDSEP
 70
46
  9
$AUNITS
 70
0
  9
$PDMODE
 70
3
  9
$PDSIZE
 40
0.06
  9
$HANDSEED
  5
3A1
  9
$TILEMODE
 70
1
  9
$MEASUREMENT
 70
0
  9
$INSUNITS
 70
1
  0
ENDSEC
  0
SECTION
  2
CLASSES
  0
CLASS
  1
ACDBDICTIONARYWDFLT
  2
AcDbDictionaryWithDefault
  3
AutoCAD 2000
 90
0
 91
1
280
0
281
0
  0
CLASS
  1
ACDBPLACEHOLDER
  2
AcDbPlaceHolder
  3
AutoCAD 2000
 90
0
 91
1
280
0
281
0
  0
CLASS
  1
LAYOUT
  2
AcDbLayout
  3
AutoCAD 2000
 90
0
 91
0
280
0
281
0
  0
ENDSEC
  0
SECTION
  2
TABLES
  0
TABLE
  2
VPORT
  5
8
100
AcDbSymbolTable
 70
2
  0
VPORT
  5
1F4
100
AcDbSymbolTableRecord
100
AcDbViewportTableRecord
  2
*ACTIVE
 70
0
 10
0.0
 20
0.0
 11
1.0
 21
1.0
 12
11.0
 22
8.5
 13
0.0
 23
0.0
 14
1.0
 24
1.0
 15
0.0
 25
0.0
 16
0.0
 26
0.0
 36
1.0
 17
0.0
 27
0.0
 37
0.0
 40
17.0
 41
1.2941176471
 42
50.0
 43
0.0
 44
0.0
 50
0.0
 51
0.0
 71
0
 72
100
 73
1
 74
1
 75
0
 76
0
 77
0
 78
0
  0
ENDTAB
  0
TABLE
  2
LTYPE
  5
5
100
AcDbSymbolTable
 70
6
  0
LTYPE
  5
14
100
AcDbSymbolTableRecord
100
AcDbLinetypeTableRecord
  2
BYBLOCK
 70
0
  3

 72
65
 73
0
 40
0.0
  0
LTYPE
  5
15
100
AcDbSymbolTableRecord
100
AcDbLinetypeTableRecord
  2
BYLAYER
 70
0
  3

 72
65
 73
0
 40
0.0
  0
LTYPE
  5
16
100
AcDbSymbolTableRecord
100
AcDbLinetypeTableRecord
  2
CONTINUOUS
 70
64
  3
Solid line
 72
65
 73
0
 40
0.0
  0
LTYPE
  5
1F5
100
AcDbSymbolTableRecord
100
AcDbLinetypeTableRecord
  2
CENTER
 70
64
  3
____ _ ____ _ ____ _ ____ _ ____ _ ____ _ ____
 72
65
 73
4
 40
0.6
 49
0.375
 74
0
 49
-0.075
 74
0
 49
0.075
 74
0
 49
-0.075
 74
0
  0
LTYPE
  5
1F6
100
AcDbSymbolTableRecord
100
AcDbLinetypeTableRecord
  2
HIDDEN
 70
64
  3
- - - - - - - - - - - - - - - - - - - -
 72
65
 73
2
 40
0.2
 49
0.1
 74
0
 49
-0.1
 74
0
  0
LTYPE
  5
1F7
100
AcDbSymbolTableRecord
100
AcDbLinetypeTableRecord
  2
PHANTOM
 70
64
  3
_____ _ _ _____ _ _ _____ _ _ _____
 72
65
 73
6
 40
0.8
 49
0.45
 74
0
 49
-0.05
 74
0
 49
0.1
 74
0
 49
-0.05
 74
0
 49
0.1
 74
0
 49
-0.05
 74
0
  0
LTYPE
  5
1F8
100
AcDbSymbolTableRecord
100
AcDbLinetypeTableRecord
  2
DOT
 70
64
  3
. . . . . . . . . . . . . . . . . . . .
 72
65
 73
2
 40
0.2
 49
0.1
 74
0
 49
-0.1
 74
0
  0
LTYPE
  5
1F9
100
AcDbSymbolTableRecord
100
AcDbLinetypeTableRecord
  2
DASHED
 70
64
  3
- - - - - - - - - - - - - - - - - - - -
 72
65
 73
2
 40
0.2
 49
0.1
 74
0
 49
-0.1
 74
0
  0
ENDTAB
  0
TABLE
  2
LAYER
  5
2
100
AcDbSymbolTable
 70
36
  0
LAYER
  5
10
100
AcDbSymbolTableRecord
100
AcDbLayerTableRecord
  2
0
 70
0
 62
7
  6
CONTINUOUS
370
-3
390
F
  0
LAYER
  5
1FA
100
AcDbSymbolTableRecord
100
AcDbLayerTableRecord
  2
DEFAULT_1
 70
0
 62
7
  6
CENTER
370
-3
390
F
  0
LAYER
  5
1FB
100
AcDbSymbolTableRecord
100
AcDbLayerTableRecord
  2
DEFAULT_2
 70
0
 62
8
  6
HIDDEN
370
-3
390
F
  0
LAYER
  5
1FC
100
AcDbSymbolTableRecord
100
AcDbLayerTableRecord
  2
DEFAULT_3
 70
0
 62
7
  6
PHANTOM
370
-3
390
F
  0
LAYER
  5
1FD
100
AcDbSymbolTableRecord
100
AcDbLayerTableRecord
  2
ALL_FEATURES
 70
0
 62
7
  6
CONTINUOUS
370
-3
390
F
  0
LAYER
  5
1FE
100
AcDbSymbolTableRecord
100
AcDbLayerTableRecord
  2
AXES_FEATURES
 70
0
 62
7
  6
CONTINUOUS
370
-3
390
F
  0
LAYER
  5
1FF
100
AcDbSymbolTableRecord
100
AcDbLayerTableRecord
  2
DIMENSIONS
 70
0
 62
7
  6
CONTINUOUS
370
-3
390
F
  0
ENDTAB
  0
TABLE
  2
STYLE
  5
3
100
AcDbSymbolTable
 70
1
  0
STYLE
  5
11
100
AcDbSymbolTableRecord
100
AcDbTextStyleTableRecord
  2
STANDARD
 70
0
 40
0.0
 41
0.8
 50
0.0
 71
0
 42
0.2
  3
txt
  4

  0
STYLE
  5
200
100
AcDbSymbolTableRecord
100
AcDbTextStyleTableRecord
  2
TEXTSTYLE_1
 70
0
 40
0.0
 41
0.8
 50
0.0
 71
0
 42
0.2
  3
gdt
  4

  0
ENDTAB
  0
TABLE
  2
VIEW
  5
6
100
AcDbSymbolTable
 70
0
  0
ENDTAB
  0
TABLE
  2
UCS
  5
7
100
AcDbSymbolTable
 70
0
  0
ENDTAB
  0
TABLE
  2
APPID
  5
9
100
AcDbSymbolTable
 70
1
  0
APPID
  5
201
100
AcDbSymbolTableRecord
100
AcDbRegAppTableRecord
  2
ACAD
 70
0
  0
ENDTAB
  0
TABLE
  2
BLOCK_RECORD
  5
1
100
AcDbSymbolTable
 70
0
  0
BLOCK_RECORD
  5
202
100
AcDbSymbolTableRecord
100
AcDbBlockTableRecord
  2
*Model_Space
  0
BLOCK_RECORD
  5
203
100
AcDbSymbolTableRecord
100
AcDbBlockTableRecord
  2
*Paper_Space
  0
BLOCK_RECORD
  5
204
100
AcDbSymbolTableRecord
100
AcDbBlockTableRecord
  2
_FILLED
  0
ENDTAB
  0
TABLE
  2
DIMSTYLE
  5
A
100
AcDbSymbolTable
 70
1
100
AcDbDimStyleTable
 71
0
  0
DIMSTYLE
105
205
100
AcDbSymbolTableRecord
100
AcDbDimStyleTableRecord
  2
STANDARD
 70
0
  3

  4

 40
1.0
 41
0.1
 42
0.0625
 43
0.38
 44
0.125
 45
0.0
 46
0.0
 47
0.001
 48
0.001
140
0.08
141
0.09
142
0.0
143
25.4
144
1.0
145
0.0
146
1.0
147
0.09
 71
1.0
 72
0.0
 73
1
 74
1
 75
0
 76
0
 77
0
 78
4
 79
1
170
1
171
2
172
0
173
0
174
0
175
0
176
0
177
0
178
0
270
2
179
3
271
3
272
3
273
2
274
2
275
0
280
0
281
0
282
0
283
1
284
4
285
0
286
0
287
3
288
0
340
11
278
46
341
204
342
204
343
204
344
204
  0
ENDTAB
  0
ENDSEC
  0
SECTION
  2
BLOCKS
  0
BLOCK
  5
20
100
AcDbEntity
  8
0
100
AcDbBlockBegin
  2
*Model_Space
 70
0
 10
0.0
 20
0.0
 30
0.0
  3
*Model_Space
  1

  0
ENDBLK
  5
21
100
AcDbEntity
  8
0
100
AcDbBlockEnd
  0
BLOCK
  5
1C
100
AcDbEntity
  8
0
100
AcDbBlockBegin
  2
*Paper_Space
 70
0
 10
0.0
 20
0.0
 30
0.0
  3
*Paper_Space
  1

  0
ENDBLK
  5
1D
100
AcDbEntity
  8
0
100
AcDbBlockEnd
  0
BLOCK
  5
206
100
AcDbEntity
  8
0
100
AcDbBlockBegin
  2
_FILLED
 70
64
 10
0.0
 20
0.0
  3
_FILLED
  1

  0
SOLID
  5
207
100
AcDbEntity
  8
0
  6
BYBLOCK
 62
0
100
AcDbTrace
 10
0.0
 20
0.0
 11
-1.0
 21
0.2
 12
-1.0
 22
-0.2
 13
-1.0
 23
-0.2
  0
ENDBLK
  5
208
100
AcDbEntity
  8
0
  6
BYBLOCK
 62
0
100
AcDbBlockEnd
  0
ENDSEC
  0
SECTION
  2
ENTITIES
  0
LINE
  5
209
100
AcDbEntity
  8
0
100
AcDbLine
 62
7
  6
CONTINUOUS
 10
10.587387908
 20
-6.0871681396
 11
11.5073874022
 21
-6.0871681396
  0
LINE
  5
20A
100
AcDbEntity
  8
0
100
AcDbLine
 62
7
  6
CONTINUOUS
 10
11.5073874022
 20
-5.9871681396
 11
10.5873884139
 21
-5.9871681396
  0
LINE
  5
20B
100
AcDbEntity
  8
0
100
AcDbLine
 62
9
  6
CONTINUOUS
 10
11.497387908
 20
-5.2517692199
 11
10.597387908
 21
-5.2517692199
  0
LINE
  5
20C
100
AcDbEntity
  8
0
100
AcDbLine
 62
9
  6
CONTINUOUS
 10
10.570137908
 20
-5.207244648
 11
11.524637908
 21
-5.207244648
  0
LINE
  5
20D
100
AcDbEntity
  8
0
100
AcDbLine
 62
9
  6
CONTINUOUS
 10
10.5429375001
 20
-5.1604936994
 11
11.5518383159
 21
-5.1604936994
  0
LINE
  5
20E
100
AcDbEntity
  8
0
100
AcDbLine
 62
9
  6
CONTINUOUS
 10
12.2417961316
 20
20.748039026
 11
12.2435843061
 21
20.7488011619
  0
LINE
  5
20F
100
AcDbEntity
  8
0
100
AcDbLine
 62
9
  6
CONTINUOUS
 10
12.2719455626
 20
20.7986366363
 11
12.2737398352
 21
20.7993990833
  0
LWPOLYLINE
  5
210
100
AcDbEntity
  8
0
100
AcDbPolyline
 62
7
  6
CONTINUOUS
 90
3
 70
0
 10
12.3711595838
 20
20.9107496748
 10
12.3761878741
 20
20.9127945304
 10
12.3802844707
 20
20.9137238851
  0
LINE
  5
211
100
AcDbEntity
  8
0
100
AcDbLine
 62
7
  6
CONTINUOUS
 10
11.4352379075
 20
-4.6087534047
 11
11.0382285252
 21
-4.60881814
  0
LINE
  5
212
100
AcDbEntity
  8
0
100
AcDbLine
 62
9
  6
CONTINUOUS
 10
10.4594219273
 20
-4.7398797378
 11
11.6353538887
 21
-4.7398797378
  0
LINE
  5
213
100
AcDbEntity
  8
0
100
AcDbLine
 62
9
  6
CONTINUOUS
 10
10.452387908
 20
-4.7081681396
 11
11.642387908
 21
-4.7081681396
  0
LINE
  5
214
100
AcDbEntity
  8
0
100
AcDbLine
 62
7
  6
CONTINUOUS
 10
11.6423875793
 20
-4.6171681396
 11
10.4523882367
 21
-4.6171681396
  0
LINE
  5
215
100
AcDbEntity
  8
0
100
AcDbLine
 62
7
  6
CONTINUOUS
 10
11.4352379077
 20
-4.60881814
 11
11.0382285222
 21
-4.60881814
  0
LINE
  5
216
100
AcDbEntity
  8
0
100
AcDbLine
 62
7
  6
CONTINUOUS
 10
10.497387908
 20
-4.5981681396
 11
11.597387908
 21
-4.5981681396
  0
LWPOLYLINE
  5
217
100
AcDbEntity
  8
0
100
AcDbPolyline
 62
7
  6
CONTINUOUS
 90
4
 70
0
 10
12.3518972894
 20
20.898090028
 10
12.358922855
 20
20.9033044406
 10
12.3653524773
 20
20.9075534209
 10
12.3711595838
 20
20.9107496748
  0
LINE
  5
218
100
AcDbEntity
  8
0
100
AcDbLine
 62
7
  6
CONTINUOUS
 10
11.597387908
 20
-2.4981681396
 11
10.497387908
 21
-2.4981681396
  0
LINE
  5
219
100
AcDbEntity
  8
0
100
AcDbLine
 62
7
  6
CONTINUOUS
 10
12.3318486585
 20
20.8809969003
 11
12.3407756552
 21
20.8890578483
  0
LINE
  5
21A
100
AcDbEntity
  8
0
100
AcDbLine
 62
7
  6
CONTINUOUS
 10
12.3407938178
 20
20.8890732067
 11
12.3407756552
 21
20.8890578483
  0
LINE
  5
21B
100
AcDbEntity
  8
0
100
AcDbLine
 62
7
  6
CONTINUOUS
 10
12.3407937652
 20
20.8890731619
 11
12.3442383337
 21
20.8919527589
  0
LINE
  5
21C
100
AcDbEntity
  8
0
100
AcDbLine
 62
7
  6
CONTINUOUS
 10
12.3442383337
 20
20.8919527589
 11
12.3518972894
 21
20.898090028
  0
LINE
  5
21D
100
AcDbEntity
  8
0
100
AcDbLine
 62
7
  6
CONTINUOUS
 10
10.648887908
 20
-4.5981681396
 11
10.667887908
 21
-4.6171681396
  0
LINE
  5
21E
100
AcDbEntity
  8
0
100
AcDbLine
 62
7
  6
CONTINUOUS
 10
12.2864581073
 20
20.8200092874
 11
12.2896552948
 21
20.8249118133
  0
LWPOLYLINE
  5
21F
100
AcDbEntity
  8
0
100
AcDbPolyline
 62
7
  6
CONTINUOUS
 90
4
 70
0
 10
12.2896683608
 20
20.8249319691
 10
12.3025928924
 20
20.8443951747
 10
12.3171731427
 20
20.8649912112
 10
12.3318486585
 20
20.8809969003
  0
LINE
  5
220
100
AcDbEntity
  8
0
100
AcDbLine
 62
7
  6
CONTINUOUS
 10
12.3321500514
 20
20.7983350622
 11
12.366828691
 21
20.8487927959
  0
LINE
  5
221
100
AcDbEntity
  8
0
100
AcDbLine
 62
7
  6
CONTINUOUS
 10
12.2301505825
 20
20.5104490488
 11
12.2769256747
 21
20.5785072301
  0
LINE
  5
222
100
AcDbEntity
  8
0
100
AcDbLine
 62
7
  6
CONTINUOUS
 10
12.1866392859
 20
20.6503335104
 11
12.1949017771
 21
20.6650730411
  0
LWPOLYLINE
  5
223
100
AcDbEntity
  8
0
100
AcDbPolyline
 62
7
  6
CONTINUOUS
 90
3
 70
0
 10
12.1949048018
 20
20.6650784429
 10
12.2072426506
 20
20.6867717353
 10
12.2261151717
 20
20.7192619684
  0
LINE
  5
224
100
AcDbEntity
  8
0
100
AcDbLine
 62
7
  6
CONTINUOUS
 10
12.2261151717
 20
20.7192619684
 11
12.2435850429
 21
20.7488024146
  0
LINE
  5
225
100
AcDbEntity
  8
0
100
AcDbLine
 62
9
  6
CONTINUOUS
 10
12.1999012218
 20
20.8035129174
 11
12.1697460928
 21
20.7529289164
  0
LINE
  5
226
100
AcDbEntity
  8
0
100
AcDbLine
 62
7
  6
CONTINUOUS
 10
12.2737421629
 20
20.7994030071
 11
12.2435843061
 21
20.7488011619
  0
LINE
  5
227
100
AcDbEntity
  8
0
100
AcDbLine
 62
9
  6
CONTINUOUS
 10
12.0907979039
 20
20.8487927959
 11
12.0606579937
 21
20.7983350622
  0
LINE
  5
228
100
AcDbEntity
  8
0
100
AcDbLine
 62
7
  6
CONTINUOUS
 10
12.2737427692
 20
20.7994040491
 11
12.2784642238
 21
20.8072305408
  0
LINE
  5
229
100
AcDbEntity
  8
0
100
AcDbLine
 62
7
  6
CONTINUOUS
 10
12.2784642238
 20
20.8072305408
 11
12.2864581073
 21
20.8200092874
  0
LINE
  5
22A
100
AcDbEntity
  8
0
100
AcDbLine
 62
7
  6
CONTINUOUS
 10
12.1714588486
 20
20.6227428222
 11
12.1714631411
 21
20.6227508926
  0
LWPOLYLINE
  5
22B
100
AcDbEntity
  8
0
100
AcDbPolyline
 62
7
  6
CONTINUOUS
 90
4
 70
0
 10
12.1714575029
 20
20.6227403796
 10
12.1763814961
 20
20.6318368106
 10
12.1813186501
 20
20.6407823241
 10
12.1866392859
 20
20.6503335104
  0
LWPOLYLINE
  5
22C
100
AcDbEntity
  8
0
100
AcDbPolyline
 62
7
  6
CONTINUOUS
 90
4
 70
0
 10
12.1707810336
 20
20.6216058705
 10
12.1704304081
 20
20.620646865
 10
12.1708471667
 20
20.6215449504
 10
12.1714631411
 20
20.6227508926
  0
LINE
  5
22D
100
AcDbEntity
  8
0
100
AcDbLine
 62
7
  6
CONTINUOUS
 10
9.587387908
 20
20.9405355702
 11
9.587387908
 21
21.0518318604
  0
LINE
  5
22E
100
AcDbEntity
  8
0
100
AcDbLine
 62
7
  6
CONTINUOUS
 10
9.815387908
 20
20.6284131911
 11
9.815387908
 21
20.5864369174
  0
LINE
  5
22F
100
AcDbEntity
  8
0
100
AcDbLine
 62
7
  6
CONTINUOUS
 10
10.5773955725
 20
5.9118318604
 11
11.5173802436
 21
5.9118318604
  0
LWPOLYLINE
  5
230
100
AcDbEntity
  8
0
100
AcDbPolyline
 62
7
  6
CONTINUOUS
 90
4
 70
0
 10
10.5655720786
 20
6.6142638621
 10
10.5725191228
 20
6.6021888422
 10
10.5765108577
 20
6.5887398254
 10
10.5773892802
 20
6.5785109994
  0
LINE
  5
231
100
AcDbEntity
  8
0
100
AcDbLine
 62
7
  6
CONTINUOUS
 10
9.5887371342
 20
20.9253616946
 11
9.587387908
 21
20.9405355702
  0
LINE
  5
232
100
AcDbEntity
  8
0
100
AcDbLine
 62
9
  6
CONTINUOUS
 10
10.8696898245
 20
20.8487927959
 11
10.8699738854
 21
20.7983350622
  0
LINE
  5
233
100
AcDbEntity
  8
0
100
AcDbLine
 62
9
  6
CONTINUOUS
 10
10.9752763859
 20
20.8035129174
 11
10.9752891702
 21
20.7529289174
  0
LINE
  5
234
100
AcDbEntity
  8
0
100
AcDbLine
 62
7
  6
CONTINUOUS
 10
10.384887908
 20
16.6418318604
 11
10.384887908
 21
20.4818318604
  0
LINE
  5
235
100
AcDbEntity
  8
0
100
AcDbLine
 62
7
  6
CONTINUOUS
 10
10.452387908
 20
-4.7081681396
 11
10.452387908
 21
-4.6171681396
  0
LINE
  5
236
100
AcDbEntity
  8
0
100
AcDbLine
 62
7
  6
CONTINUOUS
 10
10.452387908
 20
16.5398318604
 11
10.452387908
 21
16.6308318604
  0
LINE
  5
237
100
AcDbEntity
  8
0
100
AcDbLine
 62
7
  6
CONTINUOUS
 10
10.497387908
 20
-4.5981681396
 11
10.497387908
 21
-2.4981681396
  0
LINE
  5
238
100
AcDbEntity
  8
0
100
AcDbLine
 62
7
  6
CONTINUOUS
 10
10.574887908
 20
16.6372027808
 11
10.574887908
 21
16.6420629981
  0
LINE
  5
239
100
AcDbEntity
  8
0
100
AcDbLine
 62
7
  6
CONTINUOUS
 10
10.577387908
 20
17.1485109994
 11
10.577387908
 21
16.4818318604
  0
LINE
  5
23A
100
AcDbEntity
  8
0
100
AcDbLine
 62
7
  6
CONTINUOUS
 10
10.577387908
 20
6.5785109994
 11
10.577387908
 21
5.9118318604
  0
LINE
  5
23B
100
AcDbEntity
  8
0
100
AcDbLine
 62
7
  6
CONTINUOUS
 10
10.577387908
 20
7.3651527216
 11
10.577387908
 21
8.0318318604
  0
LINE
  5
23C
100
AcDbEntity
  8
0
100
AcDbLine
 62
7
  6
CONTINUOUS
 10
10.597387908
 20
-5.9871681396
 11
10.597387908
 21
-5.2517692199
  0
LINE
  5
23D
100
AcDbEntity
  8
0
100
AcDbLine
 62
7
  6
CONTINUOUS
 10
10.597387908
 20
15.2608318604
 11
10.597387908
 21
15.9962307801
  0
LINE
  5
23E
100
AcDbEntity
  8
0
100
AcDbLine
 62
7
  6
CONTINUOUS
 10
10.672387908
 20
-2.4981681396
 11
10.672387908
 21
5.9118318604
  0
LINE
  5
23F
100
AcDbEntity
  8
0
100
AcDbLine
 62
7
  6
CONTINUOUS
 10
10.672387908
 20
8.0318318604
 11
10.672387908
 21
16.4818318604
  0
LINE
  5
240
100
AcDbEntity
  8
0
100
AcDbLine
 62
9
  6
CONTINUOUS
 10
11.0473878525
 20
18.1418312999
 11
11.0473878655
 21
18.1447487231
  0
LINE
  5
241
100
AcDbEntity
  8
0
100
AcDbLine
 62
9
  6
CONTINUOUS
 10
11.0473878655
 20
18.1447487231
 11
11.0473878901
 21
18.2018312485
  0
LINE
  5
242
100
AcDbEntity
  8
0
100
AcDbLine
 62
9
  6
CONTINUOUS
 10
11.0473878864
 20
16.8818318604
 11
11.0473878995
 21
16.9418319775
  0
LINE
  5
243
100
AcDbEntity
  8
0
100
AcDbLine
 62
9
  6
CONTINUOUS
 10
11.0473879297
 20
7.6318318604
 11
11.0473879153
 21
7.5718317293
  0
LINE
  5
244
100
AcDbEntity
  8
0
100
AcDbLine
 62
9
  6
CONTINUOUS
 10
11.0473878864
 20
6.3118318604
 11
11.0473878995
 21
6.3718319775
  0
LINE
  5
245
100
AcDbEntity
  8
0
100
AcDbLine
 62
9
  6
CONTINUOUS
 10
11.1194866458
 20
20.7529289193
 11
11.1194994301
 21
20.8035129226
  0
LINE
  5
246
100
AcDbEntity
  8
0
100
AcDbLine
 62
9
  6
CONTINUOUS
 10
11.2248019306
 20
20.7983350622
 11
11.2250859915
 21
20.8487927959
  0
LWPOLYLINE
  5
247
100
AcDbEntity
  8
0
100
AcDbPolyline
 62
7
  6
CONTINUOUS
 90
4
 70
0
 10
11.5173865385
 20
17.1485110023
 10
11.5182649734
 20
17.1587399011
 10
11.5222567106
 20
17.1721888819
 10
11.5292037421
 20
17.1842638721
  0
LWPOLYLINE
  5
248
100
AcDbEntity
  8
0
100
AcDbPolyline
 62
7
  6
CONTINUOUS
 90
4
 70
0
 10
10.5773892804
 20
7.3651527216
 10
10.5764888961
 20
7.3547977726
 10
10.5724937977
 20
7.3414160072
 10
10.5655720789
 20
7.3293998594
  0
LINE
  5
249
100
AcDbEntity
  8
0
100
AcDbLine
 62
7
  6
CONTINUOUS
 10
11.422387908
 20
-2.4981681396
 11
11.422387908
 21
5.9118318604
  0
LINE
  5
24A
100
AcDbEntity
  8
0
100
AcDbLine
 62
7
  6
CONTINUOUS
 10
11.422387908
 20
8.0318318604
 11
11.422387908
 21
16.4818318604
  0
LINE
  5
24B
100
AcDbEntity
  8
0
100
AcDbLine
 62
7
  6
CONTINUOUS
 10
11.4352379075
 20
-4.6086677823
 11
11.4352379075
 21
-4.5986610555
  0
LINE
  5
24C
100
AcDbEntity
  8
0
100
AcDbLine
 62
7
  6
CONTINUOUS
 10
11.497387908
 20
-5.9871681396
 11
11.497387908
 21
-5.2517692199
  0
LINE
  5
24D
100
AcDbEntity
  8
0
100
AcDbLine
 62
7
  6
CONTINUOUS
 10
11.497387908
 20
15.2608318604
 11
11.497387908
 21
15.9962307801
  0
LINE
  5
24E
100
AcDbEntity
  8
0
100
AcDbLine
 62
7
  6
CONTINUOUS
 10
11.517387908
 20
17.1485110023
 11
11.517387908
 21
16.4818318604
  0
LINE
  5
24F
100
AcDbEntity
  8
0
100
AcDbLine
 62
7
  6
CONTINUOUS
 10
11.517387908
 20
6.5785110023
 11
11.517387908
 21
5.9118318604
  0
LINE
  5
250
100
AcDbEntity
  8
0
100
AcDbLine
 62
7
  6
CONTINUOUS
 10
11.517387908
 20
7.3651527188
 11
11.517387908
 21
8.0318318604
  0
LINE
  5
251
100
AcDbEntity
  8
0
100
AcDbLine
 62
7
  6
CONTINUOUS
 10
11.597387908
 20
-4.5981681396
 11
11.597387908
 21
-2.4981681396
  0
LINE
  5
252
100
AcDbEntity
  8
0
100
AcDbLine
 62
7
  6
CONTINUOUS
 10
11.642387908
 20
-4.7081681396
 11
11.642387908
 21
-4.6171681396
  0
LINE
  5
253
100
AcDbEntity
  8
0
100
AcDbLine
 62
7
  6
CONTINUOUS
 10
11.642387908
 20
16.5398318604
 11
11.642387908
 21
16.6308318604
  0
LINE
  5
254
100
AcDbEntity
  8
0
100
AcDbLine
 62
7
  6
CONTINUOUS
 10
11.709887908
 20
16.6418318604
 11
11.709887908
 21
20.4818318604
  0
LWPOLYLINE
  5
255
100
AcDbEntity
  8
0
100
AcDbPolyline
 62
7
  6
CONTINUOUS
 90
4
 70
0
 10
11.5173865385
 20
6.5785110023
 10
11.5182649734
 20
6.5887399011
 10
11.5222567106
 20
6.6021888819
 10
11.5292037421
 20
6.6142638721
  0
LINE
  5
256
100
AcDbEntity
  8
0
100
AcDbLine
 62
7
  6
CONTINUOUS
 10
12.5060386818
 20
20.9253616946
 11
12.507387908
 21
20.9405355702
  0
LINE
  5
257
100
AcDbEntity
  8
0
100
AcDbLine
 62
7
  6
CONTINUOUS
 10
11.5173800913
 20
8.0318318604
 11
10.5773957247
 21
8.0318318604
  0
LWPOLYLINE
  5
258
100
AcDbEntity
  8
0
100
AcDbPolyline
 62
7
  6
CONTINUOUS
 90
4
 70
0
 10
11.5292037418
 20
7.3293998494
 10
11.522282039
 20
7.3414159597
 10
11.5182869373
 20
7.354797685
 10
11.5173865383
 20
7.3651527187
  0
LINE
  5
259
100
AcDbEntity
  8
0
100
AcDbLine
 62
7
  6
CONTINUOUS
 10
12.279387908
 20
20.6284131911
 11
12.279387908
 21
20.5864369174
  0
LINE
  5
25A
100
AcDbEntity
  8
0
100
AcDbLine
 62
7
  6
CONTINUOUS
 10
12.507387908
 20
20.9405355702
 11
12.507387908
 21
21.0518318604
  0
LWPOLYLINE
  5
25B
100
AcDbEntity
  8
0
100
AcDbPolyline
 62
7
  6
CONTINUOUS
 90
4
 70
0
 10
10.5655720786
 20
17.1842638621
 10
10.5725191228
 20
17.1721888422
 10
10.5765108577
 20
17.1587398254
 10
10.5773892802
 20
17.1485109994
  0
LINE
  5
25C
100
AcDbEntity
  8
0
100
AcDbLine
 62
7
  6
CONTINUOUS
 10
9.899874403
 20
20.6650723942
 11
9.903538628
 21
20.6585454555
  0
LWPOLYLINE
  5
25D
100
AcDbEntity
  8
0
100
AcDbPolyline
 62
7
  6
CONTINUOUS
 90
4
 70
0
 10
9.903538628
 20
20.6585454555
 10
9.9101269188
 20
20.6467680933
 10
9.916308901
 20
20.6356288563
 10
9.9219624913
 20
20.6252743185
  0
LINE
  5
25E
100
AcDbEntity
  8
0
100
AcDbLine
 62
7
  6
CONTINUOUS
 10
9.9219624913
 20
20.6252743185
 11
9.9233085935
 21
20.62275856
  0
LWPOLYLINE
  5
25F
100
AcDbEntity
  8
0
100
AcDbPolyline
 62
7
  6
CONTINUOUS
 90
3
 70
0
 10
9.9233085935
 20
20.62275856
 10
9.9239663421
 20
20.621467306
 10
9.9243669633
 20
20.620592948
  0
LINE
  5
260
100
AcDbEntity
  8
0
100
AcDbLine
 62
7
  6
CONTINUOUS
 10
9.8646252335
 20
20.5104490488
 11
9.8178501414
 21
20.5785072301
  0
LINE
  5
261
100
AcDbEntity
  8
0
100
AcDbLine
 62
7
  6
CONTINUOUS
 10
9.7626257646
 20
20.7983350622
 11
9.727947125
 21
20.8487927959
  0
LINE
  5
262
100
AcDbEntity
  8
0
100
AcDbLine
 62
7
  6
CONTINUOUS
 10
9.8051206562
 20
20.8249116166
 11
9.8086716249
 21
20.8194583069
  0
LINE
  5
263
100
AcDbEntity
  8
0
100
AcDbLine
 62
7
  6
CONTINUOUS
 10
9.8086716249
 20
20.8194583069
 11
9.8166487188
 21
20.8066780608
  0
LINE
  5
264
100
AcDbEntity
  8
0
100
AcDbLine
 62
7
  6
CONTINUOUS
 10
9.8166487188
 20
20.8066780608
 11
9.8210331327
 21
20.7994039036
  0
LINE
  5
265
100
AcDbEntity
  8
0
100
AcDbLine
 62
9
  6
CONTINUOUS
 10
10.0341178223
 20
20.7983350622
 11
10.0039779122
 21
20.8487927959
  0
LINE
  5
266
100
AcDbEntity
  8
0
100
AcDbLine
 62
9
  6
CONTINUOUS
 10
9.9250297214
 20
20.7529289193
 11
9.8948745922
 21
20.8035129208
  0
LINE
  5
267
100
AcDbEntity
  8
0
100
AcDbLine
 62
7
  6
CONTINUOUS
 10
9.8210359836
 20
20.7993990787
 11
9.8519886525
 21
20.7474530361
  0
LWPOLYLINE
  5
268
100
AcDbEntity
  8
0
100
AcDbPolyline
 62
7
  6
CONTINUOUS
 90
4
 70
0
 10
9.8519886525
 20
20.7474530361
 10
9.8690067647
 20
20.7186718893
 10
9.8878643111
 20
20.6861951318
 10
9.8998707847
 20
20.6650788549
  0
LINE
  5
269
100
AcDbEntity
  8
0
100
AcDbLine
 62
7
  6
CONTINUOUS
 10
10.587387908
 20
15.1608318604
 11
10.672387908
 21
15.1608318604
  0
LINE
  5
26A
100
AcDbEntity
  8
0
100
AcDbLine
 62
7
  6
CONTINUOUS
 10
11.422387908
 20
15.1608318604
 11
11.5073874022
 21
15.1608318604
  0
LINE
  5
26B
100
AcDbEntity
  8
0
100
AcDbLine
 62
7
  6
CONTINUOUS
 10
11.5073874022
 20
15.2608318604
 11
11.422387908
 21
15.2608318604
  0
LINE
  5
26C
100
AcDbEntity
  8
0
100
AcDbLine
 62
7
  6
CONTINUOUS
 10
10.672387908
 20
15.2608318604
 11
10.5873884139
 21
15.2608318604
  0
LINE
  5
26D
100
AcDbEntity
  8
0
100
AcDbLine
 62
7
  6
CONTINUOUS
 10
10.5750095019
 20
16.6370621511
 11
10.577387908
 21
16.6356886069
  0
LWPOLYLINE
  5
26E
100
AcDbEntity
  8
0
100
AcDbPolyline
 62
7
  6
CONTINUOUS
 90
4
 70
0
 10
9.763339696
 20
20.8805984137
 10
9.7779619599
 20
20.8645388132
 10
9.7924979605
 20
20.8439247745
 10
9.8051083307
 20
20.8249305419
  0
LINE
  5
26F
100
AcDbEntity
  8
0
100
AcDbLine
 62
7
  6
CONTINUOUS
 10
11.4352379077
 20
-4.60881814
 11
11.426887908
 21
-4.6171681396
  0
LINE
  5
270
100
AcDbEntity
  8
0
100
AcDbLine
 62
9
  6
CONTINUOUS
 10
11.497387908
 20
15.9962307801
 11
11.422387908
 21
15.9962307801
  0
LINE
  5
271
100
AcDbEntity
  8
0
100
AcDbLine
 62
9
  6
CONTINUOUS
 10
10.672387908
 20
15.9962307801
 11
10.597387908
 21
15.9962307801
  0
LINE
  5
272
100
AcDbEntity
  8
0
100
AcDbLine
 62
9
  6
CONTINUOUS
 10
11.524637908
 20
16.040755352
 11
11.422387908
 21
16.040755352
  0
LINE
  5
273
100
AcDbEntity
  8
0
100
AcDbLine
 62
9
  6
CONTINUOUS
 10
10.570137908
 20
16.040755352
 11
10.672387908
 21
16.040755352
  0
LINE
  5
274
100
AcDbEntity
  8
0
100
AcDbLine
 62
9
  6
CONTINUOUS
 10
11.5518383159
 20
16.0875063006
 11
11.422387908
 21
16.0875063006
  0
LINE
  5
275
100
AcDbEntity
  8
0
100
AcDbLine
 62
9
  6
CONTINUOUS
 10
10.5429375001
 20
16.0875063006
 11
10.672387908
 21
16.0875063006
  0
LINE
  5
276
100
AcDbEntity
  8
0
100
AcDbLine
 62
7
  6
CONTINUOUS
 10
10.5773955725
 20
16.4818318604
 11
11.5173802436
 21
16.4818318604
  0
LINE
  5
277
100
AcDbEntity
  8
0
100
AcDbLine
 62
9
  6
CONTINUOUS
 10
11.6353538887
 20
16.5081202622
 11
11.517387908
 21
16.5081202622
  0
LINE
  5
278
100
AcDbEntity
  8
0
100
AcDbLine
 62
9
  6
CONTINUOUS
 10
10.4594219273
 20
16.5081202622
 11
10.577387908
 21
16.5081202622
  0
LINE
  5
279
100
AcDbEntity
  8
0
100
AcDbLine
 62
9
  6
CONTINUOUS
 10
10.452387908
 20
16.5398318604
 11
10.577387908
 21
16.5398318604
  0
LINE
  5
27A
100
AcDbEntity
  8
0
100
AcDbLine
 62
9
  6
CONTINUOUS
 10
11.517387908
 20
16.5398318604
 11
11.642387908
 21
16.5398318604
  0
LINE
  5
27B
100
AcDbEntity
  8
0
100
AcDbLine
 62
7
  6
CONTINUOUS
 10
11.6423875793
 20
16.6308318604
 11
11.517387908
 21
16.6308318604
  0
LINE
  5
27C
100
AcDbEntity
  8
0
100
AcDbLine
 62
7
  6
CONTINUOUS
 10
10.577387908
 20
16.6308318604
 11
10.4523882367
 21
16.6308318604
  0
LINE
  5
27D
100
AcDbEntity
  8
0
100
AcDbLine
 62
7
  6
CONTINUOUS
 10
10.3848887918
 20
16.6418318604
 11
10.577387908
 21
16.6418318604
  0
LINE
  5
27E
100
AcDbEntity
  8
0
100
AcDbLine
 62
7
  6
CONTINUOUS
 10
11.517387908
 20
16.6418318604
 11
11.7098870242
 21
16.6418318604
  0
LINE
  5
27F
100
AcDbEntity
  8
0
100
AcDbLine
 62
7
  6
CONTINUOUS
 10
9.7540017913
 20
20.8890564807
 11
9.763339696
 21
20.8805984137
  0
LINE
  5
280
100
AcDbEntity
  8
0
100
AcDbLine
 62
7
  6
CONTINUOUS
 10
9.7418427391
 20
20.8988876231
 11
9.7502165611
 21
20.892217517
  0
LINE
  5
281
100
AcDbEntity
  8
0
100
AcDbLine
 62
7
  6
CONTINUOUS
 10
9.7502165611
 20
20.892217517
 11
9.7539797683
 21
20.8890751084
  0
LINE
  5
282
100
AcDbEntity
  8
0
100
AcDbLine
 62
7
  6
CONTINUOUS
 10
9.7539797683
 20
20.8890751084
 11
9.7540018513
 21
20.8890564304
  0
LINE
  5
283
100
AcDbEntity
  8
0
100
AcDbLine
 62
7
  6
CONTINUOUS
 10
11.4350447535
 20
-4.5988686197
 11
11.436257521
 21
-4.5981681396
  0
LINE
  5
284
100
AcDbEntity
  8
0
100
AcDbLine
 62
9
  6
CONTINUOUS
 10
9.8228302504
 20
20.7986366415
 11
9.8210359836
 21
20.7993990787
  0
LINE
  5
285
100
AcDbEntity
  8
0
100
AcDbLine
 62
9
  6
CONTINUOUS
 10
9.8529796839
 20
20.7480390268
 11
9.8511915116
 21
20.7488011592
  0
LWPOLYLINE
  5
286
100
AcDbEntity
  8
0
100
AcDbPolyline
 62
7
  6
CONTINUOUS
 90
4
 70
0
 10
9.7207413629
 20
20.9120195176
 10
9.7270551385
 20
20.9089446436
 10
9.7341296274
 20
20.9045014722
 10
9.7418427391
 20
20.8988876231
  0
LINE
  5
287
100
AcDbEntity
  8
0
100
AcDbLine
 62
7
  6
CONTINUOUS
 10
12.3802844707
 20
20.9137238851
 11
12.382017994
 21
20.9138319083
  0
LINE
  5
288
100
AcDbEntity
  8
0
100
AcDbLine
 62
7
  6
CONTINUOUS
 10
9.9190183384
 20
20.4818318604
 11
12.1757574777
 21
20.4818318604
  0
LINE
  5
289
100
AcDbEntity
  8
0
100
AcDbLine
 62
9
  6
CONTINUOUS
 10
9.8646252335
 20
20.5104490488
 11
12.2301505825
 21
20.5104490488
  0
LINE
  5
28A
100
AcDbEntity
  8
0
100
AcDbLine
 62
9
  6
CONTINUOUS
 10
12.2769256747
 20
20.5785072301
 11
12.174567122
 21
20.5785072301
  0
LINE
  5
28B
100
AcDbEntity
  8
0
100
AcDbLine
 62
9
  6
CONTINUOUS
 10
12.0363274994
 20
20.5785072301
 11
11.1856275226
 21
20.5785072301
  0
LINE
  5
28C
100
AcDbEntity
  8
0
100
AcDbLine
 62
9
  6
CONTINUOUS
 10
10.9091545623
 20
20.5785072301
 11
10.0584445113
 21
20.5785072301
  0
LINE
  5
28D
100
AcDbEntity
  8
0
100
AcDbLine
 62
9
  6
CONTINUOUS
 10
9.920208794
 20
20.5785072301
 11
9.8178501414
 21
20.5785072301
  0
LINE
  5
28E
100
AcDbEntity
  8
0
100
AcDbLine
 62
9
  6
CONTINUOUS
 10
9.815387908
 20
20.5864369174
 11
9.9179484729
 21
20.5864369174
  0
LINE
  5
28F
100
AcDbEntity
  8
0
100
AcDbLine
 62
9
  6
CONTINUOUS
 10
10.0564724863
 20
20.5864369174
 11
10.9088640631
 21
20.5864369174
  0
LINE
  5
290
100
AcDbEntity
  8
0
100
AcDbLine
 62
9
  6
CONTINUOUS
 10
11.1859120347
 20
20.5864369174
 11
12.0383034982
 21
20.5864369174
  0
LINE
  5
291
100
AcDbEntity
  8
0
100
AcDbLine
 62
9
  6
CONTINUOUS
 10
12.1768274564
 20
20.5864369174
 11
12.279387908
 21
20.5864369174
  0
LINE
  5
292
100
AcDbEntity
  8
0
100
AcDbLine
 62
9
  6
CONTINUOUS
 10
12.279387908
 20
20.6284131911
 11
12.1851991806
 21
20.6284131911
  0
LINE
  5
293
100
AcDbEntity
  8
0
100
AcDbLine
 62
9
  6
CONTINUOUS
 10
12.0254477096
 20
20.6284131911
 11
11.2071393789
 21
20.6284131911
  0
LINE
  5
294
100
AcDbEntity
  8
0
100
AcDbLine
 62
9
  6
CONTINUOUS
 10
10.8876364371
 20
20.6284131911
 11
10.0693281064
 21
20.6284131911
  0
LINE
  5
295
100
AcDbEntity
  8
0
100
AcDbLine
 62
9
  6
CONTINUOUS
 10
9.9095766354
 20
20.6284131911
 11
9.815387908
 21
20.6284131911
  0
LINE
  5
296
100
AcDbEntity
  8
0
100
AcDbLine
 62
9
  6
CONTINUOUS
 10
9.7626257646
 20
20.7983350622
 11
9.8216701199
 21
20.7983350622
  0
LINE
  5
297
100
AcDbEntity
  8
0
100
AcDbLine
 62
9
  6
CONTINUOUS
 10
10.0341178223
 20
20.7983350622
 11
10.8699738854
 21
20.7983350622
  0
LINE
  5
298
100
AcDbEntity
  8
0
100
AcDbLine
 62
9
  6
CONTINUOUS
 10
11.2248019306
 20
20.7983350622
 11
12.0606579937
 21
20.7983350622
  0
LINE
  5
299
100
AcDbEntity
  8
0
100
AcDbLine
 62
9
  6
CONTINUOUS
 10
12.2731056961
 20
20.7983350622
 11
12.3321500514
 21
20.7983350622
  0
LINE
  5
29A
100
AcDbEntity
  8
0
100
AcDbLine
 62
9
  6
CONTINUOUS
 10
12.366828691
 20
20.8487927959
 11
12.305706036
 21
20.8487927959
  0
LINE
  5
29B
100
AcDbEntity
  8
0
100
AcDbLine
 62
9
  6
CONTINUOUS
 10
12.0907979039
 20
20.8487927959
 11
11.2250859915
 21
20.8487927959
  0
LINE
  5
29C
100
AcDbEntity
  8
0
100
AcDbLine
 62
9
  6
CONTINUOUS
 10
10.8696898245
 20
20.8487927959
 11
10.0039779122
 21
20.8487927959
  0
LINE
  5
29D
100
AcDbEntity
  8
0
100
AcDbLine
 62
9
  6
CONTINUOUS
 10
9.7890652725
 20
20.8487927959
 11
9.727947125
 21
20.8487927959
  0
LINE
  5
29E
100
AcDbEntity
  8
0
100
AcDbLine
 62
9
  6
CONTINUOUS
 10
12.3420817407
 20
20.8918246338
 11
12.2502286701
 21
20.8918246338
  0
LINE
  5
29F
100
AcDbEntity
  8
0
100
AcDbLine
 62
9
  6
CONTINUOUS
 10
11.139240978
 20
20.8918246338
 11
10.9555348326
 21
20.8918246338
  0
LINE
  5
2A0
100
AcDbEntity
  8
0
100
AcDbLine
 62
9
  6
CONTINUOUS
 10
9.8445471479
 20
20.8918246338
 11
9.7526940747
 21
20.8918246338
  0
LINE
  5
2A1
100
AcDbEntity
  8
0
100
AcDbLine
 62
7
  6
CONTINUOUS
 10
9.6025179459
 20
20.9138318604
 11
9.7127517986
 21
20.9138318604
  0
LINE
  5
2A2
100
AcDbEntity
  8
0
100
AcDbLine
 62
7
  6
CONTINUOUS
 10
9.9006977075
 20
20.9138318604
 11
10.8594419514
 21
20.9138318604
  0
LINE
  5
2A3
100
AcDbEntity
  8
0
100
AcDbLine
 62
7
  6
CONTINUOUS
 10
11.2353338509
 20
20.9138318604
 11
12.1940780969
 21
20.9138318604
  0
LINE
  5
2A4
100
AcDbEntity
  8
0
100
AcDbLine
 62
7
  6
CONTINUOUS
 10
12.3820240515
 20
20.9138318604
 11
12.4922583233
 21
20.9138318604
  0
LINE
  5
2A5
100
AcDbEntity
  8
0
100
AcDbLine
 62
9
  6
CONTINUOUS
 10
12.5060386818
 20
20.9253616946
 11
12.3947529322
 21
20.9253616946
  0
LINE
  5
2A6
100
AcDbEntity
  8
0
100
AcDbLine
 62
9
  6
CONTINUOUS
 10
12.2050148074
 20
20.9253616946
 11
11.2371260239
 21
20.9253616946
  0
LINE
  5
2A7
100
AcDbEntity
  8
0
100
AcDbLine
 62
9
  6
CONTINUOUS
 10
9.700022878
 20
20.9253616946
 11
9.5887371342
 21
20.9253616946
  0
LINE
  5
2A8
100
AcDbEntity
  8
0
100
AcDbLine
 62
9
  6
CONTINUOUS
 10
9.8897610758
 20
20.9253616946
 11
10.8576495561
 21
20.9253616946
  0
LINE
  5
2A9
100
AcDbEntity
  8
0
100
AcDbLine
 62
9
  6
CONTINUOUS
 10
9.587387908
 20
20.9405355702
 11
12.507387908
 21
20.9405355702
  0
LINE
  5
2AA
100
AcDbEntity
  8
0
100
AcDbLine
 62
7
  6
CONTINUOUS
 10
12.5073757943
 20
21.0518318604
 11
9.5874000217
 21
21.0518318604
  0
LINE
  5
2AB
100
AcDbEntity
  8
0
100
AcDbLine
 62
7
  6
CONTINUOUS
 10
9.7127672141
 20
20.9138319153
 11
9.7154699277
 21
20.9135788962
  0
LINE
  5
2AC
100
AcDbEntity
  8
0
100
AcDbLine
 62
7
  6
CONTINUOUS
 10
9.7154699277
 20
20.9135788962
 11
9.7207413629
 21
20.9120195176
  0
ARC
  5
2AD
100
AcDbEntity
  8
0
100
AcDbCircle
 62
7
  6
CONTINUOUS
 10
9.6438301585
 20
-5.1204189168
 40
0.9
100
AcDbArc
 50
357.4479162909
 51
25.0128371525
  0
CIRCLE
  5
2AE
100
AcDbEntity
  8
0
100
AcDbCircle
 62
7
  6
CONTINUOUS
 10
11.047387908
 20
6.9718318604
 40
0.6
  0
ARC
  5
2AF
100
AcDbEntity
  8
0
100
AcDbCircle
 62
7
  6
CONTINUOUS
 10
11.047387908
 20
6.9718318604
 40
0.6
100
AcDbArc
 50
216.5794549013
 51
260.5907167802
  0
ARC
  5
2B0
100
AcDbEntity
  8
0
100
AcDbCircle
 62
7
  6
CONTINUOUS
 10
11.047387908
 20
6.9718318604
 40
0.6
100
AcDbArc
 50
269.4505931911
 51
270.0000000001
  0
ARC
  5
2B1
100
AcDbEntity
  8
0
100
AcDbCircle
 62
9
  6
CONTINUOUS
 10
11.0734447522
 20
6.8891952396
 40
0.5836417631
100
AcDbArc
 50
233.2869746272
 51
234.1483783814
  0
ARC
  5
2B2
100
AcDbEntity
  8
0
100
AcDbCircle
 62
9
  6
CONTINUOUS
 10
11.0215942299
 20
6.8888363635
 40
0.5831967525
100
AcDbArc
 50
305.8555481248
 51
306.7149234741
  0
CIRCLE
  5
2B3
100
AcDbEntity
  8
0
100
AcDbCircle
 62
9
  6
CONTINUOUS
 10
11.047387908
 20
6.9718318604
 40
0.5799999803
  0
ARC
  5
2B4
100
AcDbEntity
  8
0
100
AcDbCircle
 62
7
  6
CONTINUOUS
 10
10.527387908
 20
-4.7081681396
 40
0.075
100
AcDbArc
 50
180.0
 51
205.0128371525
  0
ARC
  5
2B5
100
AcDbEntity
  8
0
100
AcDbCircle
 62
7
  6
CONTINUOUS
 10
10.592887908
 20
-5.1627200762
 40
0.05
100
AcDbArc
 50
177.4479162909
 51
242.9350657712
  0
ARC
  5
2B6
100
AcDbEntity
  8
0
100
AcDbCircle
 62
7
  6
CONTINUOUS
 10
10.547387908
 20
-5.2517692199
 40
0.05
100
AcDbArc
 50
0.0
 51
62.9350657711
  0
ARC
  5
2B7
100
AcDbEntity
  8
0
100
AcDbCircle
 62
7
  6
CONTINUOUS
 10
10.587387908
 20
-6.0371681396
 40
0.05
100
AcDbArc
 50
90.0
 51
270.0
  0
ARC
  5
2B8
100
AcDbEntity
  8
0
100
AcDbCircle
 62
9
  6
CONTINUOUS
 10
5.1239543128
 20
17.9770671008
 40
5.481567191
100
AcDbArc
 50
29.133511536
 51
29.2500779611
  0
ARC
  5
2B9
100
AcDbEntity
  8
0
100
AcDbCircle
 62
9
  6
CONTINUOUS
 10
7.3810108849
 20
19.2350887435
 40
2.8975929609
100
AcDbArc
 50
28.8606192487
 51
29.1329861751
  0
ARC
  5
2BA
100
AcDbEntity
  8
0
100
AcDbCircle
 62
7
  6
CONTINUOUS
 10
9.6438301585
 20
16.1275810832
 40
0.9
100
AcDbArc
 50
357.4479162909
 51
25.0128371525
  0
ARC
  5
2BB
100
AcDbEntity
  8
0
100
AcDbCircle
 62
9
  6
CONTINUOUS
 10
10.9906769973
 20
17.5182895385
 40
0.6567056099
100
AcDbArc
 50
323.3389301193
 51
324.9582136826
  0
CIRCLE
  5
2BC
100
AcDbEntity
  8
0
100
AcDbCircle
 62
7
  6
CONTINUOUS
 10
11.047387908
 20
17.5418318604
 40
0.6
  0
ARC
  5
2BD
100
AcDbEntity
  8
0
100
AcDbCircle
 62
7
  6
CONTINUOUS
 10
11.047387908
 20
17.5418318604
 40
0.6
100
AcDbArc
 50
314.7903782842
 51
315.0346843262
  0
ARC
  5
2BE
100
AcDbEntity
  8
0
100
AcDbCircle
 62
7
  6
CONTINUOUS
 10
11.047387908
 20
17.5418318604
 40
0.6
100
AcDbArc
 50
305.7120840813
 51
306.1733559328
  0
ARC
  5
2BF
100
AcDbEntity
  8
0
100
AcDbCircle
 62
7
  6
CONTINUOUS
 10
11.047387908
 20
17.5418318604
 40
0.6
100
AcDbArc
 50
216.5794549013
 51
224.7016702472
  0
ARC
  5
2C0
100
AcDbEntity
  8
0
100
AcDbCircle
 62
7
  6
CONTINUOUS
 10
11.047387908
 20
17.5418318604
 40
0.6
100
AcDbArc
 50
233.2299247147
 51
251.5134991793
  0
ARC
  5
2C1
100
AcDbEntity
  8
0
100
AcDbCircle
 62
7
  6
CONTINUOUS
 10
11.047387908
 20
17.5418318604
 40
0.6
100
AcDbArc
 50
260.2952163464
 51
270.0000000001
  0
ARC
  5
2C2
100
AcDbEntity
  8
0
100
AcDbCircle
 62
9
  6
CONTINUOUS
 10
11.0734447522
 20
17.4591952395
 40
0.5836417631
100
AcDbArc
 50
233.2869746272
 51
234.1483783814
  0
ARC
  5
2C3
100
AcDbEntity
  8
0
100
AcDbCircle
 62
9
  6
CONTINUOUS
 10
11.0215942298
 20
17.4588363636
 40
0.5831967526
100
AcDbArc
 50
305.8555481249
 51
306.714923474
  0
CIRCLE
  5
2C4
100
AcDbEntity
  8
0
100
AcDbCircle
 62
9
  6
CONTINUOUS
 10
11.047387908
 20
17.5418318604
 40
0.5799999803
  0
ARC
  5
2C5
100
AcDbEntity
  8
0
100
AcDbCircle
 62
7
  6
CONTINUOUS
 10
10.527387908
 20
16.5398318604
 40
0.075
100
AcDbArc
 50
180.0
 51
205.0128371525
  0
ARC
  5
2C6
100
AcDbEntity
  8
0
100
AcDbCircle
 62
7
  6
CONTINUOUS
 10
10.592887908
 20
16.0852799238
 40
0.05
100
AcDbArc
 50
177.4479162909
 51
242.9350657712
  0
ARC
  5
2C7
100
AcDbEntity
  8
0
100
AcDbCircle
 62
7
  6
CONTINUOUS
 10
10.547387908
 20
15.9962307801
 40
0.05
100
AcDbArc
 50
0.0
 51
62.9350657711
  0
ARC
  5
2C8
100
AcDbEntity
  8
0
100
AcDbCircle
 62
7
  6
CONTINUOUS
 10
10.587387908
 20
15.2108318604
 40
0.05
100
AcDbArc
 50
90.0
 51
270.0
  0
ARC
  5
2C9
100
AcDbEntity
  8
0
100
AcDbCircle
 62
9
  6
CONTINUOUS
 10
8.6690083859
 20
19.9456455299
 40
1.4265974649
100
AcDbArc
 50
28.5557038636
 51
28.8360474298
  0
ARC
  5
2CA
100
AcDbEntity
  8
0
100
AcDbCircle
 62
9
  6
CONTINUOUS
 10
9.1066633808
 20
20.3730374244
 40
0.8330832359
100
AcDbArc
 50
30.8301997008
 51
31.4485241021
  0
ARC
  5
2CB
100
AcDbEntity
  8
0
100
AcDbCircle
 62
9
  6
CONTINUOUS
 10
9.239114704
 20
20.2560026184
 40
0.7774882884
100
AcDbArc
 50
28.0780554327
 51
28.549453015
  0
ARC
  5
2CC
100
AcDbEntity
  8
0
100
AcDbCircle
 62
9
  6
CONTINUOUS
 10
9.2652455123
 20
20.469013232
 40
0.6477222427
100
AcDbArc
 50
31.5245598212
 51
32.4309956666
  0
ARC
  5
2CD
100
AcDbEntity
  8
0
100
AcDbCircle
 62
9
  6
CONTINUOUS
 10
9.4329444687
 20
20.5895709752
 40
0.4782122333
100
AcDbArc
 50
4.6589133909
 51
7.6702965462
  0
ARC
  5
2CE
100
AcDbEntity
  8
0
100
AcDbCircle
 62
7
  6
CONTINUOUS
 10
9.515387908
 20
20.6284131911
 40
0.3
100
AcDbArc
 50
0.0
 51
34.5
  0
ARC
  5
2CF
100
AcDbEntity
  8
0
100
AcDbCircle
 62
9
  6
CONTINUOUS
 10
9.5988373044
 20
20.710840876
 40
0.2375437357
100
AcDbArc
 50
48.9791985898
 51
49.6316819339
  0
ARC
  5
2D0
100
AcDbEntity
  8
0
100
AcDbCircle
 62
7
  6
CONTINUOUS
 10
9.6043281967
 20
20.7638318604
 40
0.15
100
AcDbArc
 50
34.5000000001
 51
90.0
  0
ARC
  5
2D1
100
AcDbEntity
  8
0
100
AcDbCircle
 62
9
  6
CONTINUOUS
 10
10.8587581462
 20
20.8000222317
 40
0.1138096287
100
AcDbArc
 50
89.6615285518
 51
89.9999327492
  0
ARC
  5
2D2
100
AcDbEntity
  8
0
100
AcDbCircle
 62
7
  6
CONTINUOUS
 10
9.9190175619
 20
20.5478318604
 40
0.066
100
AcDbArc
 50
214.5
 51
270.0
  0
ARC
  5
2D3
100
AcDbEntity
  8
0
100
AcDbCircle
 62
7
  6
CONTINUOUS
 10
9.829387908
 20
20.5864369174
 40
0.014
100
AcDbArc
 50
180.0
 51
214.4999999995
  0
ARC
  5
2D4
100
AcDbEntity
  8
0
100
AcDbCircle
 62
7
  6
CONTINUOUS
 10
9.6025174928
 20
20.9278318604
 40
0.014
100
AcDbArc
 50
190.1624921967
 51
270.0
  0
ARC
  5
2D5
100
AcDbEntity
  8
0
100
AcDbCircle
 62
7
  6
CONTINUOUS
 10
12.4509456575
 20
-5.1204189168
 40
0.9
100
AcDbArc
 50
154.9871628475
 51
182.5520837091
  0
ARC
  5
2D6
100
AcDbEntity
  8
0
100
AcDbCircle
 62
7
  6
CONTINUOUS
 10
11.567387908
 20
-4.7081681396
 40
0.075
100
AcDbArc
 50
334.9871628475
 51
360.0
  0
ARC
  5
2D7
100
AcDbEntity
  8
0
100
AcDbCircle
 62
7
  6
CONTINUOUS
 10
11.501887908
 20
-5.1627200762
 40
0.05
100
AcDbArc
 50
297.0649342288
 51
2.5520837091
  0
ARC
  5
2D8
100
AcDbEntity
  8
0
100
AcDbCircle
 62
7
  6
CONTINUOUS
 10
11.547387908
 20
-5.2517692199
 40
0.05
100
AcDbArc
 50
117.0649342289
 51
180.0
  0
ARC
  5
2D9
100
AcDbEntity
  8
0
100
AcDbCircle
 62
7
  6
CONTINUOUS
 10
11.507387908
 20
-6.0371681396
 40
0.05
100
AcDbArc
 50
270.0
 51
90.0
  0
ARC
  5
2DA
100
AcDbEntity
  8
0
100
AcDbCircle
 62
9
  6
CONTINUOUS
 10
17.0562475402
 20
17.9293367324
 40
5.579423141
100
AcDbArc
 50
150.7508274197
 51
150.8654620026
  0
ARC
  5
2DB
100
AcDbEntity
  8
0
100
AcDbCircle
 62
9
  6
CONTINUOUS
 10
14.7134719082
 20
19.2352560761
 40
2.8972555511
100
AcDbArc
 50
150.8671341432
 51
151.1399285161
  0
ARC
  5
2DC
100
AcDbEntity
  8
0
100
AcDbCircle
 62
9
  6
CONTINUOUS
 10
13.4222474191
 20
19.9475744128
 40
1.42258361
100
AcDbArc
 50
151.1645396016
 51
151.4458500288
  0
ARC
  5
2DD
100
AcDbEntity
  8
0
100
AcDbCircle
 62
7
  6
CONTINUOUS
 10
12.4509456575
 20
16.1275810832
 40
0.9
100
AcDbArc
 50
154.9871628475
 51
182.5520837091
  0
ARC
  5
2DE
100
AcDbEntity
  8
0
100
AcDbCircle
 62
9
  6
CONTINUOUS
 10
12.997582745
 20
20.3663611017
 40
0.8446367528
100
AcDbArc
 50
148.49973783
 51
149.1101116189
  0
ARC
  5
2DF
100
AcDbEntity
  8
0
100
AcDbCircle
 62
9
  6
CONTINUOUS
 10
12.8543471131
 20
20.2567134556
 40
0.7759943343
100
AcDbArc
 50
151.4522727146
 51
151.9245701851
  0
ARC
  5
2E0
100
AcDbEntity
  8
0
100
AcDbCircle
 62
9
  6
CONTINUOUS
 10
12.8792198652
 20
20.438972897
 40
0.7057762516
100
AcDbArc
 50
147.6729395686
 51
148.505149597
  0
ARC
  5
2E1
100
AcDbEntity
  8
0
100
AcDbCircle
 62
9
  6
CONTINUOUS
 10
11.1027211038
 20
17.5168623335
 40
0.6547677517
100
AcDbArc
 50
215.0096125094
 51
216.6356030199
  0
ARC
  5
2E2
100
AcDbEntity
  8
0
100
AcDbCircle
 62
9
  6
CONTINUOUS
 10
12.7108538822
 20
20.5453685231
 40
0.5066102143
100
AcDbArc
 50
146.5366470893
 51
147.6583884321
  0
ARC
  5
2E3
100
AcDbEntity
  8
0
100
AcDbCircle
 62
9
  6
CONTINUOUS
 10
12.6618507059
 20
20.5895651962
 40
0.4782319974
100
AcDbArc
 50
172.3224175133
 51
175.340584907
  0
ARC
  5
2E4
100
AcDbEntity
  8
0
100
AcDbCircle
 62
7
  6
CONTINUOUS
 10
12.579387908
 20
20.6284131911
 40
0.3
100
AcDbArc
 50
145.5
 51
180.0
  0
ARC
  5
2E5
100
AcDbEntity
  8
0
100
AcDbCircle
 62
9
  6
CONTINUOUS
 10
12.4718970542
 20
20.7378473866
 40
0.2013979472
100
AcDbArc
 50
130.9168642949
 51
133.7120324622
  0
ARC
  5
2E6
100
AcDbEntity
  8
0
100
AcDbCircle
 62
9
  6
CONTINUOUS
 10
12.4703563488
 20
20.7396152289
 40
0.1990529528
100
AcDbArc
 50
130.1225433549
 51
130.9150282005
  0
ARC
  5
2E7
100
AcDbEntity
  8
0
100
AcDbCircle
 62
7
  6
CONTINUOUS
 10
12.4904476193
 20
20.7638318604
 40
0.15
100
AcDbArc
 50
90.0
 51
145.4999999999
  0
ARC
  5
2E8
100
AcDbEntity
  8
0
100
AcDbCircle
 62
9
  6
CONTINUOUS
 10
11.2360176699
 20
20.8000222069
 40
0.1138096535
100
AcDbArc
 50
90.0000673557
 51
90.3387374633
  0
ARC
  5
2E9
100
AcDbEntity
  8
0
100
AcDbCircle
 62
7
  6
CONTINUOUS
 10
11.567387908
 20
16.5398318604
 40
0.075
100
AcDbArc
 50
334.9871628475
 51
360.0
  0
ARC
  5
2EA
100
AcDbEntity
  8
0
100
AcDbCircle
 62
7
  6
CONTINUOUS
 10
12.1757582541
 20
20.5478318604
 40
0.066
100
AcDbArc
 50
270.0
 51
325.5
  0
ARC
  5
2EB
100
AcDbEntity
  8
0
100
AcDbCircle
 62
7
  6
CONTINUOUS
 10
11.501887908
 20
16.0852799238
 40
0.05
100
AcDbArc
 50
297.0649342288
 51
2.5520837091
  0
ARC
  5
2EC
100
AcDbEntity
  8
0
100
AcDbCircle
 62
7
  6
CONTINUOUS
 10
11.547387908
 20
15.9962307801
 40
0.05
100
AcDbArc
 50
117.0649342289
 51
180.0
  0
ARC
  5
2ED
100
AcDbEntity
  8
0
100
AcDbCircle
 62
7
  6
CONTINUOUS
 10
11.507387908
 20
15.2108318604
 40
0.05
100
AcDbArc
 50
270.0
 51
90.0
  0
ARC
  5
2EE
100
AcDbEntity
  8
0
100
AcDbCircle
 62
7
  6
CONTINUOUS
 10
12.265387908
 20
20.5864369174
 40
0.014
100
AcDbArc
 50
325.5000000005
 51
360.0
  0
ARC
  5
2EF
100
AcDbEntity
  8
0
100
AcDbCircle
 62
7
  6
CONTINUOUS
 10
12.4922583233
 20
20.9278318604
 40
0.014
100
AcDbArc
 50
270.0
 51
349.8375078033
  0
LINE
  5
2F0
100
AcDbEntity
  8
0
100
AcDbLine
 62
9
  6
CONTINUOUS
 10
11.1070733673
 20
20.7986366358
 11
11.1070632026
 21
20.748039026
  0
SPLINE
  5
2F1
100
AcDbEntity
  8
0
100
AcDbSpline
 62
9
  6
CONTINUOUS
 70
0
 71
3
 72
30
 73
26
 74
0
 42
0.0000001
 43
0.0000001
 44
0.0000000001
 40
0.0
 40
0.0
 40
0.0
 40
0.0
 40
0.0579750784
 40
0.1159485765
 40
0.1739209127
 40
0.2318934366
 40
0.2608811037
 40
0.2898722238
 40
0.3188682084
 40
0.3478804601
 40
0.3624083566
 40
0.3769570064
 40
0.3915498918
 40
0.406227772
 40
0.4210077386
 40
0.4359092718
 40
0.466113373
 40
0.4968480164
 40
0.5280958369
 40
0.5919531486
 40
0.6574453263
 40
0.7242722201
 40
0.7921682478
 40
0.8608958654
 40
1.0
 40
1.0
 40
1.0
 40
1.0
 10
11.1097425688
 20
20.6640241196
 30
0.0
 10
11.1099374077
 20
20.6614334445
 30
0.0
 10
11.1103342616
 20
20.6562527029
 30
0.0
 10
11.1109558626
 20
20.6484837226
 30
0.0
 10
11.1116203925
 20
20.6407183976
 30
0.0
 10
11.1122285608
 20
20.634252022
 30
0.0
 10
11.1127719286
 20
20.6290844208
 30
0.0
 10
11.1132194357
 20
20.6252125493
 30
0.0
 10
11.1137259627
 20
20.621346811
 30
0.0
 10
11.1142287437
 20
20.6181346437
 30
0.0
 10
11.1147206089
 20
20.6155781093
 30
0.0
 10
11.1151612363
 20
20.6136707184
 30
0.0
 10
11.1157129637
 20
20.6117846537
 30
0.0
 10
11.116401882
 20
20.6099329359
 30
0.0
 10
11.1172271749
 20
20.6081225087
 30
0.0
 10
11.1185200547
 20
20.6057684028
 30
0.0
 10
11.1204573451
 20
20.6029645336
 30
0.0
 10
11.1231684207
 20
20.5998385294
 30
0.0
 10
11.1272577708
 20
20.5959453981
 30
0.0
 10
11.1330776093
 20
20.5916601724
 30
0.0
 10
11.1408136469
 20
20.5874402243
 30
0.0
 10
11.149147539
 20
20.5840699657
 30
0.0
 10
11.157915989
 20
20.5815209126
 30
0.0
 10
11.1700552255
 20
20.5791538019
 30
0.0
 10
11.1793939589
 20
20.5785061966
 30
0.0
 10
11.1856275226
 20
20.5785072301
 30
0.0
  0
LINE
  5
2F2
100
AcDbEntity
  8
0
100
AcDbLine
 62
9
  6
CONTINUOUS
 10
12.1821208376
 20
20.7480390268
 11
12.2122601065
 21
20.7986366415
  0
SPLINE
  5
2F3
100
AcDbEntity
  8
0
100
AcDbSpline
 62
9
  6
CONTINUOUS
 70
0
 71
3
 72
9
 73
5
 74
0
 42
0.0000001
 43
0.0000001
 44
0.0000000001
 40
0.0
 40
0.0
 40
0.0
 40
0.0
 40
0.5043909283
 40
1.0
 40
1.0
 40
1.0
 40
1.0
 10
12.2122600892
 20
20.7986366367
 30
0.0
 10
12.2148351653
 20
20.8029597555
 30
0.0
 10
12.219862831
 20
20.811577093
 30
0.0
 10
12.2246632664
 20
20.8203255428
 30
0.0
 10
12.2269387006
 20
20.8247151614
 30
0.0
  0
SPLINE
  5
2F4
100
AcDbEntity
  8
0
100
AcDbSpline
 62
9
  6
CONTINUOUS
 70
0
 71
3
 72
10
 73
6
 74
0
 42
0.0000001
 43
0.0000001
 44
0.0000000001
 40
0.0
 40
0.0
 40
0.0
 40
0.0
 40
0.2402428835
 40
0.4879386967
 40
1.0
 40
1.0
 40
1.0
 40
1.0
 10
12.1768274564
 20
20.5864369174
 30
0.0
 10
12.1777297215
 20
20.5897456084
 30
0.0
 10
12.1794142221
 20
20.5965065669
 30
0.0
 10
12.1823722021
 20
20.6104738154
 30
0.0
 10
12.1841501642
 20
20.6211790942
 30
0.0
 10
12.1851991806
 20
20.6284131911
 30
0.0
  0
SPLINE
  5
2F5
100
AcDbEntity
  8
0
100
AcDbSpline
 62
9
  6
CONTINUOUS
 70
0
 71
3
 72
26
 73
22
 74
0
 42
0.0000001
 43
0.0000001
 44
0.0000000001
 40
0.0
 40
0.0
 40
0.0
 40
0.0
 40
0.048241021
 40
0.093332891
 40
0.1357854864
 40
0.1763670979
 40
0.2160799554
 40
0.2561999985
 40
0.2982002298
 40
0.343546399
 40
0.3936208449
 40
0.4497339656
 40
0.5130219061
 40
0.5846138166
 40
0.6661090564
 40
0.7113621324
 40
0.7608357533
 40
0.8157911379
 40
0.8751759004
 40
0.9371518154
 40
1.0
 40
1.0
 40
1.0
 40
1.0
 10
12.1768260631
 20
20.5864349133
 30
0.0
 10
12.1760917851
 20
20.5863398594
 30
0.0
 10
12.1746604734
 20
20.5862255065
 30
0.0
 10
12.1725723685
 20
20.5863120621
 30
0.0
 10
12.1706317512
 20
20.586675989
 30
0.0
 10
12.1688546784
 20
20.5873311241
 30
0.0
 10
12.1672620824
 20
20.5882924324
 30
0.0
 10
12.1658803771
 20
20.5895718359
 30
0.0
 10
12.1647359644
 20
20.5911742626
 30
0.0
 10
12.1638509729
 20
20.5931011911
 30
0.0
 10
12.1632475477
 20
20.5953574022
 30
0.0
 10
12.1629554129
 20
20.5979504106
 30
0.0
 10
12.1630035817
 20
20.600888366
 30
0.0
 10
12.1634340834
 20
20.6041877852
 30
0.0
 10
12.164150499
 20
20.6071527126
 30
0.0
 10
12.1649860645
 20
20.6097261978
 30
0.0
 10
12.1658288638
 20
20.6118653001
 30
0.0
 10
12.1669036793
 20
20.6141395282
 30
0.0
 10
12.1681453564
 20
20.6165441205
 30
0.0
 10
12.1694827531
 20
20.6190350814
 30
0.0
 10
12.1703864753
 20
20.6207243327
 30
0.0
 10
12.1708400262
 20
20.6215756477
 30
0.0
  0
LINE
  5
2F6
100
AcDbEntity
  8
0
100
AcDbLine
 62
9
  6
CONTINUOUS
 10
12.1708400262
 20
20.6215756477
 11
12.1714621831
 21
20.6227451158
  0
SPLINE
  5
2F7
100
AcDbEntity
  8
0
100
AcDbSpline
 62
9
  6
CONTINUOUS
 70
0
 71
3
 72
9
 73
5
 74
0
 42
0.0000001
 43
0.0000001
 44
0.0000000001
 40
0.0
 40
0.0
 40
0.0
 40
0.0
 40
0.5241567742
 40
1.0
 40
1.0
 40
1.0
 40
1.0
 10
12.1851991893
 20
20.6284132876
 30
0.0
 10
12.1839034995
 20
20.6298259681
 30
0.0
 10
12.1815763023
 20
20.6326601605
 30
0.0
 10
12.1796718761
 20
20.6358044346
 30
0.0
 10
12.1789148777
 20
20.6373713642
 30
0.0
  0
SPLINE
  5
2F8
100
AcDbEntity
  8
0
100
AcDbSpline
 62
9
  6
CONTINUOUS
 70
0
 71
3
 72
17
 73
13
 74
0
 42
0.0000001
 43
0.0000001
 44
0.0000000001
 40
0.0
 40
0.0
 40
0.0
 40
0.0
 40
0.1296619543
 40
0.2564928078
 40
0.3814202316
 40
0.5049986979
 40
0.627527644
 40
0.7494394008
 40
0.8105927142
 40
0.8722369734
 40
0.9350133157
 40
1.0
 40
1.0
 40
1.0
 40
1.0
 10
12.2050148074
 20
20.9253616946
 30
0.0
 10
12.207676603
 20
20.9253618329
 30
0.0
 10
12.212950575
 20
20.9249961035
 30
0.0
 10
12.2206273418
 20
20.9233226491
 30
0.0
 10
12.2278582393
 20
20.9205786451
 30
0.0
 10
12.2345163288
 20
20.9168158732
 30
0.0
 10
12.2404391986
 20
20.9120708737
 30
0.0
 10
12.2445761115
 20
20.9072935995
 30
0.0
 10
12.2472091547
 20
20.903003627
 30
0.0
 10
12.2487912176
 20
20.8995253799
 30
0.0
 10
12.2498860276
 20
20.8957796891
 30
0.0
 10
12.2501961988
 20
20.8931583329
 30
0.0
 10
12.2502286702
 20
20.8918246338
 30
0.0
  0
SPLINE
  5
2F9
100
AcDbEntity
  8
0
100
AcDbSpline
 62
9
  6
CONTINUOUS
 70
0
 71
3
 72
9
 73
5
 74
0
 42
0.0000001
 43
0.0000001
 44
0.0000000001
 40
0.0
 40
0.0
 40
0.0
 40
0.0
 40
0.5062979267
 40
1.0
 40
1.0
 40
1.0
 40
1.0
 10
12.2502286701
 20
20.891824636
 30
0.0
 10
12.2491600439
 20
20.8909427212
 30
0.0
 10
12.2467744134
 20
20.8895246283
 30
0.0
 10
12.2441314782
 20
20.8887154905
 30
0.0
 10
12.2428003543
 20
20.8884841612
 30
0.0
  0
SPLINE
  5
2FA
100
AcDbEntity
  8
0
100
AcDbSpline
 62
9
  6
CONTINUOUS
 70
0
 71
3
 72
14
 73
10
 74
0
 42
0.0000001
 43
0.0000001
 44
0.0000000001
 40
0.0
 40
0.0
 40
0.0
 40
0.0
 40
0.1325397298
 40
0.2685629778
 40
0.4038969414
 40
0.5351195916
 40
0.6606470016
 40
0.7805632018
 40
1.0
 40
1.0
 40
1.0
 40
1.0
 10
12.2050145468
 20
20.9253616988
 30
0.0
 10
12.2049072465
 20
20.9246073858
 30
0.0
 10
12.2045738226
 20
20.9230937351
 30
0.0
 10
12.203769301
 20
20.9209084904
 30
0.0
 10
12.202667803
 20
20.9188635272
 30
0.0
 10
12.2012856639
 20
20.9170672905
 30
0.0
 10
12.199634231
 20
20.915641048
 30
0.0
 10
12.1973060647
 20
20.9143135915
 30
0.0
 10
12.1953396848
 20
20.9138318976
 30
0.0
 10
12.1940782494
 20
20.9138319076
 30
0.0
  0
SPLINE
  5
2FB
100
AcDbEntity
  8
0
100
AcDbSpline
 62
9
  6
CONTINUOUS
 70
0
 71
3
 72
23
 73
19
 74
0
 42
0.0000001
 43
0.0000001
 44
0.0000000001
 40
0.0
 40
0.0
 40
0.0
 40
0.0
 40
0.0881964995
 40
0.1352052927
 40
0.1844556729
 40
0.2362244439
 40
0.2909369097
 40
0.3196264899
 40
0.3494707959
 40
0.4136813047
 40
0.4482960743
 40
0.4841349341
 40
0.5574080021
 40
0.6313880383
 40
0.705501473
 40
0.7794653563
 40
0.8532128103
 40
1.0
 40
1.0
 40
1.0
 40
1.0
 10
12.2428003246
 20
20.8884841686
 30
0.0
 10
12.2433399666
 20
20.8864941444
 30
0.0
 10
12.2439193057
 20
20.8833698695
 30
0.0
 10
12.2442211054
 20
20.8790655349
 30
0.0
 10
12.2442028965
 20
20.8756015279
 30
0.0
 10
12.2439153929
 20
20.8719683986
 30
0.0
 10
12.2433831171
 20
20.8688481581
 30
0.0
 10
12.2427431055
 20
20.8662776215
 30
0.0
 10
12.2418473309
 20
20.8635485299
 30
0.0
 10
12.2405132773
 20
20.8608307148
 30
0.0
 10
12.2387802346
 20
20.858200695
 30
0.0
 10
12.2367908119
 20
20.8554917746
 30
0.0
 10
12.234138337
 20
20.8521316686
 30
0.0
 10
12.230895695
 20
20.8480984398
 30
0.0
 10
12.2276302707
 20
20.8440626679
 30
0.0
 10
12.2243804367
 20
20.8400213447
 30
0.0
 10
12.2200828291
 20
20.8346424339
 30
0.0
 10
12.2168845743
 20
20.8305984891
 30
0.0
 10
12.2147656069
 20
20.82789919
 30
0.0
  0
SPLINE
  5
2FC
100
AcDbEntity
  8
0
100
AcDbSpline
 62
9
  6
CONTINUOUS
 70
0
 71
3
 72
17
 73
13
 74
0
 42
0.0000001
 43
0.0000001
 44
0.0000000001
 40
0.0
 40
0.0
 40
0.0
 40
0.0
 40
0.1647635027
 40
0.325065293
 40
0.4769768507
 40
0.6168207643
 40
0.7412012266
 40
0.8471753984
 40
0.8928482488
 40
0.9335436874
 40
0.9692378441
 40
1.0
 40
1.0
 40
1.0
 40
1.0
 10
12.2147656387
 20
20.8278991664
 30
0.0
 10
12.214457189
 20
20.8325137459
 30
0.0
 10
12.2137397475
 20
20.8416111155
 30
0.0
 10
12.2123362123
 20
20.8549277489
 30
0.0
 10
12.2106115501
 20
20.8675016441
 30
0.0
 10
12.2085880193
 20
20.8790093993
 30
0.0
 10
12.2063188813
 20
20.889154266
 30
0.0
 10
12.204153522
 20
20.8966026394
 30
0.0
 10
12.2022911625
 20
20.901672442
 30
0.0
 10
12.2009354338
 20
20.9048214723
 30
0.0
 10
12.1995598977
 20
20.9074991145
 30
0.0
 10
12.1985600872
 20
20.9090788854
 30
0.0
 10
12.198052658
 20
20.9097775454
 30
0.0
  0
SPLINE
  5
2FD
100
AcDbEntity
  8
0
100
AcDbSpline
 62
9
  6
CONTINUOUS
 70
0
 71
3
 72
11
 73
7
 74
0
 42
0.0000001
 43
0.0000001
 44
0.0000000001
 40
0.0
 40
0.0
 40
0.0
 40
0.0
 40
0.31407976
 40
0.5770403942
 40
0.8003459855
 40
1.0
 40
1.0
 40
1.0
 40
1.0
 10
12.198052658
 20
20.9097775454
 30
0.0
 10
12.1975929142
 20
20.9104105491
 30
0.0
 10
12.1966795966
 20
20.9115279108
 30
0.0
 10
12.1951644978
 20
20.9128432796
 30
0.0
 10
12.1936334791
 20
20.9136450735
 30
0.0
 10
12.1925741626
 20
20.9138318604
 30
0.0
 10
12.1920768444
 20
20.9138318604
 30
0.0
  0
SPLINE
  5
2FE
100
AcDbEntity
  8
0
100
AcDbSpline
 62
9
  6
CONTINUOUS
 70
0
 71
3
 72
17
 73
13
 74
0
 42
0.0000001
 43
0.0000001
 44
0.0000000001
 40
0.0
 40
0.0
 40
0.0
 40
0.0
 40
0.1322330407
 40
0.262473734
 40
0.3911644033
 40
0.5182231078
 40
0.6432899878
 40
0.7654536852
 40
0.8253737611
 40
0.8843623895
 40
0.942466815
 40
1.0
 40
1.0
 40
1.0
 40
1.0
 10
12.1940786204
 20
20.9138319076
 30
0.0
 10
12.1966348096
 20
20.9138320238
 30
0.0
 10
12.2017132735
 20
20.9135582745
 30
0.0
 10
12.2091880117
 20
20.9123232855
 30
0.0
 10
12.2163861366
 20
20.9102993073
 30
0.0
 10
12.2232168028
 20
20.9075114637
 30
0.0
 10
12.229563319
 20
20.9039988179
 30
0.0
 10
12.2343270091
 20
20.9004107407
 30
0.0
 10
12.2376663788
 20
20.8971513606
 30
0.0
 10
12.2398551858
 20
20.8945111968
 30
0.0
 10
12.2416679927
 20
20.8916501145
 30
0.0
 10
12.2425091729
 20
20.889557556
 30
0.0
 10
12.2428002687
 20
20.8884841564
 30
0.0
  0
SPLINE
  5
2FF
100
AcDbEntity
  8
0
100
AcDbSpline
 62
9
  6
CONTINUOUS
 70
0
 71
3
 72
20
 73
16
 74
0
 42
0.0000001
 43
0.0000001
 44
0.0000000001
 40
0.0
 40
0.0
 40
0.0
 40
0.0
 40
0.0924389627
 40
0.1946818164
 40
0.2503471557
 40
0.3093027029
 40
0.3717620774
 40
0.4374965118
 40
0.5056167254
 40
0.5751112833
 40
0.6453564287
 40
0.7160592334
 40
0.7869288907
 40
0.8578383372
 40
1.0
 40
1.0
 40
1.0
 40
1.0
 10
12.2502286701
 20
20.8918246338
 30
0.0
 10
12.2505100571
 20
20.8896181474
 30
0.0
 10
12.2507774225
 20
20.8849241127
 30
0.0
 10
12.250273807
 20
20.8789009306
 30
0.0
 10
12.2493219821
 20
20.8737668846
 30
0.0
 10
12.2482600321
 20
20.8696364752
 30
0.0
 10
12.2468358969
 20
20.8653607315
 30
0.0
 10
12.2450786127
 20
20.8609737659
 30
0.0
 10
12.2430806466
 20
20.8565062333
 30
0.0
 10
12.2409216857
 20
20.8519940697
 30
0.0
 10
12.2386618089
 20
20.8474622808
 30
0.0
 10
12.2363416242
 20
20.8429239934
 30
0.0
 10
12.2340032758
 20
20.8383770917
 30
0.0
 10
12.2308808186
 20
20.832299865
 30
0.0
 10
12.2285247385
 20
20.8277460981
 30
0.0
 10
12.2269387006
 20
20.8247151614
 30
0.0
  0
SPLINE
  5
300
100
AcDbEntity
  8
0
100
AcDbSpline
 62
9
  6
CONTINUOUS
 70
0
 71
3
 72
12
 73
8
 74
0
 42
0.0000001
 43
0.0000001
 44
0.0000000001
 40
0.0
 40
0.0
 40
0.0
 40
0.0
 40
0.0892801514
 40
0.1927229526
 40
0.435835249
 40
0.7138508352
 40
1.0
 40
1.0
 40
1.0
 40
1.0
 10
12.226938706
 20
20.824715172
 30
0.0
 10
12.22656297
 20
20.8246656401
 30
0.0
 10
12.2257430924
 20
20.8246245059
 30
0.0
 10
12.2238939568
 20
20.8247323948
 30
0.0
 10
12.2212797133
 20
20.8252443057
 30
0.0
 10
12.2180290599
 20
20.8263486139
 30
0.0
 10
12.2158440606
 20
20.8273402031
 30
0.0
 10
12.2147656221
 20
20.8278991448
 30
0.0
  0
SPLINE
  5
301
100
AcDbEntity
  8
0
100
AcDbSpline
 62
9
  6
CONTINUOUS
 70
0
 71
3
 72
13
 73
9
 74
0
 42
0.0000001
 43
0.0000001
 44
0.0000000001
 40
0.0
 40
0.0
 40
0.0
 40
0.0
 40
0.0831095838
 40
0.1831619632
 40
0.2982468087
 40
0.4262792858
 40
0.7095276762
 40
1.0
 40
1.0
 40
1.0
 40
1.0
 10
12.21226011
 20
20.7986366298
 30
0.0
 10
12.2118893453
 20
20.7986506663
 30
0.0
 10
12.2110748988
 20
20.7987472921
 30
0.0
 10
12.2097723804
 20
20.799028673
 30
0.0
 10
12.2083014006
 20
20.7994613755
 30
0.0
 10
12.206091808
 20
20.8002650198
 30
0.0
 10
12.2032444745
 20
20.801583835
 30
0.0
 10
12.2010059418
 20
20.8028337955
 30
0.0
 10
12.1999012205
 20
20.8035129153
 30
0.0
  0
SPLINE
  5
302
100
AcDbEntity
  8
0
100
AcDbSpline
 62
9
  6
CONTINUOUS
 70
0
 71
3
 72
13
 73
9
 74
0
 42
0.0000001
 43
0.0000001
 44
0.0000000001
 40
0.0
 40
0.0
 40
0.0
 40
0.0
 40
0.083154542
 40
0.183254069
 40
0.2983798432
 40
0.4264393443
 40
0.7096729915
 40
1.0
 40
1.0
 40
1.0
 40
1.0
 10
12.1821208431
 20
20.7480390191
 30
0.0
 10
12.1817493427
 20
20.7480534227
 30
0.0
 10
12.1809333667
 20
20.7481508843
 30
0.0
 10
12.1796285292
 20
20.7484336604
 30
0.0
 10
12.1781551316
 20
20.7488679871
 30
0.0
 10
12.1759424707
 20
20.7496740515
 30
0.0
 10
12.1730921167
 20
20.7509959523
 30
0.0
 10
12.1708515183
 20
20.7522485242
 30
0.0
 10
12.1697460936
 20
20.7529289178
 30
0.0
  0
SPLINE
  5
303
100
AcDbEntity
  8
0
100
AcDbSpline
 62
9
  6
CONTINUOUS
 70
0
 71
3
 72
10
 73
6
 74
0
 42
0.0000001
 43
0.0000001
 44
0.0000000001
 40
0.0
 40
0.0
 40
0.0
 40
0.0
 40
0.4982683658
 40
0.7486163433
 40
1.0
 40
1.0
 40
1.0
 40
1.0
 10
12.18212082
 20
20.7480390222
 30
0.0
 10
12.1737420178
 20
20.7339730216
 30
0.0
 10
12.1610363463
 20
20.7129090215
 30
0.0
 10
12.1437994244
 20
20.6849342024
 30
0.0
 10
12.1350354802
 20
20.6709698948
 30
0.0
 10
12.1305993517
 20
20.6640020712
 30
0.0
  0
SPLINE
  5
304
100
AcDbEntity
  8
0
100
AcDbSpline
 62
9
  6
CONTINUOUS
 70
0
 71
3
 72
12
 73
8
 74
0
 42
0.0000001
 43
0.0000001
 44
0.0000000001
 40
0.0
 40
0.0
 40
0.0
 40
0.0
 40
0.0873564395
 40
0.1891282561
 40
0.4296295125
 40
0.7069208676
 40
1.0
 40
1.0
 40
1.0
 40
1.0
 10
12.1305993517
 20
20.6640020712
 30
0.0
 10
12.1303191977
 20
20.6640431035
 30
0.0
 10
12.1297176228
 20
20.6641659024
 30
0.0
 10
12.1283760143
 20
20.6645415776
 30
0.0
 10
12.1264921914
 20
20.6652474139
 30
0.0
 10
12.1241081665
 20
20.6663572382
 30
0.0
 10
12.122477669
 20
20.6672308003
 30
0.0
 10
12.1216521372
 20
20.6677007799
 30
0.0
  0
SPLINE
  5
305
100
AcDbEntity
  8
0
100
AcDbSpline
 62
9
  6
CONTINUOUS
 70
0
 71
3
 72
25
 73
21
 74
0
 42
0.0000001
 43
0.0000001
 44
0.0000000001
 40
0.0
 40
0.0
 40
0.0
 40
0.0
 40
0.0691985031
 40
0.1384408563
 40
0.2077490001
 40
0.27715911
 40
0.3467419964
 40
0.381642345
 40
0.416669768
 40
0.4519149327
 40
0.4874194287
 40
0.522917237
 40
0.5580181442
 40
0.6260893761
 40
0.6906404497
 40
0.7513136573
 40
0.8080620898
 40
0.8610107581
 40
0.9104252391
 40
1.0
 40
1.0
 40
1.0
 40
1.0
 10
12.1305993517
 20
20.6640020712
 30
0.0
 10
12.128949842
 20
20.661411197
 30
0.0
 10
12.1256472536
 20
20.6562294125
 30
0.0
 10
12.1206799683
 20
20.648460671
 30
0.0
 10
12.1156907928
 20
20.6406947935
 30
0.0
 10
12.1106672339
 20
20.6329330955
 30
0.0
 10
12.1064375347
 20
20.6264768203
 30
0.0
 10
12.1030000014
 20
20.6213262701
 30
0.0
 10
12.1003698031
 20
20.6174696015
 30
0.0
 10
12.0976601572
 20
20.6136346605
 30
0.0
 10
12.0947693993
 20
20.6099058883
 30
0.0
 10
12.0916725379
 20
20.6063542058
 30
0.0
 10
12.0873741025
 20
20.6019456783
 30
0.0
 10
12.0818041485
 20
20.5969895903
 30
0.0
 10
12.0749143667
 20
20.5918600484
 30
0.0
 10
12.0680386845
 20
20.5876025274
 30
0.0
 10
12.0612774541
 20
20.5841944375
 30
0.0
 10
12.0546928023
 20
20.5816076442
 30
0.0
 10
12.0464905646
 20
20.5792792481
 30
0.0
 10
12.0403033094
 20
20.578506185
 30
0.0
 10
12.0363274994
 20
20.5785072301
 30
0.0
  0
SPLINE
  5
306
100
AcDbEntity
  8
0
100
AcDbSpline
 62
9
  6
CONTINUOUS
 70
0
 71
3
 72
9
 73
5
 74
0
 42
0.0000001
 43
0.0000001
 44
0.0000000001
 40
0.0
 40
0.0
 40
0.0
 40
0.0
 40
0.4975318601
 40
1.0
 40
1.0
 40
1.0
 40
1.0
 10
12.0363229447
 20
20.5785074991
 30
0.0
 10
12.0369836637
 20
20.5797027093
 30
0.0
 10
12.0379556254
 20
20.5823070961
 30
0.0
 10
12.0383034691
 20
20.5850576895
 30
0.0
 10
12.038303484
 20
20.5864369174
 30
0.0
  0
LINE
  5
307
100
AcDbEntity
  8
0
100
AcDbLine
 62
9
  6
CONTINUOUS
 10
11.1856348378
 20
20.5785074986
 11
11.1859106314
 21
20.5864369173
  0
SPLINE
  5
308
100
AcDbEntity
  8
0
100
AcDbSpline
 62
9
  6
CONTINUOUS
 70
0
 71
3
 72
11
 73
7
 74
0
 42
0.0000001
 43
0.0000001
 44
0.0000000001
 40
0.0
 40
0.0
 40
0.0
 40
0.0
 40
0.2675117734
 40
0.5324693704
 40
0.7801345328
 40
1.0
 40
1.0
 40
1.0
 40
1.0
 10
11.1097443051
 20
20.664002021
 30
0.0
 10
11.1107564718
 20
20.6640758869
 30
0.0
 10
11.1127633675
 20
20.6643518559
 30
0.0
 10
11.1156328665
 20
20.6651130597
 30
0.0
 10
11.1181934134
 20
20.6662175529
 30
0.0
 10
11.1196994733
 20
20.6671770072
 30
0.0
 10
11.1203486112
 20
20.667700789
 30
0.0
  0
SPLINE
  5
309
100
AcDbEntity
  8
0
100
AcDbSpline
 62
9
  6
CONTINUOUS
 70
0
 71
3
 72
13
 73
9
 74
0
 42
0.0000001
 43
0.0000001
 44
0.0000000001
 40
0.0
 40
0.0
 40
0.0
 40
0.0
 40
0.2499216913
 40
0.374897629
 40
0.499886983
 40
0.6248928122
 40
0.7499135814
 40
1.0
 40
1.0
 40
1.0
 40
1.0
 10
11.1097425688
 20
20.6640241196
 30
0.0
 10
11.1092610471
 20
20.6710115569
 30
0.0
 10
11.1086285101
 20
20.6814997819
 30
0.0
 10
11.1080037308
 20
20.6954952992
 30
0.0
 10
11.1076464126
 20
20.7059978998
 30
0.0
 10
11.1073820797
 20
20.7165044419
 30
0.0
 10
11.1071292745
 20
20.7305177869
 30
0.0
 10
11.1070525393
 20
20.741030404
 30
0.0
 10
11.1070632493
 20
20.7480390214
 30
0.0
  0
SPLINE
  5
30A
100
AcDbEntity
  8
0
100
AcDbSpline
 62
9
  6
CONTINUOUS
 70
0
 71
3
 72
13
 73
9
 74
0
 42
0.0000001
 43
0.0000001
 44
0.0000000001
 40
0.0
 40
0.0
 40
0.0
 40
0.0
 40
0.2811423753
 40
0.4210786913
 40
0.5557131248
 40
0.7987588635
 40
0.9051132378
 40
1.0
 40
1.0
 40
1.0
 40
1.0
 10
11.1070632029
 20
20.7480390217
 30
0.0
 10
11.1083517494
 20
20.7480653137
 30
0.0
 10
11.1102827747
 20
20.7482648777
 30
0.0
 10
11.1127692475
 20
20.7488314138
 30
0.0
 10
11.1150259236
 20
20.7495718002
 30
0.0
 10
11.1170197159
 20
20.7506048896
 30
0.0
 10
11.1186071787
 20
20.7518892168
 30
0.0
 10
11.1192300012
 20
20.7525777206
 30
0.0
 10
11.1194866463
 20
20.7529289204
 30
0.0
  0
SPLINE
  5
30B
100
AcDbEntity
  8
0
100
AcDbSpline
 62
9
  6
CONTINUOUS
 70
0
 71
3
 72
13
 73
9
 74
0
 42
0.0000001
 43
0.0000001
 44
0.0000000001
 40
0.0
 40
0.0
 40
0.0
 40
0.0
 40
0.2810350442
 40
0.4209365877
 40
0.5555586805
 40
0.7986536539
 40
0.9050571098
 40
1.0
 40
1.0
 40
1.0
 40
1.0
 10
11.1070733676
 20
20.7986366343
 30
0.0
 10
11.1083610292
 20
20.7986622569
 30
0.0
 10
11.1102908859
 20
20.7988605677
 30
0.0
 10
11.1127762914
 20
20.7994249302
 30
0.0
 10
11.1150329199
 20
20.8001630775
 30
0.0
 10
11.1170275817
 20
20.8011935282
 30
0.0
 10
11.1186173505
 20
20.8024750552
 30
0.0
 10
11.1192418153
 20
20.8031622819
 30
0.0
 10
11.1194994308
 20
20.8035129196
 30
0.0
  0
SPLINE
  5
30C
100
AcDbEntity
  8
0
100
AcDbSpline
 62
9
  6
CONTINUOUS
 70
0
 71
3
 72
11
 73
7
 74
0
 42
0.0000001
 43
0.0000001
 44
0.0000000001
 40
0.0
 40
0.0
 40
0.0
 40
0.0
 40
0.249552533
 40
0.4993043119
 40
0.7493816485
 40
1.0
 40
1.0
 40
1.0
 40
1.0
 10
11.107073414
 20
20.798636631
 30
0.0
 10
11.1070738479
 20
20.800811637
 30
0.0
 10
11.1071301508
 20
20.8051635737
 30
0.0
 10
11.1073894106
 20
20.8116906661
 30
0.0
 10
11.1078599897
 20
20.8182155956
 30
0.0
 10
11.1083581648
 20
20.822553143
 30
0.0
 10
11.1086692487
 20
20.8247151728
 30
0.0
  0
SPLINE
  5
30D
100
AcDbEntity
  8
0
100
AcDbSpline
 62
9
  6
CONTINUOUS
 70
0
 71
3
 72
13
 73
9
 74
0
 42
0.0000001
 43
0.0000001
 44
0.0000000001
 40
0.0
 40
0.0
 40
0.0
 40
0.0
 40
0.2853641831
 40
0.4253561754
 40
0.5592716739
 40
0.8000269955
 40
0.9054571809
 40
1.0
 40
1.0
 40
1.0
 40
1.0
 10
11.1086692487
 20
20.8247151727
 30
0.0
 10
11.1098722916
 20
20.8246225828
 30
0.0
 10
11.1116801687
 20
20.8246226996
 30
0.0
 10
11.1140309612
 20
20.8249006457
 30
0.0
 10
11.1161623016
 20
20.8253485685
 30
0.0
 10
11.1180824824
 20
20.8260737223
 30
0.0
 10
11.1196685336
 20
20.8270606676
 30
0.0
 10
11.1203161278
 20
20.8276117549
 30
0.0
 10
11.1205939871
 20
20.8278991524
 30
0.0
  0
SPLINE
  5
30E
100
AcDbEntity
  8
0
100
AcDbSpline
 62
9
  6
CONTINUOUS
 70
0
 71
3
 72
22
 73
18
 74
0
 42
0.0000001
 43
0.0000001
 44
0.0000000001
 40
0.0
 40
0.0
 40
0.0
 40
0.0
 40
0.120110713
 40
0.1801690415
 40
0.2402178023
 40
0.3003026638
 40
0.3605343804
 40
0.42107118
 40
0.4819672755
 40
0.5432899381
 40
0.5742422676
 40
0.6054799335
 40
0.6688768414
 40
0.7334684667
 40
0.7989925226
 40
0.8652781176
 40
1.0
 40
1.0
 40
1.0
 40
1.0
 10
11.1086692487
 20
20.8247151728
 30
0.0
 10
11.1091062645
 20
20.8277523142
 30
0.0
 10
11.1097681982
 20
20.8323071868
 30
0.0
 10
11.1106682686
 20
20.8383775776
 30
0.0
 10
11.1113468196
 20
20.8429305738
 30
0.0
 10
11.1120643642
 20
20.8474822687
 30
0.0
 10
11.1128895428
 20
20.8520287801
 30
0.0
 10
11.1138759378
 20
20.8565650727
 30
0.0
 10
11.1151102833
 20
20.8610709576
 30
0.0
 10
11.1164473354
 20
20.8647553298
 30
0.0
 10
11.1177559
 20
20.8676282499
 30
0.0
 10
11.1192506917
 20
20.8704687564
 30
0.0
 10
11.1214224123
 20
20.8739163017
 30
0.0
 10
11.1244138233
 20
20.8778581397
 30
0.0
 10
11.1277288351
 20
20.8816296857
 30
0.0
 10
11.132542475
 20
20.8864500478
 30
0.0
 10
11.136492476
 20
20.8897531734
 30
0.0
 10
11.139240978
 20
20.8918246338
 30
0.0
  0
SPLINE
  5
30F
100
AcDbEntity
  8
0
100
AcDbSpline
 62
9
  6
CONTINUOUS
 70
0
 71
3
 72
11
 73
7
 74
0
 42
0.0000001
 43
0.0000001
 44
0.0000000001
 40
0.0
 40
0.0
 40
0.0
 40
0.0
 40
0.2987195237
 40
0.5679664687
 40
0.8030775784
 40
1.0
 40
1.0
 40
1.0
 40
1.0
 10
11.1392409807
 20
20.8918246361
 30
0.0
 10
11.139695516
 20
20.8914145246
 30
0.0
 10
11.1405865976
 20
20.8906637691
 30
0.0
 10
11.1419246942
 20
20.8897020845
 30
0.0
 10
11.143164309
 20
20.8889711342
 30
0.0
 10
11.1439775768
 20
20.8886112976
 30
0.0
 10
11.1443606065
 20
20.8884841612
 30
0.0
  0
SPLINE
  5
310
100
AcDbEntity
  8
0
100
AcDbSpline
 62
9
  6
CONTINUOUS
 70
0
 71
3
 72
17
 73
13
 74
0
 42
0.0000001
 43
0.0000001
 44
0.0000000001
 40
0.0
 40
0.0
 40
0.0
 40
0.0
 40
0.0593973565
 40
0.1202581943
 40
0.1820436303
 40
0.2444261731
 40
0.3701318168
 40
0.4963731773
 40
0.6226588463
 40
0.7487504065
 40
0.8745560065
 40
1.0
 40
1.0
 40
1.0
 40
1.0
 10
11.1392409778
 20
20.8918246338
 30
0.0
 10
11.1407969742
 20
20.8932162234
 30
0.0
 10
11.1440770257
 20
20.8958901031
 30
0.0
 10
11.1493053403
 20
20.899583647
 30
0.0
 10
11.154822229
 20
20.9030319486
 30
0.0
 10
11.1624897417
 20
20.9073185028
 30
0.0
 10
11.1724808653
 20
20.9120649421
 30
0.0
 10
11.184916383
 20
20.9167980378
 30
0.0
 10
11.1976945213
 20
20.9205580038
 30
0.0
 10
11.2107136331
 20
20.9233027851
 30
0.0
 10
11.2238828721
 20
20.9249810194
 30
0.0
 10
11.2327173421
 20
20.925361839
 30
0.0
 10
11.2371260239
 20
20.9253616946
 30
0.0
  0
SPLINE
  5
311
100
AcDbEntity
  8
0
100
AcDbSpline
 62
9
  6
CONTINUOUS
 70
0
 71
3
 72
15
 73
11
 74
0
 42
0.0000001
 43
0.0000001
 44
0.0000000001
 40
0.0
 40
0.0
 40
0.0
 40
0.0
 40
0.3459589895
 40
0.5096761602
 40
0.6574847752
 40
0.7823930907
 40
0.8810480321
 40
0.9532993804
 40
0.9797204533
 40
1.0
 40
1.0
 40
1.0
 40
1.0
 10
11.2371263071
 20
20.9253616988
 30
0.0
 10
11.2370951316
 20
20.9240257889
 30
0.0
 10
11.2370073788
 20
20.9220582493
 30
0.0
 10
11.236804961
 20
20.919526528
 30
0.0
 10
11.2366211709
 20
20.9178506155
 30
0.0
 10
11.236404029
 20
20.9164317153
 30
0.0
 10
11.2361582664
 20
20.9153156206
 30
0.0
 10
11.2359276684
 20
20.9145858015
 30
0.0
 10
11.2357267124
 20
20.9141720266
 30
0.0
 10
11.2356243882
 20
20.9140215858
 30
0.0
 10
11.2355713968
 20
20.9139639011
 30
0.0
  0
LINE
  5
312
100
AcDbEntity
  8
0
100
AcDbLine
 62
9
  6
CONTINUOUS
 10
11.2355713968
 20
20.9139639011
 11
11.2353335243
 21
20.9138319076
  0
SPLINE
  5
313
100
AcDbEntity
  8
0
100
AcDbSpline
 62
9
  6
CONTINUOUS
 70
0
 71
3
 72
15
 73
11
 74
0
 42
0.0000001
 43
0.0000001
 44
0.0000000001
 40
0.0
 40
0.0
 40
0.0
 40
0.0
 40
0.0598297299
 40
0.1213904915
 40
0.2466045138
 40
0.3727824959
 40
0.4991216134
 40
0.6251306264
 40
0.750666665
 40
1.0
 40
1.0
 40
1.0
 40
1.0
 10
11.1443606408
 20
20.8884842028
 30
0.0
 10
11.1459190481
 20
20.8895839294
 30
0.0
 10
11.1491819137
 20
20.8916734708
 30
0.0
 10
11.1560660149
 20
20.8954766778
 30
0.0
 10
11.1651296989
 20
20.8996764697
 30
0.0
 10
11.1763952628
 20
20.903954226
 30
0.0
 10
11.1879436735
 20
20.9074833216
 30
0.0
 10
11.1996705581
 20
20.9102794351
 30
0.0
 10
11.2154153403
 20
20.9129805659
 30
0.0
 10
11.2273849464
 20
20.9138321492
 30
0.0
 10
11.2353336549
 20
20.9138319076
 30
0.0
  0
SPLINE
  5
314
100
AcDbEntity
  8
0
100
AcDbSpline
 62
9
  6
CONTINUOUS
 70
0
 71
3
 72
15
 73
11
 74
0
 42
0.0000001
 43
0.0000001
 44
0.0000000001
 40
0.0
 40
0.0
 40
0.0
 40
0.0
 40
0.1170525104
 40
0.2385890159
 40
0.3639086756
 40
0.4917569804
 40
0.6208419258
 40
0.7496438161
 40
0.8764855298
 40
1.0
 40
1.0
 40
1.0
 40
1.0
 10
11.2353448216
 20
20.9138298714
 30
0.0
 10
11.2293827094
 20
20.9137946294
 30
0.0
 10
11.2172167929
 20
20.9127716533
 30
0.0
 10
11.1991348095
 20
20.9083598467
 30
0.0
 10
11.1814957554
 20
20.900854543
 30
0.0
 10
11.1649331681
 20
20.8904581155
 30
0.0
 10
11.1501494244
 20
20.8773914364
 30
0.0
 10
11.1375643132
 20
20.8622691815
 30
0.0
 10
11.1275859759
 20
20.8456537488
 30
0.0
 10
11.1226194363
 20
20.8338555763
 30
0.0
 10
11.1205939935
 20
20.827899164
 30
0.0
  0
SPLINE
  5
315
100
AcDbEntity
  8
0
100
AcDbSpline
 62
9
  6
CONTINUOUS
 70
0
 71
3
 72
23
 73
19
 74
0
 42
0.0000001
 43
0.0000001
 44
0.0000000001
 40
0.0
 40
0.0
 40
0.0
 40
0.0
 40
0.1155988804
 40
0.1734104283
 40
0.2312430743
 40
0.2891124784
 40
0.3470352117
 40
0.4050418966
 40
0.4633436577
 40
0.5235254608
 40
0.5549405884
 40
0.5871456942
 40
0.6530653869
 40
0.7205834893
 40
0.7891738554
 40
0.8586767459
 40
0.9290007082
 40
1.0
 40
1.0
 40
1.0
 40
1.0
 10
11.1205940018
 20
20.8278991748
 30
0.0
 10
11.1207376141
 20
20.8305890201
 30
0.0
 10
11.1208827819
 20
20.8346282541
 30
0.0
 10
11.1209411353
 20
20.8400164803
 30
0.0
 10
11.1209152715
 20
20.8440599149
 30
0.0
 10
11.1208175705
 20
20.8481043962
 30
0.0
 10
11.1206826646
 20
20.8521529844
 30
0.0
 10
11.120542769
 20
20.8562068092
 30
0.0
 10
11.1206494067
 20
20.8603381702
 30
0.0
 10
11.1216251925
 20
20.8637362101
 30
0.0
 10
11.1228695453
 20
20.8663414784
 30
0.0
 10
11.1243891475
 20
20.8689525984
 30
0.0
 10
11.1266139016
 20
20.8721153139
 30
0.0
 10
11.1296525836
 20
20.8757164463
 30
0.0
 10
11.1329817891
 20
20.8791662792
 30
0.0
 10
11.1365622862
 20
20.8824514936
 30
0.0
 10
11.1403610447
 20
20.8855699554
 30
0.0
 10
11.1430089228
 20
20.8875302979
 30
0.0
 10
11.1443606572
 20
20.8884841951
 30
0.0
  0
SPLINE
  5
316
100
AcDbEntity
  8
0
100
AcDbSpline
 62
9
  6
CONTINUOUS
 70
0
 71
3
 72
9
 73
5
 74
0
 42
0.0000001
 43
0.0000001
 44
0.0000000001
 40
0.0
 40
0.0
 40
0.0
 40
0.0
 40
0.5067127515
 40
1.0
 40
1.0
 40
1.0
 40
1.0
 10
11.1194994314
 20
20.8035129197
 30
0.0
 10
11.11950072
 20
20.8076378368
 30
0.0
 10
11.1195659493
 20
20.8157787353
 30
0.0
 10
11.1201124128
 20
20.823912496
 30
0.0
 10
11.1205939858
 20
20.8278991416
 30
0.0
  0
SPLINE
  5
317
100
AcDbEntity
  8
0
100
AcDbSpline
 62
9
  6
CONTINUOUS
 70
0
 71
3
 72
15
 73
11
 74
0
 42
0.0000001
 43
0.0000001
 44
0.0000000001
 40
0.0
 40
0.0
 40
0.0
 40
0.0
 40
0.1440199893
 40
0.2876647056
 40
0.4279228525
 40
0.5619493018
 40
0.6872823227
 40
0.8024374823
 40
0.9065583715
 40
1.0
 40
1.0
 40
1.0
 40
1.0
 10
11.2250859916
 20
20.8487927962
 30
0.0
 10
11.2194248678
 20
20.8484263398
 30
0.0
 10
11.2081406839
 20
20.8472624578
 30
0.0
 10
11.1915411115
 20
20.8442307274
 30
0.0
 10
11.1756394637
 20
20.8398891896
 30
0.0
 10
11.1608698409
 20
20.8343732528
 30
0.0
 10
11.1476348308
 20
20.8277926856
 30
0.0
 10
11.1362128545
 20
20.8203940145
 30
0.0
 10
11.1268137134
 20
20.8123755291
 30
0.0
 10
11.1216690743
 20
20.8064861436
 30
0.0
 10
11.1194994308
 20
20.8035129189
 30
0.0
  0
SPLINE
  5
318
100
AcDbEntity
  8
0
100
AcDbSpline
 62
9
  6
CONTINUOUS
 70
0
 71
3
 72
15
 73
11
 74
0
 42
0.0000001
 43
0.0000001
 44
0.0000000001
 40
0.0
 40
0.0
 40
0.0
 40
0.0
 40
0.3428536003
 40
0.4939821356
 40
0.6296621169
 40
0.7489189663
 40
0.8508418217
 40
0.9347155999
 40
0.9697118974
 40
1.0
 40
1.0
 40
1.0
 40
1.0
 10
11.2250859915
 20
20.8487927959
 30
0.0
 10
11.2256541866
 20
20.8557768167
 30
0.0
 10
11.2265659989
 20
20.8658326613
 30
0.0
 10
11.2279977848
 20
20.8786219649
 30
0.0
 10
11.2290584477
 20
20.8868533356
 30
0.0
 10
11.2301344165
 20
20.8940675624
 30
0.0
 10
11.2312132278
 20
20.9002087679
 30
0.0
 10
11.2321449644
 20
20.9046256882
 30
0.0
 10
11.2328942471
 20
20.9075809729
 30
0.0
 10
11.233265351
 20
20.9088630207
 30
0.0
 10
11.2334518594
 20
20.9094532703
 30
0.0
  0
SPLINE
  5
319
100
AcDbEntity
  8
0
100
AcDbSpline
 62
9
  6
CONTINUOUS
 70
0
 71
3
 72
14
 73
10
 74
0
 42
0.0000001
 43
0.0000001
 44
0.0000000001
 40
0.0
 40
0.0
 40
0.0
 40
0.0
 40
0.3853219936
 40
0.541511605
 40
0.673935626
 40
0.783449439
 40
0.8716539255
 40
0.9417239871
 40
1.0
 40
1.0
 40
1.0
 40
1.0
 10
11.2334518594
 20
20.9094532703
 30
0.0
 10
11.2336554266
 20
20.9100975061
 30
0.0
 10
11.2339639269
 20
20.9109970069
 30
0.0
 10
11.2344338271
 20
20.9120819236
 30
0.0
 10
11.2347546864
 20
20.9127027062
 30
0.0
 10
11.2350690793
 20
20.9131903138
 30
0.0
 10
11.2353789802
 20
20.913546079
 30
0.0
 10
11.2356894703
 20
20.9137731908
 30
0.0
 10
11.235915379
 20
20.9138318612
 30
0.0
 10
11.2360175615
 20
20.9138318604
 30
0.0
  0
SPLINE
  5
31A
100
AcDbEntity
  8
0
100
AcDbSpline
 62
9
  6
CONTINUOUS
 70
0
 71
3
 72
12
 73
8
 74
0
 42
0.0000001
 43
0.0000001
 44
0.0000000001
 40
0.0
 40
0.0
 40
0.0
 40
0.0
 40
0.1324976757
 40
0.2645602428
 40
0.5236018764
 40
0.7707047027
 40
1.0
 40
1.0
 40
1.0
 40
1.0
 10
11.207139379
 20
20.6284131911
 30
0.0
 10
11.2087003562
 20
20.6358025784
 30
0.0
 10
11.2114653723
 20
20.6506326925
 30
0.0
 10
11.2158369462
 20
20.6801611578
 30
0.0
 10
11.2196481405
 20
20.7163527401
 30
0.0
 10
11.2227497648
 20
20.7581607509
 30
0.0
 10
11.2242230745
 20
20.7852778901
 30
0.0
 10
11.2248019306
 20
20.7983350622
 30
0.0
  0
SPLINE
  5
31B
100
AcDbEntity
  8
0
100
AcDbSpline
 62
9
  6
CONTINUOUS
 70
0
 71
3
 72
9
 73
5
 74
0
 42
0.0000001
 43
0.0000001
 44
0.0000000001
 40
0.0
 40
0.0
 40
0.0
 40
0.0
 40
0.2491345668
 40
1.0
 40
1.0
 40
1.0
 40
1.0
 10
12.1697460965
 20
20.7529289175
 30
0.0
 10
12.1655844516
 20
20.745947827
 30
0.0
 10
12.1489752945
 20
20.7178716367
 30
0.0
 10
12.1329556726
 20
20.6894319843
 30
0.0
 10
12.1216521482
 20
20.667700801
 30
0.0
  0
SPLINE
  5
31C
100
AcDbEntity
  8
0
100
AcDbSpline
 62
9
  6
CONTINUOUS
 70
0
 71
3
 72
15
 73
11
 74
0
 42
0.0000001
 43
0.0000001
 44
0.0000000001
 40
0.0
 40
0.0
 40
0.0
 40
0.0
 40
0.1346746509
 40
0.2713229035
 40
0.4076211252
 40
0.5410380438
 40
0.6690706822
 40
0.789468752
 40
0.900229578
 40
1.0
 40
1.0
 40
1.0
 40
1.0
 10
12.1216521442
 20
20.6677008029
 30
0.0
 10
12.1171019633
 20
20.6665769655
 30
0.0
 10
12.1079719362
 20
20.6641600155
 30
0.0
 10
12.0943845293
 20
20.6600735283
 30
0.0
 10
12.0809921638
 20
20.6555201011
 30
0.0
 10
12.0680585126
 20
20.6505774552
 30
0.0
 10
12.0558488203
 20
20.6453212541
 30
0.0
 10
12.0445970587
 20
20.6398634675
 30
0.0
 10
12.0345073298
 20
20.6342992622
 30
0.0
 10
12.0283087992
 20
20.630380552
 30
0.0
 10
12.0254476971
 20
20.6284132786
 30
0.0
  0
SPLINE
  5
31D
100
AcDbEntity
  8
0
100
AcDbSpline
 62
9
  6
CONTINUOUS
 70
0
 71
3
 72
11
 73
7
 74
0
 42
0.0000001
 43
0.0000001
 44
0.0000000001
 40
0.0
 40
0.0
 40
0.0
 40
0.0
 40
0.2530899211
 40
0.5049418587
 40
0.7542325991
 40
1.0
 40
1.0
 40
1.0
 40
1.0
 10
12.0254477096
 20
20.6284131911
 30
0.0
 10
12.0235364215
 20
20.6431674558
 30
0.0
 10
12.0224608174
 20
20.6730164497
 30
0.0
 10
12.028368343
 20
20.717143066
 30
0.0
 10
12.0409550528
 20
20.7593805716
 30
0.0
 10
12.0534712198
 20
20.785802345
 30
0.0
 10
12.0606579937
 20
20.7983350622
 30
0.0
  0
SPLINE
  5
31E
100
AcDbEntity
  8
0
100
AcDbSpline
 62
9
  6
CONTINUOUS
 70
0
 71
3
 72
28
 73
24
 74
0
 42
0.0000001
 43
0.0000001
 44
0.0000000001
 40
0.0
 40
0.0
 40
0.0
 40
0.0
 40
0.0719511563
 40
0.1437709755
 40
0.215434342
 40
0.2868935314
 40
0.3580535912
 40
0.3934512418
 40
0.428671896
 40
0.4636162293
 40
0.4981577297
 40
0.5326918414
 40
0.5668789181
 40
0.6004171468
 40
0.6331913419
 40
0.6650871605
 40
0.6960617719
 40
0.755176016
 40
0.8105643918
 40
0.8623832555
 40
0.9109656772
 40
0.9566916124
 40
1.0
 40
1.0
 40
1.0
 40
1.0
 10
12.1216521585
 20
20.6677008121
 30
0.0
 10
12.1202887376
 20
20.6650184484
 30
0.0
 10
12.1175740105
 20
20.6596537151
 30
0.0
 10
12.1135390855
 20
20.6515983074
 30
0.0
 10
12.1095503664
 20
20.6435428437
 30
0.0
 10
12.1056201995
 20
20.6354893709
 30
0.0
 10
12.1023921461
 20
20.6287808628
 30
0.0
 10
12.0998638196
 20
20.6234178412
 30
0.0
 10
12.0979662875
 20
20.619431688
 30
0.0
 10
12.0960368184
 20
20.6155011378
 30
0.0
 10
12.0937329725
 20
20.6117880716
 30
0.0
 10
12.0908045128
 20
20.6085931105
 30
0.0
 10
12.0876967428
 20
20.6056555046
 30
0.0
 10
12.0844800892
 20
20.602946193
 30
0.0
 10
12.0812076129
 20
20.6004623362
 30
0.0
 10
12.0779156917
 20
20.5981878414
 30
0.0
 10
12.0735916966
 20
20.5954783959
 30
0.0
 10
12.0682238798
 20
20.5925957259
 30
0.0
 10
12.0618110077
 20
20.5898763882
 30
0.0
 10
12.0555835475
 20
20.5879249358
 30
0.0
 10
12.0495831003
 20
20.5867074495
 30
0.0
 10
12.043840261
 20
20.5861846507
 30
0.0
 10
12.0401077053
 20
20.5862778702
 30
0.0
 10
12.0383033676
 20
20.5864348027
 30
0.0
  0
SPLINE
  5
31F
100
AcDbEntity
  8
0
100
AcDbSpline
 62
9
  6
CONTINUOUS
 70
0
 71
3
 72
9
 73
5
 74
0
 42
0.0000001
 43
0.0000001
 44
0.0000000001
 40
0.0
 40
0.0
 40
0.0
 40
0.0
 40
0.4909313532
 40
1.0
 40
1.0
 40
1.0
 40
1.0
 10
12.0383034982
 20
20.5864369174
 30
0.0
 10
12.0356005966
 20
20.5930991393
 30
0.0
 10
12.0308217864
 20
20.6069677616
 30
0.0
 10
12.0271182889
 20
20.6211475184
 30
0.0
 10
12.0254477096
 20
20.6284131911
 30
0.0
  0
SPLINE
  5
320
100
AcDbEntity
  8
0
100
AcDbSpline
 62
9
  6
CONTINUOUS
 70
0
 71
3
 72
9
 73
5
 74
0
 42
0.0000001
 43
0.0000001
 44
0.0000000001
 40
0.0
 40
0.0
 40
0.0
 40
0.0
 40
0.4998251319
 40
1.0
 40
1.0
 40
1.0
 40
1.0
 10
11.1859120347
 20
20.5864369174
 30
0.0
 10
11.190319415
 20
20.592933629
 30
0.0
 10
11.1981758294
 20
20.6065970591
 30
0.0
 10
11.2043813154
 20
20.6210571305
 30
0.0
 10
11.2071393789
 20
20.6284131911
 30
0.0
  0
SPLINE
  5
321
100
AcDbEntity
  8
0
100
AcDbSpline
 62
9
  6
CONTINUOUS
 70
0
 71
3
 72
29
 73
25
 74
0
 42
0.0000001
 43
0.0000001
 44
0.0000000001
 40
0.0
 40
0.0
 40
0.0
 40
0.0
 40
0.0676171826
 40
0.1347419504
 40
0.2012066835
 40
0.2667789512
 40
0.3312675023
 40
0.3943790232
 40
0.4253263832
 40
0.4558069774
 40
0.4857727077
 40
0.5150968261
 40
0.5437278712
 40
0.5716157725
 40
0.5999263178
 40
0.614749367
 40
0.6298809378
 40
0.6604817478
 40
0.6912877232
 40
0.7530158079
 40
0.8147807494
 40
0.8765379046
 40
0.9382771678
 40
1.0
 40
1.0
 40
1.0
 40
1.0
 10
11.1859106259
 20
20.5864349133
 30
0.0
 10
11.1829734835
 20
20.5862820252
 30
0.0
 10
11.1771076757
 20
20.5861795445
 30
0.0
 10
11.1683616836
 20
20.5866774791
 30
0.0
 10
11.1597701603
 20
20.5878642416
 30
0.0
 10
11.1514266528
 20
20.5897808055
 30
0.0
 10
11.1434488025
 20
20.5924628114
 30
0.0
 10
11.1371780484
 20
20.5953778168
 30
0.0
 10
11.1325141176
 20
20.5981408732
 30
0.0
 10
11.1292465258
 20
20.6004118148
 30
0.0
 10
11.1262231464
 20
20.6028896142
 30
0.0
 10
11.1235100575
 20
20.6055986139
 30
0.0
 10
11.1211970628
 20
20.6085324222
 30
0.0
 10
11.1193914957
 20
20.6118168943
 30
0.0
 10
11.1190087208
 20
20.6149384828
 30
0.0
 10
11.1190262392
 20
20.6174689873
 30
0.0
 10
11.1191579295
 20
20.6201011573
 30
0.0
 10
11.119347318
 20
20.623424197
 30
0.0
 10
11.1196497807
 20
20.6287719259
 30
0.0
 10
11.1199297071
 20
20.6354777927
 30
0.0
 10
11.120160709
 20
20.6435324392
 30
0.0
 10
11.1202989625
 20
20.6515896421
 30
0.0
 10
11.1203619531
 20
20.6596459036
 30
0.0
 10
11.1203595411
 20
20.6650161497
 30
0.0
 10
11.1203486737
 20
20.6677008623
 30
0.0
  0
SPLINE
  5
322
100
AcDbEntity
  8
0
100
AcDbSpline
 62
9
  6
CONTINUOUS
 70
0
 71
3
 72
9
 73
5
 74
0
 42
0.0000001
 43
0.0000001
 44
0.0000000001
 40
0.0
 40
0.0
 40
0.0
 40
0.0
 40
0.5051013458
 40
1.0
 40
1.0
 40
1.0
 40
1.0
 10
11.1203486083
 20
20.6677008044
 30
0.0
 10
11.1201970439
 20
20.6820504003
 30
0.0
 10
11.1197669864
 20
20.7104578992
 30
0.0
 10
11.1194828438
 20
20.7388683903
 30
0.0
 10
11.1194866455
 20
20.7529289183
 30
0.0
  0
SPLINE
  5
323
100
AcDbEntity
  8
0
100
AcDbSpline
 62
9
  6
CONTINUOUS
 70
0
 71
3
 72
13
 73
9
 74
0
 42
0.0000001
 43
0.0000001
 44
0.0000000001
 40
0.0
 40
0.0
 40
0.0
 40
0.0
 40
0.2984659144
 40
0.5779220551
 40
0.7035148238
 40
0.8167218821
 40
0.9158384835
 40
1.0
 40
1.0
 40
1.0
 40
1.0
 10
11.2071394015
 20
20.6284132876
 30
0.0
 10
11.198404329
 20
20.6320965873
 30
0.0
 10
11.181529872
 20
20.6393222805
 30
0.0
 10
11.1610983723
 20
20.6483717577
 30
0.0
 10
11.1461305297
 20
20.6552222862
 30
0.0
 10
11.1364129669
 20
20.6597795567
 30
0.0
 10
11.1279328945
 20
20.6638748699
 30
0.0
 10
11.1227266522
 20
20.6664799044
 30
0.0
 10
11.1203486112
 20
20.6677008063
 30
0.0
  0
SPLINE
  5
324
100
AcDbEntity
  8
0
100
AcDbSpline
 62
9
  6
CONTINUOUS
 70
0
 71
3
 72
15
 73
11
 74
0
 42
0.0000001
 43
0.0000001
 44
0.0000000001
 40
0.0
 40
0.0
 40
0.0
 40
0.0
 40
0.1448741864
 40
0.2865992578
 40
0.4236143331
 40
0.5544570462
 40
0.6779551596
 40
0.7934964913
 40
0.9007963411
 40
1.0
 40
1.0
 40
1.0
 40
1.0
 10
11.2248004757
 20
20.7983349655
 30
0.0
 10
11.2191163673
 20
20.7979572872
 30
0.0
 10
11.2078956419
 20
20.7967738487
 30
0.0
 10
11.1915014304
 20
20.7937326512
 30
0.0
 10
11.1759410712
 20
20.789503682
 30
0.0
 10
11.1614884029
 20
20.7841508938
 30
0.0
 10
11.1484089603
 20
20.7777270916
 30
0.0
 10
11.1369092593
 20
20.7703697905
 30
0.0
 10
11.1271743396
 20
20.7622137283
 30
0.0
 10
11.1217774683
 20
20.7560862124
 30
0.0
 10
11.1194866463
 20
20.7529289179
 30
0.0
  0
SPLINE
  5
325
100
AcDbEntity
  8
0
100
AcDbSpline
 62
9
  6
CONTINUOUS
 70
0
 71
3
 72
16
 73
12
 74
0
 42
0.0000001
 43
0.0000001
 44
0.0000000001
 40
0.0
 40
0.0
 40
0.0
 40
0.0
 40
0.1452680065
 40
0.2890772979
 40
0.4291080527
 40
0.5630581248
 40
0.6887649522
 40
0.8044995242
 40
0.9087030405
 40
0.9560443553
 40
1.0
 40
1.0
 40
1.0
 40
1.0
 10
12.1697460937
 20
20.7529289179
 30
0.0
 10
12.1648549818
 20
20.7559690089
 30
0.0
 10
12.1550041914
 20
20.7618314882
 30
0.0
 10
12.1400656886
 20
20.7699774437
 30
0.0
 10
12.1252253147
 20
20.7773415549
 30
0.0
 10
12.1107460202
 20
20.7837895412
 30
0.0
 10
12.0968727204
 20
20.78919266
 30
0.0
 10
12.0838496872
 20
20.793476081
 30
0.0
 10
12.0735843766
 20
20.7961449506
 30
0.0
 10
12.0659734137
 20
20.7976194123
 30
0.0
 10
12.0623892554
 20
20.798137029
 30
0.0
 10
12.0606579937
 20
20.7983350622
 30
0.0
  0
LINE
  5
326
100
AcDbEntity
  8
0
100
AcDbLine
 62
9
  6
CONTINUOUS
 10
12.2147656538
 20
20.8278991363
 11
12.1999012333
 21
20.8035129124
  0
SPLINE
  5
327
100
AcDbEntity
  8
0
100
AcDbSpline
 62
9
  6
CONTINUOUS
 70
0
 71
3
 72
16
 73
12
 74
0
 42
0.0000001
 43
0.0000001
 44
0.0000000001
 40
0.0
 40
0.0
 40
0.0
 40
0.0
 40
0.1373383904
 40
0.277980248
 40
0.4186605296
 40
0.5556338823
 40
0.6851826841
 40
0.8040547103
 40
0.9094807224
 40
0.9566745794
 40
1.0
 40
1.0
 40
1.0
 40
1.0
 10
12.1999012226
 20
20.803512919
 30
0.0
 10
12.1952759805
 20
20.8063828357
 30
0.0
 10
12.1858090313
 20
20.8120238858
 30
0.0
 10
12.1712553734
 20
20.8200019737
 30
0.0
 10
12.1564135811
 20
20.8273995808
 30
0.0
 10
12.1416781484
 20
20.8339957174
 30
0.0
 10
12.1274462745
 20
20.8395614162
 30
0.0
 10
12.114121143
 20
20.8439588254
 30
0.0
 10
12.1036898506
 20
20.8466463523
 30
0.0
 10
12.0960586339
 20
20.8480991217
 30
0.0
 10
12.0925044281
 20
20.8486019487
 30
0.0
 10
12.090797904
 20
20.8487927961
 30
0.0
  0
SPLINE
  5
328
100
AcDbEntity
  8
0
100
AcDbSpline
 62
9
  6
CONTINUOUS
 70
0
 71
3
 72
16
 73
12
 74
0
 42
0.0000001
 43
0.0000001
 44
0.0000000001
 40
0.0
 40
0.0
 40
0.0
 40
0.0
 40
0.1337356817
 40
0.199603987
 40
0.2647122636
 40
0.3925185591
 40
0.5174422566
 40
0.6399598378
 40
0.7607626449
 40
0.8806113211
 40
1.0
 40
1.0
 40
1.0
 40
1.0
 10
12.0907979039
 20
20.8487927959
 30
0.0
 10
12.0935129611
 20
20.8537255205
 30
0.0
 10
12.0979859069
 20
20.8608691539
 30
0.0
 10
12.1047155226
 20
20.8697592612
 30
0.0
 10
12.111806708
 20
20.8780388166
 30
0.0
 10
12.1214438015
 20
20.8873785693
 30
0.0
 10
12.1341516722
 20
20.8968421416
 30
0.0
 10
12.1477711083
 20
20.9043535958
 30
0.0
 10
12.1621132666
 20
20.9098053232
 30
0.0
 10
12.1769629188
 20
20.9130940025
 30
0.0
 10
12.1870502407
 20
20.9138318633
 30
0.0
 10
12.192076769
 20
20.9138318604
 30
0.0
  0
SPLINE
  5
329
100
AcDbEntity
  8
0
100
AcDbSpline
 62
9
  6
CONTINUOUS
 70
0
 71
3
 72
17
 73
13
 74
0
 42
0.0000001
 43
0.0000001
 44
0.0000000001
 40
0.0
 40
0.0
 40
0.0
 40
0.0
 40
0.1254440778
 40
0.2512501778
 40
0.3773420492
 40
0.5036276124
 40
0.6298687195
 40
0.7555741383
 40
0.8179565889
 40
0.8797418195
 40
0.9406026124
 40
1.0
 40
1.0
 40
1.0
 40
1.0
 10
10.857650021
 20
20.9253616946
 30
0.0
 10
10.8620586967
 20
20.9253618352
 30
0.0
 10
10.8708931675
 20
20.9249809957
 30
0.0
 10
10.8840624145
 20
20.9233027897
 30
0.0
 10
10.8970815145
 20
20.920557947
 30
0.0
 10
10.9098596003
 20
20.9167979268
 30
0.0
 10
10.9222951275
 20
20.9120649769
 30
0.0
 10
10.9322861352
 20
20.9073183955
 30
0.0
 10
10.9399536749
 20
20.9030319711
 30
0.0
 10
10.9454705887
 20
20.8995837519
 30
0.0
 10
10.9506988227
 20
20.8958901267
 30
0.0
 10
10.9539788425
 20
20.8932162257
 30
0.0
 10
10.9555348326
 20
20.8918246338
 30
0.0
  0
SPLINE
  5
32A
100
AcDbEntity
  8
0
100
AcDbSpline
 62
9
  6
CONTINUOUS
 70
0
 71
3
 72
11
 73
7
 74
0
 42
0.0000001
 43
0.0000001
 44
0.0000000001
 40
0.0
 40
0.0
 40
0.0
 40
0.0
 40
0.3039532723
 40
0.5740163487
 40
0.8069604287
 40
1.0
 40
1.0
 40
1.0
 40
1.0
 10
10.9555348323
 20
20.8918246341
 30
0.0
 10
10.955072324
 20
20.8914073289
 30
0.0
 10
10.9541715439
 20
20.8906487164
 30
0.0
 10
10.9528253913
 20
20.8896844527
 30
0.0
 10
10.9515931434
 20
20.888962009
 30
0.0
 10
10.9507906924
 20
20.8886087931
 30
0.0
 10
10.9504152077
 20
20.8884841612
 30
0.0
  0
SPLINE
  5
32B
100
AcDbEntity
  8
0
100
AcDbSpline
 62
9
  6
CONTINUOUS
 70
0
 71
3
 72
15
 73
11
 74
0
 42
0.0000001
 43
0.0000001
 44
0.0000000001
 40
0.0
 40
0.0
 40
0.0
 40
0.0
 40
0.345151947
 40
0.5085793248
 40
0.6562615011
 40
0.781253216
 40
0.8801550023
 40
0.9528013772
 40
0.9794651493
 40
1.0
 40
1.0
 40
1.0
 40
1.0
 10
10.8576493862
 20
20.9253616988
 30
0.0
 10
10.8576804609
 20
20.9240301497
 30
0.0
 10
10.8577678296
 20
20.9220686782
 30
0.0
 10
10.8579691554
 20
20.9195439888
 30
0.0
 10
10.8581520111
 20
20.9178708493
 30
0.0
 10
10.8583679803
 20
20.9164523588
 30
0.0
 10
10.8586126252
 20
20.9153342211
 30
0.0
 10
10.8588423135
 20
20.9146014029
 30
0.0
 10
10.8590423723
 20
20.9141838549
 30
0.0
 10
10.8591442347
 20
20.9140310912
 30
0.0
 10
10.8591969999
 20
20.9139719713
 30
0.0
  0
LINE
  5
32C
100
AcDbEntity
  8
0
100
AcDbLine
 62
9
  6
CONTINUOUS
 10
10.8591969999
 20
20.9139719713
 11
10.8594421795
 21
20.9138319076
  0
SPLINE
  5
32D
100
AcDbEntity
  8
0
100
AcDbSpline
 62
9
  6
CONTINUOUS
 70
0
 71
3
 72
23
 73
19
 74
0
 42
0.0000001
 43
0.0000001
 44
0.0000000001
 40
0.0
 40
0.0
 40
0.0
 40
0.0
 40
0.0709981179
 40
0.141322194
 40
0.210826067
 40
0.2794178835
 40
0.3469380029
 40
0.4128623134
 40
0.4450710922
 40
0.4764891103
 40
0.5366705391
 40
0.5949709731
 40
0.6529758646
 40
0.7108965932
 40
0.7687641026
 40
0.8265948858
 40
0.8844046119
 40
1.0
 40
1.0
 40
1.0
 40
1.0
 10
10.9504151768
 20
20.8884841686
 30
0.0
 10
10.9517668879
 20
20.8875302858
 30
0.0
 10
10.9544147445
 20
20.8855699556
 30
0.0
 10
10.9582135023
 20
20.8824514956
 30
0.0
 10
10.9617940458
 20
20.8791662434
 30
0.0
 10
10.9651233243
 20
20.8757163365
 30
0.0
 10
10.9681621167
 20
20.8721150487
 30
0.0
 10
10.9703869783
 20
20.8689521154
 30
0.0
 10
10.9719067041
 20
20.8663407643
 30
0.0
 10
10.9731511366
 20
20.8637353819
 30
0.0
 10
10.9741269109
 20
20.8603372465
 30
0.0
 10
10.9742325458
 20
20.8562059369
 30
0.0
 10
10.9740932076
 20
20.8521522324
 30
0.0
 10
10.9739583359
 20
20.8481037709
 30
0.0
 10
10.973860486
 20
20.8440594287
 30
0.0
 10
10.9738346244
 20
20.8400161226
 30
0.0
 10
10.9738930436
 20
20.8346280647
 30
0.0
 10
10.9740381751
 20
20.8305889531
 30
0.0
 10
10.9741818035
 20
20.82789919
 30
0.0
  0
SPLINE
  5
32E
100
AcDbEntity
  8
0
100
AcDbSpline
 62
9
  6
CONTINUOUS
 70
0
 71
3
 72
15
 73
11
 74
0
 42
0.0000001
 43
0.0000001
 44
0.0000000001
 40
0.0
 40
0.0
 40
0.0
 40
0.0
 40
0.1235153463
 40
0.2503577384
 40
0.3791600555
 40
0.5082451518
 40
0.6360933129
 40
0.7614125517
 40
0.8829483821
 40
1.0
 40
1.0
 40
1.0
 40
1.0
 10
10.9741818217
 20
20.8278991664
 30
0.0
 10
10.9721563574
 20
20.8338556413
 30
0.0
 10
10.9671897601
 20
20.8456539245
 30
0.0
 10
10.9572113002
 20
20.8622694808
 30
0.0
 10
10.944626052
 20
20.8773917945
 30
0.0
 10
10.9298421827
 20
20.8904584686
 30
0.0
 10
10.9132795031
 20
20.9008548366
 30
0.0
 10
10.8956404061
 20
20.9083600457
 30
0.0
 10
10.8775584362
 20
20.9127717467
 30
0.0
 10
10.8653925534
 20
20.9137946604
 30
0.0
 10
10.859430466
 20
20.9138298746
 30
0.0
  0
SPLINE
  5
32F
100
AcDbEntity
  8
0
100
AcDbSpline
 62
9
  6
CONTINUOUS
 70
0
 71
3
 72
15
 73
11
 74
0
 42
0.0000001
 43
0.0000001
 44
0.0000000001
 40
0.0
 40
0.0
 40
0.0
 40
0.0
 40
0.2493351206
 40
0.3748707885
 40
0.5008773253
 40
0.6272147862
 40
0.7533931397
 40
0.8786095985
 40
0.9401712867
 40
1.0
 40
1.0
 40
1.0
 40
1.0
 10
10.8594421691
 20
20.9138319076
 30
0.0
 10
10.8673909334
 20
20.9138321431
 30
0.0
 10
10.8793605803
 20
20.912980536
 30
0.0
 10
10.8951053306
 20
20.9102794294
 30
0.0
 10
10.9068320642
 20
20.9074833083
 30
0.0
 10
10.9183803572
 20
20.9039542463
 30
0.0
 10
10.9296459602
 20
20.8996764992
 30
0.0
 10
10.9387097754
 20
20.895476705
 30
0.0
 10
10.9455939193
 20
20.8916734214
 30
0.0
 10
10.9488567734
 20
20.8895838691
 30
0.0
 10
10.9504151505
 20
20.8884841564
 30
0.0
  0
SPLINE
  5
330
100
AcDbEntity
  8
0
100
AcDbSpline
 62
9
  6
CONTINUOUS
 70
0
 71
3
 72
19
 73
15
 74
0
 42
0.0000001
 43
0.0000001
 44
0.0000000001
 40
0.0
 40
0.0
 40
0.0
 40
0.0
 40
0.1347634419
 40
0.200966326
 40
0.2662882466
 40
0.3306684204
 40
0.3940621928
 40
0.4564331723
 40
0.5178365759
 40
0.5786153134
 40
0.6390398426
 40
0.7595074559
 40
0.879783873
 40
1.0
 40
1.0
 40
1.0
 40
1.0
 10
10.9555348326
 20
20.8918246338
 30
0.0
 10
10.9582841207
 20
20.8897525809
 30
0.0
 10
10.9622351335
 20
20.8864527729
 30
0.0
 10
10.9670471514
 20
20.8816395267
 30
0.0
 10
10.9703480751
 20
20.8778723853
 30
0.0
 10
10.9733212366
 20
20.8739298908
 30
0.0
 10
10.9759133276
 20
20.8698145234
 30
0.0
 10
10.9780671877
 20
20.8655351552
 30
0.0
 10
10.9796962325
 20
20.8611012841
 30
0.0
 10
10.9809047992
 20
20.8565914728
 30
0.0
 10
10.9821566814
 20
20.8505444878
 30
0.0
 10
10.9834348204
 20
20.8429562381
 30
0.0
 10
10.9847972951
 20
20.8338364001
 30
0.0
 10
10.9856691779
 20
20.8277549114
 30
0.0
 10
10.9861065673
 20
20.8247151728
 30
0.0
  0
SPLINE
  5
331
100
AcDbEntity
  8
0
100
AcDbSpline
 62
9
  6
CONTINUOUS
 70
0
 71
3
 72
13
 73
9
 74
0
 42
0.0000001
 43
0.0000001
 44
0.0000000001
 40
0.0
 40
0.0
 40
0.0
 40
0.0
 40
0.2833655795
 40
0.4229032732
 40
0.5567516298
 40
0.7984273915
 40
0.9046180102
 40
1.0
 40
1.0
 40
1.0
 40
1.0
 10
10.9861065674
 20
20.824715172
 30
0.0
 10
10.9849119531
 20
20.8246232292
 30
0.0
 10
10.9831146613
 20
20.8246221121
 30
0.0
 10
10.9807740897
 20
20.8248955498
 30
0.0
 10
10.9786404194
 20
20.8253405316
 30
0.0
 10
10.9767125813
 20
20.8260647761
 30
0.0
 10
10.9751155622
 20
20.8270543189
 30
0.0
 10
10.9744621476
 20
20.8276091966
 30
0.0
 10
10.974181823
 20
20.8278991448
 30
0.0
  0
SPLINE
  5
332
100
AcDbEntity
  8
0
100
AcDbSpline
 62
9
  6
CONTINUOUS
 70
0
 71
3
 72
11
 73
7
 74
0
 42
0.0000001
 43
0.0000001
 44
0.0000000001
 40
0.0
 40
0.0
 40
0.0
 40
0.0
 40
0.2506196252
 40
0.5006989714
 40
0.7504480251
 40
1.0
 40
1.0
 40
1.0
 40
1.0
 10
10.9861065673
 20
20.8247151728
 30
0.0
 10
10.9864176543
 20
20.8225531314
 30
0.0
 10
10.9869163093
 20
20.8182156072
 30
0.0
 10
10.9873863857
 20
20.8116906227
 30
0.0
 10
10.987645473
 20
20.8051635411
 30
0.0
 10
10.9877019688
 20
20.800811633
 30
0.0
 10
10.9877024021
 20
20.798636631
 30
0.0
  0
SPLINE
  5
333
100
AcDbEntity
  8
0
100
AcDbSpline
 62
9
  6
CONTINUOUS
 70
0
 71
3
 72
13
 73
9
 74
0
 42
0.0000001
 43
0.0000001
 44
0.0000000001
 40
0.0
 40
0.0
 40
0.0
 40
0.0
 40
0.2810352259
 40
0.4209367514
 40
0.555558789
 40
0.7986536707
 40
0.9050571068
 40
1.0
 40
1.0
 40
1.0
 40
1.0
 10
10.987702402
 20
20.7986366308
 30
0.0
 10
10.986414744
 20
20.798662256
 30
0.0
 10
10.9844848934
 20
20.7988605693
 30
0.0
 10
10.9819994966
 20
20.7994249337
 30
0.0
 10
10.9797428775
 20
20.8001630816
 30
0.0
 10
10.9777482244
 20
20.8011935308
 30
0.0
 10
10.9761584622
 20
20.8024750542
 30
0.0
 10
10.9755339998
 20
20.8031622788
 30
0.0
 10
10.9752763852
 20
20.8035129153
 30
0.0
  0
SPLINE
  5
334
100
AcDbEntity
  8
0
100
AcDbSpline
 62
9
  6
CONTINUOUS
 70
0
 71
3
 72
9
 73
5
 74
0
 42
0.0000001
 43
0.0000001
 44
0.0000000001
 40
0.0
 40
0.0
 40
0.0
 40
0.0
 40
0.4932880954
 40
1.0
 40
1.0
 40
1.0
 40
1.0
 10
10.9741818363
 20
20.8278991363
 30
0.0
 10
10.9746633877
 20
20.823912481
 30
0.0
 10
10.9752098469
 20
20.8157787217
 30
0.0
 10
10.9752751007
 20
20.8076378228
 30
0.0
 10
10.97527639
 20
20.8035129124
 30
0.0
  0
SPLINE
  5
335
100
AcDbEntity
  8
0
100
AcDbSpline
 62
9
  6
CONTINUOUS
 70
0
 71
3
 72
15
 73
11
 74
0
 42
0.0000001
 43
0.0000001
 44
0.0000000001
 40
0.0
 40
0.0
 40
0.0
 40
0.0
 40
0.0934416286
 40
0.1975625178
 40
0.3127176775
 40
0.4380506984
 40
0.5720771477
 40
0.7123352945
 40
0.8559800107
 40
1.0
 40
1.0
 40
1.0
 40
1.0
 10
10.9752763852
 20
20.803512919
 30
0.0
 10
10.9731067416
 20
20.8064861437
 30
0.0
 10
10.9679621025
 20
20.8123755292
 30
0.0
 10
10.9585629615
 20
20.8203940146
 30
0.0
 10
10.9471409852
 20
20.8277926856
 30
0.0
 10
10.933905975
 20
20.8343732528
 30
0.0
 10
10.9191363522
 20
20.8398891896
 30
0.0
 10
10.9032347044
 20
20.8442307274
 30
0.0
 10
10.8866351321
 20
20.8472624578
 30
0.0
 10
10.8753509482
 20
20.8484263398
 30
0.0
 10
10.8696898245
 20
20.8487927961
 30
0.0
  0
SPLINE
  5
336
100
AcDbEntity
  8
0
100
AcDbSpline
 62
9
  6
CONTINUOUS
 70
0
 71
3
 72
15
 73
11
 74
0
 42
0.0000001
 43
0.0000001
 44
0.0000000001
 40
0.0
 40
0.0
 40
0.0
 40
0.0
 40
0.3428151771
 40
0.4939323463
 40
0.6296078692
 40
0.7488673837
 40
0.8508000247
 40
0.9346909735
 40
0.9696986515
 40
1.0
 40
1.0
 40
1.0
 40
1.0
 10
10.8696898245
 20
20.8487927959
 30
0.0
 10
10.8691217541
 20
20.8557753007
 30
0.0
 10
10.8682101531
 20
20.8658290772
 30
0.0
 10
10.8667787301
 20
20.8786159456
 30
0.0
 10
10.865718323
 20
20.8868461988
 30
0.0
 10
10.8646426216
 20
20.8940598551
 30
0.0
 10
10.8635641037
 20
20.9002010606
 30
0.0
 10
10.8626326397
 20
20.9046183519
 30
0.0
 10
10.8618835541
 20
20.9075742368
 30
0.0
 10
10.8615125309
 20
20.9088566852
 30
0.0
 10
10.8613260602
 20
20.9094471624
 30
0.0
  0
SPLINE
  5
337
100
AcDbEntity
  8
0
100
AcDbSpline
 62
9
  6
CONTINUOUS
 70
0
 71
3
 72
14
 73
10
 74
0
 42
0.0000001
 43
0.0000001
 44
0.0000000001
 40
0.0
 40
0.0
 40
0.0
 40
0.0
 40
0.3853575387
 40
0.5415585878
 40
0.6739887996
 40
0.7835024345
 40
0.8716988398
 40
0.9417511891
 40
1.0
 40
1.0
 40
1.0
 40
1.0
 10
10.8613260602
 20
20.9094471624
 30
0.0
 10
10.8611223321
 20
20.910092287
 30
0.0
 10
10.8608135801
 20
20.9109930283
 30
0.0
 10
10.8603432771
 20
20.9120794615
 30
0.0
 10
10.8600221453
 20
20.9127011075
 30
0.0
 10
10.8597074912
 20
20.9131893933
 30
0.0
 10
10.859397343
 20
20.9135456523
 30
0.0
 10
10.8590866206
 20
20.9137730908
 30
0.0
 10
10.8588605154
 20
20.9138318612
 30
0.0
 10
10.8587582546
 20
20.9138318604
 30
0.0
  0
SPLINE
  5
338
100
AcDbEntity
  8
0
100
AcDbSpline
 62
9
  6
CONTINUOUS
 70
0
 71
3
 72
15
 73
11
 74
0
 42
0.0000001
 43
0.0000001
 44
0.0000000001
 40
0.0
 40
0.0
 40
0.0
 40
0.0
 40
0.0992035255
 40
0.2065033193
 40
0.3220446636
 40
0.4455428393
 40
0.5763856395
 40
0.7134007905
 40
0.8551258849
 40
1.0
 40
1.0
 40
1.0
 40
1.0
 10
10.9752891698
 20
20.7529289179
 30
0.0
 10
10.9729983225
 20
20.7560862472
 30
0.0
 10
10.9676013824
 20
20.7622138279
 30
0.0
 10
10.9578663281
 20
20.7703699636
 30
0.0
 10
10.9463664602
 20
20.7777273186
 30
0.0
 10
10.9332868247
 20
20.7841511515
 30
0.0
 10
10.918833945
 20
20.7895039428
 30
0.0
 10
10.9032733651
 20
20.7937328875
 30
0.0
 10
10.886878933
 20
20.7967740318
 30
0.0
 10
10.8756580636
 20
20.7979574163
 30
0.0
 10
10.8699738854
 20
20.7983350622
 30
0.0
  0
SPLINE
  5
339
100
AcDbEntity
  8
0
100
AcDbSpline
 62
9
  6
CONTINUOUS
 70
0
 71
3
 72
13
 73
9
 74
0
 42
0.0000001
 43
0.0000001
 44
0.0000000001
 40
0.0
 40
0.0
 40
0.0
 40
0.0
 40
0.2811423726
 40
0.4210786879
 40
0.5557131213
 40
0.7987588615
 40
0.9051132369
 40
1.0
 40
1.0
 40
1.0
 40
1.0
 10
10.9877126131
 20
20.7480390191
 30
0.0
 10
10.9864240667
 20
20.7480653111
 30
0.0
 10
10.9844930413
 20
20.7482648751
 30
0.0
 10
10.9820065685
 20
20.7488314112
 30
0.0
 10
10.9797498925
 20
20.7495717976
 30
0.0
 10
10.9777561001
 20
20.7506048869
 30
0.0
 10
10.9761686373
 20
20.7518892142
 30
0.0
 10
10.9755458149
 20
20.7525777179
 30
0.0
 10
10.9752891698
 20
20.7529289178
 30
0.0
  0
SPLINE
  5
33A
100
AcDbEntity
  8
0
100
AcDbSpline
 62
9
  6
CONTINUOUS
 70
0
 71
3
 72
13
 73
9
 74
0
 42
0.0000001
 43
0.0000001
 44
0.0000000001
 40
0.0
 40
0.0
 40
0.0
 40
0.0
 40
0.2500852518
 40
0.3751068192
 40
0.5001136222
 40
0.6251027516
 40
0.7500774009
 40
1.0
 40
1.0
 40
1.0
 40
1.0
 10
10.9877125668
 20
20.7480390222
 30
0.0
 10
10.9877157275
 20
20.7410285865
 30
0.0
 10
10.9876389928
 20
20.7305133126
 30
0.0
 10
10.9873928864
 20
20.7164961346
 30
0.0
 10
10.9871330958
 20
20.7059866684
 30
0.0
 10
10.9867763363
 20
20.6954812756
 30
0.0
 10
10.9861404771
 20
20.6814825326
 30
0.0
 10
10.9855015505
 20
20.6709921144
 30
0.0
 10
10.9850308001
 20
20.6640020712
 30
0.0
  0
SPLINE
  5
33B
100
AcDbEntity
  8
0
100
AcDbSpline
 62
9
  6
CONTINUOUS
 70
0
 71
3
 72
11
 73
7
 74
0
 42
0.0000001
 43
0.0000001
 44
0.0000000001
 40
0.0
 40
0.0
 40
0.0
 40
0.0
 40
0.2732758269
 40
0.5399244696
 40
0.7851471047
 40
1.0
 40
1.0
 40
1.0
 40
1.0
 10
10.9850308001
 20
20.6640020712
 30
0.0
 10
10.9839968819
 20
20.664077554
 30
0.0
 10
10.9819621768
 20
20.664360828
 30
0.0
 10
10.9790767578
 20
20.6651359383
 30
0.0
 10
10.9765402732
 20
20.6662407346
 30
0.0
 10
10.975061513
 20
20.6671889673
 30
0.0
 10
10.974427208
 20
20.6677007799
 30
0.0
  0
SPLINE
  5
33C
100
AcDbEntity
  8
0
100
AcDbSpline
 62
9
  6
CONTINUOUS
 70
0
 71
3
 72
9
 73
5
 74
0
 42
0.0000001
 43
0.0000001
 44
0.0000000001
 40
0.0
 40
0.0
 40
0.0
 40
0.0
 40
0.4948983604
 40
1.0
 40
1.0
 40
1.0
 40
1.0
 10
10.9752891708
 20
20.7529289175
 30
0.0
 10
10.9752929706
 20
20.7388683975
 30
0.0
 10
10.9750088205
 20
20.7104579056
 30
0.0
 10
10.9745787652
 20
20.6820504058
 30
0.0
 10
10.9744272082
 20
20.667700801
 30
0.0
  0
SPLINE
  5
33D
100
AcDbEntity
  8
0
100
AcDbSpline
 62
9
  6
CONTINUOUS
 70
0
 71
3
 72
13
 73
9
 74
0
 42
0.0000001
 43
0.0000001
 44
0.0000000001
 40
0.0
 40
0.0
 40
0.0
 40
0.0
 40
0.0841615385
 40
0.1832781613
 40
0.296485237
 40
0.4220780157
 40
0.7015341447
 40
1.0
 40
1.0
 40
1.0
 40
1.0
 10
10.9744272055
 20
20.6677008029
 30
0.0
 10
10.972049164
 20
20.6664799004
 30
0.0
 10
10.9668429206
 20
20.6638748648
 30
0.0
 10
10.9583628466
 20
20.6597795501
 30
0.0
 10
10.9486452826
 20
20.6552222783
 30
0.0
 10
10.9336774398
 20
20.6483717487
 30
0.0
 10
10.9132459422
 20
20.6393222711
 30
0.0
 10
10.8963714874
 20
20.632096578
 30
0.0
 10
10.8876364166
 20
20.6284132786
 30
0.0
  0
SPLINE
  5
33E
100
AcDbEntity
  8
0
100
AcDbSpline
 62
9
  6
CONTINUOUS
 70
0
 71
3
 72
12
 73
8
 74
0
 42
0.0000001
 43
0.0000001
 44
0.0000000001
 40
0.0
 40
0.0
 40
0.0
 40
0.0
 40
0.1324952915
 40
0.2645509081
 40
0.5235868238
 40
0.770694284
 40
1.0
 40
1.0
 40
1.0
 40
1.0
 10
10.887636437
 20
20.6284131911
 30
0.0
 10
10.886075612
 20
20.6358024759
 30
0.0
 10
10.8833108517
 20
20.6506320978
 30
0.0
 10
10.8789378448
 20
20.680159458
 30
0.0
 10
10.8751222629
 20
20.7163502542
 30
0.0
 10
10.8720309194
 20
20.7581595799
 30
0.0
 10
10.870552772
 20
20.7852772898
 30
0.0
 10
10.8699738854
 20
20.7983350622
 30
0.0
  0
SPLINE
  5
33F
100
AcDbEntity
  8
0
100
AcDbSpline
 62
9
  6
CONTINUOUS
 70
0
 71
3
 72
29
 73
25
 74
0
 42
0.0000001
 43
0.0000001
 44
0.0000000001
 40
0.0
 40
0.0
 40
0.0
 40
0.0
 40
0.0617275111
 40
0.1234715354
 40
0.1852331621
 40
0.2470026878
 40
0.3087356327
 40
0.3395441088
 40
0.3701460022
 40
0.3852771833
 40
0.4000996458
 40
0.4284101867
 40
0.4562971881
 40
0.4849268922
 40
0.5142492951
 40
0.544212955
 40
0.5746920221
 40
0.6056381549
 40
0.6687466362
 40
0.733233247
 40
0.7988046524
 40
0.8652669045
 40
0.9323858323
 40
1.0
 40
1.0
 40
1.0
 40
1.0
 10
10.9744272108
 20
20.6677008121
 30
0.0
 10
10.9744163371
 20
20.6650159101
 30
0.0
 10
10.9744139427
 20
20.6596452814
 30
0.0
 10
10.9744769761
 20
20.6515884577
 30
0.0
 10
10.9746152178
 20
20.6435306953
 30
0.0
 10
10.9748463043
 20
20.635475489
 30
0.0
 10
10.9751262018
 20
20.6287691336
 30
0.0
 10
10.9754290286
 20
20.6234210864
 30
0.0
 10
10.975618224
 20
20.6200979113
 30
0.0
 10
10.975749147
 20
20.6174657143
 30
0.0
 10
10.9757657355
 20
20.6149352399
 30
0.0
 10
10.975381922
 20
20.611814002
 30
0.0
 10
10.9735769329
 20
20.6085294284
 30
0.0
 10
10.971263475
 20
20.6055961485
 30
0.0
 10
10.9685503553
 20
20.6028875702
 30
0.0
 10
10.9655270373
 20
20.600410083
 30
0.0
 10
10.9622594923
 20
20.5981394807
 30
0.0
 10
10.9575956989
 20
20.5953767576
 30
0.0
 10
10.9513253118
 20
20.5924616916
 30
0.0
 10
10.9433475601
 20
20.5897802472
 30
0.0
 10
10.9350041737
 20
20.5878644102
 30
0.0
 10
10.9264130564
 20
20.5866780778
 30
0.0
 10
10.9176676314
 20
20.5861798921
 30
0.0
 10
10.9118022345
 20
20.5862820711
 30
0.0
 10
10.9088652307
 20
20.5864348027
 30
0.0
  0
SPLINE
  5
340
100
AcDbEntity
  8
0
100
AcDbSpline
 62
9
  6
CONTINUOUS
 70
0
 71
3
 72
9
 73
5
 74
0
 42
0.0000001
 43
0.0000001
 44
0.0000000001
 40
0.0
 40
0.0
 40
0.0
 40
0.0
 40
0.4998244026
 40
1.0
 40
1.0
 40
1.0
 40
1.0
 10
10.9088640631
 20
20.5864369174
 30
0.0
 10
10.9044566779
 20
20.5929336402
 30
0.0
 10
10.8965999261
 20
20.6065969275
 30
0.0
 10
10.8903945137
 20
20.621057098
 30
0.0
 10
10.8876364371
 20
20.6284131911
 30
0.0
  0
SPLINE
  5
341
100
AcDbEntity
  8
0
100
AcDbSpline
 62
9
  6
CONTINUOUS
 70
0
 71
3
 72
29
 73
25
 74
0
 42
0.0000001
 43
0.0000001
 44
0.0000000001
 40
0.0
 40
0.0
 40
0.0
 40
0.0
 40
0.0579786201
 40
0.1159556809
 40
0.1739316158
 40
0.202919579
 40
0.2319079713
 40
0.2608976311
 40
0.2898905919
 40
0.3188888025
 40
0.3479008934
 40
0.3624303821
 40
0.3769964714
 40
0.4062489561
 40
0.4359215087
 40
0.4661294536
 40
0.4968599728
 40
0.5281069703
 40
0.5919597855
 40
0.6574480182
 40
0.7242712662
 40
0.7921667505
 40
0.8608956646
 40
1.0
 40
1.0
 40
1.0
 40
1.0
 10
10.9850308001
 20
20.6640020712
 30
0.0
 10
10.984835998
 20
20.6614118811
 30
0.0
 10
10.984440124
 20
20.6562320369
 30
0.0
 10
10.9838184004
 20
20.6484645351
 30
0.0
 10
10.9832648133
 20
20.6419945998
 30
0.0
 10
10.9827883503
 20
20.6368216916
 30
0.0
 10
10.9824106909
 20
20.6329438366
 30
0.0
 10
10.9820026145
 20
20.6290688288
 30
0.0
 10
10.981552865
 20
20.6251978808
 30
0.0
 10
10.9810452171
 20
20.6213332333
 30
0.0
 10
10.9805556286
 20
20.6181195556
 30
0.0
 10
10.9800520633
 20
20.6155647592
 30
0.0
 10
10.9794513809
 20
20.6130205841
 30
0.0
 10
10.9784446385
 20
20.6098737004
 30
0.0
 10
10.9766218315
 20
20.6063027203
 30
0.0
 10
10.9743111599
 20
20.6029539113
 30
0.0
 10
10.9715988607
 20
20.5998294491
 30
0.0
 10
10.9675096535
 20
20.5959392257
 30
0.0
 10
10.9616913257
 20
20.591655538
 30
0.0
 10
10.9539568788
 20
20.5874384552
 30
0.0
 10
10.9456256022
 20
20.5840687485
 30
0.0
 10
10.9368592497
 20
20.5815209535
 30
0.0
 10
10.9247230228
 20
20.5791544804
 30
0.0
 10
10.9153865874
 20
20.5785062572
 30
0.0
 10
10.9091545623
 20
20.5785072301
 30
0.0
  0
LINE
  5
342
100
AcDbEntity
  8
0
100
AcDbLine
 62
9
  6
CONTINUOUS
 10
10.9091412432
 20
20.5785074991
 11
10.9088654253
 21
20.5864369174
  0
SPLINE
  5
343
100
AcDbEntity
  8
0
100
AcDbSpline
 62
9
  6
CONTINUOUS
 70
0
 71
3
 72
9
 73
5
 74
0
 42
0.0000001
 43
0.0000001
 44
0.0000000001
 40
0.0
 40
0.0
 40
0.0
 40
0.0
 40
0.4975316881
 40
1.0
 40
1.0
 40
1.0
 40
1.0
 10
10.058453029
 20
20.5785074986
 30
0.0
 10
10.0577923111
 20
20.5797027096
 30
0.0
 10
10.056820342
 20
20.5823070935
 30
0.0
 10
10.0564724886
 20
20.5850576883
 30
0.0
 10
10.0564724741
 20
20.5864369173
 30
0.0
  0
SPLINE
  5
344
100
AcDbEntity
  8
0
100
AcDbSpline
 62
9
  6
CONTINUOUS
 70
0
 71
3
 72
10
 73
6
 74
0
 42
0.0000001
 43
0.0000001
 44
0.0000000001
 40
0.0
 40
0.0
 40
0.0
 40
0.0
 40
0.2426828387
 40
0.4909971297
 40
1.0
 40
1.0
 40
1.0
 40
1.0
 10
10.0564724863
 20
20.5864369174
 30
0.0
 10
10.057808784
 20
20.5897306744
 30
0.0
 10
10.0603340303
 20
20.5964680641
 30
0.0
 10
10.0648524207
 20
20.6104037351
 30
0.0
 10
10.0676575351
 20
20.6211475497
 30
0.0
 10
10.0693281064
 20
20.6284131911
 30
0.0
  0
SPLINE
  5
345
100
AcDbEntity
  8
0
100
AcDbSpline
 62
9
  6
CONTINUOUS
 70
0
 71
3
 72
28
 73
24
 74
0
 42
0.0000001
 43
0.0000001
 44
0.0000000001
 40
0.0
 40
0.0
 40
0.0
 40
0.0
 40
0.0433104768
 40
0.0890406213
 40
0.137625666
 40
0.1894469118
 40
0.2448386936
 40
0.3039567264
 40
0.3349334075
 40
0.3668318838
 40
0.3996094675
 40
0.433151052
 40
0.4673409107
 40
0.5018764857
 40
0.5364164994
 40
0.5713585944
 40
0.6065769297
 40
0.6419721635
 40
0.7131270898
 40
0.7845812136
 40
0.8562395152
 40
0.9280540666
 40
1.0
 40
1.0
 40
1.0
 40
1.0
 10
10.0564724708
 20
20.5864349133
 30
0.0
 10
10.0546680553
 20
20.5862778192
 30
0.0
 10
10.050935233
 20
20.5861842895
 30
0.0
 10
10.0451919654
 20
20.5867068579
 30
0.0
 10
10.039191184
 20
20.587924807
 30
0.0
 10
10.0329635657
 20
20.5898769788
 30
0.0
 10
10.0265504765
 20
20.5925968195
 30
0.0
 10
10.0211822001
 20
20.5954794814
 30
0.0
 10
10.0168579668
 20
20.5981892483
 30
0.0
 10
10.0135658512
 20
20.6004640744
 30
0.0
 10
10.0102931186
 20
20.6029482569
 30
0.0
 10
10.0070762592
 20
20.6056579718
 30
0.0
 10
10.0039685315
 20
20.6085960734
 30
0.0
 10
10.0010396796
 20
20.6117908754
 30
0.0
 10
9.9987364905
 20
20.6155043113
 30
0.0
 10
9.9968080089
 20
20.6194350602
 30
0.0
 10
9.9949107622
 20
20.623421039
 30
0.0
 10
9.9923824274
 20
20.6287836147
 30
0.0
 10
9.9891546089
 20
20.6354916693
 30
0.0
 10
9.9852246911
 20
20.6435445766
 30
0.0
 10
9.9812362897
 20
20.6515995024
 30
0.0
 10
9.9772016208
 20
20.6596543344
 30
0.0
 10
9.974487074
 20
20.6650186828
 30
0.0
 10
9.9731237571
 20
20.6677008623
 30
0.0
  0
SPLINE
  5
346
100
AcDbEntity
  8
0
100
AcDbSpline
 62
9
  6
CONTINUOUS
 70
0
 71
3
 72
12
 73
8
 74
0
 42
0.0000001
 43
0.0000001
 44
0.0000000001
 40
0.0
 40
0.0
 40
0.0
 40
0.0
 40
0.0850052257
 40
0.1844843233
 40
0.4220621342
 40
0.7007321741
 40
1.0
 40
1.0
 40
1.0
 40
1.0
 10
9.9641764633
 20
20.6640020729
 30
0.0
 10
9.9644490771
 20
20.6640420011
 30
0.0
 10
9.9650360256
 20
20.664160853
 30
0.0
 10
9.9663549233
 20
20.6645266364
 30
0.0
 10
9.9682285871
 20
20.6652241505
 30
0.0
 10
9.9706279174
 20
20.6663368676
 30
0.0
 10
9.9722807153
 20
20.6672208843
 30
0.0
 10
9.97312368
 20
20.667700789
 30
0.0
  0
SPLINE
  5
347
100
AcDbEntity
  8
0
100
AcDbSpline
 62
9
  6
CONTINUOUS
 70
0
 71
3
 72
11
 73
7
 74
0
 42
0.0000001
 43
0.0000001
 44
0.0000000001
 40
0.0
 40
0.0
 40
0.0
 40
0.0
 40
0.2513528542
 40
0.5017459317
 40
0.7512353457
 40
1.0
 40
1.0
 40
1.0
 40
1.0
 10
9.9641764634
 20
20.6640020727
 30
0.0
 10
9.9597579672
 20
20.6709799091
 30
0.0
 10
9.9509809526
 20
20.6849363669
 30
0.0
 10
9.9380210393
 20
20.705945559
 30
0.0
 10
9.9252601763
 20
20.7269766737
 30
0.0
 10
9.9168416542
 20
20.7410185068
 30
0.0
 10
9.9126549959
 20
20.7480390223
 30
0.0
  0
SPLINE
  5
348
100
AcDbEntity
  8
0
100
AcDbSpline
 62
9
  6
CONTINUOUS
 70
0
 71
3
 72
13
 73
9
 74
0
 42
0.0000001
 43
0.0000001
 44
0.0000000001
 40
0.0
 40
0.0
 40
0.0
 40
0.0
 40
0.083154849
 40
0.1832545723
 40
0.2983804403
 40
0.426439946
 40
0.7096733645
 40
1.0
 40
1.0
 40
1.0
 40
1.0
 10
9.9126549958
 20
20.7480390226
 30
0.0
 10
9.9130264968
 20
20.7480534277
 30
0.0
 10
9.9138424733
 20
20.7481508914
 30
0.0
 10
9.9151473106
 20
20.7484336697
 30
0.0
 10
9.9166207063
 20
20.7488679975
 30
0.0
 10
9.9188333619
 20
20.7496740621
 30
0.0
 10
9.9216837077
 20
20.7509959603
 30
0.0
 10
9.9239242996
 20
20.7522485289
 30
0.0
 10
9.9250297208
 20
20.7529289204
 30
0.0
  0
SPLINE
  5
349
100
AcDbEntity
  8
0
100
AcDbSpline
 62
9
  6
CONTINUOUS
 70
0
 71
3
 72
9
 73
5
 74
0
 42
0.0000001
 43
0.0000001
 44
0.0000000001
 40
0.0
 40
0.0
 40
0.0
 40
0.0
 40
0.2506544321
 40
1.0
 40
1.0
 40
1.0
 40
1.0
 10
9.973123667
 20
20.6677008044
 30
0.0
 10
9.9693502016
 20
20.6749553237
 30
0.0
 10
9.9539729805
 20
20.7037304237
 30
0.0
 10
9.9375474443
 20
20.7319306398
 30
0.0
 10
9.9250297197
 20
20.7529289183
 30
0.0
  0
SPLINE
  5
34A
100
AcDbEntity
  8
0
100
AcDbSpline
 62
9
  6
CONTINUOUS
 70
0
 71
3
 72
15
 73
11
 74
0
 42
0.0000001
 43
0.0000001
 44
0.0000000001
 40
0.0
 40
0.0
 40
0.0
 40
0.0
 40
0.0997704455
 40
0.2105312925
 40
0.3309293777
 40
0.4589620235
 40
0.59237894
 40
0.7286771494
 40
0.8653253797
 40
1.0
 40
1.0
 40
1.0
 40
1.0
 10
10.0693281202
 20
20.6284132876
 30
0.0
 10
10.0664670173
 20
20.6303805613
 30
0.0
 10
10.0602684852
 20
20.6342992719
 30
0.0
 10
10.0501787541
 20
20.6398634774
 30
0.0
 10
10.0389269907
 20
20.6453212637
 30
0.0
 10
10.0267172974
 20
20.6505774641
 30
0.0
 10
10.0137836461
 20
20.6555201089
 30
0.0
 10
10.0003912816
 20
20.6600735347
 30
0.0
 10
9.9868038766
 20
20.6641600205
 30
0.0
 10
9.9776738512
 20
20.6665769695
 30
0.0
 10
9.9731236713
 20
20.6677008063
 30
0.0
  0
SPLINE
  5
34B
100
AcDbEntity
  8
0
100
AcDbSpline
 62
9
  6
CONTINUOUS
 70
0
 71
3
 72
16
 73
12
 74
0
 42
0.0000001
 43
0.0000001
 44
0.0000000001
 40
0.0
 40
0.0
 40
0.0
 40
0.0
 40
0.0439560505
 40
0.0912977074
 40
0.1955017153
 40
0.3112365284
 40
0.4369433653
 40
0.5708932431
 40
0.710923648
 40
0.854732489
 40
1.0
 40
1.0
 40
1.0
 40
1.0
 10
10.0341169772
 20
20.7983349655
 30
0.0
 10
10.0323857138
 20
20.7981369155
 30
0.0
 10
10.0288015562
 20
20.7976192684
 30
0.0
 10
10.0211906095
 20
20.796144757
 30
0.0
 10
10.0109253444
 20
20.7934758464
 30
0.0
 10
9.9979023909
 20
20.7891924032
 30
0.0
 10
9.9840292011
 20
20.7837892898
 30
0.0
 10
9.9695500397
 20
20.7773413352
 30
0.0
 10
9.954709815
 20
20.7699772788
 30
0.0
 10
9.939771469
 20
20.761831397
 30
0.0
 10
9.9299207826
 20
20.7559689768
 30
0.0
 10
9.9250297224
 20
20.7529289179
 30
0.0
  0
SPLINE
  5
34C
100
AcDbEntity
  8
0
100
AcDbSpline
 62
9
  6
CONTINUOUS
 70
0
 71
3
 72
13
 73
9
 74
0
 42
0.0000001
 43
0.0000001
 44
0.0000000001
 40
0.0
 40
0.0
 40
0.0
 40
0.0
 40
0.083109584
 40
0.1831619647
 40
0.2982468102
 40
0.4262792836
 40
0.7095276665
 40
1.0
 40
1.0
 40
1.0
 40
1.0
 10
9.8825157035
 20
20.7986366343
 30
0.0
 10
9.8828864681
 20
20.7986506707
 30
0.0
 10
9.8837009146
 20
20.7987472965
 30
0.0
 10
9.8850034331
 20
20.7990286774
 30
0.0
 10
9.8864744128
 20
20.7994613799
 30
0.0
 10
9.8886840054
 20
20.8002650241
 30
0.0
 10
9.8915313389
 20
20.8015838393
 30
0.0
 10
9.8937698717
 20
20.8028337998
 30
0.0
 10
9.8948745929
 20
20.8035129196
 30
0.0
  0
SPLINE
  5
34D
100
AcDbEntity
  8
0
100
AcDbSpline
 62
9
  6
CONTINUOUS
 70
0
 71
3
 72
9
 73
5
 74
0
 42
0.0000001
 43
0.0000001
 44
0.0000000001
 40
0.0
 40
0.0
 40
0.0
 40
0.0
 40
0.5043232203
 40
1.0
 40
1.0
 40
1.0
 40
1.0
 10
9.8825157303
 20
20.798636631
 30
0.0
 10
9.8799410058
 20
20.8029591609
 30
0.0
 10
9.8749183485
 20
20.811579338
 30
0.0
 10
9.8701128517
 20
20.8203249646
 30
0.0
 10
9.8678371095
 20
20.8247151728
 30
0.0
  0
SPLINE
  5
34E
100
AcDbEntity
  8
0
100
AcDbSpline
 62
9
  6
CONTINUOUS
 70
0
 71
3
 72
12
 73
8
 74
0
 42
0.0000001
 43
0.0000001
 44
0.0000000001
 40
0.0
 40
0.0
 40
0.0
 40
0.0
 40
0.0900937013
 40
0.1943203702
 40
0.4384056105
 40
0.7158803029
 40
1.0
 40
1.0
 40
1.0
 40
1.0
 10
9.8678371096
 20
20.8247151727
 30
0.0
 10
9.8682162685
 20
20.8246651904
 30
0.0
 10
9.8690430236
 20
20.8246244036
 30
0.0
 10
9.8709029051
 20
20.8247354499
 30
0.0
 10
9.8735216262
 20
20.8252512587
 30
0.0
 10
9.8767649001
 20
20.8263560544
 30
0.0
 10
9.8789393821
 20
20.8273441762
 30
0.0
 10
9.8800101689
 20
20.8278991524
 30
0.0
  0
LINE
  5
34F
100
AcDbEntity
  8
0
100
AcDbLine
 62
9
  6
CONTINUOUS
 10
9.8948745945
 20
20.8035129197
 11
9.8800101752
 21
20.8278991416
  0
SPLINE
  5
350
100
AcDbEntity
  8
0
100
AcDbSpline
 62
9
  6
CONTINUOUS
 70
0
 71
3
 72
16
 73
12
 74
0
 42
0.0000001
 43
0.0000001
 44
0.0000000001
 40
0.0
 40
0.0
 40
0.0
 40
0.0
 40
0.0433254206
 40
0.0905192776
 40
0.1959452897
 40
0.314817316
 40
0.4443661178
 40
0.5813394705
 40
0.7220197521
 40
0.8626616097
 40
1.0
 40
1.0
 40
1.0
 40
1.0
 10
10.003977912
 20
20.8487927962
 30
0.0
 10
10.0022713879
 20
20.8486019487
 30
0.0
 10
9.9987171821
 20
20.8480991217
 30
0.0
 10
9.9910859654
 20
20.8466463523
 30
0.0
 10
9.9806546729
 20
20.8439588254
 30
0.0
 10
9.9673295414
 20
20.8395614162
 30
0.0
 10
9.9530976675
 20
20.8339957174
 30
0.0
 10
9.9383622348
 20
20.8273995808
 30
0.0
 10
9.9235204425
 20
20.8200019737
 30
0.0
 10
9.9089667846
 20
20.8120238858
 30
0.0
 10
9.8994998353
 20
20.8063828356
 30
0.0
 10
9.8948745932
 20
20.8035129189
 30
0.0
  0
SPLINE
  5
351
100
AcDbEntity
  8
0
100
AcDbSpline
 62
9
  6
CONTINUOUS
 70
0
 71
3
 72
17
 73
13
 74
0
 42
0.0000001
 43
0.0000001
 44
0.0000000001
 40
0.0
 40
0.0
 40
0.0
 40
0.0
 40
0.0575340618
 40
0.1156377322
 40
0.174625133
 40
0.2345438761
 40
0.3567059307
 40
0.4817734285
 40
0.6088351881
 40
0.7375274731
 40
0.8677656537
 40
1.0
 40
1.0
 40
1.0
 40
1.0
 10
9.8519754373
 20
20.8884842028
 30
0.0
 10
9.8522665411
 20
20.8895576174
 30
0.0
 10
9.8531077477
 20
20.8916501707
 30
0.0
 10
9.8549206017
 20
20.8945111941
 30
0.0
 10
9.8571093529
 20
20.8971513151
 30
0.0
 10
9.8604486129
 20
20.9004106888
 30
0.0
 10
9.8652122168
 20
20.9039988039
 30
0.0
 10
9.8715587532
 20
20.907511499
 30
0.0
 10
9.8783895382
 20
20.91029932
 30
0.0
 10
9.8855877028
 20
20.9123232916
 30
0.0
 10
9.8930624425
 20
20.9135583113
 30
0.0
 10
9.8981408842
 20
20.9138320268
 30
0.0
 10
9.9006970978
 20
20.9138319076
 30
0.0
  0
SPLINE
  5
352
100
AcDbEntity
  8
0
100
AcDbSpline
 62
9
  6
CONTINUOUS
 70
0
 71
3
 72
11
 73
7
 74
0
 42
0.0000001
 43
0.0000001
 44
0.0000000001
 40
0.0
 40
0.0
 40
0.0
 40
0.0
 40
0.2010917223
 40
0.4251179162
 40
0.68766381
 40
1.0
 40
1.0
 40
1.0
 40
1.0
 10
9.9026989712
 20
20.9138318604
 30
0.0
 10
9.9022128392
 20
20.9138318604
 30
0.0
 10
9.9011796319
 20
20.9136540616
 30
0.0
 10
9.8996828903
 20
20.9128887096
 30
0.0
 10
9.8982004558
 20
20.9116315985
 30
0.0
 10
9.8973047636
 20
20.9105616363
 30
0.0
 10
9.8968541475
 20
20.9099557791
 30
0.0
  0
SPLINE
  5
353
100
AcDbEntity
  8
0
100
AcDbSpline
 62
9
  6
CONTINUOUS
 70
0
 71
3
 72
19
 73
15
 74
0
 42
0.0000001
 43
0.0000001
 44
0.0000000001
 40
0.0
 40
0.0
 40
0.0
 40
0.0
 40
0.0304255095
 40
0.0658098059
 40
0.1062397482
 40
0.1516954309
 40
0.2021133743
 40
0.2574038797
 40
0.3174009604
 40
0.3817369351
 40
0.521738384
 40
0.6739769478
 40
0.834726071
 40
1.0
 40
1.0
 40
1.0
 40
1.0
 10
9.8968541475
 20
20.9099557791
 30
0.0
 10
9.8963431097
 20
20.9092686843
 30
0.0
 10
9.8953356611
 20
20.9077092433
 30
0.0
 10
9.8939507581
 20
20.9050562031
 30
0.0
 10
9.8925854724
 20
20.9019256214
 30
0.0
 10
9.8912488568
 20
20.8983281886
 30
0.0
 10
9.8899494084
 20
20.89427579
 30
0.0
 10
9.8886967815
 20
20.8897824756
 30
0.0
 10
9.8875006592
 20
20.8848698279
 30
0.0
 10
9.8859414696
 20
20.8775947759
 30
0.0
 10
9.8841959932
 20
20.8677086327
 30
0.0
 10
9.8824566063
 20
20.855076396
 30
0.0
 10
9.8810425223
 20
20.8416886782
 30
0.0
 10
9.8803204038
 20
20.8325403299
 30
0.0
 10
9.880010177
 20
20.827899164
 30
0.0
  0
SPLINE
  5
354
100
AcDbEntity
  8
0
100
AcDbSpline
 62
9
  6
CONTINUOUS
 70
0
 71
3
 72
23
 73
19
 74
0
 42
0.0000001
 43
0.0000001
 44
0.0000000001
 40
0.0
 40
0.0
 40
0.0
 40
0.0
 40
0.1467919917
 40
0.2205419892
 40
0.2945080412
 40
0.3686230453
 40
0.4426059785
 40
0.5158826556
 40
0.5517205703
 40
0.5863335921
 40
0.6505417079
 40
0.6803834581
 40
0.7090699799
 40
0.7637784159
 40
0.8155454358
 40
0.8647947661
 40
0.9118029232
 40
1.0
 40
1.0
 40
1.0
 40
1.0
 10
9.8800101916
 20
20.8278991748
 30
0.0
 10
9.8778911277
 20
20.8305985405
 30
0.0
 10
9.8746927818
 20
20.8346426314
 30
0.0
 10
9.8703950043
 20
20.8400216903
 30
0.0
 10
9.867145085
 20
20.8440631324
 30
0.0
 10
9.8638796514
 20
20.8480990963
 30
0.0
 10
9.8606368981
 20
20.8521324746
 30
0.0
 10
9.8579841203
 20
20.8554925113
 30
0.0
 10
9.8559948593
 20
20.8582015804
 30
0.0
 10
9.8542621668
 20
20.8608316915
 30
0.0
 10
9.8529284097
 20
20.8635494533
 30
0.0
 10
9.8520326267
 20
20.8662783401
 30
0.0
 10
9.8513925649
 20
20.8688486325
 30
0.0
 10
9.8508603265
 20
20.8719686737
 30
0.0
 10
9.8505729049
 20
20.8756016483
 30
0.0
 10
9.8505547136
 20
20.8790655735
 30
0.0
 10
9.8508564986
 20
20.8833698819
 30
0.0
 10
9.851435822
 20
20.8864941594
 30
0.0
 10
9.8519754725
 20
20.8884841951
 30
0.0
  0
SPLINE
  5
355
100
AcDbEntity
  8
0
100
AcDbSpline
 62
9
  6
CONTINUOUS
 70
0
 71
3
 72
17
 73
13
 74
0
 42
0.0000001
 43
0.0000001
 44
0.0000000001
 40
0.0
 40
0.0
 40
0.0
 40
0.0
 40
0.0649851244
 40
0.1277693407
 40
0.1894133388
 40
0.2505646908
 40
0.3724759351
 40
0.4950012438
 40
0.6185770948
 40
0.7435009219
 40
0.8703404751
 40
1.0
 40
1.0
 40
1.0
 40
1.0
 10
9.8445471479
 20
20.8918246338
 30
0.0
 10
9.8445796241
 20
20.8931582981
 30
0.0
 10
9.8448898833
 20
20.8957797406
 30
0.0
 10
9.8459842688
 20
20.8995257174
 30
0.0
 10
9.8475671366
 20
20.903003712
 30
0.0
 10
9.8501994327
 20
20.9072940338
 30
0.0
 10
9.8543369168
 20
20.9120707584
 30
0.0
 10
9.8602595709
 20
20.916815617
 30
0.0
 10
9.8669172185
 20
20.9205787896
 30
0.0
 10
9.8741482694
 20
20.9233225555
 30
0.0
 10
9.8818250732
 20
20.9249959083
 30
0.0
 10
9.8870991519
 20
20.9253618367
 30
0.0
 10
9.8897608924
 20
20.9253616946
 30
0.0
  0
SPLINE
  5
356
100
AcDbEntity
  8
0
100
AcDbSpline
 62
9
  6
CONTINUOUS
 70
0
 71
3
 72
14
 73
10
 74
0
 42
0.0000001
 43
0.0000001
 44
0.0000000001
 40
0.0
 40
0.0
 40
0.0
 40
0.0
 40
0.1325397383
 40
0.2685629869
 40
0.4038969435
 40
0.5351195856
 40
0.6606470004
 40
0.7805632107
 40
1.0
 40
1.0
 40
1.0
 40
1.0
 10
9.8897611939
 20
20.9253616988
 30
0.0
 10
9.8898684948
 20
20.9246073857
 30
0.0
 10
9.8902019195
 20
20.9230937348
 30
0.0
 10
9.891006442
 20
20.9209084899
 30
0.0
 10
9.8921079408
 20
20.9188635267
 30
0.0
 10
9.893490081
 20
20.9170672902
 30
0.0
 10
9.8951415148
 20
20.9156410481
 30
0.0
 10
9.8974696818
 20
20.9143135917
 30
0.0
 10
9.8994360621
 20
20.9138318975
 30
0.0
 10
9.9006974977
 20
20.9138319076
 30
0.0
  0
SPLINE
  5
357
100
AcDbEntity
  8
0
100
AcDbSpline
 62
9
  6
CONTINUOUS
 70
0
 71
3
 72
19
 73
15
 74
0
 42
0.0000001
 43
0.0000001
 44
0.0000000001
 40
0.0
 40
0.0
 40
0.0
 40
0.0
 40
0.1422370452
 40
0.2841780139
 40
0.3548585479
 40
0.4251572572
 40
0.4947723554
 40
0.5629594353
 40
0.628627009
 40
0.690916321
 40
0.7497631631
 40
0.8053600777
 40
0.9077224643
 40
1.0
 40
1.0
 40
1.0
 40
1.0
 10
9.8678371095
 20
20.8247151728
 30
0.0
 10
9.8662619233
 20
20.8277539346
 30
0.0
 10
9.8631137315
 20
20.8338245555
 30
0.0
 10
9.8592019284
 20
20.8414151516
 30
0.0
 10
9.8561211941
 20
20.8474864099
 30
0.0
 10
9.8538609733
 20
20.8520222146
 30
0.0
 10
9.8516806614
 20
20.8565305816
 30
0.0
 10
9.8496609712
 20
20.8609919028
 30
0.0
 10
9.8479145708
 20
20.865379664
 30
0.0
 10
9.8465200225
 20
20.8696564346
 30
0.0
 10
9.8454656471
 20
20.8737797822
 30
0.0
 10
9.844505633
 20
20.8789108852
 30
0.0
 10
9.843975249
 20
20.8849281861
 30
0.0
 10
9.8442388236
 20
20.889625598
 30
0.0
 10
9.8445471479
 20
20.8918246338
 30
0.0
  0
SPLINE
  5
358
100
AcDbEntity
  8
0
100
AcDbSpline
 62
9
  6
CONTINUOUS
 70
0
 71
3
 72
9
 73
5
 74
0
 42
0.0000001
 43
0.0000001
 44
0.0000000001
 40
0.0
 40
0.0
 40
0.0
 40
0.0
 40
0.5003821314
 40
1.0
 40
1.0
 40
1.0
 40
1.0
 10
9.8445471479
 20
20.891824634
 30
0.0
 10
9.8456032658
 20
20.8909530423
 30
0.0
 10
9.8479863523
 20
20.8895330829
 30
0.0
 10
9.8506284136
 20
20.8887182578
 30
0.0
 10
9.8519754595
 20
20.8884841612
 30
0.0
  0
SPLINE
  5
359
100
AcDbEntity
  8
0
100
AcDbSpline
 62
9
  6
CONTINUOUS
 70
0
 71
3
 72
16
 73
12
 74
0
 42
0.0000001
 43
0.0000001
 44
0.0000000001
 40
0.0
 40
0.0
 40
0.0
 40
0.0
 40
0.1337359216
 40
0.1996045003
 40
0.2647131092
 40
0.3925197678
 40
0.517443347
 40
0.6399603987
 40
0.7607625919
 40
0.8806111532
 40
1.0
 40
1.0
 40
1.0
 40
1.0
 10
10.0039779122
 20
20.8487927959
 30
0.0
 10
10.0012628503
 20
20.85372553
 30
0.0
 10
9.9967898842
 20
20.8608691776
 30
0.0
 10
9.9900602379
 20
20.869759307
 30
0.0
 10
9.9829690295
 20
20.8780388974
 30
0.0
 10
9.973331908
 20
20.8873786591
 30
0.0
 10
9.9606240369
 20
20.8968422111
 30
0.0
 10
9.9470046515
 20
20.9043536476
 30
0.0
 10
9.9326625437
 20
20.9098053637
 30
0.0
 10
9.9178129082
 20
20.9130940207
 30
0.0
 10
9.9077255828
 20
20.9138318633
 30
0.0
 10
9.9026990471
 20
20.9138318604
 30
0.0
  0
SPLINE
  5
35A
100
AcDbEntity
  8
0
100
AcDbSpline
 62
9
  6
CONTINUOUS
 70
0
 71
3
 72
11
 73
7
 74
0
 42
0.0000001
 43
0.0000001
 44
0.0000000001
 40
0.0
 40
0.0
 40
0.0
 40
0.0
 40
0.2530997544
 40
0.5049598092
 40
0.7542394846
 40
1.0
 40
1.0
 40
1.0
 40
1.0
 10
10.0693281064
 20
20.6284131911
 30
0.0
 10
10.0712396215
 20
20.6431679912
 30
0.0
 10
10.0723148142
 20
20.6730182649
 30
0.0
 10
10.0664036808
 20
20.7171443951
 30
0.0
 10
10.0538229081
 20
20.7593830541
 30
0.0
 10
10.0413043881
 20
20.7858027122
 30
0.0
 10
10.0341178223
 20
20.7983350622
 30
0.0
  0
SPLINE
  5
35B
100
AcDbEntity
  8
0
100
AcDbSpline
 62
9
  6
CONTINUOUS
 70
0
 71
3
 72
11
 73
7
 74
0
 42
0.0000001
 43
0.0000001
 44
0.0000000001
 40
0.0
 40
0.0
 40
0.0
 40
0.0
 40
0.2189272441
 40
0.4552083545
 40
0.714121718
 40
1.0
 40
1.0
 40
1.0
 40
1.0
 10
9.700022878
 20
20.9253616946
 30
0.0
 10
9.7015590869
 20
20.9253618214
 30
0.0
 10
9.7047583122
 20
20.925037839
 30
0.0
 10
9.7096053436
 20
20.9236978316
 30
0.0
 10
9.7146526713
 20
20.9215278457
 30
0.0
 10
9.7179909377
 20
20.9196528554
 30
0.0
 10
9.7197019776
 20
20.9186057683
 30
0.0
  0
SPLINE
  5
35C
100
AcDbEntity
  8
0
100
AcDbSpline
 62
9
  6
CONTINUOUS
 70
0
 71
3
 72
11
 73
7
 74
0
 42
0.0000001
 43
0.0000001
 44
0.0000000001
 40
0.0
 40
0.0
 40
0.0
 40
0.0
 40
0.2151777161
 40
0.4520773563
 40
0.7128629396
 40
1.0
 40
1.0
 40
1.0
 40
1.0
 10
9.7197019776
 20
20.9186057683
 30
0.0
 10
9.7214855594
 20
20.9175142885
 30
0.0
 10
9.725143218
 20
20.9150739275
 30
0.0
 10
9.7306844133
 20
20.9109127921
 30
0.0
 10
9.7365954612
 20
20.9060910879
 30
0.0
 10
9.7406282707
 20
20.9026136418
 30
0.0
 10
9.7427257074
 20
20.9007733339
 30
0.0
  0
LINE
  5
35D
100
AcDbEntity
  8
0
100
AcDbLine
 62
9
  6
CONTINUOUS
 10
9.7427257074
 20
20.9007733339
 11
9.7526940748
 21
20.8918246338
  0
SPLINE
  5
35E
100
AcDbEntity
  8
0
100
AcDbSpline
 62
9
  6
CONTINUOUS
 70
0
 71
3
 72
10
 73
6
 74
0
 42
0.0000001
 43
0.0000001
 44
0.0000000001
 40
0.0
 40
0.0
 40
0.0
 40
0.0
 40
0.5373274835
 40
0.7749870068
 40
1.0
 40
1.0
 40
1.0
 40
1.0
 10
9.7526940723
 20
20.8918246361
 30
0.0
 10
9.7527510719
 20
20.8912733287
 30
0.0
 10
9.7529479362
 20
20.8904757044
 30
0.0
 10
9.7534830025
 20
20.8895872551
 30
0.0
 10
9.7538104698
 20
20.8892342762
 30
0.0
 10
9.7539857252
 20
20.8890821085
 30
0.0
  0
SPLINE
  5
35F
100
AcDbEntity
  8
0
100
AcDbSpline
 62
9
  6
CONTINUOUS
 70
0
 71
3
 72
14
 73
10
 74
0
 42
0.0000001
 43
0.0000001
 44
0.0000000001
 40
0.0
 40
0.0
 40
0.0
 40
0.0
 40
0.1237710485
 40
0.2524404596
 40
0.3827971158
 40
0.5122970387
 40
0.763899937
 40
0.8850036799
 40
1.0
 40
1.0
 40
1.0
 40
1.0
 10
9.7000227474
 20
20.9253616988
 30
0.0
 10
9.7001482063
 20
20.924604034
 30
0.0
 10
9.7005405227
 20
20.9230791427
 30
0.0
 10
9.7014819984
 20
20.9208891976
 30
0.0
 10
9.7027719154
 20
20.9188394992
 30
0.0
 10
9.7049057221
 20
20.9164690352
 30
0.0
 10
9.7076529337
 20
20.9148211346
 30
0.0
 10
9.7105701084
 20
20.9139837416
 30
0.0
 10
9.7120383023
 20
20.9138319027
 30
0.0
 10
9.712751838
 20
20.9138319076
 30
0.0
  0
LINE
  5
360
100
AcDbEntity
  8
0
100
AcDbLine
 62
9
  6
CONTINUOUS
 10
12.2719455626
 20
20.7986366363
 11
12.2425998167
 21
20.7493877833
  0
LINE
  5
361
100
AcDbEntity
  8
0
100
AcDbLine
 62
9
  6
CONTINUOUS
 10
12.2425998167
 20
20.7493877833
 11
12.2417961316
 21
20.748039026
  0
LINE
  5
362
100
AcDbEntity
  8
0
100
AcDbLine
 62
9
  6
CONTINUOUS
 10
12.1929684758
 20
20.6640241168
 11
12.1881837585
 21
20.655491094
  0
LINE
  5
363
100
AcDbEntity
  8
0
100
AcDbLine
 62
9
  6
CONTINUOUS
 10
12.1696649871
 20
20.6219224277
 11
12.1670111498
 21
20.6168463702
  0
SPLINE
  5
364
100
AcDbEntity
  8
0
100
AcDbSpline
 62
9
  6
CONTINUOUS
 70
0
 71
3
 72
22
 73
18
 74
0
 42
0.0000001
 43
0.0000001
 44
0.0000000001
 40
0.0
 40
0.0
 40
0.0
 40
0.0
 40
0.1094266302
 40
0.2114596837
 40
0.3036047076
 40
0.3863184017
 40
0.4604849249
 40
0.5269818072
 40
0.5867263132
 40
0.6407111683
 40
0.6900001767
 40
0.7357427946
 40
0.7791683797
 40
0.8215016245
 40
0.8638876799
 40
0.9073154463
 40
1.0
 40
1.0
 40
1.0
 40
1.0
 10
12.1670111498
 20
20.6168463702
 30
0.0
 10
12.1662177935
 20
20.6152909208
 30
0.0
 10
12.1647168722
 20
20.6122674302
 30
0.0
 10
12.1628675677
 20
20.6077834363
 30
0.0
 10
12.1615614978
 20
20.603556026
 30
0.0
 10
12.1607360947
 20
20.5996633451
 30
0.0
 10
12.1603340048
 20
20.5961157131
 30
0.0
 10
12.1603100534
 20
20.5929114051
 30
0.0
 10
12.1606263719
 20
20.5900455958
 30
0.0
 10
12.1612518126
 20
20.5875119336
 30
0.0
 10
12.1621606056
 20
20.5853041182
 30
0.0
 10
12.1633309976
 20
20.583417523
 30
0.0
 10
12.1647408224
 20
20.581848179
 30
0.0
 10
12.1663661824
 20
20.5805897778
 30
0.0
 10
12.1681851908
 20
20.5796339896
 30
0.0
 10
12.1708962167
 20
20.5787295336
 30
0.0
 10
12.1730881791
 20
20.5785066203
 30
0.0
 10
12.174567122
 20
20.5785072301
 30
0.0
  0
SPLINE
  5
365
100
AcDbEntity
  8
0
100
AcDbSpline
 62
9
  6
CONTINUOUS
 70
0
 71
3
 72
9
 73
5
 74
0
 42
0.0000001
 43
0.0000001
 44
0.0000000001
 40
0.0
 40
0.0
 40
0.0
 40
0.0
 40
0.4757456675
 40
1.0
 40
1.0
 40
1.0
 40
1.0
 10
9.9158778348
 20
20.6374063926
 30
0.0
 10
9.9151205613
 20
20.6358331663
 30
0.0
 10
9.913212053
 20
20.6326759409
 30
0.0
 10
9.9108771378
 20
20.6298312149
 30
0.0
 10
9.9095766275
 20
20.6284132786
 30
0.0
  0
SPLINE
  5
366
100
AcDbEntity
  8
0
100
AcDbSpline
 62
9
  6
CONTINUOUS
 70
0
 71
3
 72
9
 73
5
 74
0
 42
0.0000001
 43
0.0000001
 44
0.0000000001
 40
0.0
 40
0.0
 40
0.0
 40
0.0
 40
0.2435769587
 40
1.0
 40
1.0
 40
1.0
 40
1.0
 10
9.7547450936
 20
20.890060818
 30
0.0
 10
9.7556690362
 20
20.8892569545
 30
0.0
 10
9.759436003
 20
20.8859267492
 30
0.0
 10
9.7630886277
 20
20.8824663792
 30
0.0
 10
9.7657715909
 20
20.8797707498
 30
0.0
  0
SPLINE
  5
367
100
AcDbEntity
  8
0
100
AcDbSpline
 62
9
  6
CONTINUOUS
 70
0
 71
3
 72
12
 73
8
 74
0
 42
0.0000001
 43
0.0000001
 44
0.0000000001
 40
0.0
 40
0.0
 40
0.0
 40
0.0
 40
0.2483319298
 40
0.3748281068
 40
0.501077565
 40
0.7508898407
 40
1.0
 40
1.0
 40
1.0
 40
1.0
 10
9.7657715909
 20
20.8797707498
 30
0.0
 10
9.7697240241
 20
20.8757996573
 30
0.0
 10
9.7754425431
 20
20.8695430803
 30
0.0
 10
9.7823299885
 20
20.8605732894
 30
0.0
 10
9.7888900603
 20
20.8513231482
 30
0.0
 10
9.7966926887
 20
20.8395714589
 30
0.0
 10
9.8029379912
 20
20.8302066056
 30
0.0
 10
9.8060302112
 20
20.8255133618
 30
0.0
  0
LINE
  5
368
100
AcDbEntity
  8
0
100
AcDbLine
 62
9
  6
CONTINUOUS
 10
9.8060302112
 20
20.8255133618
 11
9.8065557761
 21
20.8247151617
  0
SPLINE
  5
369
100
AcDbEntity
  8
0
100
AcDbSpline
 62
9
  6
CONTINUOUS
 70
0
 71
3
 72
11
 73
7
 74
0
 42
0.0000001
 43
0.0000001
 44
0.0000000001
 40
0.0
 40
0.0
 40
0.0
 40
0.0
 40
0.3369581171
 40
0.6106193864
 40
0.8258566547
 40
1.0
 40
1.0
 40
1.0
 40
1.0
 10
9.8065557693
 20
20.824715172
 30
0.0
 10
9.8063895428
 20
20.8246844308
 30
0.0
 10
9.806085263
 20
20.8246420936
 30
0.0
 10
9.8056690713
 20
20.8246451867
 30
0.0
 10
9.8053406609
 20
20.8247213567
 30
0.0
 10
9.8051763223
 20
20.8248437967
 30
0.0
 10
9.8051252987
 20
20.8249147129
 30
0.0
  0
SPLINE
  5
36A
100
AcDbEntity
  8
0
100
AcDbSpline
 62
9
  6
CONTINUOUS
 70
0
 71
3
 72
10
 73
6
 74
0
 42
0.0000001
 43
0.0000001
 44
0.0000000001
 40
0.0
 40
0.0
 40
0.0
 40
0.0
 40
0.5020701354
 40
0.7517044102
 40
1.0
 40
1.0
 40
1.0
 40
1.0
 10
9.8529796548
 20
20.7480390222
 30
0.0
 10
9.8611452939
 20
20.7343356091
 30
0.0
 10
9.8732768584
 20
20.7137623125
 30
0.0
 10
9.8891952729
 20
20.686265425
 30
0.0
 10
9.8970280415
 20
20.6725199685
 30
0.0
 10
9.9008962324
 20
20.6656445383
 30
0.0
  0
LINE
  5
36B
100
AcDbEntity
  8
0
100
AcDbLine
 62
9
  6
CONTINUOUS
 10
9.9008962324
 20
20.6656445383
 11
9.9018193565
 21
20.6640020712
  0
SPLINE
  5
36C
100
AcDbEntity
  8
0
100
AcDbSpline
 62
9
  6
CONTINUOUS
 70
0
 71
3
 72
11
 73
7
 74
0
 42
0.0000001
 43
0.0000001
 44
0.0000000001
 40
0.0
 40
0.0
 40
0.0
 40
0.0
 40
0.2934989713
 40
0.5531093042
 40
0.7850645777
 40
1.0
 40
1.0
 40
1.0
 40
1.0
 10
9.9018193565
 20
20.6640020712
 30
0.0
 10
9.9015974935
 20
20.6640343668
 30
0.0
 10
9.9011823302
 20
20.6641226905
 30
0.0
 10
9.9006228414
 20
20.6643489677
 30
0.0
 10
9.9001751831
 20
20.6646599531
 30
0.0
 10
9.8999564593
 20
20.6649300547
 30
0.0
 10
9.8998750672
 20
20.6650726477
 30
0.0
  0
LINE
  5
36D
100
AcDbEntity
  8
0
100
AcDbLine
 62
9
  6
CONTINUOUS
 10
9.9018193565
 20
20.6640020712
 11
9.906596155
 21
20.6554837746
  0
LINE
  5
36E
100
AcDbEntity
  8
0
100
AcDbLine
 62
9
  6
CONTINUOUS
 10
9.9250982197
 20
20.6219461315
 11
9.927751182
 21
20.6168728295
  0
SPLINE
  5
36F
100
AcDbEntity
  8
0
100
AcDbSpline
 62
9
  6
CONTINUOUS
 70
0
 71
3
 72
22
 73
18
 74
0
 42
0.0000001
 43
0.0000001
 44
0.0000000001
 40
0.0
 40
0.0
 40
0.0
 40
0.0
 40
0.1094250267
 40
0.211475916
 40
0.3036438978
 40
0.3863748112
 40
0.4605541977
 40
0.5270598999
 40
0.586808501
 40
0.6407938851
 40
0.6900801025
 40
0.7358169194
 40
0.7792335395
 40
0.8215559535
 40
0.8639295754
 40
0.9073439369
 40
1.0
 40
1.0
 40
1.0
 40
1.0
 10
9.927751182
 20
20.6168728295
 30
0.0
 10
9.9285452818
 20
20.6153165796
 30
0.0
 10
9.9300480466
 20
20.6122914033
 30
0.0
 10
9.9319005359
 20
20.6078048263
 30
0.0
 10
9.933209591
 20
20.603574509
 30
0.0
 10
9.9340372097
 20
20.5996789198
 30
0.0
 10
9.934441052
 20
20.5961286467
 30
0.0
 10
9.9344663199
 20
20.5929219618
 30
0.0
 10
9.934150965
 20
20.5900540392
 30
0.0
 10
9.9335261272
 20
20.5875185437
 30
0.0
 10
9.9326177925
 20
20.5853090898
 30
0.0
 10
9.931447584
 20
20.5834210936
 30
0.0
 10
9.9300376923
 20
20.5818505997
 30
0.0
 10
9.9284120362
 20
20.5805913385
 30
0.0
 10
9.9265925916
 20
20.5796349088
 30
0.0
 10
9.9238808372
 20
20.5787298073
 30
0.0
 10
9.9216881939
 20
20.578506652
 30
0.0
 10
9.920208794
 20
20.5785072301
 30
0.0
  0
SPLINE
  5
370
100
AcDbEntity
  8
0
100
AcDbSpline
 62
9
  6
CONTINUOUS
 70
0
 71
3
 72
9
 73
5
 74
0
 42
0.0000001
 43
0.0000001
 44
0.0000000001
 40
0.0
 40
0.0
 40
0.0
 40
0.0
 40
0.5017067532
 40
1.0
 40
1.0
 40
1.0
 40
1.0
 10
9.9202062065
 20
20.5785074991
 30
0.0
 10
9.919464405
 20
20.579685104
 30
0.0
 10
9.9183529061
 20
20.5822726731
 30
0.0
 10
9.9179497157
 20
20.585054617
 30
0.0
 10
9.9179498493
 20
20.5864369174
 30
0.0
  0
SPLINE
  5
371
100
AcDbEntity
  8
0
100
AcDbSpline
 62
9
  6
CONTINUOUS
 70
0
 71
3
 72
27
 73
23
 74
0
 42
0.0000001
 43
0.0000001
 44
0.0000000001
 40
0.0
 40
0.0
 40
0.0
 40
0.0
 40
0.0620974006
 40
0.1237259368
 40
0.1835754502
 40
0.2397583284
 40
0.2906386908
 40
0.3366573242
 40
0.3792546779
 40
0.4190051828
 40
0.4910714566
 40
0.554613993
 40
0.6108339956
 40
0.6608576928
 40
0.7059951005
 40
0.7476408849
 40
0.7872761556
 40
0.826402999
 40
0.8663325165
 40
0.9080934917
 40
0.9524744479
 40
1.0
 40
1.0
 40
1.0
 40
1.0
 10
9.9233038773
 20
20.6227635767
 30
0.0
 10
9.9237640678
 20
20.6218973005
 30
0.0
 10
9.9246824523
 20
20.6201720691
 30
0.0
 10
9.9260565018
 20
20.6176184098
 30
0.0
 10
9.9273663625
 20
20.6151363616
 30
0.0
 10
9.9285362517
 20
20.6127726819
 30
0.0
 10
9.9294871629
 20
20.6105473892
 30
0.0
 10
9.9302134449
 20
20.6084654612
 30
0.0
 10
9.9307747108
 20
20.6065159006
 30
0.0
 10
9.9313226992
 20
20.604138139
 30
0.0
 10
9.9317325924
 20
20.6013925136
 30
0.0
 10
9.9318368932
 20
20.5983570521
 30
0.0
 10
9.9315867838
 20
20.5956782234
 30
0.0
 10
9.9310121951
 20
20.593346674
 30
0.0
 10
9.9301441616
 20
20.5913548989
 30
0.0
 10
9.9290066248
 20
20.5896975107
 30
0.0
 10
9.9276223269
 20
20.5883730781
 30
0.0
 10
9.9260188401
 20
20.5873770077
 30
0.0
 10
9.9242242049
 20
20.586697115
 30
0.0
 10
9.9222606896
 20
20.5863175223
 30
0.0
 10
9.920145132
 20
20.5862237768
 30
0.0
 10
9.9186943089
 20
20.5863385134
 30
0.0
 10
9.9179497711
 20
20.5864348027
 30
0.0
  0
SPLINE
  5
372
100
AcDbEntity
  8
0
100
AcDbSpline
 62
9
  6
CONTINUOUS
 70
0
 71
3
 72
10
 73
6
 74
0
 42
0.0000001
 43
0.0000001
 44
0.0000000001
 40
0.0
 40
0.0
 40
0.0
 40
0.0
 40
0.240240028
 40
0.4879368554
 40
1.0
 40
1.0
 40
1.0
 40
1.0
 10
9.9179484729
 20
20.5864369174
 30
0.0
 10
9.9170462177
 20
20.5897455713
 30
0.0
 10
9.9153614892
 20
20.5965064509
 30
0.0
 10
9.9124037095
 20
20.6104737562
 30
0.0
 10
9.9106256565
 20
20.6211790633
 30
0.0
 10
9.9095766354
 20
20.6284131911
 30
0.0
  0
LINE
  5
373
100
AcDbEntity
  8
0
100
AcDbLine
 62
9
  6
CONTINUOUS
 10
9.8529796839
 20
20.7480390268
 11
9.8521752997
 21
20.7493889575
  0
LINE
  5
374
100
AcDbEntity
  8
0
100
AcDbLine
 62
9
  6
CONTINUOUS
 10
9.8521752997
 20
20.7493889575
 11
9.8228302504
 21
20.7986366415
  0
LINE
  5
375
100
AcDbEntity
  8
0
100
AcDbLine
 62
9
  6
CONTINUOUS
 10
9.822830221
 20
20.7986366367
 11
9.8220235312
 21
20.7999888655
  0
LINE
  5
376
100
AcDbEntity
  8
0
100
AcDbLine
 62
9
  6
CONTINUOUS
 10
9.8119476548
 20
20.8163759692
 11
9.8065557761
 21
20.8247151617
  0
LINE
  5
377
100
AcDbEntity
  8
0
100
AcDbLine
 62
9
  6
CONTINUOUS
 10
9.882515713
 20
20.7986366358
 11
9.9126550014
 21
20.7480390302
  0
SPLINE
  5
378
100
AcDbEntity
  8
0
100
AcDbSpline
 62
9
  6
CONTINUOUS
 70
0
 71
3
 72
25
 73
21
 74
0
 42
0.0000001
 43
0.0000001
 44
0.0000000001
 40
0.0
 40
0.0
 40
0.0
 40
0.0
 40
0.0691999547
 40
0.1384437609
 40
0.2077533462
 40
0.2771650754
 40
0.3467494581
 40
0.3816520413
 40
0.4166742311
 40
0.451934604
 40
0.4874314023
 40
0.5229370714
 40
0.5580351678
 40
0.6261005552
 40
0.6906470127
 40
0.7513155122
 40
0.8080632472
 40
0.8610101485
 40
0.9104253485
 40
1.0
 40
1.0
 40
1.0
 40
1.0
 10
9.9641764634
 20
20.6640020727
 30
0.0
 10
9.965825961
 20
20.6614112181
 30
0.0
 10
9.969128519
 20
20.6562294683
 30
0.0
 10
9.9740957872
 20
20.6484607995
 30
0.0
 10
9.9790848511
 20
20.6406949203
 30
0.0
 10
9.9841086381
 20
20.6329334557
 30
0.0
 10
9.9883376752
 20
20.6264766892
 30
0.0
 10
9.9917767507
 20
20.6213275142
 30
0.0
 10
9.9944027325
 20
20.6174673752
 30
0.0
 10
9.9971199955
 20
20.613638036
 30
0.0
 10
10.0000027144
 20
20.6099023105
 30
0.0
 10
10.003105423
 20
20.6063558834
 30
0.0
 10
10.0074002974
 20
20.6019444276
 30
0.0
 10
10.0129715872
 20
20.5969907081
 30
0.0
 10
10.0198598037
 20
20.5918608161
 30
0.0
 10
10.0267351744
 20
20.5876040023
 30
0.0
 10
10.0334955492
 20
20.584195443
 30
0.0
 10
10.0400799968
 20
20.5816088384
 30
0.0
 10
10.0482817563
 20
20.5792800105
 30
0.0
 10
10.0544688193
 20
20.5785061347
 30
0.0
 10
10.0584445113
 20
20.5785072301
 30
0.0
  0
LINE
  5
379
100
AcDbEntity
  8
0
100
AcDbLine
 62
9
  6
CONTINUOUS
 10
10.9877126135
 20
20.7480390268
 11
10.9877024024
 21
20.7986366327
  0
SPLINE
  5
37A
100
AcDbEntity
  8
0
100
AcDbSpline
 62
9
  6
CONTINUOUS
 70
0
 71
3
 72
9
 73
5
 74
0
 42
0.0000001
 43
0.0000001
 44
0.0000000001
 40
0.0
 40
0.0
 40
0.0
 40
0.0
 40
0.5017063806
 40
1.0
 40
1.0
 40
1.0
 40
1.0
 10
12.1745697168
 20
20.5785074986
 30
0.0
 10
12.1753115167
 20
20.579685103
 30
0.0
 10
12.1764230152
 20
20.5822726714
 30
0.0
 10
12.1768262032
 20
20.5850546161
 30
0.0
 10
12.1768260653
 20
20.5864369173
 30
0.0
  0
SPLINE
  5
37B
100
AcDbEntity
  8
0
100
AcDbSpline
 62
9
  6
CONTINUOUS
 70
0
 71
3
 72
11
 73
7
 74
0
 42
0.0000001
 43
0.0000001
 44
0.0000000001
 40
0.0
 40
0.0
 40
0.0
 40
0.0
 40
0.2908730547
 40
0.5501183698
 40
0.7830426275
 40
1.0
 40
1.0
 40
1.0
 40
1.0
 10
12.1929561041
 20
20.664002021
 30
0.0
 10
12.1931761449
 20
20.6640340365
 30
0.0
 10
12.193589378
 20
20.6641216061
 30
0.0
 10
12.1941484227
 20
20.664345837
 30
0.0
 10
12.1945991772
 20
20.6646566813
 30
0.0
 10
12.1948197022
 20
20.6649289185
 30
0.0
 10
12.1949015326
 20
20.6650731786
 30
0.0
  0
LINE
  5
37C
100
AcDbEntity
  8
0
100
AcDbLine
 62
9
  6
CONTINUOUS
 10
12.1929684758
 20
20.6640241168
 11
12.193887395
 21
20.665651558
  0
SPLINE
  5
37D
100
AcDbEntity
  8
0
100
AcDbSpline
 62
9
  6
CONTINUOUS
 70
0
 71
3
 72
11
 73
7
 74
0
 42
0.0000001
 43
0.0000001
 44
0.0000000001
 40
0.0
 40
0.0
 40
0.0
 40
0.0
 40
0.2483240863
 40
0.4353949331
 40
0.623106332
 40
1.0
 40
1.0
 40
1.0
 40
1.0
 10
12.193887395
 20
20.665651558
 30
0.0
 10
12.1977678062
 20
20.6725202004
 30
0.0
 10
12.2046064736
 20
20.6845435149
 30
0.0
 10
12.2145014786
 20
20.7016884626
 30
0.0
 10
12.2265401318
 20
20.7223117822
 30
0.0
 10
12.2356623883
 20
20.7377559782
 30
0.0
 10
12.2417961608
 20
20.7480390214
 30
0.0
  0
LINE
  5
37E
100
AcDbEntity
  8
0
100
AcDbLine
 62
9
  6
CONTINUOUS
 10
12.271945592
 20
20.7986366315
 11
12.2727530509
 21
20.7999890054
  0
SPLINE
  5
37F
100
AcDbEntity
  8
0
100
AcDbSpline
 62
9
  6
CONTINUOUS
 70
0
 71
3
 72
11
 73
7
 74
0
 42
0.0000001
 43
0.0000001
 44
0.0000000001
 40
0.0
 40
0.0
 40
0.0
 40
0.0
 40
0.3378081899
 40
0.6114260245
 40
0.82626758
 40
1.0
 40
1.0
 40
1.0
 40
1.0
 10
12.2882200472
 20
20.8247151727
 30
0.0
 10
12.2883866608
 20
20.8246843605
 30
0.0
 10
12.2886912997
 20
20.824642028
 30
0.0
 10
12.2891076344
 20
20.8246454931
 30
0.0
 10
12.2894354477
 20
20.8247221838
 30
0.0
 10
12.2895991664
 20
20.8248445531
 30
0.0
 10
12.2896500757
 20
20.8249152768
 30
0.0
  0
LINE
  5
380
100
AcDbEntity
  8
0
100
AcDbLine
 62
9
  6
CONTINUOUS
 10
12.2882200472
 20
20.8247151728
 11
12.2887482159
 21
20.8255127279
  0
LINE
  5
381
100
AcDbEntity
  8
0
100
AcDbLine
 62
9
  6
CONTINUOUS
 10
12.2887482159
 20
20.8255127279
 11
12.2950395926
 21
20.8350066299
  0
SPLINE
  5
382
100
AcDbEntity
  8
0
100
AcDbSpline
 62
9
  6
CONTINUOUS
 70
0
 71
3
 72
15
 73
11
 74
0
 42
0.0000001
 43
0.0000001
 44
0.0000000001
 40
0.0
 40
0.0
 40
0.0
 40
0.0
 40
0.1251100297
 40
0.2504187298
 40
0.3761173312
 40
0.5025169669
 40
0.6295235117
 40
0.7556472894
 40
0.8794241809
 40
1.0
 40
1.0
 40
1.0
 40
1.0
 10
12.2950395926
 20
20.8350066299
 30
0.0
 10
12.2964582255
 20
20.8371439954
 30
0.0
 10
12.2993010658
 20
20.841419918
 30
0.0
 10
12.3035960415
 20
20.8478254033
 30
0.0
 10
12.30794933
 20
20.8542234159
 30
0.0
 10
12.3124307229
 20
20.8605761589
 30
0.0
 10
12.3171739932
 20
20.8667496659
 30
0.0
 10
12.3221979091
 20
20.8726263232
 30
0.0
 10
12.327378991
 20
20.8781843043
 30
0.0
 10
12.3309371289
 20
20.8817137716
 30
0.0
 10
12.3327241802
 20
20.8834222617
 30
0.0
  0
SPLINE
  5
383
100
AcDbEntity
  8
0
100
AcDbSpline
 62
9
  6
CONTINUOUS
 70
0
 71
3
 72
10
 73
6
 74
0
 42
0.0000001
 43
0.0000001
 44
0.0000000001
 40
0.0
 40
0.0
 40
0.0
 40
0.0
 40
0.5332047888
 40
0.7721534997
 40
1.0
 40
1.0
 40
1.0
 40
1.0
 10
12.3420817434
 20
20.8918246361
 30
0.0
 10
12.3420251356
 20
20.8912771197
 30
0.0
 10
12.3418285154
 20
20.8904822549
 30
0.0
 10
12.3412953544
 20
20.8895917538
 30
0.0
 10
12.340965171
 20
20.8892347609
 30
0.0
 10
12.3407875568
 20
20.8890805643
 30
0.0
  0
LINE
  5
384
100
AcDbEntity
  8
0
100
AcDbLine
 62
9
  6
CONTINUOUS
 10
12.3420817407
 20
20.8918246338
 11
12.3520507745
 21
20.9007738338
  0
SPLINE
  5
385
100
AcDbEntity
  8
0
100
AcDbSpline
 62
9
  6
CONTINUOUS
 70
0
 71
3
 72
11
 73
7
 74
0
 42
0.0000001
 43
0.0000001
 44
0.0000000001
 40
0.0
 40
0.0
 40
0.0
 40
0.0
 40
0.2871457499
 40
0.5479310625
 40
0.7848282695
 40
1.0
 40
1.0
 40
1.0
 40
1.0
 10
12.3520507745
 20
20.9007738338
 30
0.0
 10
12.3541485658
 20
20.9026144566
 30
0.0
 10
12.3581819438
 20
20.9060925092
 30
0.0
 10
12.3640939834
 20
20.9109147776
 30
0.0
 10
12.3696359609
 20
20.9150763416
 30
0.0
 10
12.3732941626
 20
20.9175168551
 30
0.0
 10
12.3750780125
 20
20.9186083448
 30
0.0
  0
SPLINE
  5
386
100
AcDbEntity
  8
0
100
AcDbSpline
 62
9
  6
CONTINUOUS
 70
0
 71
3
 72
11
 73
7
 74
0
 42
0.0000001
 43
0.0000001
 44
0.0000000001
 40
0.0
 40
0.0
 40
0.0
 40
0.0
 40
0.2858689854
 40
0.5447803227
 40
0.7810654016
 40
1.0
 40
1.0
 40
1.0
 40
1.0
 10
12.3750780125
 20
20.9186083448
 30
0.0
 10
12.3767886637
 20
20.9196550462
 30
0.0
 10
12.3801262221
 20
20.9215293133
 30
0.0
 10
12.3851724558
 20
20.923698459
 30
0.0
 10
12.3900184707
 20
20.9250379722
 30
0.0
 10
12.3932170299
 20
20.9253618248
 30
0.0
 10
12.3947529322
 20
20.9253616946
 30
0.0
  0
SPLINE
  5
387
100
AcDbEntity
  8
0
100
AcDbSpline
 62
9
  6
CONTINUOUS
 70
0
 71
3
 72
14
 73
10
 74
0
 42
0.0000001
 43
0.0000001
 44
0.0000000001
 40
0.0
 40
0.0
 40
0.0
 40
0.0
 40
0.1237710723
 40
0.2524404952
 40
0.3827971524
 40
0.5122970692
 40
0.7638999546
 40
0.8850036893
 40
1.0
 40
1.0
 40
1.0
 40
1.0
 10
12.3947530212
 20
20.9253616988
 30
0.0
 10
12.3946275624
 20
20.924604034
 30
0.0
 10
12.3942352464
 20
20.9230791425
 30
0.0
 10
12.3932937713
 20
20.9208891973
 30
0.0
 10
12.392003855
 20
20.9188394988
 30
0.0
 10
12.3898700488
 20
20.9164690349
 30
0.0
 10
12.3871228379
 20
20.9148211345
 30
0.0
 10
12.3842056638
 20
20.9139837416
 30
0.0
 10
12.3827374702
 20
20.9138319027
 30
0.0
 10
12.3820239346
 20
20.9138319076
 30
0.0
  0
LINE
  5
388
100
AcDbEntity
  8
0
100
AcDbLine
 62
7
  6
CONTINUOUS
 10
10.5759600473
 20
16.6376235929
 11
10.5749964817
 21
16.6373360923
  0
SPLINE
  5
389
100
AcDbEntity
  8
0
100
AcDbSpline
 62
7
  6
CONTINUOUS
 70
0
 71
3
 72
8
 73
4
 74
0
 42
0.0000001
 43
0.0000001
 44
0.0000000001
 40
0.0
 40
0.0
 40
0.0
 40
0.0
 40
1.0
 40
1.0
 40
1.0
 40
1.0
 10
10.5749964817
 20
16.6373360923
 30
0.0
 10
10.5749931346
 20
16.6373339618
 30
0.0
 10
10.5749897875
 20
16.6373318312
 30
0.0
 10
10.5749864403
 20
16.6373297007
 30
0.0
  0
LINE
  5
38A
100
AcDbEntity
  8
0
100
AcDbLine
 62
7
  6
CONTINUOUS
 10
10.5749864403
 20
16.6373297007
 11
10.5748895237
 21
16.637201848
  0
SPLINE
  5
38B
100
AcDbEntity
  8
0
100
AcDbSpline
 62
7
  6
CONTINUOUS
 70
0
 71
3
 72
14
 73
10
 74
0
 42
0.0000001
 43
0.0000001
 44
0.0000000001
 40
0.0
 40
0.0
 40
0.0
 40
0.0
 40
0.1098905703
 40
0.2259587365
 40
0.3473269773
 40
0.4730707565
 40
0.6022172954
 40
0.7337868001
 40
1.0
 40
1.0
 40
1.0
 40
1.0
 10
11.2990469992
 20
-4.5981664446
 30
0.0
 10
11.2894958461
 20
-4.5986180049
 30
0.0
 10
11.2698552393
 20
-4.5995175297
 30
0.0
 10
11.2396622126
 20
-4.600833841
 30
0.0
 10
11.2080885773
 20
-4.6021517015
 30
0.0
 10
11.17537607
 20
-4.603470885
 30
0.0
 10
11.1417755977
 20
-4.6047993967
 30
0.0
 10
11.0959612293
 20
-4.6065883038
 30
0.0
 10
11.0613748321
 20
-4.6079181714
 30
0.0
 10
11.0382285222
 20
-4.60881814
 30
0.0
  0
LINE
  5
38C
100
AcDbEntity
  8
0
100
AcDbLine
 62
7
  6
CONTINUOUS
 10
11.435075837
 20
-4.5988506661
 11
11.4323622794
 21
-4.5994426426
  0
SPLINE
  5
38D
100
AcDbEntity
  8
0
100
AcDbSpline
 62
7
  6
CONTINUOUS
 70
0
 71
3
 72
23
 73
19
 74
0
 42
0.0000001
 43
0.0000001
 44
0.0000000001
 40
0.0
 40
0.0
 40
0.0
 40
0.0
 40
0.0065905589
 40
0.0152202053
 40
0.0258687813
 40
0.0385142358
 40
0.0531336839
 40
0.0697038155
 40
0.1085960809
 40
0.1548679212
 40
0.2080683508
 40
0.2677404001
 40
0.3334255381
 40
0.4045906434
 40
0.4805878278
 40
0.6444472901
 40
0.8195717087
 40
1.0
 40
1.0
 40
1.0
 40
1.0
 10
11.4323622794
 20
-4.5994426426
 30
0.0
 10
11.4315038573
 20
-4.5995582848
 30
0.0
 10
11.4295145639
 20
-4.5997732303
 30
0.0
 10
11.4261266552
 20
-4.6000587296
 30
0.0
 10
11.4219407359
 20
-4.6003462904
 30
0.0
 10
11.4169662434
 20
-4.6006355631
 30
0.0
 10
11.4112124078
 20
-4.6009257523
 30
0.0
 10
11.4020108639
 20
-4.6013357492
 30
0.0
 10
11.3886494751
 20
-4.601836167
 30
0.0
 10
11.3704737529
 20
-4.6024127546
 30
0.0
 10
11.3495658836
 20
-4.60299167
 30
0.0
 10
11.3261057793
 20
-4.6035723116
 30
0.0
 10
11.3002840003
 20
-4.6041536986
 30
0.0
 10
11.272316173
 20
-4.6047354736
 30
0.0
 10
11.2314473196
 20
-4.6055322024
 30
0.0
 10
11.1769164484
 20
-4.6065124726
 30
0.0
 10
11.1086614403
 20
-4.6076633753
 30
0.0
 10
11.0619385363
 20
-4.6084288535
 30
0.0
 10
11.0382286094
 20
-4.6088181385
 30
0.0
  0
SPLINE
  5
38E
100
AcDbEntity
  8
0
100
AcDbSpline
 62
9
  6
CONTINUOUS
 70
0
 71
3
 72
19
 73
15
 74
0
 42
0.0000001
 43
0.0000001
 44
0.0000000001
 40
0.0
 40
0.0
 40
0.0
 40
0.0
 40
0.1345107642
 40
0.201453418
 40
0.267971253
 40
0.3339101283
 40
0.3991702921
 40
0.4636828728
 40
0.5273680027
 40
0.590135598
 40
0.6519150323
 40
0.7723839052
 40
0.8885105925
 40
1.0
 40
1.0
 40
1.0
 40
1.0
 10
11.047387908
 20
16.8818318954
 30
0.0
 10
11.0625458477
 20
16.8818329528
 30
0.0
 10
11.0852633221
 20
16.8828466917
 30
0.0
 10
11.1152867865
 20
16.8861387671
 30
0.0
 10
11.1375053857
 20
16.8895423997
 30
0.0
 10
11.1593697455
 20
16.8938636517
 30
0.0
 10
11.1808109477
 20
16.8990567105
 30
0.0
 10
11.2017750851
 20
16.9050597999
 30
0.0
 10
11.2222128141
 20
16.9118158308
 30
0.0
 10
11.2420782022
 20
16.9192689596
 30
0.0
 10
11.2675363688
 20
16.9299714534
 30
0.0
 10
11.2977805685
 20
16.9447399669
 30
0.0
 10
11.3317328971
 20
16.9644425345
 30
0.0
 10
11.3530152328
 20
16.9787984753
 30
0.0
 10
11.3631980678
 20
16.9861575401
 30
0.0
  0
SPLINE
  5
38F
100
AcDbEntity
  8
0
100
AcDbSpline
 62
9
  6
CONTINUOUS
 70
0
 71
3
 72
28
 73
24
 74
0
 42
0.0000001
 43
0.0000001
 44
0.0000000001
 40
0.0
 40
0.0
 40
0.0
 40
0.0
 40
0.1900203186
 40
0.2807627413
 40
0.3684041789
 40
0.4527309786
 40
0.5334285137
 40
0.6100338654
 40
0.6820522856
 40
0.7489611619
 40
0.8100436967
 40
0.8644041552
 40
0.9110428498
 40
0.9311339313
 40
0.9488970088
 40
0.9642031889
 40
0.9769232324
 40
0.9869332073
 40
0.9941542133
 40
0.9967009269
 40
0.9985289045
 40
0.9996309843
 40
1.0
 40
1.0
 40
1.0
 40
1.0
 10
11.370249054
 20
16.9913342076
 30
0.0
 10
11.3812354333
 20
16.999527508
 30
0.0
 10
11.397048857
 20
17.0122110402
 30
0.0
 10
11.4169093019
 20
17.0298670274
 30
0.0
 10
11.43066541
 20
17.042902412
 30
0.0
 10
11.4435059331
 20
17.0558372304
 30
0.0
 10
11.4554213036
 20
17.0685580729
 30
0.0
 10
11.4664000818
 20
17.0809310085
 30
0.0
 10
11.4764224941
 20
17.0928160017
 30
0.0
 10
11.4854579503
 20
17.1040630263
 30
0.0
 10
11.4934706767
 20
17.1144936094
 30
0.0
 10
11.5004128267
 20
17.1238999375
 30
0.0
 10
11.5054807446
 20
17.1310131716
 30
0.0
 10
11.5089624614
 20
17.1360146748
 30
0.0
 10
11.5111334224
 20
17.1391750459
 30
0.0
 10
11.5129881582
 20
17.1419075869
 30
0.0
 10
11.5145180375
 20
17.1441847463
 30
0.0
 10
11.5157167925
 20
17.1459818196
 30
0.0
 10
11.516505528
 20
17.1471703881
 30
0.0
 10
11.5169659698
 20
17.1478685586
 30
0.0
 10
11.5171836311
 20
17.1481981978
 30
0.0
 10
11.517313326
 20
17.148397679
 30
0.0
 10
11.5173723505
 20
17.1484858663
 30
0.0
 10
11.5173865385
 20
17.1485083844
 30
0.0
  0
SPLINE
  5
390
100
AcDbEntity
  8
0
100
AcDbSpline
 62
9
  6
CONTINUOUS
 70
0
 71
3
 72
40
 73
36
 74
0
 42
0.0000001
 43
0.0000001
 44
0.0000000001
 40
0.0
 40
0.0
 40
0.0
 40
0.0
 40
0.0000231129
 40
0.0000923794
 40
0.0002076874
 40
0.0003689249
 40
0.0008287404
 40
0.0014709297
 40
0.0022945969
 40
0.0032988466
 40
0.0044827834
 40
0.0058455122
 40
0.0091037669
 40
0.0130664555
 40
0.0177264271
 40
0.0230764007
 40
0.0291050595
 40
0.0357964524
 40
0.0511027048
 40
0.068865967
 40
0.0889573844
 40
0.1112457724
 40
0.1355973284
 40
0.1618788221
 40
0.1899587812
 40
0.2197172089
 40
0.2510418354
 40
0.3179504629
 40
0.3899690503
 40
0.4665747188
 40
0.547272414
 40
0.6315989653
 40
0.7192397996
 40
0.8099814075
 40
1.0
 40
1.0
 40
1.0
 40
1.0
 10
10.5773892801
 20
17.1485083767
 30
0.0
 10
10.577388703
 20
17.1485099408
 30
0.0
 10
10.577395972
 20
17.1484971608
 30
0.0
 10
10.5774006761
 20
17.1484915714
 30
0.0
 10
10.5774163119
 20
17.1484667713
 30
0.0
 10
10.5774442117
 20
17.1484247239
 30
0.0
 10
10.5774950653
 20
17.1483467548
 30
0.0
 10
10.5775708747
 20
17.1482315009
 30
0.0
 10
10.5776689329
 20
17.148082303
 30
0.0
 10
10.5777883559
 20
17.147900986
 30
0.0
 10
10.5779293892
 20
17.147687131
 30
0.0
 10
10.578160142
 20
17.1473377689
 30
0.0
 10
10.5785019321
 20
17.146821505
 30
0.0
 10
10.578975985
 20
17.1461075981
 30
0.0
 10
10.5795346799
 20
17.1452687798
 30
0.0
 10
10.5801773041
 20
17.1443068198
 30
0.0
 10
10.5809030777
 20
17.1432241932
 30
0.0
 10
10.5820321979
 20
17.141547381
 30
0.0
 10
10.5836428431
 20
17.1391743978
 30
0.0
 10
10.5858140048
 20
17.1360137684
 30
0.0
 10
10.5882925294
 20
17.1324533701
 30
0.0
 10
10.5910698436
 20
17.1285220754
 30
0.0
 10
10.5941377779
 20
17.1242495968
 30
0.0
 10
10.5974879058
 20
17.1196656894
 30
0.0
 10
10.6011123913
 20
17.1147995333
 30
0.0
 10
10.6050038622
 20
17.1096790048
 30
0.0
 10
10.6106648772
 20
17.1023861401
 30
0.0
 10
10.6183568266
 20
17.0928118449
 30
0.0
 10
10.6283800488
 20
17.08092604
 30
0.0
 10
10.6393598102
 20
17.068552255
 30
0.0
 10
10.6512762219
 20
17.0558305904
 30
0.0
 10
10.6641178624
 20
17.0428950373
 30
0.0
 10
10.6778751472
 20
17.0298590173
 30
0.0
 10
10.6977372803
 20
17.0122022915
 30
0.0
 10
10.7135520632
 20
16.9995183304
 30
0.0
 10
10.7245393851
 20
16.9913247955
 30
0.0
  0
SPLINE
  5
391
100
AcDbEntity
  8
0
100
AcDbSpline
 62
9
  6
CONTINUOUS
 70
0
 71
3
 72
19
 73
15
 74
0
 42
0.0000001
 43
0.0000001
 44
0.0000000001
 40
0.0
 40
0.0
 40
0.0
 40
0.0
 40
0.1114929392
 40
0.2276222333
 40
0.3480927847
 40
0.4098727977
 40
0.4726408064
 40
0.5363260657
 40
0.6008384131
 40
0.6660979001
 40
0.7320355685
 40
0.7985516964
 40
0.8654924324
 40
1.0
 40
1.0
 40
1.0
 40
1.0
 10
10.7316126706
 20
16.9861323097
 30
0.0
 10
10.7417950778
 20
16.9787747063
 30
0.0
 10
10.7630763026
 20
16.9644217356
 30
0.0
 10
10.7970263728
 20
16.9447234949
 30
0.0
 10
10.8272680916
 20
16.9299584379
 30
0.0
 10
10.8527238766
 20
16.9192585842
 30
0.0
 10
10.8725872277
 20
16.911807366
 30
0.0
 10
10.8930226902
 20
16.9050531102
 30
0.0
 10
10.9139843099
 20
16.8990516466
 30
0.0
 10
10.9354227251
 20
16.8938600424
 30
0.0
 10
10.9572840256
 20
16.8895400535
 30
0.0
 10
10.9794993312
 20
16.8861374451
 30
0.0
 10
11.0095182613
 20
16.8828463848
 30
0.0
 10
11.0322322598
 20
16.8818329846
 30
0.0
 10
11.047387908
 20
16.8818319103
 30
0.0
  0
SPLINE
  5
392
100
AcDbEntity
  8
0
100
AcDbSpline
 62
9
  6
CONTINUOUS
 70
0
 71
3
 72
40
 73
36
 74
0
 42
0.0000001
 43
0.0000001
 44
0.0000000001
 40
0.0
 40
0.0
 40
0.0
 40
0.0
 40
0.0000231059
 40
0.0000923523
 40
0.0002076272
 40
0.0003688186
 40
0.0008285036
 40
0.001470512
 40
0.0022939488
 40
0.0032979195
 40
0.0044815295
 40
0.0058438846
 40
0.0091012548
 40
0.0130628818
 40
0.0177216219
 40
0.0230702052
 40
0.0290973593
 40
0.035787154
 40
0.051089988
 40
0.068849631
 40
0.0889373463
 40
0.111222094
 40
0.135570205
 40
0.1618485767
 40
0.1899258308
 40
0.2196819759
 40
0.2510048252
 40
0.317911591
 40
0.3899298058
 40
0.4665367455
 40
0.5472377233
 40
0.6315695104
 40
0.719216494
 40
0.8099650936
 40
1.0
 40
1.0
 40
1.0
 40
1.0
 10
11.5173865384
 20
7.3651553623
 30
0.0
 10
11.5173871081
 20
7.3651537979
 30
0.0
 10
11.5173798649
 20
7.365166567
 30
0.0
 10
11.5173751513
 20
7.3651721433
 30
0.0
 10
11.5173595448
 20
7.3651969142
 30
0.0
 10
11.5173316762
 20
7.3652389046
 30
0.0
 10
11.517280893
 20
7.3653167734
 30
0.0
 10
11.5172051807
 20
7.3654318763
 30
0.0
 10
11.5171072513
 20
7.3655808803
 30
0.0
 10
11.5169879838
 20
7.3657619616
 30
0.0
 10
11.5168471344
 20
7.3659755393
 30
0.0
 10
11.5166166818
 20
7.3663244494
 30
0.0
 10
11.5162753359
 20
7.366840047
 30
0.0
 10
11.5158018985
 20
7.3675530351
 30
0.0
 10
11.5152439277
 20
7.3683907775
 30
0.0
 10
11.514602133
 20
7.3693515104
 30
0.0
 10
11.513877294
 20
7.3704327679
 30
0.0
 10
11.5127496153
 20
7.3721074902
 30
0.0
 10
11.5111410132
 20
7.374477561
 30
0.0
 10
11.5089725924
 20
7.3776343736
 30
0.0
 10
11.5064971701
 20
7.3811905598
 30
0.0
 10
11.5037233074
 20
7.38511731
 30
0.0
 10
11.5006591553
 20
7.3893849722
 30
0.0
 10
11.497313125
 20
7.39396385
 30
0.0
 10
11.4936930417
 20
7.3988248138
 30
0.0
 10
11.4898062659
 20
7.4039400313
 30
0.0
 10
11.4841519858
 20
7.4112256231
 30
0.0
 10
11.4764691773
 20
7.4207907662
 30
0.0
 10
11.4664578736
 20
7.432665714
 30
0.0
 10
11.4554911544
 20
7.4450288362
 30
0.0
 10
11.4435888973
 20
7.4577402767
 30
0.0
 10
11.4307625761
 20
7.4706662353
 30
0.0
 10
11.4170217327
 20
7.4836933236
 30
0.0
 10
11.3971834183
 20
7.5013390933
 30
0.0
 10
11.3813878801
 20
7.5140165022
 30
0.0
 10
11.3704139612
 20
7.5222065126
 30
0.0
  0
SPLINE
  5
393
100
AcDbEntity
  8
0
100
AcDbSpline
 62
9
  6
CONTINUOUS
 70
0
 71
3
 72
16
 73
12
 74
0
 42
0.0000001
 43
0.0000001
 44
0.0000000001
 40
0.0
 40
0.0
 40
0.0
 40
0.0
 40
0.1108600061
 40
0.2265712935
 40
0.346839812
 40
0.4085879524
 40
0.4713675989
 40
0.7309955364
 40
0.7977382733
 40
0.8649353779
 40
1.0
 40
1.0
 40
1.0
 40
1.0
 10
11.3704139612
 20
7.5222065126
 30
0.0
 10
11.3601400615
 20
7.5298740875
 30
0.0
 10
11.3386205629
 20
7.5448595561
 30
0.0
 10
11.3041830569
 20
7.5654810693
 30
0.0
 10
11.2734017854
 20
7.5809820877
 30
0.0
 10
11.2474221987
 20
7.5922443607
 30
0.0
 10
11.2059901476
 20
7.6082733441
 30
0.0
 10
11.1622918946
 20
7.6201660669
 30
0.0
 10
11.1173313894
 20
7.6272620996
 30
0.0
 10
11.0864124581
 20
7.6307550319
 30
0.0
 10
11.0630065973
 20
7.6318307864
 30
0.0
 10
11.047387908
 20
7.6318318537
 30
0.0
  0
SPLINE
  5
394
100
AcDbEntity
  8
0
100
AcDbSpline
 62
9
  6
CONTINUOUS
 70
0
 71
3
 72
16
 73
12
 74
0
 42
0.0000001
 43
0.0000001
 44
0.0000000001
 40
0.0
 40
0.0
 40
0.0
 40
0.0
 40
0.1350678677
 40
0.2022660273
 40
0.2690094495
 40
0.5286373096
 40
0.591416555
 40
0.6531642428
 40
0.7734316793
 40
0.8891416055
 40
1.0
 40
1.0
 40
1.0
 40
1.0
 10
11.047387908
 20
7.6318318255
 30
0.0
 10
11.0317681772
 20
7.6318306788
 30
0.0
 10
11.0083608246
 20
7.6307547719
 30
0.0
 10
10.9774400185
 20
7.6272614652
 30
0.0
 10
10.9324774555
 20
7.6201647784
 30
0.0
 10
10.8887774593
 20
7.6082708882
 30
0.0
 10
10.8473440521
 20
7.5922404597
 30
0.0
 10
10.8213637875
 20
7.5809772757
 30
0.0
 10
10.7905818299
 20
7.5654750936
 30
0.0
 10
10.7561437317
 20
7.5448521471
 30
0.0
 10
10.7346239675
 20
7.5298657029
 30
0.0
 10
10.7243499758
 20
7.5221976487
 30
0.0
  0
SPLINE
  5
395
100
AcDbEntity
  8
0
100
AcDbSpline
 62
9
  6
CONTINUOUS
 70
0
 71
3
 72
28
 73
24
 74
0
 42
0.0000001
 43
0.0000001
 44
0.0000000001
 40
0.0
 40
0.0
 40
0.0
 40
0.0
 40
0.1900365281
 40
0.2807858576
 40
0.3684333933
 40
0.4527654565
 40
0.5334663878
 40
0.6100731414
 40
0.6820912574
 40
0.748998206
 40
0.8100765714
 40
0.8644312525
 40
0.9110630128
 40
0.9311504317
 40
0.9489098898
 40
0.9642126262
 40
0.9769295324
 40
0.9869368559
 40
0.994155892
 40
0.9967018937
 40
0.9985293501
 40
0.9996311054
 40
1.0
 40
1.0
 40
1.0
 40
1.0
 10
10.7243499758
 20
7.5221976487
 30
0.0
 10
10.7133769451
 20
7.5140078627
 30
0.0
 10
10.6975826874
 20
7.5013308667
 30
0.0
 10
10.6777459637
 20
7.4836858036
 30
0.0
 10
10.6640062294
 20
7.4706593178
 30
0.0
 10
10.6511809579
 20
7.457734044
 30
0.0
 10
10.6392796754
 20
7.4450233605
 30
0.0
 10
10.6283138762
 20
7.4326610205
 30
0.0
 10
10.6183033305
 20
7.4207868302
 30
0.0
 10
10.6092786403
 20
7.4095506133
 30
0.0
 10
10.601275501
 20
7.3991306518
 30
0.0
 10
10.5943417645
 20
7.3897344368
 30
0.0
 10
10.589280025
 20
7.3826291806
 30
0.0
 10
10.5858026032
 20
7.3776335036
 30
0.0
 10
10.5836343723
 20
7.3744769357
 30
0.0
 10
10.5817819892
 20
7.3717477542
 30
0.0
 10
10.5802540693
 20
7.3694734485
 30
0.0
 10
10.5790568498
 20
7.3676786692
 30
0.0
 10
10.5782691493
 20
7.3664916204
 30
0.0
 10
10.5778092881
 20
7.365794364
 30
0.0
 10
10.5775919406
 20
7.3654651354
 30
0.0
 10
10.5774623637
 20
7.3652659489
 30
0.0
 10
10.5774034717
 20
7.3651778437
 30
0.0
 10
10.5773892803
 20
7.3651553701
 30
0.0
  0
SPLINE
  5
396
100
AcDbEntity
  8
0
100
AcDbSpline
 62
9
  6
CONTINUOUS
 70
0
 71
3
 72
19
 73
15
 74
0
 42
0.0000001
 43
0.0000001
 44
0.0000000001
 40
0.0
 40
0.0
 40
0.0
 40
0.0
 40
0.1345107642
 40
0.201453418
 40
0.267971253
 40
0.3339101283
 40
0.3991702921
 40
0.4636828728
 40
0.5273680027
 40
0.590135598
 40
0.6519150323
 40
0.7723839052
 40
0.8885105925
 40
1.0
 40
1.0
 40
1.0
 40
1.0
 10
11.047387908
 20
6.3118318954
 30
0.0
 10
11.0625458477
 20
6.3118329528
 30
0.0
 10
11.0852633221
 20
6.3128466917
 30
0.0
 10
11.1152867865
 20
6.3161387671
 30
0.0
 10
11.1375053857
 20
6.3195423997
 30
0.0
 10
11.1593697455
 20
6.3238636517
 30
0.0
 10
11.1808109477
 20
6.3290567105
 30
0.0
 10
11.2017750851
 20
6.3350597999
 30
0.0
 10
11.2222128141
 20
6.3418158308
 30
0.0
 10
11.2420782022
 20
6.3492689596
 30
0.0
 10
11.2675363688
 20
6.3599714534
 30
0.0
 10
11.2977805685
 20
6.3747399669
 30
0.0
 10
11.3317328971
 20
6.3944425345
 30
0.0
 10
11.3530152328
 20
6.4087984753
 30
0.0
 10
11.3631980678
 20
6.4161575401
 30
0.0
  0
SPLINE
  5
397
100
AcDbEntity
  8
0
100
AcDbSpline
 62
9
  6
CONTINUOUS
 70
0
 71
3
 72
28
 73
24
 74
0
 42
0.0000001
 43
0.0000001
 44
0.0000000001
 40
0.0
 40
0.0
 40
0.0
 40
0.0
 40
0.1900203186
 40
0.2807627413
 40
0.3684041789
 40
0.4527309786
 40
0.5334285137
 40
0.6100338654
 40
0.6820522856
 40
0.7489611619
 40
0.8100436967
 40
0.8644041552
 40
0.9110428498
 40
0.9311339313
 40
0.9488970088
 40
0.9642031889
 40
0.9769232324
 40
0.9869332073
 40
0.9941542133
 40
0.9967009269
 40
0.9985289045
 40
0.9996309843
 40
1.0
 40
1.0
 40
1.0
 40
1.0
 10
11.370249054
 20
6.4213342076
 30
0.0
 10
11.3812354333
 20
6.429527508
 30
0.0
 10
11.397048857
 20
6.4422110402
 30
0.0
 10
11.4169093019
 20
6.4598670274
 30
0.0
 10
11.43066541
 20
6.472902412
 30
0.0
 10
11.4435059331
 20
6.4858372304
 30
0.0
 10
11.4554213036
 20
6.4985580729
 30
0.0
 10
11.4664000818
 20
6.5109310085
 30
0.0
 10
11.4764224941
 20
6.5228160017
 30
0.0
 10
11.4854579503
 20
6.5340630263
 30
0.0
 10
11.4934706767
 20
6.5444936094
 30
0.0
 10
11.5004128267
 20
6.5538999375
 30
0.0
 10
11.5054807446
 20
6.5610131716
 30
0.0
 10
11.5089624614
 20
6.5660146748
 30
0.0
 10
11.5111334224
 20
6.5691750459
 30
0.0
 10
11.5129881582
 20
6.5719075869
 30
0.0
 10
11.5145180375
 20
6.5741847463
 30
0.0
 10
11.5157167925
 20
6.5759818196
 30
0.0
 10
11.516505528
 20
6.5771703881
 30
0.0
 10
11.5169659698
 20
6.5778685586
 30
0.0
 10
11.5171836311
 20
6.5781981978
 30
0.0
 10
11.517313326
 20
6.578397679
 30
0.0
 10
11.5173723505
 20
6.5784858663
 30
0.0
 10
11.5173865385
 20
6.5785083844
 30
0.0
  0
SPLINE
  5
398
100
AcDbEntity
  8
0
100
AcDbSpline
 62
9
  6
CONTINUOUS
 70
0
 71
3
 72
40
 73
36
 74
0
 42
0.0000001
 43
0.0000001
 44
0.0000000001
 40
0.0
 40
0.0
 40
0.0
 40
0.0
 40
0.0000231129
 40
0.0000923794
 40
0.0002076874
 40
0.0003689249
 40
0.0008287404
 40
0.0014709297
 40
0.0022945969
 40
0.0032988466
 40
0.0044827834
 40
0.0058455122
 40
0.0091037669
 40
0.0130664555
 40
0.0177264271
 40
0.0230764007
 40
0.0291050595
 40
0.0357964524
 40
0.0511027048
 40
0.068865967
 40
0.0889573844
 40
0.1112457724
 40
0.1355973284
 40
0.1618788221
 40
0.1899587812
 40
0.2197172089
 40
0.2510418354
 40
0.3179504629
 40
0.3899690503
 40
0.4665747188
 40
0.547272414
 40
0.6315989653
 40
0.7192397996
 40
0.8099814075
 40
1.0
 40
1.0
 40
1.0
 40
1.0
 10
10.5773892801
 20
6.5785083767
 30
0.0
 10
10.577388703
 20
6.5785099408
 30
0.0
 10
10.577395972
 20
6.5784971608
 30
0.0
 10
10.5774006761
 20
6.5784915714
 30
0.0
 10
10.5774163119
 20
6.5784667713
 30
0.0
 10
10.5774442117
 20
6.5784247239
 30
0.0
 10
10.5774950653
 20
6.5783467548
 30
0.0
 10
10.5775708747
 20
6.5782315009
 30
0.0
 10
10.5776689329
 20
6.578082303
 30
0.0
 10
10.5777883559
 20
6.577900986
 30
0.0
 10
10.5779293892
 20
6.577687131
 30
0.0
 10
10.578160142
 20
6.5773377689
 30
0.0
 10
10.5785019321
 20
6.576821505
 30
0.0
 10
10.578975985
 20
6.5761075981
 30
0.0
 10
10.5795346799
 20
6.5752687798
 30
0.0
 10
10.5801773041
 20
6.5743068198
 30
0.0
 10
10.5809030777
 20
6.5732241932
 30
0.0
 10
10.5820321979
 20
6.571547381
 30
0.0
 10
10.5836428431
 20
6.5691743978
 30
0.0
 10
10.5858140048
 20
6.5660137684
 30
0.0
 10
10.5882925294
 20
6.5624533701
 30
0.0
 10
10.5910698436
 20
6.5585220754
 30
0.0
 10
10.5941377779
 20
6.5542495968
 30
0.0
 10
10.5974879058
 20
6.5496656894
 30
0.0
 10
10.6011123913
 20
6.5447995333
 30
0.0
 10
10.6050038622
 20
6.5396790048
 30
0.0
 10
10.6106648772
 20
6.5323861401
 30
0.0
 10
10.6183568266
 20
6.5228118449
 30
0.0
 10
10.6283800488
 20
6.51092604
 30
0.0
 10
10.6393598102
 20
6.498552255
 30
0.0
 10
10.6512762219
 20
6.4858305904
 30
0.0
 10
10.6641178624
 20
6.4728950373
 30
0.0
 10
10.6778751472
 20
6.4598590173
 30
0.0
 10
10.6977372803
 20
6.4422022915
 30
0.0
 10
10.7135520632
 20
6.4295183304
 30
0.0
 10
10.7245393851
 20
6.4213247955
 30
0.0
  0
SPLINE
  5
399
100
AcDbEntity
  8
0
100
AcDbSpline
 62
9
  6
CONTINUOUS
 70
0
 71
3
 72
19
 73
15
 74
0
 42
0.0000001
 43
0.0000001
 44
0.0000000001
 40
0.0
 40
0.0
 40
0.0
 40
0.0
 40
0.1114929392
 40
0.2276222333
 40
0.3480927847
 40
0.4098727977
 40
0.4726408064
 40
0.5363260657
 40
0.6008384131
 40
0.6660979001
 40
0.7320355685
 40
0.7985516964
 40
0.8654924324
 40
1.0
 40
1.0
 40
1.0
 40
1.0
 10
10.7316126706
 20
6.4161323097
 30
0.0
 10
10.7417950778
 20
6.4087747063
 30
0.0
 10
10.7630763026
 20
6.3944217356
 30
0.0
 10
10.7970263728
 20
6.3747234949
 30
0.0
 10
10.8272680916
 20
6.3599584379
 30
0.0
 10
10.8527238766
 20
6.3492585842
 30
0.0
 10
10.8725872277
 20
6.341807366
 30
0.0
 10
10.8930226902
 20
6.3350531102
 30
0.0
 10
10.9139843099
 20
6.3290516466
 30
0.0
 10
10.9354227251
 20
6.3238600424
 30
0.0
 10
10.9572840256
 20
6.3195400535
 30
0.0
 10
10.9794993312
 20
6.3161374451
 30
0.0
 10
11.0095182613
 20
6.3128463848
 30
0.0
 10
11.0322322598
 20
6.3118329846
 30
0.0
 10
11.047387908
 20
6.3118319103
 30
0.0
  0
SPLINE
  5
39A
100
AcDbEntity
  8
0
100
AcDbSpline
 62
7
  6
CONTINUOUS
 70
0
 71
3
 72
33
 73
29
 74
0
 42
0.0000001
 43
0.0000001
 44
0.0000000001
 40
0.0
 40
0.0
 40
0.0
 40
0.0
 40
0.0004569367
 40
0.0010488061
 40
0.0026506822
 40
0.0048196599
 40
0.0075593256
 40
0.0108704246
 40
0.014752533
 40
0.0192046602
 40
0.0242255076
 40
0.0359672682
 40
0.0499649154
 40
0.0662026894
 40
0.0846394066
 40
0.1052157982
 40
0.1278720487
 40
0.1525482404
 40
0.1791843888
 40
0.2380963797
 40
0.304119999
 40
0.3766254178
 40
0.4548561459
 40
0.5380511183
 40
0.6254487188
 40
0.7162404324
 40
0.8095319124
 40
1.0
 40
1.0
 40
1.0
 40
1.0
 10
11.4350695607
 20
-4.5988450133
 30
0.0
 10
11.4350171922
 20
-4.5988752633
 30
0.0
 10
11.4348902297
 20
-4.5989327256
 30
0.0
 10
11.4345579887
 20
-4.5990459354
 30
0.0
 10
11.4339950006
 20
-4.5991788553
 30
0.0
 10
11.4331467265
 20
-4.5993302954
 30
0.0
 10
11.4320692897
 20
-4.5994827521
 30
0.0
 10
11.4307635997
 20
-4.5996363976
 30
0.0
 10
11.429229952
 20
-4.5997905447
 30
0.0
 10
11.4274690934
 20
-4.5999451261
 30
0.0
 10
11.4246696743
 20
-4.6001631104
 30
0.0
 10
11.4206070647
 20
-4.6004301282
 30
0.0
 10
11.415059686
 20
-4.6007378437
 30
0.0
 10
11.4086250658
 20
-4.6010462082
 30
0.0
 10
11.4013188924
 20
-4.601355258
 30
0.0
 10
11.3931625546
 20
-4.601664858
 30
0.0
 10
11.3841798768
 20
-4.6019748466
 30
0.0
 10
11.3743947403
 20
-4.6022851408
 30
0.0
 10
11.359812386
 20
-4.6027136846
 30
0.0
 10
11.3397581968
 20
-4.6032433517
 30
0.0
 10
11.3136333384
 20
-4.6038604998
 30
0.0
 10
11.2849509376
 20
-4.6044783595
 30
0.0
 10
11.2539953776
 20
-4.6050972537
 30
0.0
 10
11.2210684218
 20
-4.6057168066
 30
0.0
 10
11.1864786964
 20
-4.6063366828
 30
0.0
 10
11.1505524526
 20
-4.6069565927
 30
0.0
 10
11.1009860554
 20
-4.6077892238
 30
0.0
 10
11.0634343559
 20
-4.6084042941
 30
0.0
 10
11.0382285252
 20
-4.6088181398
 30
0.0
  0
SPLINE
  5
39B
100
AcDbEntity
  8
0
100
AcDbSpline
 62
9
  6
CONTINUOUS
 70
0
 71
3
 72
43
 73
39
 74
0
 42
0.0000001
 43
0.0000001
 44
0.0000000001
 40
0.0
 40
0.0
 40
0.0
 40
0.0
 40
0.0292093944
 40
0.058421797
 40
0.0877654917
 40
0.1173950528
 40
0.147501174
 40
0.1782932858
 40
0.20997759
 40
0.242698695
 40
0.2763672708
 40
0.2934274633
 40
0.310525189
 40
0.3275640555
 40
0.3444550173
 40
0.3611358358
 40
0.3775692791
 40
0.4096475831
 40
0.4407585859
 40
0.4710991481
 40
0.500891508
 40
0.5595505716
 40
0.588742071
 40
0.6180023241
 40
0.6474426356
 40
0.6771565996
 40
0.7072264482
 40
0.7377247217
 40
0.7687131784
 40
0.8002399389
 40
0.8323336043
 40
0.8649949475
 40
0.8981889703
 40
0.9318383923
 40
0.9488014069
 40
0.9658301268
 40
0.9829053062
 40
1.0
 40
1.0
 40
1.0
 40
1.0
 10
10.5664297765
 20
17.141213001
 30
0.0
 10
10.5584983665
 20
17.1525359218
 30
0.0
 10
10.5433471373
 20
17.1756914336
 30
0.0
 10
10.5228021527
 20
17.2118219907
 30
0.0
 10
10.5044144931
 20
17.2493194593
 30
0.0
 10
10.4881733636
 20
17.2882540521
 30
0.0
 10
10.4741255642
 20
17.3287601358
 30
0.0
 10
10.4623430256
 20
17.3709934052
 30
0.0
 10
10.4529536835
 20
17.4150908389
 30
0.0
 10
10.4462209214
 20
17.4610500166
 30
0.0
 10
10.4430905102
 20
17.5004533367
 30
0.0
 10
10.442127462
 20
17.5325450867
 30
0.0
 10
10.4422099196
 20
17.5567806464
 30
0.0
 10
10.4431165034
 20
17.5809190281
 30
0.0
 10
10.4448262416
 20
17.6048158334
 30
0.0
 10
10.4472975753
 20
17.6283577806
 30
0.0
 10
10.4515104772
 20
17.6589280753
 30
0.0
 10
10.4584479491
 20
17.6959972374
 30
0.0
 10
10.4693368011
 20
17.7389323173
 30
0.0
 10
10.4825417809
 20
17.7800793812
 30
0.0
 10
10.5029608736
 20
17.8324898342
 30
0.0
 10
10.527856604
 20
17.8824802268
 30
0.0
 10
10.5571201715
 20
17.9295860167
 30
0.0
 10
10.5812727245
 20
17.9634905535
 30
0.0
 10
10.6076900787
 20
17.9959798617
 30
0.0
 10
10.6364323374
 20
18.0269598375
 30
0.0
 10
10.667552954
 20
18.0562879112
 30
0.0
 10
10.7011001375
 20
18.0837730508
 30
0.0
 10
10.7371054547
 20
18.1091709613
 30
0.0
 10
10.7755572225
 20
18.1321998261
 30
0.0
 10
10.8163832012
 20
18.1525478368
 30
0.0
 10
10.8594375285
 20
18.1698723724
 30
0.0
 10
10.9044707732
 20
18.1838312429
 30
0.0
 10
10.9432561084
 20
18.1923794528
 30
0.0
 10
10.9749023811
 20
18.1972687092
 30
0.0
 10
10.9989341983
 20
18.1999214509
 30
0.0
 10
11.0231227476
 20
18.2014907533
 30
0.0
 10
11.03929719
 20
18.2018302798
 30
0.0
 10
11.047387908
 20
18.2018312484
 30
0.0
  0
LINE
  5
39C
100
AcDbEntity
  8
0
100
AcDbLine
 62
7
  6
CONTINUOUS
 10
10.574887908
 20
16.6372108442
 11
10.5749549557
 21
16.6373303146
  0
LINE
  5
39D
100
AcDbEntity
  8
0
100
AcDbLine
 62
7
  6
CONTINUOUS
 10
10.5749549557
 20
16.6373303146
 11
10.575679388
 21
16.6376226328
  0
SPLINE
  5
39E
100
AcDbEntity
  8
0
100
AcDbSpline
 62
9
  6
CONTINUOUS
 70
0
 71
3
 72
45
 73
41
 74
0
 42
0.0000001
 43
0.0000001
 44
0.0000000001
 40
0.0
 40
0.0
 40
0.0
 40
0.0
 40
0.01709416
 40
0.0341689471
 40
0.0511971608
 40
0.0681595962
 40
0.1018079624
 40
0.1350009384
 40
0.1676616971
 40
0.1997548189
 40
0.231280741
 40
0.2622671438
 40
0.2927621558
 40
0.3228284623
 40
0.3525403054
 40
0.3819816245
 40
0.4112462658
 40
0.4404418002
 40
0.4696878253
 40
0.499119174
 40
0.528906581
 40
0.5592494019
 40
0.5903592036
 40
0.6224304467
 40
0.6388633512
 40
0.655547913
 40
0.6724415507
 40
0.6894790963
 40
0.7065762461
 40
0.7236367103
 40
0.7572977579
 40
0.7737904313
 40
0.7900229801
 40
0.8217118824
 40
0.8525007862
 40
0.8826046929
 40
0.9122399371
 40
0.9415877237
 40
0.9707972782
 40
1.0
 40
1.0
 40
1.0
 40
1.0
 10
11.047387908
 20
18.2018312484
 30
0.0
 10
11.0554785991
 20
18.2018302537
 30
0.0
 10
11.0716530409
 20
18.2014878082
 30
0.0
 10
11.0958413027
 20
18.1999156299
 30
0.0
 10
11.1198735031
 20
18.1972671992
 30
0.0
 10
11.1515207397
 20
18.1923850103
 30
0.0
 10
11.1903076013
 20
18.1838434565
 30
0.0
 10
11.2353394364
 20
18.1698783052
 30
0.0
 10
11.2783875475
 20
18.1525376806
 30
0.0
 10
11.3192102465
 20
18.1321828864
 30
0.0
 10
11.3576613294
 20
18.1091541658
 30
0.0
 10
11.3936734958
 20
18.0837694188
 30
0.0
 10
11.4272311086
 20
18.0563017792
 30
0.0
 10
11.4583614913
 20
18.0269882037
 30
0.0
 10
11.4871069226
 20
17.9960122731
 30
0.0
 10
11.513517524
 20
17.9635129195
 30
0.0
 10
11.5376522529
 20
17.9295906694
 30
0.0
 10
11.5595553043
 20
17.8942961089
 30
0.0
 10
11.5792670532
 20
17.8576441789
 30
0.0
 10
11.5968373931
 20
17.8196103634
 30
0.0
 10
11.6122445116
 20
17.7800914143
 30
0.0
 10
11.6254354655
 20
17.7389424315
 30
0.0
 10
11.6363223759
 20
17.6960085273
 30
0.0
 10
11.643275391
 20
17.6589456009
 30
0.0
 10
11.6474887564
 20
17.6283760868
 30
0.0
 10
11.6499435533
 20
17.6048288385
 30
0.0
 10
11.6516387636
 20
17.5809280411
 30
0.0
 10
11.6525501413
 20
17.5567891124
 30
0.0
 10
11.6526590982
 20
17.5325537457
 30
0.0
 10
11.6517109167
 20
17.5004642575
 30
0.0
 10
11.6491563932
 20
17.4687261539
 30
0.0
 10
11.6451010257
 20
17.4375639895
 30
0.0
 10
11.640192591
 20
17.4074696853
 30
0.0
 10
11.6324413638
 20
17.3710034825
 30
0.0
 10
11.6206486056
 20
17.3287724195
 30
0.0
 10
11.6065921769
 20
17.2882682721
 30
0.0
 10
11.5903679827
 20
17.2493218978
 30
0.0
 10
11.5719930002
 20
17.2118128367
 30
0.0
 10
11.5514426966
 20
17.1756863665
 30
0.0
 10
11.5362799354
 20
17.1525427342
 30
0.0
 10
11.5283438878
 20
17.1412264495
 30
0.0
  0
ENDSEC
  0
SECTION
  2
OBJECTS
  0
DICTIONARY
  5
C
100
AcDbDictionary
280
0
281
1
  3
ACAD_GROUP
350
D
  3
ACAD_MLINESTYLE
350
17
  3
ACAD_LAYOUT
350
1A
  3
ACAD_PLOTSETTINGS
350
19
  3
ACAD_PLOTSTYLENAME
350
E
  0
DICTIONARY
  5
D
102
{ACAD_REACTORS
330
C
102
}
100
AcDbDictionary
280
0
281
1
  0
ACDBDICTIONARYWDFLT
  5
E
102
{ACAD_REACTORS
330
C
102
}
100
AcDbDictionary
281
1
  3
Normal
350
F
100
AcDbDictionaryWithDefault
340
F
  0
DICTIONARY
  5
17
102
{ACAD_REACTORS
330
C
102
}
100
AcDbDictionary
280
0
281
1
  3
Standard
350
18
  0
DICTIONARY
  5
19
102
{ACAD_REACTORS
330
C
102
}
100
AcDbDictionary
281
1
  0
DICTIONARY
  5
1A
102
{ACAD_REACTORS
330
C
102
}
100
AcDbDictionary
281
1
  3
Model
350
39F
  3
Layout1
350
3A0
  0
ACDBPLACEHOLDER
  5
F
102
{ACAD_REACTORS
330
E
102
}
  0
MLINESTYLE
  5
18
102
{ACAD_REACTORS
330
17
102
}
100
AcDbMlineStyle
  2
STANDARD
 70
0
  3

 62
256
 51
90.0
 52
90.0
 71
2
 49
0.5
 62
256
  6
BYLAYER
 49
-0.5
 62
256
  6
BYLAYER
  0
LAYOUT
  5
39F
102
{ACAD_REACTORS
330
1A
102
}
100
AcDbPlotSettings
  1

  2
none_device
  4
ANSI_C_(22.00_x_17.00_Inches)
  6

 40
0.0
 41
0.0
 42
0.0
 43
0.0
 44
558.8
 45
431.8
 46
0.0
 47
0.0
 48
0.0
 49
0.0
140
0.0
141
0.0
142
1.0
143
1.0
 70
1024
 72
0
 73
0
 74
0
  7

 75
0
147
1.0
148
0.0
149
0.0
100
AcDbLayout
  1
Model
 70
0
 71
0
 10
0.0
 20
0.0
 11
22.0
 21
17.0
 12
0.0
 22
0.0
 32
0.0
 14
0.0
 24
0.0
 34
0.0
 15
0.0
 25
0.0
 35
0.0
146
0.0
 13
0.0
 23
0.0
 33
0.0
 16
1.0
 26
0.0
 36
0.0
 17
0.0
 27
1.0
 37
0.0
 76
0
330
202
345
0
346
0
  0
LAYOUT
  5
3A0
102
{ACAD_REACTORS
330
1A
102
}
100
AcDbPlotSettings
  1

  2
none_device
  4
ANSI_C_(22.00_x_17.00_Inches)
  6

 40
0.0
 41
0.0
 42
0.0
 43
0.0
 44
558.8
 45
431.8
 46
0.0
 47
0.0
 48
0.0
 49
0.0
140
0.0
141
0.0
142
1.0
143
1.0
 70
0
 72
0
 73
0
 74
0
  7

 75
0
147
1.0
148
0.0
149
0.0
100
AcDbLayout
  1
Layout1
 70
0
 71
1
 10
0.0
 20
0.0
 11
22.0
 21
17.0
 12
0.0
 22
0.0
 32
0.0
 14
0.0
 24
0.0
 34
0.0
 15
0.0
 25
0.0
 35
0.0
146
0.0
 13
0.0
 23
0.0
 33
0.0
 16
1.0
 26
0.0
 36
0.0
 17
0.0
 27
1.0
 37
0.0
 76
0
330
203
345
0
346
0
  0
ENDSEC
  0
EOF
