999
DXF file: 3270c_RIGHT.dxf
999
Pro/ENGINEER 2023134 by Parametric Technology Corporation
  0
SECTION
  2
HEADER
  9
$ACADVER
  1
AC1032
  9
$DWGCODEPAGE
  3
ANSI_1252
  9
$EXTMAX
 10
11.0
 20
8.5
 30
0.0
  9
$EXTMIN
 10
0.0
 20
0.0
 30
0.0
  9
$LIMMIN
 10
0.0
 20
0.0
  9
$LIMMAX
 10
11.0
 20
8.5
  9
$VIEWCTR
 10
5.5
 20
4.25
  9
$VIEWSIZE
 40
8.5
  9
$CLAYER
  8
0
  9
$LTSCALE
 40
0.605
  9
$CELTYPE
  6
BYLAYER
  9
$DIMSCALE
 40
1.0
  9
$DIMASZ
 40
0.1
  9
$DIMEXO
 40
0.0625
  9
$DIMDLI
 40
0.418
  9
$DIMEXE
 40
0.125
  9
$DIMCEN
 40
0.099
  9
$DIMLFAC
 40
1.0
  9
$DIMBLK
  1
_FILLED
  9
$DIMALT
 70
1
  9
$DIMALTD
 70
2
  9
$DIMALTTD
 70
2
  9
$DIMALTF
 40
25.4
  9
$DIMTXT
 40
0.08
  9
$DIMTOL
 70
1
  9
$DIMLIM
 70
0
  9
$DIMTFAC
 40
1.0
  9
$DIMTP
 40
0.001
  9
$DIMTM
 40
0.001
  9
$DIMGAP
 40
0.09
  9
$DIMDSEP
 70
46
  9
$AUNITS
 70
0
  9
$PDMODE
 70
3
  9
$PDSIZE
 40
0.3125
  9
$HANDSEED
  5
2D0
  9
$TILEMODE
 70
1
  9
$MEASUREMENT
 70
0
  9
$INSUNITS
 70
1
  0
ENDSEC
  0
SECTION
  2
CLASSES
  0
CLASS
  1
ACDBDICTIONARYWDFLT
  2
AcDbDictionaryWithDefault
  3
AutoCAD 2000
 90
0
 91
1
280
0
281
0
  0
CLASS
  1
ACDBPLACEHOLDER
  2
AcDbPlaceHolder
  3
AutoCAD 2000
 90
0
 91
1
280
0
281
0
  0
CLASS
  1
LAYOUT
  2
AcDbLayout
  3
AutoCAD 2000
 90
0
 91
0
280
0
281
0
  0
ENDSEC
  0
SECTION
  2
TABLES
  0
TABLE
  2
VPORT
  5
8
100
AcDbSymbolTable
 70
2
  0
VPORT
  5
1F4
100
AcDbSymbolTableRecord
100
AcDbViewportTableRecord
  2
*ACTIVE
 70
0
 10
0.0
 20
0.0
 11
1.0
 21
1.0
 12
5.5
 22
4.25
 13
0.0
 23
0.0
 14
1.0
 24
1.0
 15
0.0
 25
0.0
 16
0.0
 26
0.0
 36
1.0
 17
0.0
 27
0.0
 37
0.0
 40
8.5
 41
1.2941176471
 42
50.0
 43
0.0
 44
0.0
 50
0.0
 51
0.0
 71
0
 72
100
 73
1
 74
1
 75
0
 76
0
 77
0
 78
0
  0
ENDTAB
  0
TABLE
  2
LTYPE
  5
5
100
AcDbSymbolTable
 70
6
  0
LTYPE
  5
14
100
AcDbSymbolTableRecord
100
AcDbLinetypeTableRecord
  2
BYBLOCK
 70
0
  3

 72
65
 73
0
 40
0.0
  0
LTYPE
  5
15
100
AcDbSymbolTableRecord
100
AcDbLinetypeTableRecord
  2
BYLAYER
 70
0
  3

 72
65
 73
0
 40
0.0
  0
LTYPE
  5
16
100
AcDbSymbolTableRecord
100
AcDbLinetypeTableRecord
  2
CONTINUOUS
 70
64
  3
Solid line
 72
65
 73
0
 40
0.0
  0
LTYPE
  5
1F5
100
AcDbSymbolTableRecord
100
AcDbLinetypeTableRecord
  2
CENTER
 70
64
  3
____ _ ____ _ ____ _ ____ _ ____ _ ____ _ ____
 72
65
 73
4
 40
0.6
 49
0.375
 74
0
 49
-0.075
 74
0
 49
0.075
 74
0
 49
-0.075
 74
0
  0
LTYPE
  5
1F6
100
AcDbSymbolTableRecord
100
AcDbLinetypeTableRecord
  2
HIDDEN
 70
64
  3
- - - - - - - - - - - - - - - - - - - -
 72
65
 73
2
 40
0.2
 49
0.1
 74
0
 49
-0.1
 74
0
  0
LTYPE
  5
1F7
100
AcDbSymbolTableRecord
100
AcDbLinetypeTableRecord
  2
PHANTOM
 70
64
  3
_____ _ _ _____ _ _ _____ _ _ _____
 72
65
 73
6
 40
0.8
 49
0.45
 74
0
 49
-0.05
 74
0
 49
0.1
 74
0
 49
-0.05
 74
0
 49
0.1
 74
0
 49
-0.05
 74
0
  0
LTYPE
  5
1F8
100
AcDbSymbolTableRecord
100
AcDbLinetypeTableRecord
  2
DOT
 70
64
  3
. . . . . . . . . . . . . . . . . . . .
 72
65
 73
2
 40
0.2
 49
0.1
 74
0
 49
-0.1
 74
0
  0
LTYPE
  5
1F9
100
AcDbSymbolTableRecord
100
AcDbLinetypeTableRecord
  2
DASHED
 70
64
  3
- - - - - - - - - - - - - - - - - - - -
 72
65
 73
2
 40
0.2
 49
0.1
 74
0
 49
-0.1
 74
0
  0
ENDTAB
  0
TABLE
  2
LAYER
  5
2
100
AcDbSymbolTable
 70
36
  0
LAYER
  5
10
100
AcDbSymbolTableRecord
100
AcDbLayerTableRecord
  2
0
 70
0
 62
7
  6
CONTINUOUS
370
-3
390
F
  0
LAYER
  5
1FA
100
AcDbSymbolTableRecord
100
AcDbLayerTableRecord
  2
DEFAULT_1
 70
0
 62
7
  6
CENTER
370
-3
390
F
  0
LAYER
  5
1FB
100
AcDbSymbolTableRecord
100
AcDbLayerTableRecord
  2
DEFAULT_2
 70
0
 62
8
  6
HIDDEN
370
-3
390
F
  0
LAYER
  5
1FC
100
AcDbSymbolTableRecord
100
AcDbLayerTableRecord
  2
DEFAULT_3
 70
0
 62
7
  6
PHANTOM
370
-3
390
F
  0
LAYER
  5
1FD
100
AcDbSymbolTableRecord
100
AcDbLayerTableRecord
  2
DEFAULT_COORDINATE_SYSTEM
 70
0
 62
7
  6
CONTINUOUS
370
-3
390
F
  0
LAYER
  5
1FE
100
AcDbSymbolTableRecord
100
AcDbLayerTableRecord
  2
DEFAULT_DATUM_AXES
 70
0
 62
7
  6
CONTINUOUS
370
-3
390
F
  0
LAYER
  5
1FF
100
AcDbSymbolTableRecord
100
AcDbLayerTableRecord
  2
DEFAULT_DATUM_CURVES
 70
0
 62
7
  6
CONTINUOUS
370
-3
390
F
  0
LAYER
  5
200
100
AcDbSymbolTableRecord
100
AcDbLayerTableRecord
  2
DEFAULT_DATUM_PLANES
 70
0
 62
7
  6
CONTINUOUS
370
-3
390
F
  0
ENDTAB
  0
TABLE
  2
STYLE
  5
3
100
AcDbSymbolTable
 70
1
  0
STYLE
  5
11
100
AcDbSymbolTableRecord
100
AcDbTextStyleTableRecord
  2
STANDARD
 70
0
 40
0.0
 41
0.8
 50
0.0
 71
0
 42
0.2
  3
txt
  4

  0
STYLE
  5
201
100
AcDbSymbolTableRecord
100
AcDbTextStyleTableRecord
  2
TEXTSTYLE_1
 70
0
 40
0.0
 41
0.8
 50
0.0
 71
0
 42
0.2
  3
gdt
  4

  0
ENDTAB
  0
TABLE
  2
VIEW
  5
6
100
AcDbSymbolTable
 70
0
  0
ENDTAB
  0
TABLE
  2
UCS
  5
7
100
AcDbSymbolTable
 70
0
  0
ENDTAB
  0
TABLE
  2
APPID
  5
9
100
AcDbSymbolTable
 70
1
  0
APPID
  5
202
100
AcDbSymbolTableRecord
100
AcDbRegAppTableRecord
  2
ACAD
 70
0
  0
ENDTAB
  0
TABLE
  2
BLOCK_RECORD
  5
1
100
AcDbSymbolTable
 70
0
  0
BLOCK_RECORD
  5
203
100
AcDbSymbolTableRecord
100
AcDbBlockTableRecord
  2
*Model_Space
  0
BLOCK_RECORD
  5
204
100
AcDbSymbolTableRecord
100
AcDbBlockTableRecord
  2
*Paper_Space
  0
BLOCK_RECORD
  5
205
100
AcDbSymbolTableRecord
100
AcDbBlockTableRecord
  2
_FILLED
  0
ENDTAB
  0
TABLE
  2
DIMSTYLE
  5
A
100
AcDbSymbolTable
 70
1
100
AcDbDimStyleTable
 71
0
  0
DIMSTYLE
105
206
100
AcDbSymbolTableRecord
100
AcDbDimStyleTableRecord
  2
STANDARD
 70
0
  3

  4

 40
1.0
 41
0.1
 42
0.0625
 43
0.38
 44
0.125
 45
0.0
 46
0.0
 47
0.001
 48
0.001
140
0.08
141
0.09
142
0.0
143
25.4
144
1.0
145
0.0
146
1.0
147
0.09
 71
1
 72
0
 73
1
 74
1
 75
0
 76
0
 77
0
 78
4
 79
1
170
1
171
2
172
0
173
0
174
0
175
0
176
0
177
0
178
0
270
2
179
3
271
3
272
3
273
2
274
2
275
0
280
0
281
0
282
0
283
1
284
4
285
0
286
0
287
3
288
0
340
11
278
46
341
205
342
205
343
205
344
205
  0
ENDTAB
  0
ENDSEC
  0
SECTION
  2
BLOCKS
  0
BLOCK
  5
20
100
AcDbEntity
  8
0
100
AcDbBlockBegin
  2
*Model_Space
 70
0
 10
0.0
 20
0.0
 30
0.0
  3
*Model_Space
  1

  0
ENDBLK
  5
21
100
AcDbEntity
  8
0
100
AcDbBlockEnd
  0
BLOCK
  5
1C
100
AcDbEntity
  8
0
100
AcDbBlockBegin
  2
*Paper_Space
 70
0
 10
0.0
 20
0.0
 30
0.0
  3
*Paper_Space
  1

  0
ENDBLK
  5
1D
100
AcDbEntity
  8
0
100
AcDbBlockEnd
  0
BLOCK
  5
207
100
AcDbEntity
  8
0
100
AcDbBlockBegin
  2
_FILLED
 70
64
 10
0.0
 20
0.0
  3
_FILLED
  1

  0
SOLID
  5
208
100
AcDbEntity
  8
0
  6
BYBLOCK
 62
0
100
AcDbTrace
 10
0.0
 20
0.0
 11
-1.0
 21
0.2
 12
-1.0
 22
-0.2
 13
-1.0
 23
-0.2
  0
ENDBLK
  5
209
100
AcDbEntity
  8
0
  6
BYBLOCK
 62
0
100
AcDbBlockEnd
  0
ENDSEC
  0
SECTION
  2
ENTITIES
  0
MTEXT
  5
20A
100
AcDbEntity
  8
0
100
AcDbMText
 62
2
  6
CONTINUOUS
  7
STANDARD
 71
3
 72
1
 10
5.5924238514
 20
1.2439717549
 30
0.0
 11
1.0
 21
0.0
 31
0.0
 73
2
 44
0.9
  1
SCALE 0.500
 40
0.08
 41
0.704
  0
LINE
  5
20B
100
AcDbEntity
  8
0
100
AcDbLine
 62
7
  6
CONTINUOUS
 10
0.0
 20
0.0
 11
0.0
 21
8.5
  0
LINE
  5
20C
100
AcDbEntity
  8
0
100
AcDbLine
 62
7
  6
CONTINUOUS
 10
0.0
 20
0.0
 11
11.0
 21
0.0
  0
LINE
  5
20D
100
AcDbEntity
  8
0
100
AcDbLine
 62
7
  6
CONTINUOUS
 10
0.0
 20
8.5
 11
11.0
 21
8.5
  0
LINE
  5
20E
100
AcDbEntity
  8
0
100
AcDbLine
 62
7
  6
CONTINUOUS
 10
11.0
 20
0.0
 11
11.0
 21
8.5
  0
LINE
  5
20F
100
AcDbEntity
  8
0
100
AcDbLine
 62
7
  6
CONTINUOUS
 10
6.0814531287
 20
2.1057334688
 11
7.2064531287
 21
2.1057334688
  0
LINE
  5
210
100
AcDbEntity
  8
0
100
AcDbLine
 62
7
  6
CONTINUOUS
 10
6.0814531287
 20
2.1407334688
 11
7.2064531287
 21
2.1407334688
  0
LINE
  5
211
100
AcDbEntity
  8
0
100
AcDbLine
 62
7
  6
CONTINUOUS
 10
6.0814531287
 20
2.1432334688
 11
6.081664894
 21
2.1432334688
  0
LINE
  5
212
100
AcDbEntity
  8
0
100
AcDbLine
 62
7
  6
CONTINUOUS
 10
7.2062413633
 20
2.1432334688
 11
7.2064531287
 21
2.1432334688
  0
LINE
  5
213
100
AcDbEntity
  8
0
100
AcDbLine
 62
7
  6
CONTINUOUS
 10
7.1914531287
 20
2.1557334688
 11
6.0964531287
 21
2.1557334688
  0
LINE
  5
214
100
AcDbEntity
  8
0
100
AcDbLine
 62
7
  6
CONTINUOUS
 10
6.0961927726
 20
2.1557334688
 11
6.0939531287
 21
2.1557334688
  0
LINE
  5
215
100
AcDbEntity
  8
0
100
AcDbLine
 62
7
  6
CONTINUOUS
 10
7.1917134847
 20
2.1557334688
 11
7.1939531287
 21
2.1557334688
  0
LINE
  5
216
100
AcDbEntity
  8
0
100
AcDbLine
 62
7
  6
CONTINUOUS
 10
7.1664531287
 20
2.1807334688
 11
6.1214531287
 21
2.1807334688
  0
LINE
  5
217
100
AcDbEntity
  8
0
100
AcDbLine
 62
7
  6
CONTINUOUS
 10
6.1214531287
 20
2.2657334688
 11
7.1664531287
 21
2.2657334688
  0
LINE
  5
218
100
AcDbEntity
  8
0
100
AcDbLine
 62
7
  6
CONTINUOUS
 10
6.1214531287
 20
2.2682334688
 11
6.121664894
 21
2.2682334688
  0
LINE
  5
219
100
AcDbEntity
  8
0
100
AcDbLine
 62
7
  6
CONTINUOUS
 10
7.1662413633
 20
2.2682334688
 11
7.1664531287
 21
2.2682334688
  0
LINE
  5
21A
100
AcDbEntity
  8
0
100
AcDbLine
 62
7
  6
CONTINUOUS
 10
6.1339531287
 20
2.2807334688
 11
7.1539531287
 21
2.2807334688
  0
LINE
  5
21B
100
AcDbEntity
  8
0
100
AcDbLine
 62
7
  6
CONTINUOUS
 10
6.4152031287
 20
2.2857334688
 11
6.8727031287
 21
2.2857334688
  0
LINE
  5
21C
100
AcDbEntity
  8
0
100
AcDbLine
 62
7
  6
CONTINUOUS
 10
6.4002031287
 20
2.3007334688
 11
6.8877031287
 21
2.3007334688
  0
LINE
  5
21D
100
AcDbEntity
  8
0
100
AcDbLine
 62
7
  6
CONTINUOUS
 10
3.5648086811
 20
4.7579284628
 11
3.5675921431
 21
4.7777338241
  0
LINE
  5
21E
100
AcDbEntity
  8
0
100
AcDbLine
 62
7
  6
CONTINUOUS
 10
3.6142151319
 20
5.1094736272
 11
3.6169985939
 21
5.1292789885
  0
LINE
  5
21F
100
AcDbEntity
  8
0
100
AcDbLine
 62
7
  6
CONTINUOUS
 10
3.6014753782
 20
4.8032666732
 11
3.6397479809
 21
5.0755903921
  0
LINE
  5
220
100
AcDbEntity
  8
0
100
AcDbLine
 62
7
  6
CONTINUOUS
 10
3.6907133941
 20
5.2855405984
 11
3.669837429
 21
5.1370003881
  0
LINE
  5
221
100
AcDbEntity
  8
0
100
AcDbLine
 62
7
  6
CONTINUOUS
 10
4.1239556742
 20
5.2246523668
 11
4.103079709
 21
5.0761121565
  0
LINE
  5
222
100
AcDbEntity
  8
0
100
AcDbLine
 62
7
  6
CONTINUOUS
 10
4.0768040512
 20
4.7364635847
 11
4.1150766539
 21
5.0087873036
  0
LINE
  5
223
100
AcDbEntity
  8
0
100
AcDbLine
 62
7
  6
CONTINUOUS
 10
4.0995534382
 20
4.6827749882
 11
4.1023369002
 21
4.7025803496
  0
LINE
  5
224
100
AcDbEntity
  8
0
100
AcDbLine
 62
7
  6
CONTINUOUS
 10
4.148959889
 20
5.0343201526
 11
4.151743351
 21
5.054125514
  0
LINE
  5
225
100
AcDbEntity
  8
0
100
AcDbLine
 62
7
  6
CONTINUOUS
 10
6.4002031287
 20
3.3507334688
 11
6.8877031287
 21
3.3507334688
  0
LINE
  5
226
100
AcDbEntity
  8
0
100
AcDbLine
 62
7
  6
CONTINUOUS
 10
6.4152031287
 20
3.3657334688
 11
6.8727031287
 21
3.3657334688
  0
LINE
  5
227
100
AcDbEntity
  8
0
100
AcDbLine
 62
7
  6
CONTINUOUS
 10
6.9939531287
 20
3.3690913332
 11
6.2939531287
 21
3.3690913332
  0
LINE
  5
228
100
AcDbEntity
  8
0
100
AcDbLine
 62
7
  6
CONTINUOUS
 10
6.9910241965
 20
3.376162401
 11
6.2968820609
 21
3.376162401
  0
LINE
  5
229
100
AcDbEntity
  8
0
100
AcDbLine
 62
7
  6
CONTINUOUS
 10
6.2986247015
 20
3.3779050417
 11
6.9892815558
 21
3.3779050417
  0
LINE
  5
22A
100
AcDbEntity
  8
0
100
AcDbLine
 62
7
  6
CONTINUOUS
 10
6.4127031287
 20
3.3812334688
 11
6.8752031287
 21
3.3812334688
  0
LINE
  5
22B
100
AcDbEntity
  8
0
100
AcDbLine
 62
7
  6
CONTINUOUS
 10
6.2986247015
 20
3.3835618959
 11
6.4054409179
 21
3.3835618959
  0
LINE
  5
22C
100
AcDbEntity
  8
0
100
AcDbLine
 62
7
  6
CONTINUOUS
 10
6.8824653394
 20
3.3835618959
 11
6.9892815558
 21
3.3835618959
  0
LINE
  5
22D
100
AcDbEntity
  8
0
100
AcDbLine
 62
7
  6
CONTINUOUS
 10
6.2968820609
 20
3.3853045366
 11
6.4034731782
 21
3.3853045366
  0
LINE
  5
22E
100
AcDbEntity
  8
0
100
AcDbLine
 62
7
  6
CONTINUOUS
 10
6.8844330791
 20
3.3853045366
 11
6.9910241965
 21
3.3853045366
  0
LINE
  5
22F
100
AcDbEntity
  8
0
100
AcDbLine
 62
7
  6
CONTINUOUS
 10
6.2939531287
 20
3.3923756044
 11
6.4002800914
 21
3.3923756044
  0
LINE
  5
230
100
AcDbEntity
  8
0
100
AcDbLine
 62
7
  6
CONTINUOUS
 10
6.8876261659
 20
3.3923756044
 11
6.9939531287
 21
3.3923756044
  0
LINE
  5
231
100
AcDbEntity
  8
0
100
AcDbLine
 62
7
  6
CONTINUOUS
 10
6.4002031287
 20
3.3937334688
 11
6.5189531287
 21
3.3937334688
  0
LINE
  5
232
100
AcDbEntity
  8
0
100
AcDbLine
 62
7
  6
CONTINUOUS
 10
6.7689531287
 20
3.3937334688
 11
6.8877031287
 21
3.3937334688
  0
LINE
  5
233
100
AcDbEntity
  8
0
100
AcDbLine
 62
7
  6
CONTINUOUS
 10
6.8877031287
 20
3.4187334688
 11
6.7689531287
 21
3.4187334688
  0
LINE
  5
234
100
AcDbEntity
  8
0
100
AcDbLine
 62
7
  6
CONTINUOUS
 10
6.5189531287
 20
3.4187334688
 11
6.4002031287
 21
3.4187334688
  0
LINE
  5
235
100
AcDbEntity
  8
0
100
AcDbLine
 62
7
  6
CONTINUOUS
 10
6.2939531287
 20
3.4207334688
 11
6.4003667736
 21
3.4207334688
  0
LINE
  5
236
100
AcDbEntity
  8
0
100
AcDbLine
 62
7
  6
CONTINUOUS
 10
6.8875394838
 20
3.4207334688
 11
6.9939531287
 21
3.4207334688
  0
LINE
  5
237
100
AcDbEntity
  8
0
100
AcDbLine
 62
7
  6
CONTINUOUS
 10
6.4092137582
 20
3.4307334688
 11
6.3039531287
 21
3.4307334688
  0
LINE
  5
238
100
AcDbEntity
  8
0
100
AcDbLine
 62
7
  6
CONTINUOUS
 10
6.8786924991
 20
3.4307334688
 11
6.9839531287
 21
3.4307334688
  0
LINE
  5
239
100
AcDbEntity
  8
0
100
AcDbLine
 62
7
  6
CONTINUOUS
 10
6.8752031287
 20
3.4312334688
 11
6.7689531287
 21
3.4312334688
  0
LINE
  5
23A
100
AcDbEntity
  8
0
100
AcDbLine
 62
7
  6
CONTINUOUS
 10
6.5189531287
 20
3.4312334688
 11
6.4127031287
 21
3.4312334688
  0
LINE
  5
23B
100
AcDbEntity
  8
0
100
AcDbLine
 62
7
  6
CONTINUOUS
 10
6.9089531287
 20
3.4407334688
 11
6.8380714934
 21
3.4407334688
  0
LINE
  5
23C
100
AcDbEntity
  8
0
100
AcDbLine
 62
7
  6
CONTINUOUS
 10
6.4498347639
 20
3.4407334688
 11
6.3789531287
 21
3.4407334688
  0
LINE
  5
23D
100
AcDbEntity
  8
0
100
AcDbLine
 62
7
  6
CONTINUOUS
 10
6.4502031287
 20
3.4437334688
 11
6.5189531287
 21
3.4437334688
  0
LINE
  5
23E
100
AcDbEntity
  8
0
100
AcDbLine
 62
7
  6
CONTINUOUS
 10
6.7689531287
 20
3.4437334688
 11
6.8377031287
 21
3.4437334688
  0
LINE
  5
23F
100
AcDbEntity
  8
0
100
AcDbLine
 62
7
  6
CONTINUOUS
 10
6.5189531287
 20
3.4462334688
 11
6.7689531287
 21
3.4462334688
  0
LINE
  5
240
100
AcDbEntity
  8
0
100
AcDbLine
 62
7
  6
CONTINUOUS
 10
6.5189531287
 20
3.6662334688
 11
6.7689531287
 21
3.6662334688
  0
LINE
  5
241
100
AcDbEntity
  8
0
100
AcDbLine
 62
7
  6
CONTINUOUS
 10
6.8377031287
 20
3.6687334688
 11
6.7689531287
 21
3.6687334688
  0
LINE
  5
242
100
AcDbEntity
  8
0
100
AcDbLine
 62
7
  6
CONTINUOUS
 10
6.5189531287
 20
3.6687334688
 11
6.4502031287
 21
3.6687334688
  0
LINE
  5
243
100
AcDbEntity
  8
0
100
AcDbLine
 62
7
  6
CONTINUOUS
 10
6.9089531287
 20
3.6707334688
 11
6.8378667736
 21
3.6707334688
  0
LINE
  5
244
100
AcDbEntity
  8
0
100
AcDbLine
 62
7
  6
CONTINUOUS
 10
6.4500394838
 20
3.6707334688
 11
6.3789531287
 21
3.6707334688
  0
LINE
  5
245
100
AcDbEntity
  8
0
100
AcDbLine
 62
7
  6
CONTINUOUS
 10
6.9189531287
 20
3.6807334688
 11
6.8467137582
 21
3.6807334688
  0
LINE
  5
246
100
AcDbEntity
  8
0
100
AcDbLine
 62
7
  6
CONTINUOUS
 10
6.4411924991
 20
3.6807334688
 11
6.3689531287
 21
3.6807334688
  0
LINE
  5
247
100
AcDbEntity
  8
0
100
AcDbLine
 62
7
  6
CONTINUOUS
 10
6.4127035753
 20
3.6812334688
 11
6.5189531287
 21
3.6812334688
  0
LINE
  5
248
100
AcDbEntity
  8
0
100
AcDbLine
 62
7
  6
CONTINUOUS
 10
6.7689531287
 20
3.6812334688
 11
6.8752031287
 21
3.6812334688
  0
LINE
  5
249
100
AcDbEntity
  8
0
100
AcDbLine
 62
7
  6
CONTINUOUS
 10
6.3589531287
 20
3.6907334688
 11
6.4005714934
 21
3.6907334688
  0
LINE
  5
24A
100
AcDbEntity
  8
0
100
AcDbLine
 62
7
  6
CONTINUOUS
 10
6.8873347639
 20
3.6907334688
 11
6.9289531287
 21
3.6907334688
  0
LINE
  5
24B
100
AcDbEntity
  8
0
100
AcDbLine
 62
7
  6
CONTINUOUS
 10
6.4002031287
 20
3.6937334688
 11
6.5189531287
 21
3.6937334688
  0
LINE
  5
24C
100
AcDbEntity
  8
0
100
AcDbLine
 62
7
  6
CONTINUOUS
 10
6.7689531287
 20
3.6937334688
 11
6.8877031287
 21
3.6937334688
  0
LINE
  5
24D
100
AcDbEntity
  8
0
100
AcDbLine
 62
7
  6
CONTINUOUS
 10
6.8877031287
 20
3.7187334688
 11
6.7689531287
 21
3.7187334688
  0
LINE
  5
24E
100
AcDbEntity
  8
0
100
AcDbLine
 62
7
  6
CONTINUOUS
 10
6.5189531287
 20
3.7187334688
 11
6.4002031287
 21
3.7187334688
  0
LINE
  5
24F
100
AcDbEntity
  8
0
100
AcDbLine
 62
7
  6
CONTINUOUS
 10
6.3589531287
 20
3.7207334688
 11
6.4003667736
 21
3.7207334688
  0
LINE
  5
250
100
AcDbEntity
  8
0
100
AcDbLine
 62
7
  6
CONTINUOUS
 10
6.8875394838
 20
3.7207334688
 11
6.9289531287
 21
3.7207334688
  0
LINE
  5
251
100
AcDbEntity
  8
0
100
AcDbLine
 62
7
  6
CONTINUOUS
 10
6.9189531287
 20
3.7307334688
 11
6.8786924991
 21
3.7307334688
  0
LINE
  5
252
100
AcDbEntity
  8
0
100
AcDbLine
 62
7
  6
CONTINUOUS
 10
6.4092137582
 20
3.7307334688
 11
6.3689531287
 21
3.7307334688
  0
LINE
  5
253
100
AcDbEntity
  8
0
100
AcDbLine
 62
7
  6
CONTINUOUS
 10
6.4127031287
 20
3.7312334688
 11
6.8752031287
 21
3.7312334688
  0
LINE
  5
254
100
AcDbEntity
  8
0
100
AcDbLine
 62
7
  6
CONTINUOUS
 10
6.2968820609
 20
3.3853045366
 11
6.2986247015
 21
3.3835618959
  0
LINE
  5
255
100
AcDbEntity
  8
0
100
AcDbLine
 62
7
  6
CONTINUOUS
 10
3.5775751056
 20
4.7409868452
 11
4.0826118206
 21
4.6700085637
  0
LINE
  5
256
100
AcDbEntity
  8
0
100
AcDbLine
 62
7
  6
CONTINUOUS
 10
3.5648086811
 20
4.7579284628
 11
4.0995534382
 21
4.6827749882
  0
LINE
  5
257
100
AcDbEntity
  8
0
100
AcDbLine
 62
7
  6
CONTINUOUS
 10
3.5675921431
 20
4.7777338241
 11
4.1023369002
 21
4.7025803496
  0
LINE
  5
258
100
AcDbEntity
  8
0
100
AcDbLine
 62
7
  6
CONTINUOUS
 10
3.5845337606
 20
4.7905002486
 11
4.0895704757
 21
4.7195219672
  0
LINE
  5
259
100
AcDbEntity
  8
0
100
AcDbLine
 62
7
  6
CONTINUOUS
 10
4.0768040512
 20
4.7364635847
 11
3.6014753782
 21
4.8032666732
  0
LINE
  5
25A
100
AcDbEntity
  8
0
100
AcDbLine
 62
7
  6
CONTINUOUS
 10
4.1150766539
 20
5.0087873036
 11
3.6397479809
 21
5.0755903921
  0
LINE
  5
25B
100
AcDbEntity
  8
0
100
AcDbLine
 62
7
  6
CONTINUOUS
 10
3.6269815564
 20
5.0925320096
 11
4.1320182715
 21
5.0215537281
  0
LINE
  5
25C
100
AcDbEntity
  8
0
100
AcDbLine
 62
7
  6
CONTINUOUS
 10
3.6142151319
 20
5.1094736272
 11
4.148959889
 21
5.0343201526
  0
LINE
  5
25D
100
AcDbEntity
  8
0
100
AcDbLine
 62
7
  6
CONTINUOUS
 10
3.6169985939
 20
5.1292789885
 11
4.151743351
 21
5.054125514
  0
LINE
  5
25E
100
AcDbEntity
  8
0
100
AcDbLine
 62
7
  6
CONTINUOUS
 10
3.6339402115
 20
5.142045413
 11
4.1389769265
 21
5.0710671316
  0
LINE
  5
25F
100
AcDbEntity
  8
0
100
AcDbLine
 62
7
  6
CONTINUOUS
 10
6.9892815558
 20
3.3779050417
 11
6.9910241965
 21
3.376162401
  0
LINE
  5
260
100
AcDbEntity
  8
0
100
AcDbLine
 62
7
  6
CONTINUOUS
 10
6.0814531287
 20
2.1432334688
 11
6.0814531287
 21
2.1057334688
  0
LINE
  5
261
100
AcDbEntity
  8
0
100
AcDbLine
 62
7
  6
CONTINUOUS
 10
6.1214531287
 20
2.2682334688
 11
6.1214531287
 21
2.1807334688
  0
LINE
  5
262
100
AcDbEntity
  8
0
100
AcDbLine
 62
7
  6
CONTINUOUS
 10
6.4252031287
 20
5.0637334688
 11
6.8627031287
 21
5.0637334688
  0
LINE
  5
263
100
AcDbEntity
  8
0
100
AcDbLine
 62
7
  6
CONTINUOUS
 10
4.1239556742
 20
5.2246523668
 11
3.6907133941
 21
5.2855405984
  0
LINE
  5
264
100
AcDbEntity
  8
0
100
AcDbLine
 62
7
  6
CONTINUOUS
 10
6.2939531287
 20
3.4207334688
 11
6.2939531287
 21
3.3923756044
  0
LINE
  5
265
100
AcDbEntity
  8
0
100
AcDbLine
 62
7
  6
CONTINUOUS
 10
6.2939531287
 20
3.3690913332
 11
6.2939531287
 21
2.2807334688
  0
LINE
  5
266
100
AcDbEntity
  8
0
100
AcDbLine
 62
7
  6
CONTINUOUS
 10
6.3589531287
 20
3.7207334688
 11
6.3589531287
 21
3.6907334688
  0
LINE
  5
267
100
AcDbEntity
  8
0
100
AcDbLine
 62
7
  6
CONTINUOUS
 10
6.3789531287
 20
3.6707334688
 11
6.3789531287
 21
3.4407334688
  0
LINE
  5
268
100
AcDbEntity
  8
0
100
AcDbLine
 62
7
  6
CONTINUOUS
 10
6.4002031287
 20
3.7187334688
 11
6.4002031287
 21
3.6937334688
  0
LINE
  5
269
100
AcDbEntity
  8
0
100
AcDbLine
 62
7
  6
CONTINUOUS
 10
6.4002031287
 20
3.4187334688
 11
6.4002031287
 21
3.3937334688
  0
LINE
  5
26A
100
AcDbEntity
  8
0
100
AcDbLine
 62
7
  6
CONTINUOUS
 10
6.4002031287
 20
2.3007334688
 11
6.4002031287
 21
3.3507334688
  0
LINE
  5
26B
100
AcDbEntity
  8
0
100
AcDbLine
 62
7
  6
CONTINUOUS
 10
6.4252031287
 20
3.7312334688
 11
6.4252031287
 21
5.0637334688
  0
LINE
  5
26C
100
AcDbEntity
  8
0
100
AcDbLine
 62
7
  6
CONTINUOUS
 10
6.4314531287
 20
2.2857334688
 11
6.4314531287
 21
2.2807334688
  0
LINE
  5
26D
100
AcDbEntity
  8
0
100
AcDbLine
 62
7
  6
CONTINUOUS
 10
6.4502031287
 20
3.4437334688
 11
6.4502031287
 21
3.6687334688
  0
LINE
  5
26E
100
AcDbEntity
  8
0
100
AcDbLine
 62
7
  6
CONTINUOUS
 10
6.4786988914
 20
3.7187334688
 11
6.4786988914
 21
3.6937334688
  0
LINE
  5
26F
100
AcDbEntity
  8
0
100
AcDbLine
 62
7
  6
CONTINUOUS
 10
6.4786988914
 20
3.4187334688
 11
6.4786988914
 21
3.3937334688
  0
LINE
  5
270
100
AcDbEntity
  8
0
100
AcDbLine
 62
7
  6
CONTINUOUS
 10
6.5125971965
 20
3.4437334688
 11
6.5125971965
 21
3.6687334688
  0
LINE
  5
271
100
AcDbEntity
  8
0
100
AcDbLine
 62
7
  6
CONTINUOUS
 10
6.5189531287
 20
3.3937334688
 11
6.5189531287
 21
3.7187334688
  0
LINE
  5
272
100
AcDbEntity
  8
0
100
AcDbLine
 62
7
  6
CONTINUOUS
 10
6.5314531287
 20
3.3812334688
 11
6.5314531287
 21
3.7312334688
  0
LINE
  5
273
100
AcDbEntity
  8
0
100
AcDbLine
 62
7
  6
CONTINUOUS
 10
6.7564531287
 20
3.7312334688
 11
6.7564531287
 21
3.3812334688
  0
LINE
  5
274
100
AcDbEntity
  8
0
100
AcDbLine
 62
7
  6
CONTINUOUS
 10
6.7689531287
 20
3.7187334688
 11
6.7689531287
 21
3.3937334688
  0
LINE
  5
275
100
AcDbEntity
  8
0
100
AcDbLine
 62
7
  6
CONTINUOUS
 10
6.2986247015
 20
3.3779050417
 11
6.2968820609
 21
3.376162401
  0
LINE
  5
276
100
AcDbEntity
  8
0
100
AcDbLine
 62
7
  6
CONTINUOUS
 10
6.7753090609
 20
3.4437334688
 11
6.7753090609
 21
3.6687334688
  0
LINE
  5
277
100
AcDbEntity
  8
0
100
AcDbLine
 62
7
  6
CONTINUOUS
 10
6.809207366
 20
3.3937334688
 11
6.809207366
 21
3.4187334688
  0
LINE
  5
278
100
AcDbEntity
  8
0
100
AcDbLine
 62
7
  6
CONTINUOUS
 10
6.809207366
 20
3.6937334688
 11
6.809207366
 21
3.7187334688
  0
LINE
  5
279
100
AcDbEntity
  8
0
100
AcDbLine
 62
7
  6
CONTINUOUS
 10
6.8377031287
 20
3.4437334688
 11
6.8377031287
 21
3.6687334688
  0
LINE
  5
27A
100
AcDbEntity
  8
0
100
AcDbLine
 62
7
  6
CONTINUOUS
 10
6.8564531287
 20
2.2857334688
 11
6.8564531287
 21
2.2807334688
  0
LINE
  5
27B
100
AcDbEntity
  8
0
100
AcDbLine
 62
7
  6
CONTINUOUS
 10
6.8627031287
 20
3.7312334688
 11
6.8627031287
 21
5.0637334688
  0
LINE
  5
27C
100
AcDbEntity
  8
0
100
AcDbLine
 62
7
  6
CONTINUOUS
 10
6.8877031287
 20
3.7187334688
 11
6.8877031287
 21
3.6937334688
  0
LINE
  5
27D
100
AcDbEntity
  8
0
100
AcDbLine
 62
7
  6
CONTINUOUS
 10
6.8877031287
 20
3.4187334688
 11
6.8877031287
 21
3.3937334688
  0
LINE
  5
27E
100
AcDbEntity
  8
0
100
AcDbLine
 62
7
  6
CONTINUOUS
 10
6.8877031287
 20
2.3007334688
 11
6.8877031287
 21
3.3507334688
  0
LINE
  5
27F
100
AcDbEntity
  8
0
100
AcDbLine
 62
7
  6
CONTINUOUS
 10
6.9089531287
 20
3.6707334688
 11
6.9089531287
 21
3.4407334688
  0
LINE
  5
280
100
AcDbEntity
  8
0
100
AcDbLine
 62
7
  6
CONTINUOUS
 10
6.9289531287
 20
3.7207334688
 11
6.9289531287
 21
3.6907334688
  0
LINE
  5
281
100
AcDbEntity
  8
0
100
AcDbLine
 62
7
  6
CONTINUOUS
 10
6.9939531287
 20
3.4207334688
 11
6.9939531287
 21
3.3923756044
  0
LINE
  5
282
100
AcDbEntity
  8
0
100
AcDbLine
 62
7
  6
CONTINUOUS
 10
6.9939531287
 20
3.3690913332
 11
6.9939531287
 21
2.2807334688
  0
LINE
  5
283
100
AcDbEntity
  8
0
100
AcDbLine
 62
7
  6
CONTINUOUS
 10
7.1664531287
 20
2.2682334688
 11
7.1664531287
 21
2.1807334688
  0
LINE
  5
284
100
AcDbEntity
  8
0
100
AcDbLine
 62
7
  6
CONTINUOUS
 10
7.2064531287
 20
2.1432334688
 11
7.2064531287
 21
2.1057334688
  0
LINE
  5
285
100
AcDbEntity
  8
0
100
AcDbLine
 62
7
  6
CONTINUOUS
 10
6.9910241965
 20
3.3853045366
 11
6.9892815558
 21
3.3835618959
  0
ARC
  5
286
100
AcDbEntity
  8
0
100
AcDbCircle
 62
7
  6
CONTINUOUS
 10
5.2689531287
 20
5.0637334688
 40
1.59375
100
AcDbArc
 50
0.0
 51
172.0
  0
ARC
  5
287
100
AcDbEntity
  8
0
100
AcDbCircle
 62
7
  6
CONTINUOUS
 10
5.2689531287
 20
5.0637334688
 40
1.15625
100
AcDbArc
 50
0.0
 51
172.0
  0
ARC
  5
288
100
AcDbEntity
  8
0
100
AcDbCircle
 62
7
  6
CONTINUOUS
 10
3.631852615
 20
5.127191392
 40
0.015
100
AcDbArc
 50
82.0
 51
172.0
  0
ARC
  5
289
100
AcDbEntity
  8
0
100
AcDbCircle
 62
7
  6
CONTINUOUS
 10
4.13688933
 20
5.0562131105
 40
0.015
100
AcDbArc
 50
352.0
 51
82.0
  0
ARC
  5
28A
100
AcDbEntity
  8
0
100
AcDbCircle
 62
7
  6
CONTINUOUS
 10
3.5796627021
 20
4.7558408662
 40
0.015
100
AcDbArc
 50
172.0
 51
262.0
  0
ARC
  5
28B
100
AcDbEntity
  8
0
100
AcDbCircle
 62
7
  6
CONTINUOUS
 10
4.0846994172
 20
4.6848625847
 40
0.015
100
AcDbArc
 50
262.0
 51
352.0
  0
ARC
  5
28C
100
AcDbEntity
  8
0
100
AcDbCircle
 62
7
  6
CONTINUOUS
 10
3.5824461641
 20
4.7756462276
 40
0.015
100
AcDbArc
 50
82.0
 51
172.0
  0
ARC
  5
28D
100
AcDbEntity
  8
0
100
AcDbCircle
 62
7
  6
CONTINUOUS
 10
4.0874828792
 20
4.7046679461
 40
0.015
100
AcDbArc
 50
352.0
 51
82.0
  0
ARC
  5
28E
100
AcDbEntity
  8
0
100
AcDbCircle
 62
7
  6
CONTINUOUS
 10
4.0916580722
 20
4.7343759882
 40
0.015
100
AcDbArc
 50
172.0
 51
262.0
  0
ARC
  5
28F
100
AcDbEntity
  8
0
100
AcDbCircle
 62
7
  6
CONTINUOUS
 10
3.5866213571
 20
4.8053542697
 40
0.015
100
AcDbArc
 50
262.0
 51
352.0
  0
ARC
  5
290
100
AcDbEntity
  8
0
100
AcDbCircle
 62
7
  6
CONTINUOUS
 10
4.129930675
 20
5.0066997071
 40
0.015
100
AcDbArc
 50
82.0
 51
172.0
  0
ARC
  5
291
100
AcDbEntity
  8
0
100
AcDbCircle
 62
7
  6
CONTINUOUS
 10
3.6248939599
 20
5.0776779886
 40
0.015
100
AcDbArc
 50
352.0
 51
82.0
  0
ARC
  5
292
100
AcDbEntity
  8
0
100
AcDbCircle
 62
7
  6
CONTINUOUS
 10
3.6290691529
 20
5.1073860306
 40
0.015
100
AcDbArc
 50
172.0
 51
262.0
  0
ARC
  5
293
100
AcDbEntity
  8
0
100
AcDbCircle
 62
7
  6
CONTINUOUS
 10
4.134105868
 20
5.0364077491
 40
0.015
100
AcDbArc
 50
262.0
 51
352.0
  0
ARC
  5
294
100
AcDbEntity
  8
0
100
AcDbCircle
 62
7
  6
CONTINUOUS
 10
6.0964531287
 20
2.1807334688
 40
0.025
100
AcDbArc
 50
270.0
 51
360.0
  0
ARC
  5
295
100
AcDbEntity
  8
0
100
AcDbCircle
 62
7
  6
CONTINUOUS
 10
6.4152031287
 20
2.3007334688
 40
0.015
100
AcDbArc
 50
180.0
 51
270.0
  0
ARC
  5
296
100
AcDbEntity
  8
0
100
AcDbCircle
 62
7
  6
CONTINUOUS
 10
6.1364531287
 20
2.2657334688
 40
0.015
100
AcDbArc
 50
90.0
 51
180.0
  0
ARC
  5
297
100
AcDbEntity
  8
0
100
AcDbCircle
 62
7
  6
CONTINUOUS
 10
6.0964531287
 20
2.1407334688
 40
0.015
100
AcDbArc
 50
90.0
 51
180.0
  0
ARC
  5
298
100
AcDbEntity
  8
0
100
AcDbCircle
 62
7
  6
CONTINUOUS
 10
6.1339531287
 20
2.2682334688
 40
0.0125
100
AcDbArc
 50
90.0
 51
180.0
  0
ARC
  5
299
100
AcDbEntity
  8
0
100
AcDbCircle
 62
7
  6
CONTINUOUS
 10
6.0939531287
 20
2.1432334688
 40
0.0125
100
AcDbArc
 50
90.0
 51
180.0
  0
ARC
  5
29A
100
AcDbEntity
  8
0
100
AcDbCircle
 62
7
  6
CONTINUOUS
 10
6.4152031287
 20
3.3507334688
 40
0.015
100
AcDbArc
 50
90.0
 51
180.0
  0
ARC
  5
29B
100
AcDbEntity
  8
0
100
AcDbCircle
 62
7
  6
CONTINUOUS
 10
6.4127031287
 20
3.3937334688
 40
0.0125
100
AcDbArc
 50
180.0
 51
270.0
  0
ARC
  5
29C
100
AcDbEntity
  8
0
100
AcDbCircle
 62
7
  6
CONTINUOUS
 10
6.4377031287
 20
3.4437334688
 40
0.0125
100
AcDbArc
 50
270.0
 51
360.0
  0
ARC
  5
29D
100
AcDbEntity
  8
0
100
AcDbCircle
 62
7
  6
CONTINUOUS
 10
6.4127031287
 20
3.4187334688
 40
0.0125
100
AcDbArc
 50
90.0
 51
180.0
  0
ARC
  5
29E
100
AcDbEntity
  8
0
100
AcDbCircle
 62
7
  6
CONTINUOUS
 10
6.5314531287
 20
3.3937334688
 40
0.0125
100
AcDbArc
 50
180.0
 51
270.0
  0
ARC
  5
29F
100
AcDbEntity
  8
0
100
AcDbCircle
 62
7
  6
CONTINUOUS
 10
6.3039531287
 20
3.3690913332
 40
0.01
100
AcDbArc
 50
135.0
 51
180.0
  0
ARC
  5
2A0
100
AcDbEntity
  8
0
100
AcDbCircle
 62
7
  6
CONTINUOUS
 10
6.3039531287
 20
3.3923756044
 40
0.01
100
AcDbArc
 50
180.0
 51
225.0
  0
ARC
  5
2A1
100
AcDbEntity
  8
0
100
AcDbCircle
 62
7
  6
CONTINUOUS
 10
6.3689531287
 20
3.4407334688
 40
0.01
100
AcDbArc
 50
270.0
 51
360.0
  0
ARC
  5
2A2
100
AcDbEntity
  8
0
100
AcDbCircle
 62
7
  6
CONTINUOUS
 10
6.3039531287
 20
3.4207334688
 40
0.01
100
AcDbArc
 50
90.0
 51
180.0
  0
ARC
  5
2A3
100
AcDbEntity
  8
0
100
AcDbCircle
 62
7
  6
CONTINUOUS
 10
6.2957962744
 20
3.3807334688
 40
0.004
100
AcDbArc
 50
315.0
 51
45.0
  0
ARC
  5
2A4
100
AcDbEntity
  8
0
100
AcDbCircle
 62
7
  6
CONTINUOUS
 10
7.1914531287
 20
2.1807334688
 40
0.025
100
AcDbArc
 50
180.0
 51
270.0
  0
ARC
  5
2A5
100
AcDbEntity
  8
0
100
AcDbCircle
 62
7
  6
CONTINUOUS
 10
6.8727031287
 20
2.3007334688
 40
0.015
100
AcDbArc
 50
270.0
 51
360.0
  0
ARC
  5
2A6
100
AcDbEntity
  8
0
100
AcDbCircle
 62
7
  6
CONTINUOUS
 10
7.1514531287
 20
2.2657334688
 40
0.015
100
AcDbArc
 50
0.0
 51
90.0
  0
ARC
  5
2A7
100
AcDbEntity
  8
0
100
AcDbCircle
 62
7
  6
CONTINUOUS
 10
7.1914531287
 20
2.1407334688
 40
0.015
100
AcDbArc
 50
0.0
 51
90.0
  0
ARC
  5
2A8
100
AcDbEntity
  8
0
100
AcDbCircle
 62
7
  6
CONTINUOUS
 10
7.1539531287
 20
2.2682334688
 40
0.0125
100
AcDbArc
 50
0.0
 51
90.0
  0
ARC
  5
2A9
100
AcDbEntity
  8
0
100
AcDbCircle
 62
7
  6
CONTINUOUS
 10
7.1939531287
 20
2.1432334688
 40
0.0125
100
AcDbArc
 50
0.0
 51
90.0
  0
ARC
  5
2AA
100
AcDbEntity
  8
0
100
AcDbCircle
 62
7
  6
CONTINUOUS
 10
6.8727031287
 20
3.3507334688
 40
0.015
100
AcDbArc
 50
0.0
 51
90.0
  0
ARC
  5
2AB
100
AcDbEntity
  8
0
100
AcDbCircle
 62
7
  6
CONTINUOUS
 10
6.8752031287
 20
3.3937334688
 40
0.0125
100
AcDbArc
 50
270.0
 51
360.0
  0
ARC
  5
2AC
100
AcDbEntity
  8
0
100
AcDbCircle
 62
7
  6
CONTINUOUS
 10
6.8502031287
 20
3.4437334688
 40
0.0125
100
AcDbArc
 50
180.0
 51
270.0
  0
ARC
  5
2AD
100
AcDbEntity
  8
0
100
AcDbCircle
 62
7
  6
CONTINUOUS
 10
6.8752031287
 20
3.4187334688
 40
0.0125
100
AcDbArc
 50
0.0
 51
90.0
  0
ARC
  5
2AE
100
AcDbEntity
  8
0
100
AcDbCircle
 62
7
  6
CONTINUOUS
 10
6.7564531287
 20
3.3937334688
 40
0.0125
100
AcDbArc
 50
270.0
 51
360.0
  0
ARC
  5
2AF
100
AcDbEntity
  8
0
100
AcDbCircle
 62
7
  6
CONTINUOUS
 10
6.9839531287
 20
3.3690913332
 40
0.01
100
AcDbArc
 50
0.0
 51
45.0
  0
ARC
  5
2B0
100
AcDbEntity
  8
0
100
AcDbCircle
 62
7
  6
CONTINUOUS
 10
6.9839531287
 20
3.3923756044
 40
0.01
100
AcDbArc
 50
315.0
 51
360.0
  0
ARC
  5
2B1
100
AcDbEntity
  8
0
100
AcDbCircle
 62
7
  6
CONTINUOUS
 10
6.9189531287
 20
3.4407334688
 40
0.01
100
AcDbArc
 50
180.0
 51
270.0
  0
ARC
  5
2B2
100
AcDbEntity
  8
0
100
AcDbCircle
 62
7
  6
CONTINUOUS
 10
6.9839531287
 20
3.4207334688
 40
0.01
100
AcDbArc
 50
0.0
 51
90.0
  0
ARC
  5
2B3
100
AcDbEntity
  8
0
100
AcDbCircle
 62
7
  6
CONTINUOUS
 10
6.9921099829
 20
3.3807334688
 40
0.004
100
AcDbArc
 50
135.0
 51
225.0
  0
ARC
  5
2B4
100
AcDbEntity
  8
0
100
AcDbCircle
 62
7
  6
CONTINUOUS
 10
6.8752031287
 20
3.7187334688
 40
0.0125
100
AcDbArc
 50
0.0
 51
90.0
  0
ARC
  5
2B5
100
AcDbEntity
  8
0
100
AcDbCircle
 62
7
  6
CONTINUOUS
 10
6.4127031287
 20
3.7187334688
 40
0.0125
100
AcDbArc
 50
90.0
 51
180.0
  0
ARC
  5
2B6
100
AcDbEntity
  8
0
100
AcDbCircle
 62
7
  6
CONTINUOUS
 10
6.4377031287
 20
3.6687334688
 40
0.0125
100
AcDbArc
 50
0.0
 51
90.0
  0
ARC
  5
2B7
100
AcDbEntity
  8
0
100
AcDbCircle
 62
7
  6
CONTINUOUS
 10
6.8502031287
 20
3.6687334688
 40
0.0125
100
AcDbArc
 50
90.0
 51
180.0
  0
ARC
  5
2B8
100
AcDbEntity
  8
0
100
AcDbCircle
 62
7
  6
CONTINUOUS
 10
6.8752031287
 20
3.6937334688
 40
0.0125
100
AcDbArc
 50
270.0
 51
360.0
  0
ARC
  5
2B9
100
AcDbEntity
  8
0
100
AcDbCircle
 62
7
  6
CONTINUOUS
 10
6.4127031287
 20
3.6937334688
 40
0.0125
100
AcDbArc
 50
180.0
 51
270.0
  0
ARC
  5
2BA
100
AcDbEntity
  8
0
100
AcDbCircle
 62
7
  6
CONTINUOUS
 10
6.5314531287
 20
3.7187334688
 40
0.0125
100
AcDbArc
 50
90.0
 51
180.0
  0
ARC
  5
2BB
100
AcDbEntity
  8
0
100
AcDbCircle
 62
7
  6
CONTINUOUS
 10
6.7564531287
 20
3.7187334688
 40
0.0125
100
AcDbArc
 50
0.0
 51
90.0
  0
ARC
  5
2BC
100
AcDbEntity
  8
0
100
AcDbCircle
 62
7
  6
CONTINUOUS
 10
6.3689531287
 20
3.7207334688
 40
0.01
100
AcDbArc
 50
90.0
 51
180.0
  0
ARC
  5
2BD
100
AcDbEntity
  8
0
100
AcDbCircle
 62
7
  6
CONTINUOUS
 10
6.9189531287
 20
3.7207334688
 40
0.01
100
AcDbArc
 50
0.0
 51
90.0
  0
ARC
  5
2BE
100
AcDbEntity
  8
0
100
AcDbCircle
 62
7
  6
CONTINUOUS
 10
6.3689531287
 20
3.6707334688
 40
0.01
100
AcDbArc
 50
0.0
 51
90.0
  0
ARC
  5
2BF
100
AcDbEntity
  8
0
100
AcDbCircle
 62
7
  6
CONTINUOUS
 10
6.9189531287
 20
3.6707334688
 40
0.01
100
AcDbArc
 50
90.0
 51
180.0
  0
ARC
  5
2C0
100
AcDbEntity
  8
0
100
AcDbCircle
 62
7
  6
CONTINUOUS
 10
6.3689531287
 20
3.6907334688
 40
0.01
100
AcDbArc
 50
180.0
 51
270.0
  0
ARC
  5
2C1
100
AcDbEntity
  8
0
100
AcDbCircle
 62
7
  6
CONTINUOUS
 10
6.9189531287
 20
3.6907334688
 40
0.01
100
AcDbArc
 50
270.0
 51
360.0
  0
SPLINE
  5
2C2
100
AcDbEntity
  8
0
100
AcDbSpline
 62
7
  6
CONTINUOUS
 70
0
 71
3
 72
18
 73
14
 74
0
 42
0.0000001
 43
0.0000001
 44
0.0000000001
 40
0.0
 40
0.0
 40
0.0
 40
0.0
 40
0.1471478117
 40
0.2912754069
 40
0.4296630245
 40
0.5601677542
 40
0.6815637034
 40
0.7388870299
 40
0.7940757033
 40
0.8473818119
 40
0.8991577426
 40
0.949863255
 40
1.0
 40
1.0
 40
1.0
 40
1.0
 10
6.4786988914
 20
3.6937334688
 30
0.0
 10
6.4786988914
 20
3.6929187663
 30
0.0
 10
6.4788055477
 20
3.6913039522
 30
0.0
 10
6.4792812415
 20
3.6889657596
 30
0.0
 10
6.4800552267
 20
3.6868046577
 30
0.0
 10
6.4810996312
 20
3.6849018846
 30
0.0
 10
6.4821879421
 20
3.6835642647
 30
0.0
 10
6.4831581309
 20
3.6827027931
 30
0.0
 10
6.4839117351
 20
3.6821745702
 30
0.0
 10
6.4846977706
 20
3.6817576555
 30
0.0
 10
6.4855088454
 20
3.6814563604
 30
0.0
 10
6.4863367297
 20
3.6812742189
 30
0.0
 10
6.4868958792
 20
3.6812334688
 30
0.0
 10
6.4871734676
 20
3.6812334688
 30
0.0
  0
SPLINE
  5
2C3
100
AcDbEntity
  8
0
100
AcDbSpline
 62
7
  6
CONTINUOUS
 70
0
 71
3
 72
18
 73
14
 74
0
 42
0.0000001
 43
0.0000001
 44
0.0000000001
 40
0.0
 40
0.0
 40
0.0
 40
0.0
 40
0.1471478117
 40
0.2912754069
 40
0.4296630245
 40
0.5601677542
 40
0.6815637034
 40
0.7388870299
 40
0.7940757033
 40
0.8473818119
 40
0.8991577426
 40
0.949863255
 40
1.0
 40
1.0
 40
1.0
 40
1.0
 10
6.4786988914
 20
3.4187334688
 30
0.0
 10
6.4786988914
 20
3.4195481713
 30
0.0
 10
6.4788055477
 20
3.4211629854
 30
0.0
 10
6.4792812415
 20
3.423501178
 30
0.0
 10
6.4800552267
 20
3.4256622799
 30
0.0
 10
6.4810996312
 20
3.427565053
 30
0.0
 10
6.4821879421
 20
3.4289026729
 30
0.0
 10
6.4831581309
 20
3.4297641445
 30
0.0
 10
6.4839117351
 20
3.4302923674
 30
0.0
 10
6.4846977706
 20
3.4307092821
 30
0.0
 10
6.4855088454
 20
3.4310105772
 30
0.0
 10
6.4863367297
 20
3.4311927187
 30
0.0
 10
6.4868958792
 20
3.4312334688
 30
0.0
 10
6.4871734676
 20
3.4312334688
 30
0.0
  0
SPLINE
  5
2C4
100
AcDbEntity
  8
0
100
AcDbSpline
 62
7
  6
CONTINUOUS
 70
0
 71
3
 72
18
 73
14
 74
0
 42
0.0000001
 43
0.0000001
 44
0.0000000001
 40
0.0
 40
0.0
 40
0.0
 40
0.0
 40
0.1471478117
 40
0.2912754069
 40
0.4296630245
 40
0.5601677542
 40
0.6815637034
 40
0.7388870299
 40
0.7940757033
 40
0.8473818119
 40
0.8991577426
 40
0.949863255
 40
1.0
 40
1.0
 40
1.0
 40
1.0
 10
6.809207366
 20
3.4187334688
 30
0.0
 10
6.809207366
 20
3.4195481713
 30
0.0
 10
6.8091007096
 20
3.4211629854
 30
0.0
 10
6.8086250159
 20
3.423501178
 30
0.0
 10
6.8078510306
 20
3.4256622799
 30
0.0
 10
6.8068066262
 20
3.427565053
 30
0.0
 10
6.8057183152
 20
3.4289026729
 30
0.0
 10
6.8047481264
 20
3.4297641445
 30
0.0
 10
6.8039945222
 20
3.4302923674
 30
0.0
 10
6.8032084867
 20
3.4307092821
 30
0.0
 10
6.802397412
 20
3.4310105772
 30
0.0
 10
6.8015695276
 20
3.4311927187
 30
0.0
 10
6.8010103781
 20
3.4312334688
 30
0.0
 10
6.8007327897
 20
3.4312334688
 30
0.0
  0
SPLINE
  5
2C5
100
AcDbEntity
  8
0
100
AcDbSpline
 62
7
  6
CONTINUOUS
 70
0
 71
3
 72
18
 73
14
 74
0
 42
0.0000001
 43
0.0000001
 44
0.0000000001
 40
0.0
 40
0.0
 40
0.0
 40
0.0
 40
0.1471478117
 40
0.2912754069
 40
0.4296630245
 40
0.5601677542
 40
0.6815637034
 40
0.7388870299
 40
0.7940757033
 40
0.8473818119
 40
0.8991577426
 40
0.949863255
 40
1.0
 40
1.0
 40
1.0
 40
1.0
 10
6.809207366
 20
3.6937334688
 30
0.0
 10
6.809207366
 20
3.6929187663
 30
0.0
 10
6.8091007096
 20
3.6913039522
 30
0.0
 10
6.8086250159
 20
3.6889657596
 30
0.0
 10
6.8078510306
 20
3.6868046577
 30
0.0
 10
6.8068066262
 20
3.6849018846
 30
0.0
 10
6.8057183152
 20
3.6835642647
 30
0.0
 10
6.8047481264
 20
3.6827027931
 30
0.0
 10
6.8039945222
 20
3.6821745702
 30
0.0
 10
6.8032084867
 20
3.6817576555
 30
0.0
 10
6.802397412
 20
3.6814563604
 30
0.0
 10
6.8015695276
 20
3.6812742189
 30
0.0
 10
6.8010103781
 20
3.6812334688
 30
0.0
 10
6.8007327897
 20
3.6812334688
 30
0.0
  0
SPLINE
  5
2C6
100
AcDbEntity
  8
0
100
AcDbSpline
 62
7
  6
CONTINUOUS
 70
0
 71
3
 72
18
 73
14
 74
0
 42
0.0000001
 43
0.0000001
 44
0.0000000001
 40
0.0
 40
0.0
 40
0.0
 40
0.0
 40
0.050136745
 40
0.1008422574
 40
0.1526181881
 40
0.2059242967
 40
0.2611129701
 40
0.3184362966
 40
0.4398322458
 40
0.5703369755
 40
0.7087245931
 40
0.8528521883
 40
1.0
 40
1.0
 40
1.0
 40
1.0
 10
6.7837836371
 20
3.4312334688
 30
0.0
 10
6.7835060487
 20
3.4312334688
 30
0.0
 10
6.7829468992
 20
3.4312742189
 30
0.0
 10
6.7821190149
 20
3.4314563604
 30
0.0
 10
6.7813079401
 20
3.4317576555
 30
0.0
 10
6.7805219046
 20
3.4321745702
 30
0.0
 10
6.7797683004
 20
3.4327027931
 30
0.0
 10
6.7787981116
 20
3.4335642647
 30
0.0
 10
6.7777098007
 20
3.4349018846
 30
0.0
 10
6.7766653962
 20
3.4368046577
 30
0.0
 10
6.775891411
 20
3.4389657596
 30
0.0
 10
6.7754157172
 20
3.4413039522
 30
0.0
 10
6.7753090609
 20
3.4429187663
 30
0.0
 10
6.7753090609
 20
3.4437334688
 30
0.0
  0
SPLINE
  5
2C7
100
AcDbEntity
  8
0
100
AcDbSpline
 62
7
  6
CONTINUOUS
 70
0
 71
3
 72
18
 73
14
 74
0
 42
0.0000001
 43
0.0000001
 44
0.0000000001
 40
0.0
 40
0.0
 40
0.0
 40
0.0
 40
0.050136745
 40
0.1008422574
 40
0.1526181881
 40
0.2059242967
 40
0.2611129701
 40
0.3184362966
 40
0.4398322458
 40
0.5703369755
 40
0.7087245931
 40
0.8528521883
 40
1.0
 40
1.0
 40
1.0
 40
1.0
 10
6.7837836371
 20
3.6812334688
 30
0.0
 10
6.7835060487
 20
3.6812334688
 30
0.0
 10
6.7829468992
 20
3.6811927187
 30
0.0
 10
6.7821190149
 20
3.6810105772
 30
0.0
 10
6.7813079401
 20
3.6807092821
 30
0.0
 10
6.7805219046
 20
3.6802923674
 30
0.0
 10
6.7797683004
 20
3.6797641445
 30
0.0
 10
6.7787981116
 20
3.6789026729
 30
0.0
 10
6.7777098007
 20
3.677565053
 30
0.0
 10
6.7766653962
 20
3.6756622799
 30
0.0
 10
6.775891411
 20
3.673501178
 30
0.0
 10
6.7754157172
 20
3.6711629854
 30
0.0
 10
6.7753090609
 20
3.6695481713
 30
0.0
 10
6.7753090609
 20
3.6687334688
 30
0.0
  0
SPLINE
  5
2C8
100
AcDbEntity
  8
0
100
AcDbSpline
 62
7
  6
CONTINUOUS
 70
0
 71
3
 72
18
 73
14
 74
0
 42
0.0000001
 43
0.0000001
 44
0.0000000001
 40
0.0
 40
0.0
 40
0.0
 40
0.0
 40
0.050136745
 40
0.1008422574
 40
0.1526181881
 40
0.2059242967
 40
0.2611129701
 40
0.3184362966
 40
0.4398322458
 40
0.5703369755
 40
0.7087245931
 40
0.8528521883
 40
1.0
 40
1.0
 40
1.0
 40
1.0
 10
6.5041226202
 20
3.4312334688
 30
0.0
 10
6.5044002086
 20
3.4312334688
 30
0.0
 10
6.5049593581
 20
3.4312742189
 30
0.0
 10
6.5057872425
 20
3.4314563604
 30
0.0
 10
6.5065983172
 20
3.4317576555
 30
0.0
 10
6.5073843527
 20
3.4321745702
 30
0.0
 10
6.5081379569
 20
3.4327027931
 30
0.0
 10
6.5091081458
 20
3.4335642647
 30
0.0
 10
6.5101964567
 20
3.4349018846
 30
0.0
 10
6.5112408612
 20
3.4368046577
 30
0.0
 10
6.5120148464
 20
3.4389657596
 30
0.0
 10
6.5124905401
 20
3.4413039522
 30
0.0
 10
6.5125971965
 20
3.4429187663
 30
0.0
 10
6.5125971965
 20
3.4437334688
 30
0.0
  0
SPLINE
  5
2C9
100
AcDbEntity
  8
0
100
AcDbSpline
 62
7
  6
CONTINUOUS
 70
0
 71
3
 72
18
 73
14
 74
0
 42
0.0000001
 43
0.0000001
 44
0.0000000001
 40
0.0
 40
0.0
 40
0.0
 40
0.0
 40
0.050136745
 40
0.1008422574
 40
0.1526181881
 40
0.2059242967
 40
0.2611129701
 40
0.3184362966
 40
0.4398322458
 40
0.5703369755
 40
0.7087245931
 40
0.8528521883
 40
1.0
 40
1.0
 40
1.0
 40
1.0
 10
6.5041226202
 20
3.6812334688
 30
0.0
 10
6.5044002086
 20
3.6812334688
 30
0.0
 10
6.5049593581
 20
3.6811927187
 30
0.0
 10
6.5057872425
 20
3.6810105772
 30
0.0
 10
6.5065983172
 20
3.6807092821
 30
0.0
 10
6.5073843527
 20
3.6802923674
 30
0.0
 10
6.5081379569
 20
3.6797641445
 30
0.0
 10
6.5091081458
 20
3.6789026729
 30
0.0
 10
6.5101964567
 20
3.677565053
 30
0.0
 10
6.5112408612
 20
3.6756622799
 30
0.0
 10
6.5120148464
 20
3.673501178
 30
0.0
 10
6.5124905401
 20
3.6711629854
 30
0.0
 10
6.5125971965
 20
3.6695481713
 30
0.0
 10
6.5125971965
 20
3.6687334688
 30
0.0
  0
SPLINE
  5
2CA
100
AcDbEntity
  8
0
100
AcDbSpline
 62
7
  6
CONTINUOUS
 70
0
 71
3
 72
18
 73
14
 74
0
 42
0.0000001
 43
0.0000001
 44
0.0000000001
 40
0.0
 40
0.0
 40
0.0
 40
0.0
 40
0.1471478117
 40
0.2912754069
 40
0.4296630245
 40
0.5601677542
 40
0.6815637034
 40
0.7388870299
 40
0.7940757033
 40
0.8473818119
 40
0.8991577426
 40
0.949863255
 40
1.0
 40
1.0
 40
1.0
 40
1.0
 10
6.4786988914
 20
3.3937334688
 30
0.0
 10
6.4786988914
 20
3.3929187663
 30
0.0
 10
6.4788055477
 20
3.3913039522
 30
0.0
 10
6.4792812415
 20
3.3889657596
 30
0.0
 10
6.4800552267
 20
3.3868046577
 30
0.0
 10
6.4810996312
 20
3.3849018846
 30
0.0
 10
6.4821879421
 20
3.3835642647
 30
0.0
 10
6.4831581309
 20
3.3827027931
 30
0.0
 10
6.4839117351
 20
3.3821745702
 30
0.0
 10
6.4846977706
 20
3.3817576555
 30
0.0
 10
6.4855088454
 20
3.3814563604
 30
0.0
 10
6.4863367297
 20
3.3812742189
 30
0.0
 10
6.4868958792
 20
3.3812334688
 30
0.0
 10
6.4871734676
 20
3.3812334688
 30
0.0
  0
SPLINE
  5
2CB
100
AcDbEntity
  8
0
100
AcDbSpline
 62
7
  6
CONTINUOUS
 70
0
 71
3
 72
18
 73
14
 74
0
 42
0.0000001
 43
0.0000001
 44
0.0000000001
 40
0.0
 40
0.0
 40
0.0
 40
0.0
 40
0.1471478117
 40
0.2912754069
 40
0.4296630245
 40
0.5601677542
 40
0.6815637034
 40
0.7388870299
 40
0.7940757033
 40
0.8473818119
 40
0.8991577426
 40
0.949863255
 40
1.0
 40
1.0
 40
1.0
 40
1.0
 10
6.809207366
 20
3.3937334688
 30
0.0
 10
6.809207366
 20
3.3929187663
 30
0.0
 10
6.8091007096
 20
3.3913039522
 30
0.0
 10
6.8086250159
 20
3.3889657596
 30
0.0
 10
6.8078510306
 20
3.3868046577
 30
0.0
 10
6.8068066262
 20
3.3849018846
 30
0.0
 10
6.8057183152
 20
3.3835642647
 30
0.0
 10
6.8047481264
 20
3.3827027931
 30
0.0
 10
6.8039945222
 20
3.3821745702
 30
0.0
 10
6.8032084867
 20
3.3817576555
 30
0.0
 10
6.802397412
 20
3.3814563604
 30
0.0
 10
6.8015695276
 20
3.3812742189
 30
0.0
 10
6.8010103781
 20
3.3812334688
 30
0.0
 10
6.8007327897
 20
3.3812334688
 30
0.0
  0
SPLINE
  5
2CC
100
AcDbEntity
  8
0
100
AcDbSpline
 62
7
  6
CONTINUOUS
 70
0
 71
3
 72
18
 73
14
 74
0
 42
0.0000001
 43
0.0000001
 44
0.0000000001
 40
0.0
 40
0.0
 40
0.0
 40
0.0
 40
0.1471478117
 40
0.2912754069
 40
0.4296630245
 40
0.5601677542
 40
0.6815637034
 40
0.7388870299
 40
0.7940757033
 40
0.8473818119
 40
0.8991577426
 40
0.949863255
 40
1.0
 40
1.0
 40
1.0
 40
1.0
 10
6.809207366
 20
3.7187334688
 30
0.0
 10
6.809207366
 20
3.7195481713
 30
0.0
 10
6.8091007096
 20
3.7211629854
 30
0.0
 10
6.8086250159
 20
3.723501178
 30
0.0
 10
6.8078510306
 20
3.7256622799
 30
0.0
 10
6.8068066262
 20
3.727565053
 30
0.0
 10
6.8057183152
 20
3.7289026729
 30
0.0
 10
6.8047481264
 20
3.7297641445
 30
0.0
 10
6.8039945222
 20
3.7302923674
 30
0.0
 10
6.8032084867
 20
3.7307092821
 30
0.0
 10
6.802397412
 20
3.7310105772
 30
0.0
 10
6.8015695276
 20
3.7311927187
 30
0.0
 10
6.8010103781
 20
3.7312334688
 30
0.0
 10
6.8007327897
 20
3.7312334688
 30
0.0
  0
SPLINE
  5
2CD
100
AcDbEntity
  8
0
100
AcDbSpline
 62
7
  6
CONTINUOUS
 70
0
 71
3
 72
18
 73
14
 74
0
 42
0.0000001
 43
0.0000001
 44
0.0000000001
 40
0.0
 40
0.0
 40
0.0
 40
0.0
 40
0.1471478117
 40
0.2912754069
 40
0.4296630245
 40
0.5601677542
 40
0.6815637034
 40
0.7388870299
 40
0.7940757033
 40
0.8473818119
 40
0.8991577426
 40
0.949863255
 40
1.0
 40
1.0
 40
1.0
 40
1.0
 10
6.4786988914
 20
3.7187334688
 30
0.0
 10
6.4786988914
 20
3.7195481713
 30
0.0
 10
6.4788055477
 20
3.7211629854
 30
0.0
 10
6.4792812415
 20
3.723501178
 30
0.0
 10
6.4800552267
 20
3.7256622799
 30
0.0
 10
6.4810996312
 20
3.727565053
 30
0.0
 10
6.4821879421
 20
3.7289026729
 30
0.0
 10
6.4831581309
 20
3.7297641445
 30
0.0
 10
6.4839117351
 20
3.7302923674
 30
0.0
 10
6.4846977706
 20
3.7307092821
 30
0.0
 10
6.4855088454
 20
3.7310105772
 30
0.0
 10
6.4863367297
 20
3.7311927187
 30
0.0
 10
6.4868958792
 20
3.7312334688
 30
0.0
 10
6.4871734676
 20
3.7312334688
 30
0.0
  0
ENDSEC
  0
SECTION
  2
OBJECTS
  0
DICTIONARY
  5
C
100
AcDbDictionary
280
0
281
1
  3
ACAD_GROUP
350
D
  3
ACAD_MLINESTYLE
350
17
  3
ACAD_LAYOUT
350
1A
  3
ACAD_PLOTSETTINGS
350
19
  3
ACAD_PLOTSTYLENAME
350
E
  0
DICTIONARY
  5
D
102
{ACAD_REACTORS
330
C
102
}
100
AcDbDictionary
280
0
281
1
  0
ACDBDICTIONARYWDFLT
  5
E
102
{ACAD_REACTORS
330
C
102
}
100
AcDbDictionary
281
1
  3
Normal
350
F
100
AcDbDictionaryWithDefault
340
F
  0
DICTIONARY
  5
17
102
{ACAD_REACTORS
330
C
102
}
100
AcDbDictionary
280
0
281
1
  3
Standard
350
18
  0
DICTIONARY
  5
19
102
{ACAD_REACTORS
330
C
102
}
100
AcDbDictionary
281
1
  0
DICTIONARY
  5
1A
102
{ACAD_REACTORS
330
C
102
}
100
AcDbDictionary
281
1
  3
Model
350
2CE
  3
Layout1
350
2CF
  0
ACDBPLACEHOLDER
  5
F
102
{ACAD_REACTORS
330
E
102
}
  0
MLINESTYLE
  5
18
102
{ACAD_REACTORS
330
17
102
}
100
AcDbMlineStyle
  2
STANDARD
 70
0
  3

 62
256
 51
90.0
 52
90.0
 71
2
 49
0.5
 62
256
  6
BYLAYER
 49
-0.5
 62
256
  6
BYLAYER
  0
LAYOUT
  5
2CE
102
{ACAD_REACTORS
330
1A
102
}
100
AcDbPlotSettings
  1

  2
none_device
  4
ANSI_A_(11.00_x_8.50_Inches)
  6

 40
0.0
 41
0.0
 42
0.0
 43
0.0
 44
279.4
 45
215.9
 46
0.0
 47
0.0
 48
0.0
 49
0.0
140
0.0
141
0.0
142
1.0
143
1.0
 70
1024
 72
0
 73
0
 74
0
  7

 75
0
147
1.0
148
0.0
149
0.0
100
AcDbLayout
  1
Model
 70
0
 71
0
 10
0.0
 20
0.0
 11
11.0
 21
8.5
 12
0.0
 22
0.0
 32
0.0
 14
0.0
 24
0.0
 34
0.0
 15
0.0
 25
0.0
 35
0.0
146
0.0
 13
0.0
 23
0.0
 33
0.0
 16
1.0
 26
0.0
 36
0.0
 17
0.0
 27
1.0
 37
0.0
 76
0
330
203
345
0
346
0
  0
LAYOUT
  5
2CF
102
{ACAD_REACTORS
330
1A
102
}
100
AcDbPlotSettings
  1

  2
none_device
  4
ANSI_A_(11.00_x_8.50_Inches)
  6

 40
0.0
 41
0.0
 42
0.0
 43
0.0
 44
279.4
 45
215.9
 46
0.0
 47
0.0
 48
0.0
 49
0.0
140
0.0
141
0.0
142
1.0
143
1.0
 70
0
 72
0
 73
0
 74
0
  7

 75
0
147
1.0
148
0.0
149
0.0
100
AcDbLayout
  1
Layout1
 70
0
 71
1
 10
0.0
 20
0.0
 11
11.0
 21
8.5
 12
0.0
 22
0.0
 32
0.0
 14
0.0
 24
0.0
 34
0.0
 15
0.0
 25
0.0
 35
0.0
146
0.0
 13
0.0
 23
0.0
 33
0.0
 16
1.0
 26
0.0
 36
0.0
 17
0.0
 27
1.0
 37
0.0
 76
0
330
204
345
0
346
0
  0
ENDSEC
  0
EOF
