999
DXF file: 3273_FRONT.dxf
999
Pro/ENGINEER 2023134 by Parametric Technology Corporation
  0
SECTION
  2
HEADER
  9
$ACADVER
  1
AC1032
  9
$DWGCODEPAGE
  3
ANSI_1252
  9
$EXTMAX
 10
22.0
 20
17.0
 30
0.0
  9
$EXTMIN
 10
0.0
 20
0.0
 30
0.0
  9
$LIMMIN
 10
0.0
 20
0.0
  9
$LIMMAX
 10
22.0
 20
17.0
  9
$VIEWCTR
 10
11.0
 20
8.5
  9
$VIEWSIZE
 40
17.0
  9
$CLAYER
  8
0
  9
$LTSCALE
 40
1.21
  9
$CELTYPE
  6
BYLAYER
  9
$DIMSCALE
 40
1.0
  9
$DIMASZ
 40
0.1
  9
$DIMEXO
 40
0.0625
  9
$DIMDLI
 40
0.836
  9
$DIMEXE
 40
0.125
  9
$DIMCEN
 40
0.198
  9
$DIMLFAC
 40
1.0
  9
$DIMBLK
  1
_FILLED
  9
$DIMALT
 70
1
  9
$DIMALTD
 70
2
  9
$DIMALTTD
 70
2
  9
$DIMALTF
 40
25.4
  9
$DIMTXT
 40
0.08
  9
$DIMTOL
 70
1
  9
$DIMLIM
 70
0
  9
$DIMTFAC
 40
1.0
  9
$DIMTP
 40
0.001
  9
$DIMTM
 40
0.001
  9
$DIMGAP
 40
0.09
  9
$DIMDSEP
 70
46
  9
$AUNITS
 70
0
  9
$PDMODE
 70
3
  9
$PDSIZE
 40
0.3125
  9
$HANDSEED
  5
29F
  9
$TILEMODE
 70
1
  9
$MEASUREMENT
 70
0
  9
$INSUNITS
 70
1
  0
ENDSEC
  0
SECTION
  2
CLASSES
  0
CLASS
  1
ACDBDICTIONARYWDFLT
  2
AcDbDictionaryWithDefault
  3
AutoCAD 2000
 90
0
 91
1
280
0
281
0
  0
CLASS
  1
ACDBPLACEHOLDER
  2
AcDbPlaceHolder
  3
AutoCAD 2000
 90
0
 91
1
280
0
281
0
  0
CLASS
  1
LAYOUT
  2
AcDbLayout
  3
AutoCAD 2000
 90
0
 91
0
280
0
281
0
  0
ENDSEC
  0
SECTION
  2
TABLES
  0
TABLE
  2
VPORT
  5
8
100
AcDbSymbolTable
 70
2
  0
VPORT
  5
1F4
100
AcDbSymbolTableRecord
100
AcDbViewportTableRecord
  2
*ACTIVE
 70
0
 10
0.0
 20
0.0
 11
1.0
 21
1.0
 12
11.0
 22
8.5
 13
0.0
 23
0.0
 14
1.0
 24
1.0
 15
0.0
 25
0.0
 16
0.0
 26
0.0
 36
1.0
 17
0.0
 27
0.0
 37
0.0
 40
17.0
 41
1.2941176471
 42
50.0
 43
0.0
 44
0.0
 50
0.0
 51
0.0
 71
0
 72
100
 73
1
 74
1
 75
0
 76
0
 77
0
 78
0
  0
ENDTAB
  0
TABLE
  2
LTYPE
  5
5
100
AcDbSymbolTable
 70
6
  0
LTYPE
  5
14
100
AcDbSymbolTableRecord
100
AcDbLinetypeTableRecord
  2
BYBLOCK
 70
0
  3

 72
65
 73
0
 40
0.0
  0
LTYPE
  5
15
100
AcDbSymbolTableRecord
100
AcDbLinetypeTableRecord
  2
BYLAYER
 70
0
  3

 72
65
 73
0
 40
0.0
  0
LTYPE
  5
16
100
AcDbSymbolTableRecord
100
AcDbLinetypeTableRecord
  2
CONTINUOUS
 70
64
  3
Solid line
 72
65
 73
0
 40
0.0
  0
LTYPE
  5
1F5
100
AcDbSymbolTableRecord
100
AcDbLinetypeTableRecord
  2
CENTER
 70
64
  3
____ _ ____ _ ____ _ ____ _ ____ _ ____ _ ____
 72
65
 73
4
 40
0.6
 49
0.375
 74
0
 49
-0.075
 74
0
 49
0.075
 74
0
 49
-0.075
 74
0
  0
LTYPE
  5
1F6
100
AcDbSymbolTableRecord
100
AcDbLinetypeTableRecord
  2
HIDDEN
 70
64
  3
- - - - - - - - - - - - - - - - - - - -
 72
65
 73
2
 40
0.2
 49
0.1
 74
0
 49
-0.1
 74
0
  0
LTYPE
  5
1F7
100
AcDbSymbolTableRecord
100
AcDbLinetypeTableRecord
  2
PHANTOM
 70
64
  3
_____ _ _ _____ _ _ _____ _ _ _____
 72
65
 73
6
 40
0.8
 49
0.45
 74
0
 49
-0.05
 74
0
 49
0.1
 74
0
 49
-0.05
 74
0
 49
0.1
 74
0
 49
-0.05
 74
0
  0
LTYPE
  5
1F8
100
AcDbSymbolTableRecord
100
AcDbLinetypeTableRecord
  2
DOT
 70
64
  3
. . . . . . . . . . . . . . . . . . . .
 72
65
 73
2
 40
0.2
 49
0.1
 74
0
 49
-0.1
 74
0
  0
LTYPE
  5
1F9
100
AcDbSymbolTableRecord
100
AcDbLinetypeTableRecord
  2
DASHED
 70
64
  3
- - - - - - - - - - - - - - - - - - - -
 72
65
 73
2
 40
0.2
 49
0.1
 74
0
 49
-0.1
 74
0
  0
ENDTAB
  0
TABLE
  2
LAYER
  5
2
100
AcDbSymbolTable
 70
36
  0
LAYER
  5
10
100
AcDbSymbolTableRecord
100
AcDbLayerTableRecord
  2
0
 70
0
 62
7
  6
CONTINUOUS
370
-3
390
F
  0
LAYER
  5
1FA
100
AcDbSymbolTableRecord
100
AcDbLayerTableRecord
  2
DEFAULT_1
 70
0
 62
7
  6
CENTER
370
-3
390
F
  0
LAYER
  5
1FB
100
AcDbSymbolTableRecord
100
AcDbLayerTableRecord
  2
DEFAULT_2
 70
0
 62
8
  6
HIDDEN
370
-3
390
F
  0
LAYER
  5
1FC
100
AcDbSymbolTableRecord
100
AcDbLayerTableRecord
  2
DEFAULT_3
 70
0
 62
7
  6
PHANTOM
370
-3
390
F
  0
LAYER
  5
1FD
100
AcDbSymbolTableRecord
100
AcDbLayerTableRecord
  2
DEFAULT_COORDINATE_SYSTEM
 70
0
 62
7
  6
CONTINUOUS
370
-3
390
F
  0
LAYER
  5
1FE
100
AcDbSymbolTableRecord
100
AcDbLayerTableRecord
  2
DEFAULT_DATUM_AXES
 70
0
 62
7
  6
CONTINUOUS
370
-3
390
F
  0
LAYER
  5
1FF
100
AcDbSymbolTableRecord
100
AcDbLayerTableRecord
  2
DEFAULT_DATUM_PLANES
 70
0
 62
7
  6
CONTINUOUS
370
-3
390
F
  0
ENDTAB
  0
TABLE
  2
STYLE
  5
3
100
AcDbSymbolTable
 70
1
  0
STYLE
  5
11
100
AcDbSymbolTableRecord
100
AcDbTextStyleTableRecord
  2
STANDARD
 70
0
 40
0.0
 41
0.8
 50
0.0
 71
0
 42
0.2
  3
txt
  4

  0
STYLE
  5
200
100
AcDbSymbolTableRecord
100
AcDbTextStyleTableRecord
  2
TEXTSTYLE_1
 70
0
 40
0.0
 41
0.8
 50
0.0
 71
0
 42
0.2
  3
gdt
  4

  0
ENDTAB
  0
TABLE
  2
VIEW
  5
6
100
AcDbSymbolTable
 70
0
  0
ENDTAB
  0
TABLE
  2
UCS
  5
7
100
AcDbSymbolTable
 70
0
  0
ENDTAB
  0
TABLE
  2
APPID
  5
9
100
AcDbSymbolTable
 70
1
  0
APPID
  5
201
100
AcDbSymbolTableRecord
100
AcDbRegAppTableRecord
  2
ACAD
 70
0
  0
ENDTAB
  0
TABLE
  2
BLOCK_RECORD
  5
1
100
AcDbSymbolTable
 70
0
  0
BLOCK_RECORD
  5
202
100
AcDbSymbolTableRecord
100
AcDbBlockTableRecord
  2
*Model_Space
  0
BLOCK_RECORD
  5
203
100
AcDbSymbolTableRecord
100
AcDbBlockTableRecord
  2
*Paper_Space
  0
BLOCK_RECORD
  5
204
100
AcDbSymbolTableRecord
100
AcDbBlockTableRecord
  2
_FILLED
  0
ENDTAB
  0
TABLE
  2
DIMSTYLE
  5
A
100
AcDbSymbolTable
 70
1
100
AcDbDimStyleTable
 71
0
  0
DIMSTYLE
105
205
100
AcDbSymbolTableRecord
100
AcDbDimStyleTableRecord
  2
STANDARD
 70
0
  3

  4

 40
1.0
 41
0.1
 42
0.0625
 43
0.38
 44
0.125
 45
0.0
 46
0.0
 47
0.001
 48
0.001
140
0.08
141
0.09
142
0.0
143
25.4
144
1.0
145
0.0
146
1.0
147
0.09
 71
1
 72
0
 73
1
 74
1
 75
0
 76
0
 77
0
 78
4
 79
1
170
1
171
2
172
0
173
0
174
0
175
0
176
0
177
0
178
0
270
2
179
3
271
3
272
3
273
2
274
2
275
0
280
0
281
0
282
0
283
1
284
4
285
0
286
0
287
3
288
0
340
11
278
46
341
204
342
204
343
204
344
204
  0
ENDTAB
  0
ENDSEC
  0
SECTION
  2
BLOCKS
  0
BLOCK
  5
20
100
AcDbEntity
  8
0
100
AcDbBlockBegin
  2
*Model_Space
 70
0
 10
0.0
 20
0.0
 30
0.0
  3
*Model_Space
  1

  0
ENDBLK
  5
21
100
AcDbEntity
  8
0
100
AcDbBlockEnd
  0
BLOCK
  5
1C
100
AcDbEntity
  8
0
100
AcDbBlockBegin
  2
*Paper_Space
 70
0
 10
0.0
 20
0.0
 30
0.0
  3
*Paper_Space
  1

  0
ENDBLK
  5
1D
100
AcDbEntity
  8
0
100
AcDbBlockEnd
  0
BLOCK
  5
206
100
AcDbEntity
  8
0
100
AcDbBlockBegin
  2
_FILLED
 70
64
 10
0.0
 20
0.0
  3
_FILLED
  1

  0
SOLID
  5
207
100
AcDbEntity
  8
0
  6
BYBLOCK
 62
0
100
AcDbTrace
 10
0.0
 20
0.0
 11
-1.0
 21
0.2
 12
-1.0
 22
-0.2
 13
-1.0
 23
-0.2
  0
ENDBLK
  5
208
100
AcDbEntity
  8
0
  6
BYBLOCK
 62
0
100
AcDbBlockEnd
  0
ENDSEC
  0
SECTION
  2
ENTITIES
  0
LINE
  5
209
100
AcDbEntity
  8
0
100
AcDbLine
 62
7
  6
CONTINUOUS
 10
0.0
 20
0.0
 11
0.0
 21
17.0
  0
LINE
  5
20A
100
AcDbEntity
  8
0
100
AcDbLine
 62
7
  6
CONTINUOUS
 10
0.0
 20
0.0
 11
22.0
 21
0.0
  0
LINE
  5
20B
100
AcDbEntity
  8
0
100
AcDbLine
 62
7
  6
CONTINUOUS
 10
0.0
 20
17.0
 11
22.0
 21
17.0
  0
LINE
  5
20C
100
AcDbEntity
  8
0
100
AcDbLine
 62
7
  6
CONTINUOUS
 10
22.0
 20
0.0
 11
22.0
 21
17.0
  0
LINE
  5
20D
100
AcDbEntity
  8
0
100
AcDbLine
 62
7
  6
CONTINUOUS
 10
8.3469541616
 20
0.8929254514
 11
12.8469541616
 21
0.8929254514
  0
LINE
  5
20E
100
AcDbEntity
  8
0
100
AcDbLine
 62
7
  6
CONTINUOUS
 10
12.8469541616
 20
1.0329254514
 11
8.3469541616
 21
1.0329254514
  0
LINE
  5
20F
100
AcDbEntity
  8
0
100
AcDbLine
 62
7
  6
CONTINUOUS
 10
12.7869541616
 20
1.0929254514
 11
8.4069541616
 21
1.0929254514
  0
LINE
  5
210
100
AcDbEntity
  8
0
100
AcDbLine
 62
7
  6
CONTINUOUS
 10
8.5069541616
 20
1.1529254514
 11
12.6869541616
 21
1.1529254514
  0
LINE
  5
211
100
AcDbEntity
  8
0
100
AcDbLine
 62
7
  6
CONTINUOUS
 10
12.6869541616
 20
1.6829254514
 11
8.5069541616
 21
1.6829254514
  0
LINE
  5
212
100
AcDbEntity
  8
0
100
AcDbLine
 62
7
  6
CONTINUOUS
 10
12.6269541616
 20
1.7429254514
 11
8.5669541616
 21
1.7429254514
  0
LINE
  5
213
100
AcDbEntity
  8
0
100
AcDbLine
 62
7
  6
CONTINUOUS
 10
8.3469541616
 20
1.0329254514
 11
8.3469541616
 21
0.8929254514
  0
LINE
  5
214
100
AcDbEntity
  8
0
100
AcDbLine
 62
7
  6
CONTINUOUS
 10
8.5069541616
 20
1.6829254514
 11
8.5069541616
 21
1.1529254514
  0
LINE
  5
215
100
AcDbEntity
  8
0
100
AcDbLine
 62
7
  6
CONTINUOUS
 10
8.8869541616
 20
16.0699254514
 11
8.8869541616
 21
15.9499254514
  0
LINE
  5
216
100
AcDbEntity
  8
0
100
AcDbLine
 62
7
  6
CONTINUOUS
 10
8.8869541616
 20
13.7019254514
 11
8.8869541616
 21
13.8219254514
  0
LINE
  5
217
100
AcDbEntity
  8
0
100
AcDbLine
 62
7
  6
CONTINUOUS
 10
8.9969541616
 20
1.7429254514
 11
8.9969541616
 21
13.5289254514
  0
LINE
  5
218
100
AcDbEntity
  8
0
100
AcDbLine
 62
7
  6
CONTINUOUS
 10
9.0469541616
 20
13.9419254514
 11
9.0469541616
 21
15.8299254514
  0
LINE
  5
219
100
AcDbEntity
  8
0
100
AcDbLine
 62
7
  6
CONTINUOUS
 10
9.0869541616
 20
13.6419254514
 11
9.0869541616
 21
13.5889254514
  0
LINE
  5
21A
100
AcDbEntity
  8
0
100
AcDbLine
 62
7
  6
CONTINUOUS
 10
9.4969541616
 20
10.759288767
 11
9.4969541616
 21
10.5100315169
  0
LINE
  5
21B
100
AcDbEntity
  8
0
100
AcDbLine
 62
7
  6
CONTINUOUS
 10
9.5169541616
 20
10.5051241999
 11
9.5169541616
 21
10.4268723919
  0
LINE
  5
21C
100
AcDbEntity
  8
0
100
AcDbLine
 62
7
  6
CONTINUOUS
 10
9.5169541616
 20
9.233532319
 11
9.5169541616
 21
9.1552805109
  0
LINE
  5
21D
100
AcDbEntity
  8
0
100
AcDbLine
 62
7
  6
CONTINUOUS
 10
9.6369541616
 20
10.3094946798
 11
9.6369541616
 21
9.3727661231
  0
LINE
  5
21E
100
AcDbEntity
  8
0
100
AcDbLine
 62
7
  6
CONTINUOUS
 10
9.7219541616
 20
12.3993337
 11
9.7219541616
 21
10.6773424093
  0
LINE
  5
21F
100
AcDbEntity
  8
0
100
AcDbLine
 62
7
  6
CONTINUOUS
 10
10.0629541528
 20
15.8053151528
 11
10.062954591
 21
15.9214096704
  0
LINE
  5
220
100
AcDbEntity
  8
0
100
AcDbLine
 62
7
  6
CONTINUOUS
 10
10.104193583
 20
15.7455893396
 11
10.1041937192
 21
15.7733261382
  0
LINE
  5
221
100
AcDbEntity
  8
0
100
AcDbLine
 62
7
  6
CONTINUOUS
 10
11.0897137447
 20
15.7455886052
 11
11.089713742
 21
15.7733189375
  0
LINE
  5
222
100
AcDbEntity
  8
0
100
AcDbLine
 62
7
  6
CONTINUOUS
 10
11.130954591
 20
15.9214056395
 11
11.1309541529
 21
15.8053149681
  0
LINE
  5
223
100
AcDbEntity
  8
0
100
AcDbLine
 62
7
  6
CONTINUOUS
 10
11.4719541616
 20
12.3993337
 11
11.4719541616
 21
10.6773536129
  0
LINE
  5
224
100
AcDbEntity
  8
0
100
AcDbLine
 62
7
  6
CONTINUOUS
 10
11.5569541616
 20
10.3094946798
 11
11.5569541616
 21
9.3727761599
  0
LINE
  5
225
100
AcDbEntity
  8
0
100
AcDbLine
 62
7
  6
CONTINUOUS
 10
11.6769541616
 20
10.5051241999
 11
11.6769541616
 21
10.4268723919
  0
LINE
  5
226
100
AcDbEntity
  8
0
100
AcDbLine
 62
7
  6
CONTINUOUS
 10
11.6769541616
 20
9.233532319
 11
11.6769541616
 21
9.1552805109
  0
LINE
  5
227
100
AcDbEntity
  8
0
100
AcDbLine
 62
7
  6
CONTINUOUS
 10
11.6969541616
 20
10.759288767
 11
11.6969541616
 21
10.5100313535
  0
LINE
  5
228
100
AcDbEntity
  8
0
100
AcDbLine
 62
7
  6
CONTINUOUS
 10
12.1069541616
 20
13.6419254514
 11
12.1069541616
 21
13.5889254514
  0
LINE
  5
229
100
AcDbEntity
  8
0
100
AcDbLine
 62
7
  6
CONTINUOUS
 10
12.1469541616
 20
13.9419254514
 11
12.1469541616
 21
15.8299254514
  0
LINE
  5
22A
100
AcDbEntity
  8
0
100
AcDbLine
 62
7
  6
CONTINUOUS
 10
12.1969541616
 20
1.7429254514
 11
12.1969541616
 21
13.5289254514
  0
LINE
  5
22B
100
AcDbEntity
  8
0
100
AcDbLine
 62
7
  6
CONTINUOUS
 10
12.3069541616
 20
16.0699254514
 11
12.3069541616
 21
15.9499254514
  0
LINE
  5
22C
100
AcDbEntity
  8
0
100
AcDbLine
 62
7
  6
CONTINUOUS
 10
12.3069541616
 20
13.7019254514
 11
12.3069541616
 21
13.8219254514
  0
LINE
  5
22D
100
AcDbEntity
  8
0
100
AcDbLine
 62
7
  6
CONTINUOUS
 10
12.6869541616
 20
1.6829254514
 11
12.6869541616
 21
1.1529254514
  0
LINE
  5
22E
100
AcDbEntity
  8
0
100
AcDbLine
 62
7
  6
CONTINUOUS
 10
12.8469541616
 20
1.0329254514
 11
12.8469541616
 21
0.8929254514
  0
LINE
  5
22F
100
AcDbEntity
  8
0
100
AcDbLine
 62
7
  6
CONTINUOUS
 10
12.1969541616
 20
13.5289254514
 11
8.9969541616
 21
13.5289254514
  0
LINE
  5
230
100
AcDbEntity
  8
0
100
AcDbLine
 62
7
  6
CONTINUOUS
 10
12.1369541616
 20
13.5889254514
 11
9.0569541616
 21
13.5889254514
  0
LINE
  5
231
100
AcDbEntity
  8
0
100
AcDbLine
 62
7
  6
CONTINUOUS
 10
8.9469541616
 20
13.6419254514
 11
12.2469541616
 21
13.6419254514
  0
LINE
  5
232
100
AcDbEntity
  8
0
100
AcDbLine
 62
7
  6
CONTINUOUS
 10
8.8869541616
 20
13.7019254514
 11
12.3069541616
 21
13.7019254514
  0
LINE
  5
233
100
AcDbEntity
  8
0
100
AcDbLine
 62
7
  6
CONTINUOUS
 10
8.8869541616
 20
13.8219254514
 11
12.3069541616
 21
13.8219254514
  0
LINE
  5
234
100
AcDbEntity
  8
0
100
AcDbLine
 62
7
  6
CONTINUOUS
 10
8.9469541616
 20
13.8819254514
 11
12.2469541616
 21
13.8819254514
  0
LINE
  5
235
100
AcDbEntity
  8
0
100
AcDbLine
 62
7
  6
CONTINUOUS
 10
12.1469541616
 20
13.9419254514
 11
9.0469541616
 21
13.9419254514
  0
LINE
  5
236
100
AcDbEntity
  8
0
100
AcDbLine
 62
7
  6
CONTINUOUS
 10
12.1469541616
 20
15.8299254514
 11
11.2061610984
 21
15.8299254514
  0
LINE
  5
237
100
AcDbEntity
  8
0
100
AcDbLine
 62
7
  6
CONTINUOUS
 10
9.9877472249
 20
15.8299254514
 11
9.0469541616
 21
15.8299254514
  0
LINE
  5
238
100
AcDbEntity
  8
0
100
AcDbLine
 62
7
  6
CONTINUOUS
 10
12.2469541616
 20
15.8899254514
 11
11.2311662713
 21
15.8899254514
  0
LINE
  5
239
100
AcDbEntity
  8
0
100
AcDbLine
 62
7
  6
CONTINUOUS
 10
9.962742052
 20
15.8899254514
 11
8.9469541617
 21
15.8899254514
  0
LINE
  5
23A
100
AcDbEntity
  8
0
100
AcDbLine
 62
7
  6
CONTINUOUS
 10
8.8869541616
 20
15.9499254514
 11
9.9414448535
 21
15.9499254514
  0
LINE
  5
23B
100
AcDbEntity
  8
0
100
AcDbLine
 62
7
  6
CONTINUOUS
 10
11.2524634698
 20
15.9499254514
 11
12.3069541616
 21
15.9499254514
  0
LINE
  5
23C
100
AcDbEntity
  8
0
100
AcDbLine
 62
7
  6
CONTINUOUS
 10
12.3069541616
 20
16.0699254514
 11
11.275105042
 21
16.0699254514
  0
LINE
  5
23D
100
AcDbEntity
  8
0
100
AcDbLine
 62
7
  6
CONTINUOUS
 10
9.9188032813
 20
16.0699254514
 11
8.8869541616
 21
16.0699254514
  0
LINE
  5
23E
100
AcDbEntity
  8
0
100
AcDbLine
 62
7
  6
CONTINUOUS
 10
8.9469541616
 20
16.1299254514
 11
9.9331582593
 21
16.1299254514
  0
LINE
  5
23F
100
AcDbEntity
  8
0
100
AcDbLine
 62
7
  6
CONTINUOUS
 10
11.260750064
 20
16.1299254514
 11
12.2469541616
 21
16.1299254514
  0
ARC
  5
240
100
AcDbEntity
  8
0
100
AcDbCircle
 62
7
  6
CONTINUOUS
 10
8.4069541616
 20
1.0329254514
 40
0.06
100
AcDbArc
 50
90.0
 51
180.0
  0
ARC
  5
241
100
AcDbEntity
  8
0
100
AcDbCircle
 62
7
  6
CONTINUOUS
 10
8.4469541616
 20
1.1529254514
 40
0.06
100
AcDbArc
 50
270.0
 51
360.0
  0
ARC
  5
242
100
AcDbEntity
  8
0
100
AcDbCircle
 62
7
  6
CONTINUOUS
 10
8.5669541616
 20
1.6829254514
 40
0.06
100
AcDbArc
 50
90.0
 51
180.0
  0
ARC
  5
243
100
AcDbEntity
  8
0
100
AcDbCircle
 62
7
  6
CONTINUOUS
 10
10.5627139749
 20
10.7635079421
 40
1.0664962397
100
AcDbArc
 50
205.2550163672
 51
209.7542029829
  0
ARC
  5
244
100
AcDbEntity
  8
0
100
AcDbCircle
 62
7
  6
CONTINUOUS
 10
10.5503181872
 20
10.7593350817
 40
1.0533642394
100
AcDbArc
 50
180.0025192038
 51
192.3131655375
  0
ARC
  5
245
100
AcDbEntity
  8
0
100
AcDbCircle
 62
7
  6
CONTINUOUS
 10
10.55776731
 20
10.7925237992
 40
0.900804655
100
AcDbArc
 50
158.1193401018
 51
188.6125868649
  0
ARC
  5
246
100
AcDbEntity
  8
0
100
AcDbCircle
 62
7
  6
CONTINUOUS
 10
10.4509582413
 20
16.0729074418
 40
0.7055224033
100
AcDbArc
 50
327.8801327854
 51
334.8725275379
  0
ARC
  5
247
100
AcDbEntity
  8
0
100
AcDbCircle
 62
7
  6
CONTINUOUS
 10
10.5670718114
 20
16.1301046039
 40
0.6510557714
100
AcDbArc
 50
185.3036014438
 51
196.0662811732
  0
ARC
  5
248
100
AcDbEntity
  8
0
100
AcDbCircle
 62
7
  6
CONTINUOUS
 10
9.942954591
 20
15.9214101233
 40
0.12
100
AcDbArc
 50
359.9997837496
 51
15.8948899112
  0
ARC
  5
249
100
AcDbEntity
  8
0
100
AcDbCircle
 62
7
  6
CONTINUOUS
 10
8.9469541616
 20
16.0699254514
 40
0.06
100
AcDbArc
 50
90.0
 51
180.0
  0
ARC
  5
24A
100
AcDbEntity
  8
0
100
AcDbCircle
 62
7
  6
CONTINUOUS
 10
8.9469541616
 20
15.9499254514
 40
0.06
100
AcDbArc
 50
180.0
 51
270.0
  0
ARC
  5
24B
100
AcDbEntity
  8
0
100
AcDbCircle
 62
7
  6
CONTINUOUS
 10
8.9869541616
 20
15.8299254514
 40
0.06
100
AcDbArc
 50
0.0
 51
90.0
  0
ARC
  5
24C
100
AcDbEntity
  8
0
100
AcDbCircle
 62
7
  6
CONTINUOUS
 10
8.9469541616
 20
13.7019254514
 40
0.06
100
AcDbArc
 50
180.0
 51
270.0
  0
ARC
  5
24D
100
AcDbEntity
  8
0
100
AcDbCircle
 62
7
  6
CONTINUOUS
 10
8.9469541616
 20
13.8219254514
 40
0.06
100
AcDbArc
 50
90.0
 51
180.0
  0
ARC
  5
24E
100
AcDbEntity
  8
0
100
AcDbCircle
 62
7
  6
CONTINUOUS
 10
8.9869541616
 20
13.9419254514
 40
0.06
100
AcDbArc
 50
270.0
 51
360.0
  0
ARC
  5
24F
100
AcDbEntity
  8
0
100
AcDbCircle
 62
7
  6
CONTINUOUS
 10
9.0569541616
 20
13.5289254514
 40
0.06
100
AcDbArc
 50
90.0
 51
180.0
  0
ARC
  5
250
100
AcDbEntity
  8
0
100
AcDbCircle
 62
7
  6
CONTINUOUS
 10
9.9331582593
 20
16.0899254514
 40
0.04
100
AcDbArc
 50
3.448444264
 51
90.0
  0
ARC
  5
251
100
AcDbEntity
  8
0
100
AcDbCircle
 62
7
  6
CONTINUOUS
 10
9.962742052
 20
15.9299254515
 40
0.04
100
AcDbArc
 50
270.0000000209
 51
17.5027682796
  0
ARC
  5
252
100
AcDbEntity
  8
0
100
AcDbCircle
 62
7
  6
CONTINUOUS
 10
12.7869541616
 20
1.0329254514
 40
0.06
100
AcDbArc
 50
0.0
 51
90.0
  0
ARC
  5
253
100
AcDbEntity
  8
0
100
AcDbCircle
 62
7
  6
CONTINUOUS
 10
12.7469541616
 20
1.1529254514
 40
0.06
100
AcDbArc
 50
180.0
 51
270.0
  0
ARC
  5
254
100
AcDbEntity
  8
0
100
AcDbCircle
 62
7
  6
CONTINUOUS
 10
12.6269541616
 20
1.6829254514
 40
0.06
100
AcDbArc
 50
0.0
 51
90.0
  0
ARC
  5
255
100
AcDbEntity
  8
0
100
AcDbCircle
 62
7
  6
CONTINUOUS
 10
10.6302815379
 20
10.7639832167
 40
1.0675245776
100
AcDbArc
 50
330.2479650403
 51
334.7426505722
  0
ARC
  5
256
100
AcDbEntity
  8
0
100
AcDbCircle
 62
7
  6
CONTINUOUS
 10
10.6435901218
 20
10.7593350828
 40
1.0533642537
100
AcDbArc
 50
347.6867391197
 51
359.9974807372
  0
ARC
  5
257
100
AcDbEntity
  8
0
100
AcDbCircle
 62
7
  6
CONTINUOUS
 10
10.6361409464
 20
10.7925237861
 40
0.9008047203
100
AcDbArc
 50
351.3883143415
 51
21.8806590396
  0
ARC
  5
258
100
AcDbEntity
  8
0
100
AcDbCircle
 62
7
  6
CONTINUOUS
 10
10.5969541616
 20
12.3994369819
 40
0.875
100
AcDbArc
 50
0.0
 51
180.0
  0
ARC
  5
259
100
AcDbEntity
  8
0
100
AcDbCircle
 62
7
  6
CONTINUOUS
 10
10.7432213597
 20
16.0730457355
 40
0.7058244557
100
AcDbArc
 50
205.1277263266
 51
212.1138411275
  0
ARC
  5
25A
100
AcDbEntity
  8
0
100
AcDbCircle
 62
7
  6
CONTINUOUS
 10
10.626836937
 20
16.1301045237
 40
0.6510553407
100
AcDbArc
 50
343.9337152565
 51
354.6964021265
  0
ARC
  5
25B
100
AcDbEntity
  8
0
100
AcDbCircle
 62
7
  6
CONTINUOUS
 10
10.5969541616
 20
16.1299254514
 40
0.625
100
AcDbArc
 50
183.448444264
 51
356.551555736
  0
CIRCLE
  5
25C
100
AcDbEntity
  8
0
100
AcDbCircle
 62
7
  6
CONTINUOUS
 10
10.5969552939
 20
16.1076301678
 40
0.56
  0
CIRCLE
  5
25D
100
AcDbEntity
  8
0
100
AcDbCircle
 62
7
  6
CONTINUOUS
 10
10.5969552939
 20
16.1076300745
 40
0.52
  0
ARC
  5
25E
100
AcDbEntity
  8
0
100
AcDbCircle
 62
7
  6
CONTINUOUS
 10
11.250954591
 20
15.9214051866
 40
0.12
100
AcDbArc
 50
164.1046775874
 51
179.9997837489
  0
ARC
  5
25F
100
AcDbEntity
  8
0
100
AcDbCircle
 62
7
  6
CONTINUOUS
 10
12.2469541616
 20
16.0699254514
 40
0.06
100
AcDbArc
 50
0.0
 51
90.0
  0
ARC
  5
260
100
AcDbEntity
  8
0
100
AcDbCircle
 62
7
  6
CONTINUOUS
 10
12.2069541616
 20
15.8299254514
 40
0.06
100
AcDbArc
 50
90.0
 51
180.0
  0
ARC
  5
261
100
AcDbEntity
  8
0
100
AcDbCircle
 62
7
  6
CONTINUOUS
 10
12.2469541616
 20
15.9499254514
 40
0.06
100
AcDbArc
 50
270.0
 51
360.0
  0
ARC
  5
262
100
AcDbEntity
  8
0
100
AcDbCircle
 62
7
  6
CONTINUOUS
 10
12.2469541616
 20
13.7019254514
 40
0.06
100
AcDbArc
 50
270.0
 51
360.0
  0
ARC
  5
263
100
AcDbEntity
  8
0
100
AcDbCircle
 62
7
  6
CONTINUOUS
 10
12.2469541616
 20
13.8219254514
 40
0.06
100
AcDbArc
 50
0.0
 51
90.0
  0
ARC
  5
264
100
AcDbEntity
  8
0
100
AcDbCircle
 62
7
  6
CONTINUOUS
 10
12.2069541616
 20
13.9419254514
 40
0.06
100
AcDbArc
 50
180.0
 51
270.0
  0
ARC
  5
265
100
AcDbEntity
  8
0
100
AcDbCircle
 62
7
  6
CONTINUOUS
 10
12.1369541616
 20
13.5289254514
 40
0.06
100
AcDbArc
 50
0.0
 51
90.0
  0
ARC
  5
266
100
AcDbEntity
  8
0
100
AcDbCircle
 62
7
  6
CONTINUOUS
 10
11.5153484373
 20
10.3094937581
 40
0.0416055186
100
AcDbArc
 50
0.0012692148
 51
4.8370624069
  0
ARC
  5
267
100
AcDbEntity
  8
0
100
AcDbCircle
 62
7
  6
CONTINUOUS
 10
11.2311662713
 20
15.9299254514
 40
0.04
100
AcDbArc
 50
162.4972316516
 51
270.0
  0
ARC
  5
268
100
AcDbEntity
  8
0
100
AcDbCircle
 62
7
  6
CONTINUOUS
 10
11.260750064
 20
16.0899254514
 40
0.04
100
AcDbArc
 50
90.0000000004
 51
176.5515557441
  0
SPLINE
  5
269
100
AcDbEntity
  8
0
100
AcDbSpline
 62
7
  6
CONTINUOUS
 70
0
 71
3
 72
45
 73
41
 74
0
 42
0.0000001
 43
0.0000001
 44
0.0000000001
 40
0.0
 40
0.0
 40
0.0
 40
0.0
 40
0.009926241
 40
0.0196550791
 40
0.0292912417
 40
0.0388421085
 40
0.048255037
 40
0.0575146052
 40
0.0666750226
 40
0.0712325442
 40
0.0757803983
 40
0.0848750485
 40
0.094016201
 40
0.1032513269
 40
0.1126222002
 40
0.1221693152
 40
0.1319295378
 40
0.1419354662
 40
0.152211644
 40
0.1736509127
 40
0.1848508906
 40
0.1963874687
 40
0.2204996946
 40
0.2460402504
 40
0.2730295197
 40
0.3014692219
 40
0.3313419557
 40
0.3626186624
 40
0.395257189
 40
0.4292077055
 40
0.4644107972
 40
0.5008016336
 40
0.5383081446
 40
0.5768541641
 40
0.6163581118
 40
0.6567350754
 40
0.7397483373
 40
0.8251530969
 40
0.9121698384
 40
1.0
 40
1.0
 40
1.0
 40
1.0
 10
9.5169541616
 20
9.1552805109
 30
0.0
 10
9.5169541616
 20
9.1514124496
 30
0.0
 10
9.5173751385
 20
9.1437461168
 30
0.0
 10
9.5192616626
 20
9.1324667967
 30
0.0
 10
9.5223050429
 20
9.1215964237
 30
0.0
 10
9.5263637449
 20
9.1111987761
 30
0.0
 10
9.5313044372
 20
9.1013557759
 30
0.0
 10
9.5370168445
 20
9.0921208857
 30
0.0
 10
9.5423316245
 20
9.0849034927
 30
0.0
 10
9.5468556569
 20
9.0794069192
 30
0.0
 10
9.5515445479
 20
9.0740843024
 30
0.0
 10
9.5577344426
 20
9.0677107766
 30
0.0
 10
9.5656377544
 20
9.0604825534
 30
0.0
 10
9.5739918049
 20
9.0536111805
 30
0.0
 10
9.5827838098
 20
9.047043289
 30
0.0
 10
9.5920194652
 20
9.0407455543
 30
0.0
 10
9.6017023237
 20
9.0346808726
 30
0.0
 10
9.6118342888
 20
9.0288118454
 30
0.0
 10
9.6261545133
 20
9.0211096022
 30
0.0
 10
9.6412268679
 20
9.0138424406
 30
0.0
 10
9.6569909958
 20
9.0069244323
 30
0.0
 10
9.6738691848
 20
8.9999628519
 30
0.0
 10
9.6961939129
 20
8.9915683785
 30
0.0
 10
9.7245097584
 20
8.9820554408
 30
0.0
 10
9.7547216825
 20
8.9729411791
 30
0.0
 10
9.7868006705
 20
8.9642172092
 30
0.0
 10
9.8207057553
 20
8.9558834512
 30
0.0
 10
9.8563832861
 20
8.9479451041
 30
0.0
 10
9.8937702803
 20
8.9404103192
 30
0.0
 10
9.9327944165
 20
8.9332897186
 30
0.0
 10
9.9733762557
 20
8.9265944534
 30
0.0
 10
10.0154291768
 20
8.9203368488
 30
0.0
 10
10.0588609907
 20
8.9145285564
 30
0.0
 10
10.1035738878
 20
8.9091816962
 30
0.0
 10
10.1494656943
 20
8.9043071092
 30
0.0
 10
10.2126680738
 20
8.8983976306
 30
0.0
 10
10.2938106885
 20
8.8922999283
 30
0.0
 10
10.3932189137
 20
8.8870707815
 30
0.0
 10
10.4945919449
 20
8.8839133573
 30
0.0
 10
10.5627284719
 20
8.8832105863
 30
0.0
 10
10.5969541616
 20
8.8832105863
 30
0.0
  0
SPLINE
  5
26A
100
AcDbEntity
  8
0
100
AcDbSpline
 62
7
  6
CONTINUOUS
 70
0
 71
3
 72
45
 73
41
 74
0
 42
0.0000001
 43
0.0000001
 44
0.0000000001
 40
0.0
 40
0.0
 40
0.0
 40
0.0
 40
0.0878302714
 40
0.1748471414
 40
0.2602520017
 40
0.3432653569
 40
0.3836423559
 40
0.4231463447
 40
0.4616923918
 40
0.4991989329
 40
0.53558979
 40
0.5707928973
 40
0.6047434319
 40
0.6373819534
 40
0.6686586804
 40
0.6985313811
 40
0.7269711139
 40
0.7539603129
 40
0.7795009261
 40
0.8036130203
 40
0.8151495757
 40
0.8263496955
 40
0.8477887897
 40
0.8580648539
 40
0.8680708976
 40
0.8778311919
 40
0.8873782087
 40
0.8967489034
 40
0.9059839698
 40
0.9151252831
 40
0.9242199761
 40
0.928767721
 40
0.9333251591
 40
0.9424857396
 40
0.9517451182
 40
0.9611572235
 40
0.9707081976
 40
0.9803454718
 40
0.9900753515
 40
1.0
 40
1.0
 40
1.0
 40
1.0
 10
10.5969541616
 20
8.8832105863
 30
0.0
 10
10.6311798939
 20
8.8832105863
 30
0.0
 10
10.6993165131
 20
8.8839133596
 30
0.0
 10
10.8006896756
 20
8.8870707905
 30
0.0
 10
10.9000980249
 20
8.8922999526
 30
0.0
 10
10.9812407278
 20
8.8983976666
 30
0.0
 10
11.0444431713
 20
8.9043071663
 30
0.0
 10
11.0903350175
 20
8.909181759
 30
0.0
 10
11.1350479509
 20
8.9145286374
 30
0.0
 10
11.1784797942
 20
8.9203369378
 30
0.0
 10
11.2205327383
 20
8.9265945608
 30
0.0
 10
11.2611145971
 20
8.933289836
 30
0.0
 10
11.3001387406
 20
8.9404104561
 30
0.0
 10
11.3375257463
 20
8.9479452488
 30
0.0
 10
11.373203263
 20
8.9558836242
 30
0.0
 10
11.4071083578
 20
8.964217372
 30
0.0
 10
11.439187299
 20
8.9729414013
 30
0.0
 10
11.4693992482
 20
8.9820556072
 30
0.0
 10
11.4977149915
 20
8.9915686692
 30
0.0
 10
11.5200397227
 20
8.9999630204
 30
0.0
 10
11.5369179086
 20
9.0069246022
 30
0.0
 10
11.552681884
 20
9.0138429016
 30
0.0
 10
11.5677543147
 20
9.0211097518
 30
0.0
 10
11.5820745423
 20
9.0288118656
 30
0.0
 10
11.5922062571
 20
9.0346813826
 30
0.0
 10
11.6018891588
 20
9.0407460456
 30
0.0
 10
11.6111249529
 20
9.0470434316
 30
0.0
 10
11.6199169297
 20
9.0536111619
 30
0.0
 10
11.628270574
 20
9.0604829765
 30
0.0
 10
11.6361741267
 20
9.0677109989
 30
0.0
 10
11.6423641988
 20
9.0740844201
 30
0.0
 10
11.6470528562
 20
9.0794071689
 30
0.0
 10
11.6515765405
 20
9.0849040131
 30
0.0
 10
11.6568912667
 20
9.0921213701
 30
0.0
 10
11.6626039267
 20
9.1013557047
 30
0.0
 10
11.6675448946
 20
9.1111981863
 30
0.0
 10
11.6716034567
 20
9.1215960731
 30
0.0
 10
11.6746466769
 20
9.1324674079
 30
0.0
 10
11.6765329935
 20
9.1437469683
 30
0.0
 10
11.6769541616
 20
9.1514130702
 30
0.0
 10
11.6769541616
 20
9.1552805109
 30
0.0
  0
SPLINE
  5
26B
100
AcDbEntity
  8
0
100
AcDbSpline
 62
7
  6
CONTINUOUS
 70
0
 71
3
 72
45
 73
41
 74
0
 42
0.0000001
 43
0.0000001
 44
0.0000000001
 40
0.0
 40
0.0
 40
0.0
 40
0.0
 40
0.0878302714
 40
0.1748471414
 40
0.2602520017
 40
0.3432653569
 40
0.3836423559
 40
0.4231463447
 40
0.4616923918
 40
0.4991989329
 40
0.53558979
 40
0.5707928973
 40
0.6047434319
 40
0.6373819534
 40
0.6686586804
 40
0.6985313811
 40
0.7269711139
 40
0.7539603129
 40
0.7795009261
 40
0.8036130203
 40
0.8151495757
 40
0.8263496955
 40
0.8477887897
 40
0.8580648539
 40
0.8680708976
 40
0.8778311919
 40
0.8873782087
 40
0.8967489034
 40
0.9059839698
 40
0.9151252831
 40
0.9242199761
 40
0.928767721
 40
0.9333251591
 40
0.9424857396
 40
0.9517451182
 40
0.9611572235
 40
0.9707081976
 40
0.9803454718
 40
0.9900753515
 40
1.0
 40
1.0
 40
1.0
 40
1.0
 10
10.5969541616
 20
9.5056022436
 30
0.0
 10
10.5627284294
 20
9.5056022436
 30
0.0
 10
10.4945918101
 20
9.5048994703
 30
0.0
 10
10.3932186477
 20
9.5017420394
 30
0.0
 10
10.2938102984
 20
9.4965128773
 30
0.0
 10
10.2126675955
 20
9.4904151633
 30
0.0
 10
10.149465152
 20
9.4845056636
 30
0.0
 10
10.1035733058
 20
9.4796310708
 30
0.0
 10
10.0588603724
 20
9.4742841924
 30
0.0
 10
10.0154285291
 20
9.468475892
 30
0.0
 10
9.973375585
 20
9.462218269
 30
0.0
 10
9.9327937262
 20
9.4555229939
 30
0.0
 10
9.8937695826
 20
9.4484023738
 30
0.0
 10
9.8563825769
 20
9.4408675811
 30
0.0
 10
9.8207050602
 20
9.4329292057
 30
0.0
 10
9.7867999655
 20
9.4245954579
 30
0.0
 10
9.7547210243
 20
9.4158714285
 30
0.0
 10
9.7245090751
 20
9.4067572227
 30
0.0
 10
9.6961933317
 20
9.3972441607
 30
0.0
 10
9.6738686006
 20
9.3888498095
 30
0.0
 10
9.6569904147
 20
9.3818882277
 30
0.0
 10
9.6412264393
 20
9.3749699282
 30
0.0
 10
9.6261540085
 20
9.367703078
 30
0.0
 10
9.611833781
 20
9.3600009643
 30
0.0
 10
9.6017020661
 20
9.3541314473
 30
0.0
 10
9.5920191645
 20
9.3480667843
 30
0.0
 10
9.5827833704
 20
9.3417693983
 30
0.0
 10
9.5739913936
 20
9.335201668
 30
0.0
 10
9.5656377493
 20
9.3283298534
 30
0.0
 10
9.5577341965
 20
9.321101831
 30
0.0
 10
9.5515441245
 20
9.3147284098
 30
0.0
 10
9.546855467
 20
9.309405661
 30
0.0
 10
9.5423317828
 20
9.3039088167
 30
0.0
 10
9.5370170566
 20
9.2966914597
 30
0.0
 10
9.5313043966
 20
9.2874571252
 30
0.0
 10
9.5263634287
 20
9.2776146436
 30
0.0
 10
9.5223048666
 20
9.2672167567
 30
0.0
 10
9.5192616464
 20
9.256345422
 30
0.0
 10
9.5173753298
 20
9.2450658615
 30
0.0
 10
9.5169541616
 20
9.2373997596
 30
0.0
 10
9.5169541616
 20
9.233532319
 30
0.0
  0
SPLINE
  5
26C
100
AcDbEntity
  8
0
100
AcDbSpline
 62
7
  6
CONTINUOUS
 70
0
 71
3
 72
45
 73
41
 74
0
 42
0.0000001
 43
0.0000001
 44
0.0000000001
 40
0.0
 40
0.0
 40
0.0
 40
0.0
 40
0.009926241
 40
0.0196550791
 40
0.0292912417
 40
0.0388421085
 40
0.048255037
 40
0.0575146052
 40
0.0666750226
 40
0.0712325442
 40
0.0757803983
 40
0.0848750485
 40
0.094016201
 40
0.1032513269
 40
0.1126222002
 40
0.1221693152
 40
0.1319295378
 40
0.1419354662
 40
0.152211644
 40
0.1736509127
 40
0.1848508906
 40
0.1963874687
 40
0.2204996946
 40
0.2460402504
 40
0.2730295197
 40
0.3014692219
 40
0.3313419557
 40
0.3626186624
 40
0.395257189
 40
0.4292077055
 40
0.4644107972
 40
0.5008016336
 40
0.5383081446
 40
0.5768541641
 40
0.6163581118
 40
0.6567350754
 40
0.7397483373
 40
0.8251530969
 40
0.9121698384
 40
1.0
 40
1.0
 40
1.0
 40
1.0
 10
11.6769541616
 20
9.233532319
 30
0.0
 10
11.6769541616
 20
9.2374003802
 30
0.0
 10
11.6765331848
 20
9.2450667131
 30
0.0
 10
11.6746466606
 20
9.2563460332
 30
0.0
 10
11.6716032804
 20
9.2672164062
 30
0.0
 10
11.6675445784
 20
9.2776140538
 30
0.0
 10
11.6626038861
 20
9.287457054
 30
0.0
 10
11.6568914788
 20
9.2966919441
 30
0.0
 10
11.6515766988
 20
9.3039093371
 30
0.0
 10
11.6470526663
 20
9.3094059107
 30
0.0
 10
11.6423637753
 20
9.3147285275
 30
0.0
 10
11.6361738807
 20
9.3211020533
 30
0.0
 10
11.6282705689
 20
9.3283302765
 30
0.0
 10
11.6199165184
 20
9.3352016494
 30
0.0
 10
11.6111245135
 20
9.3417695409
 30
0.0
 10
11.601888858
 20
9.3480672756
 30
0.0
 10
11.5922059996
 20
9.3541319573
 30
0.0
 10
11.5820740345
 20
9.3600009845
 30
0.0
 10
11.56775381
 20
9.3677032277
 30
0.0
 10
11.5526814554
 20
9.3749703892
 30
0.0
 10
11.5369173275
 20
9.3818883975
 30
0.0
 10
11.5200391384
 20
9.388849978
 30
0.0
 10
11.4977144103
 20
9.3972444514
 30
0.0
 10
11.4693985649
 20
9.406757389
 30
0.0
 10
11.4391866407
 20
9.4158716508
 30
0.0
 10
11.4071076527
 20
9.4245956207
 30
0.0
 10
11.373202568
 20
9.4329293786
 30
0.0
 10
11.3375250372
 20
9.4408677257
 30
0.0
 10
11.300138043
 20
9.4484025106
 30
0.0
 10
11.2611139068
 20
9.4555231112
 30
0.0
 10
11.2205320675
 20
9.4622183765
 30
0.0
 10
11.1784791465
 20
9.4684759811
 30
0.0
 10
11.1350473326
 20
9.4742842735
 30
0.0
 10
11.0903344355
 20
9.4796311336
 30
0.0
 10
11.044442629
 20
9.4845057207
 30
0.0
 10
10.9812402495
 20
9.4904151993
 30
0.0
 10
10.9000976347
 20
9.4965129015
 30
0.0
 10
10.8006894096
 20
9.5017420483
 30
0.0
 10
10.6993163784
 20
9.5048994726
 30
0.0
 10
10.6311798514
 20
9.5056022436
 30
0.0
 10
10.5969541616
 20
9.5056022436
 30
0.0
  0
SPLINE
  5
26D
100
AcDbEntity
  8
0
100
AcDbSpline
 62
7
  6
CONTINUOUS
 70
0
 71
3
 72
11
 73
7
 74
0
 42
0.0000001
 43
0.0000001
 44
0.0000000001
 40
0.0
 40
0.0
 40
0.0
 40
0.0
 40
0.3409610634
 40
0.6295896447
 40
0.8539972629
 40
1.0
 40
1.0
 40
1.0
 40
1.0
 10
9.6369541616
 20
10.3094946798
 30
0.0
 10
9.6369541616
 20
10.3100319346
 30
0.0
 10
9.6368995035
 20
10.3110248199
 30
0.0
 10
9.6366932386
 20
10.3123563535
 30
0.0
 10
9.6364491445
 20
10.3133666865
 30
0.0
 10
9.636273469
 20
10.3139238574
 30
0.0
 10
9.6361944996
 20
10.3141399368
 30
0.0
  0
SPLINE
  5
26E
100
AcDbEntity
  8
0
100
AcDbSpline
 62
7
  6
CONTINUOUS
 70
0
 71
3
 72
34
 73
30
 74
0
 42
0.0000001
 43
0.0000001
 44
0.0000000001
 40
0.0
 40
0.0
 40
0.0
 40
0.0
 40
0.0851211999
 40
0.1512415157
 40
0.177412046
 40
0.1991067705
 40
0.2164095025
 40
0.2294001116
 40
0.2343022548
 40
0.2381544586
 40
0.240965561
 40
0.2427441891
 40
0.2434991022
 40
0.2437653549
 40
0.2450376307
 40
0.2473109912
 40
0.2505785495
 40
0.2548335823
 40
0.266280455
 40
0.2815925128
 40
0.3006429422
 40
0.3493496968
 40
0.4112148919
 40
0.4851029197
 40
0.5699387
 40
0.6647179878
 40
0.7685193043
 40
0.8805176437
 40
1.0
 40
1.0
 40
1.0
 40
1.0
 10
11.5569319854
 20
10.3130297182
 30
0.0
 10
11.5570425527
 20
10.3131801426
 30
0.0
 10
11.557235254
 20
10.3134502178
 30
0.0
 10
11.5574509039
 20
10.3137741658
 30
0.0
 10
11.5575837776
 20
10.3139859687
 30
0.0
 10
11.5576576463
 20
10.3141082695
 30
0.0
 10
11.5577149946
 20
10.3142069995
 30
0.0
 10
11.557752532
 20
10.314274072
 30
0.0
 10
11.5577754672
 20
10.3143164399
 30
0.0
 10
11.5577870217
 20
10.3143379527
 30
0.0
 10
11.5577965329
 20
10.3143563842
 30
0.0
 10
11.5578002684
 20
10.3143628957
 30
0.0
 10
11.5578054056
 20
10.3143734689
 30
0.0
 10
11.5578034949
 20
10.3143671937
 30
0.0
 10
11.5578002517
 20
10.3143608091
 30
0.0
 10
11.5577943835
 20
10.3143462342
 30
0.0
 10
11.5577860753
 20
10.3143268012
 30
0.0
 10
11.5577702437
 20
10.3142881233
 30
0.0
 10
11.5577452241
 20
10.314225009
 30
0.0
 10
11.5577099908
 20
10.3141308499
 30
0.0
 10
11.5576490213
 20
10.3139591898
 30
0.0
 10
11.5575609863
 20
10.3136887934
 30
0.0
 10
11.5574484342
 20
10.313300137
 30
0.0
 10
11.5573302017
 20
10.3128308944
 30
0.0
 10
11.557214642
 20
10.3122869083
 30
0.0
 10
11.5571101338
 20
10.3116739797
 30
0.0
 10
11.5570250516
 20
10.3109979089
 30
0.0
 10
11.5569677819
 20
10.3102645194
 30
0.0
 10
11.5569541616
 20
10.3097567296
 30
0.0
 10
11.5569541616
 20
10.3094946798
 30
0.0
  0
SPLINE
  5
26F
100
AcDbEntity
  8
0
100
AcDbSpline
 62
7
  6
CONTINUOUS
 70
0
 71
3
 72
23
 73
19
 74
0
 42
0.0000001
 43
0.0000001
 44
0.0000000001
 40
0.0
 40
0.0
 40
0.0
 40
0.0
 40
0.0645828935
 40
0.1278436869
 40
0.1905058622
 40
0.2524879594
 40
0.2830988308
 40
0.3134164475
 40
0.373392508
 40
0.4328305097
 40
0.492044849
 40
0.5514555592
 40
0.611445483
 40
0.6723389076
 40
0.7344462236
 40
0.7980502024
 40
0.8633973047
 40
1.0
 40
1.0
 40
1.0
 40
1.0
 10
9.5169541616
 20
10.4268723919
 30
0.0
 10
9.5169541616
 20
10.4226924263
 30
0.0
 10
9.5174459164
 20
10.414409016
 30
0.0
 10
9.5196486761
 20
10.4022494884
 30
0.0
 10
9.5231811362
 20
10.3905864847
 30
0.0
 10
9.5270952546
 20
10.3813114688
 30
0.0
 10
9.5307271336
 20
10.3742308553
 30
0.0
 10
9.5346322878
 20
10.3674465925
 30
0.0
 10
9.5400434216
 20
10.3593904336
 30
0.0
 10
9.547267443
 20
10.3503499332
 30
0.0
 10
9.5550989007
 20
10.3418824195
 30
0.0
 10
9.5634993771
 20
10.3339294032
 30
0.0
 10
9.5724344128
 20
10.3264149027
 30
0.0
 10
9.5818818362
 20
10.3192644291
 30
0.0
 10
9.5918476974
 20
10.3124347206
 30
0.0
 10
9.6023365716
 20
10.3058789473
 30
0.0
 10
9.6172413987
 20
10.2973146279
 30
0.0
 10
9.6289035159
 20
10.2913874788
 30
0.0
 10
9.6368907464
 20
10.2875964183
 30
0.0
  0
SPLINE
  5
270
100
AcDbEntity
  8
0
100
AcDbSpline
 62
7
  6
CONTINUOUS
 70
0
 71
3
 72
24
 73
20
 74
0
 42
0.0000001
 43
0.0000001
 44
0.0000000001
 40
0.0
 40
0.0
 40
0.0
 40
0.0
 40
0.0693432496
 40
0.1366123147
 40
0.2019580121
 40
0.2655608232
 40
0.3276661221
 40
0.3885573734
 40
0.4485466204
 40
0.5079578978
 40
0.5671714908
 40
0.6266092382
 40
0.6865858727
 40
0.7169018603
 40
0.7475096406
 40
0.809490461
 40
0.8721585101
 40
0.9354267287
 40
1.0
 40
1.0
 40
1.0
 40
1.0
 10
11.5570321172
 20
10.287603415
 30
0.0
 10
11.5610863361
 20
10.2895278287
 30
0.0
 10
11.569021879
 20
10.2934293665
 30
0.0
 10
11.5805695957
 20
10.299556492
 30
0.0
 10
11.5915819653
 20
10.3058854113
 30
0.0
 10
11.6020695376
 20
10.3124408729
 30
0.0
 10
11.6120344788
 20
10.3192699439
 30
0.0
 10
11.6214807309
 20
10.3264201391
 30
0.0
 10
11.6304144495
 20
10.333934753
 30
0.0
 10
11.6388143491
 20
10.3418871593
 30
0.0
 10
11.6466448944
 20
10.350354463
 30
0.0
 10
11.6538675265
 20
10.3593950345
 30
0.0
 10
11.6592782254
 20
10.3674505736
 30
0.0
 10
11.663183101
 20
10.3742340844
 30
0.0
 10
11.6668146789
 20
10.3813138207
 30
0.0
 10
11.6707282675
 20
10.3905884555
 30
0.0
 10
11.6742600765
 20
10.4022516225
 30
0.0
 10
11.6764622478
 20
10.4144106371
 30
0.0
 10
11.6769541616
 20
10.4226933284
 30
0.0
 10
11.6769541616
 20
10.4268723919
 30
0.0
  0
SPLINE
  5
271
100
AcDbEntity
  8
0
100
AcDbSpline
 62
7
  6
CONTINUOUS
 70
0
 71
3
 72
45
 73
41
 74
0
 42
0.0000001
 43
0.0000001
 44
0.0000000001
 40
0.0
 40
0.0
 40
0.0
 40
0.0
 40
0.0878302714
 40
0.1748471414
 40
0.2602520017
 40
0.3432653569
 40
0.3836423559
 40
0.4231463447
 40
0.4616923918
 40
0.4991989329
 40
0.53558979
 40
0.5707928973
 40
0.6047434319
 40
0.6373819534
 40
0.6686586804
 40
0.6985313811
 40
0.7269711139
 40
0.7539603129
 40
0.7795009261
 40
0.8036130203
 40
0.8151495757
 40
0.8263496955
 40
0.8477887897
 40
0.8580648539
 40
0.8680708976
 40
0.8778311919
 40
0.8873782087
 40
0.8967489034
 40
0.9059839698
 40
0.9151252831
 40
0.9242199761
 40
0.928767721
 40
0.9333251591
 40
0.9424857396
 40
0.9517451182
 40
0.9611572235
 40
0.9707081976
 40
0.9803454718
 40
0.9900753515
 40
1.0
 40
1.0
 40
1.0
 40
1.0
 10
10.5969541616
 20
10.7771941246
 30
0.0
 10
10.5627284294
 20
10.7771941246
 30
0.0
 10
10.4945918101
 20
10.7764913512
 30
0.0
 10
10.3932186477
 20
10.7733339203
 30
0.0
 10
10.2938102984
 20
10.7681047582
 30
0.0
 10
10.2126675955
 20
10.7620070443
 30
0.0
 10
10.149465152
 20
10.7560975445
 30
0.0
 10
10.1035733058
 20
10.7512229518
 30
0.0
 10
10.0588603724
 20
10.7458760734
 30
0.0
 10
10.0154285291
 20
10.740067773
 30
0.0
 10
9.973375585
 20
10.73381015
 30
0.0
 10
9.9327937262
 20
10.7271148749
 30
0.0
 10
9.8937695826
 20
10.7199942548
 30
0.0
 10
9.8563825769
 20
10.712459462
 30
0.0
 10
9.8207050602
 20
10.7045210867
 30
0.0
 10
9.7867999655
 20
10.6961873389
 30
0.0
 10
9.7547210243
 20
10.6874633095
 30
0.0
 10
9.7245090751
 20
10.6783491036
 30
0.0
 10
9.6961933317
 20
10.6688360416
 30
0.0
 10
9.6738686006
 20
10.6604416905
 30
0.0
 10
9.6569904147
 20
10.6534801087
 30
0.0
 10
9.6412264393
 20
10.6465618092
 30
0.0
 10
9.6261540085
 20
10.639294959
 30
0.0
 10
9.611833781
 20
10.6315928453
 30
0.0
 10
9.6017020661
 20
10.6257233283
 30
0.0
 10
9.5920191645
 20
10.6196586652
 30
0.0
 10
9.5827833704
 20
10.6133612793
 30
0.0
 10
9.5739913936
 20
10.606793549
 30
0.0
 10
9.5656377493
 20
10.5999217343
 30
0.0
 10
9.5577341965
 20
10.5926937119
 30
0.0
 10
9.5515441245
 20
10.5863202908
 30
0.0
 10
9.546855467
 20
10.5809975419
 30
0.0
 10
9.5423317828
 20
10.5755006977
 30
0.0
 10
9.5370170566
 20
10.5682833407
 30
0.0
 10
9.5313043966
 20
10.5590490061
 30
0.0
 10
9.5263634287
 20
10.5492065246
 30
0.0
 10
9.5223048666
 20
10.5388086377
 30
0.0
 10
9.5192616464
 20
10.527937303
 30
0.0
 10
9.5173753298
 20
10.5166577425
 30
0.0
 10
9.5169541616
 20
10.5089916406
 30
0.0
 10
9.5169541616
 20
10.5051241999
 30
0.0
  0
SPLINE
  5
272
100
AcDbEntity
  8
0
100
AcDbSpline
 62
7
  6
CONTINUOUS
 70
0
 71
3
 72
45
 73
41
 74
0
 42
0.0000001
 43
0.0000001
 44
0.0000000001
 40
0.0
 40
0.0
 40
0.0
 40
0.0
 40
0.009926241
 40
0.0196550791
 40
0.0292912417
 40
0.0388421085
 40
0.048255037
 40
0.0575146052
 40
0.0666750226
 40
0.0712325442
 40
0.0757803983
 40
0.0848750485
 40
0.094016201
 40
0.1032513269
 40
0.1126222002
 40
0.1221693152
 40
0.1319295378
 40
0.1419354662
 40
0.152211644
 40
0.1736509127
 40
0.1848508906
 40
0.1963874687
 40
0.2204996946
 40
0.2460402504
 40
0.2730295197
 40
0.3014692219
 40
0.3313419557
 40
0.3626186624
 40
0.395257189
 40
0.4292077055
 40
0.4644107972
 40
0.5008016336
 40
0.5383081446
 40
0.5768541641
 40
0.6163581118
 40
0.6567350754
 40
0.7397483373
 40
0.8251530969
 40
0.9121698384
 40
1.0
 40
1.0
 40
1.0
 40
1.0
 10
11.6769541616
 20
10.5051241999
 30
0.0
 10
11.6769541616
 20
10.5089922612
 30
0.0
 10
11.6765331848
 20
10.5166585941
 30
0.0
 10
11.6746466606
 20
10.5279379141
 30
0.0
 10
11.6716032804
 20
10.5388082871
 30
0.0
 10
11.6675445784
 20
10.5492059347
 30
0.0
 10
11.6626038861
 20
10.5590489349
 30
0.0
 10
11.6568914788
 20
10.5682838251
 30
0.0
 10
11.6515766988
 20
10.5755012181
 30
0.0
 10
11.6470526663
 20
10.5809977917
 30
0.0
 10
11.6423637753
 20
10.5863204084
 30
0.0
 10
11.6361738807
 20
10.5926939342
 30
0.0
 10
11.6282705689
 20
10.5999221574
 30
0.0
 10
11.6199165184
 20
10.6067935304
 30
0.0
 10
11.6111245135
 20
10.6133614218
 30
0.0
 10
11.601888858
 20
10.6196591565
 30
0.0
 10
11.5922059996
 20
10.6257238382
 30
0.0
 10
11.5820740345
 20
10.6315928654
 30
0.0
 10
11.56775381
 20
10.6392951086
 30
0.0
 10
11.5526814554
 20
10.6465622702
 30
0.0
 10
11.5369173275
 20
10.6534802785
 30
0.0
 10
11.5200391384
 20
10.6604418589
 30
0.0
 10
11.4977144103
 20
10.6688363324
 30
0.0
 10
11.4693985649
 20
10.67834927
 30
0.0
 10
11.4391866407
 20
10.6874635318
 30
0.0
 10
11.4071076527
 20
10.6961875016
 30
0.0
 10
11.373202568
 20
10.7045212596
 30
0.0
 10
11.3375250372
 20
10.7124596067
 30
0.0
 10
11.300138043
 20
10.7199943916
 30
0.0
 10
11.2611139068
 20
10.7271149922
 30
0.0
 10
11.2205320675
 20
10.7338102574
 30
0.0
 10
11.1784791465
 20
10.740067862
 30
0.0
 10
11.1350473326
 20
10.7458761544
 30
0.0
 10
11.0903344355
 20
10.7512230146
 30
0.0
 10
11.044442629
 20
10.7560976016
 30
0.0
 10
10.9812402495
 20
10.7620070802
 30
0.0
 10
10.9000976347
 20
10.7681047825
 30
0.0
 10
10.8006894096
 20
10.7733339293
 30
0.0
 10
10.6993163784
 20
10.7764913536
 30
0.0
 10
10.6311798514
 20
10.7771941246
 30
0.0
 10
10.5969541616
 20
10.7771941246
 30
0.0
  0
SPLINE
  5
273
100
AcDbEntity
  8
0
100
AcDbSpline
 62
7
  6
CONTINUOUS
 70
0
 71
3
 72
15
 73
11
 74
0
 42
0.0000001
 43
0.0000001
 44
0.0000000001
 40
0.0
 40
0.0
 40
0.0
 40
0.0
 40
0.1247420629
 40
0.2495150177
 40
0.3743359351
 40
0.4992352258
 40
0.6242326279
 40
0.7493488368
 40
0.874600227
 40
1.0
 40
1.0
 40
1.0
 40
1.0
 10
9.4969541616
 20
10.759288767
 30
0.0
 10
9.4969541616
 20
10.7885715121
 30
0.0
 10
9.4993859706
 20
10.8471732806
 30
0.0
 10
9.5103022551
 20
10.9344631815
 30
0.0
 10
9.5284151403
 20
11.0205919424
 30
0.0
 10
9.5535996369
 20
11.1049776178
 30
0.0
 10
9.5856864052
 20
11.1870617301
 30
0.0
 10
9.6244589711
 20
11.2663007112
 30
0.0
 10
9.6696516889
 20
11.3421642838
 30
0.0
 10
9.7038481407
 20
11.3901416977
 30
0.0
 10
9.7218981383
 20
11.413395575
 30
0.0
  0
SPLINE
  5
274
100
AcDbEntity
  8
0
100
AcDbSpline
 62
7
  6
CONTINUOUS
 70
0
 71
3
 72
15
 73
11
 74
0
 42
0.0000001
 43
0.0000001
 44
0.0000000001
 40
0.0
 40
0.0
 40
0.0
 40
0.0
 40
0.1253997503
 40
0.2506511219
 40
0.3757673176
 40
0.5007647128
 40
0.6256640062
 40
0.7504849288
 40
0.8752579146
 40
1.0
 40
1.0
 40
1.0
 40
1.0
 10
11.4720099092
 20
11.4133959305
 30
0.0
 10
11.4900599243
 20
11.3901420498
 30
0.0
 10
11.5242564123
 20
11.3421646274
 30
0.0
 10
11.5694491797
 20
11.2663010334
 30
0.0
 10
11.6082217915
 20
11.1870620222
 30
0.0
 10
11.6403086014
 20
11.1049778699
 30
0.0
 10
11.6654931319
 20
11.0205921457
 30
0.0
 10
11.6836060468
 20
10.9344633241
 30
0.0
 10
11.6945223472
 20
10.8471733545
 30
0.0
 10
11.6969541616
 20
10.7885715361
 30
0.0
 10
11.6969541616
 20
10.759288767
 30
0.0
  0
SPLINE
  5
275
100
AcDbEntity
  8
0
100
AcDbSpline
 62
7
  6
CONTINUOUS
 70
0
 71
3
 72
25
 73
21
 74
0
 42
0.0000001
 43
0.0000001
 44
0.0000000001
 40
0.0
 40
0.0
 40
0.0
 40
0.0
 40
0.0115383397
 40
0.0236377257
 40
0.0366334854
 40
0.0507952672
 40
0.0663130441
 40
0.0833035903
 40
0.1219703775
 40
0.1671835856
 40
0.219018806
 40
0.2772624346
 40
0.3415278825
 40
0.4113443756
 40
0.4861595459
 40
0.5653147773
 40
0.6480965735
 40
0.8214675171
 40
0.9105301697
 40
1.0
 40
1.0
 40
1.0
 40
1.0
 10
9.962742052
 20
15.8899254514
 30
0.0
 10
9.9624883042
 20
15.8899255002
 30
0.0
 10
9.9619673635
 20
15.8899762607
 30
0.0
 10
9.9611889543
 20
15.8901975815
 30
0.0
 10
9.9604031578
 20
15.8905625806
 30
0.0
 10
9.9596104371
 20
15.8910692334
 30
0.0
 10
9.9588110264
 20
15.8917157563
 30
0.0
 10
9.9576897703
 20
15.8928105713
 30
0.0
 10
9.9562979755
 20
15.8945478831
 30
0.0
 10
9.9547006934
 20
15.8970735962
 30
0.0
 10
9.9531156044
 20
15.9001020622
 30
0.0
 10
9.9515591986
 20
15.90360843
 30
0.0
 10
9.9500546783
 20
15.9075632097
 30
0.0
 10
9.9486139548
 20
15.9119267803
 30
0.0
 10
9.9472488141
 20
15.9166561908
 30
0.0
 10
9.945975388
 20
15.9217056206
 30
0.0
 10
9.9443952813
 20
15.9289092944
 30
0.0
 10
9.9430953841
 20
15.9363936101
 30
0.0
 10
9.9420554344
 20
15.9440628222
 30
0.0
 10
9.9416299302
 20
15.9479665808
 30
0.0
 10
9.9414448535
 20
15.9499254514
 30
0.0
  0
SPLINE
  5
276
100
AcDbEntity
  8
0
100
AcDbSpline
 62
7
  6
CONTINUOUS
 70
0
 71
3
 72
24
 73
20
 74
0
 42
0.0000001
 43
0.0000001
 44
0.0000000001
 40
0.0
 40
0.0
 40
0.0
 40
0.0
 40
0.1824966987
 40
0.271491611
 40
0.3578971111
 40
0.5199630341
 40
0.5942837219
 40
0.6633150044
 40
0.7265655858
 40
0.7836374645
 40
0.8342699309
 40
0.8783677875
 40
0.8980144743
 40
0.9161130751
 40
0.9327483909
 40
0.9480410767
 40
0.9752570901
 40
0.9877794769
 40
1.0
 40
1.0
 40
1.0
 40
1.0
 10
9.9188032813
 20
16.0699254514
 30
0.0
 10
9.9186849988
 20
16.0738474048
 30
0.0
 10
9.9186498277
 20
16.0796881728
 30
0.0
 10
9.9189409027
 20
16.0873785604
 30
0.0
 10
9.9194233718
 20
16.0946186529
 30
0.0
 10
9.9201911454
 20
16.101522718
 30
0.0
 10
9.9212930117
 20
16.107997767
 30
0.0
 10
9.9222235408
 20
16.1123428356
 30
0.0
 10
9.9232723651
 20
16.1162785739
 30
0.0
 10
9.9244299136
 20
16.1197700657
 30
0.0
 10
9.9256843864
 20
16.1227867298
 30
0.0
 10
9.926842106
 20
16.1249629338
 30
0.0
 10
9.9278195041
 20
16.1264278833
 30
0.0
 10
9.9285412026
 20
16.1273492881
 30
0.0
 10
9.9292789591
 20
16.128134882
 30
0.0
 10
9.9302426812
 20
16.1289658288
 30
0.0
 10
9.9312815109
 20
16.1295738301
 30
0.0
 10
9.9323622583
 20
16.129876124
 30
0.0
 10
9.9328955142
 20
16.1299254428
 30
0.0
 10
9.9331582593
 20
16.1299254514
 30
0.0
  0
SPLINE
  5
277
100
AcDbEntity
  8
0
100
AcDbSpline
 62
7
  6
CONTINUOUS
 70
0
 71
3
 72
26
 73
22
 74
0
 42
0.0000001
 43
0.0000001
 44
0.0000000001
 40
0.0
 40
0.0
 40
0.0
 40
0.0
 40
0.0825525176
 40
0.1675477756
 40
0.3397351371
 40
0.4245872515
 40
0.5070151755
 40
0.5858748801
 40
0.6600775809
 40
0.7286245923
 40
0.7906021237
 40
0.8452406986
 40
0.8919230478
 40
0.9121573034
 40
0.9302801885
 40
0.9463090678
 40
0.9602988089
 40
0.9723624327
 40
0.9827185438
 40
0.9917404016
 40
1.0
 40
1.0
 40
1.0
 40
1.0
 10
9.9877472249
 20
15.8299254514
 30
0.0
 10
9.9890670518
 20
15.8307144793
 30
0.0
 10
9.9917669713
 20
15.8322806661
 30
0.0
 10
9.9973155138
 20
15.8353244824
 30
0.0
 10
10.0030057046
 20
15.8381961097
 30
0.0
 10
10.0087455785
 20
15.8408498511
 30
0.0
 10
10.0129527616
 20
15.8426732346
 30
0.0
 10
10.0170215751
 20
15.8443134505
 30
0.0
 10
10.020893358
 20
15.8457466701
 30
0.0
 10
10.0245117583
 20
15.8469530385
 30
0.0
 10
10.0278249506
 20
15.8479155078
 30
0.0
 10
10.0307849883
 20
15.8486212985
 30
0.0
 10
10.0330189223
 20
15.8490060702
 30
0.0
 10
10.034595801
 20
15.8491631896
 30
0.0
 10
10.0356086301
 20
15.8492057948
 30
0.0
 10
10.0365059247
 20
15.8491793565
 30
0.0
 10
10.0372854172
 20
15.8490839273
 30
0.0
 10
10.0379455462
 20
15.848918871
 30
0.0
 10
10.0384854673
 20
15.8486825797
 30
0.0
 10
10.0389031017
 20
15.8483721688
 30
0.0
 10
10.0390976619
 20
15.8481078697
 30
0.0
 10
10.0391670681
 20
15.8479705644
 30
0.0
  0
SPLINE
  5
278
100
AcDbEntity
  8
0
100
AcDbSpline
 62
7
  6
CONTINUOUS
 70
0
 71
3
 72
28
 73
24
 74
0
 42
0.0000001
 43
0.0000001
 44
0.0000000001
 40
0.0
 40
0.0
 40
0.0
 40
0.0
 40
0.1693995137
 40
0.3444051114
 40
0.4308357881
 40
0.514851174
 40
0.5952267787
 40
0.6707966777
 40
0.7404612357
 40
0.8032253057
 40
0.8582029436
 40
0.8825323668
 40
0.9046468115
 40
0.9244839675
 40
0.941988311
 40
0.9571264365
 40
0.9698980466
 40
0.9803383484
 40
0.9885630993
 40
0.9919348028
 40
0.994891237
 40
0.9975327409
 40
1.0
 40
1.0
 40
1.0
 40
1.0
 10
11.2524634698
 20
15.9499254513
 30
0.0
 10
11.2494853548
 20
15.9509069373
 30
0.0
 10
11.243398482
 20
15.9528057414
 30
0.0
 10
11.23572318
 20
15.9549750767
 30
0.0
 10
11.2295353863
 20
15.9565885157
 30
0.0
 10
11.2250263246
 20
15.9576957655
 30
0.0
 10
11.220696808
 20
15.9586890629
 30
0.0
 10
11.2166109467
 20
15.959553915
 30
0.0
 10
11.2128291245
 20
15.9602777524
 30
0.0
 10
11.2094073673
 20
15.9608503116
 30
0.0
 10
11.2068014869
 20
15.9612087422
 30
0.0
 10
11.2049344856
 20
15.961407116
 30
0.0
 10
11.2037115482
 20
15.9615073996
 30
0.0
 10
11.2026123277
 20
15.9615653705
 30
0.0
 10
11.2016407294
 20
15.9615808921
 30
0.0
 10
11.2008001516
 20
15.9615540743
 30
0.0
 10
11.2000927576
 20
15.9614855255
 30
0.0
 10
11.1995205024
 20
15.9613757364
 30
0.0
 10
11.1991318526
 20
15.961242318
 30
0.0
 10
11.1988976224
 20
15.9611074981
 30
0.0
 10
11.198768334
 20
15.9610018064
 30
0.0
 10
11.1986741771
 20
15.9608842709
 30
0.0
 10
11.1986354682
 20
15.9607964846
 30
0.0
 10
11.1986231063
 20
15.9607525191
 30
0.0
  0
SPLINE
  5
279
100
AcDbEntity
  8
0
100
AcDbSpline
 62
7
  6
CONTINUOUS
 70
0
 71
3
 72
29
 73
25
 74
0
 42
0.0000001
 43
0.0000001
 44
0.0000000001
 40
0.0
 40
0.0
 40
0.0
 40
0.0
 40
0.1693405247
 40
0.2572410104
 40
0.345527914
 40
0.4328637103
 40
0.5179082819
 40
0.5993691517
 40
0.6760110057
 40
0.7466628636
 40
0.8102562213
 40
0.8658262093
 40
0.9125302343
 40
0.9323377087
 40
0.9496786917
 40
0.9644902144
 40
0.9767284611
 40
0.9818709471
 40
0.9863571677
 40
0.9901865414
 40
0.9933630257
 40
0.9958955562
 40
0.9978043554
 40
1.0
 40
1.0
 40
1.0
 40
1.0
 10
11.275105042
 20
16.0699254514
 30
0.0
 10
11.2719666739
 20
16.0702628337
 30
0.0
 10
11.2671962487
 20
16.0707476893
 30
0.0
 10
11.2607842219
 20
16.0713530235
 30
0.0
 10
11.2558917978
 20
16.0717911825
 30
0.0
 10
11.2510503703
 20
16.072201328
 30
0.0
 10
11.2463337814
 20
16.0725771349
 30
0.0
 10
11.241814031
 20
16.0729129367
 30
0.0
 10
11.2375600195
 20
16.0732037122
 30
0.0
 10
11.2336365382
 20
16.0734450746
 30
0.0
 10
11.2301034216
 20
16.0736336345
 30
0.0
 10
11.2270145176
 20
16.0737666685
 30
0.0
 10
11.2247398153
 20
16.0738336736
 30
0.0
 10
11.2231769381
 20
16.0738544936
 30
0.0
 10
11.2222083826
 20
16.0738544925
 30
0.0
 10
11.2213810312
 20
16.0738398528
 30
0.0
 10
11.2207814129
 20
16.0738147096
 30
0.0
 10
11.2203748026
 20
16.0737854565
 30
0.0
 10
11.2201251725
 20
16.073761272
 30
0.0
 10
11.2199124645
 20
16.0737333882
 30
0.0
 10
11.2197380332
 20
16.0737026989
 30
0.0
 10
11.2195981935
 20
16.0736672907
 30
0.0
 10
11.2194870701
 20
16.0736275776
 30
0.0
 10
11.2194087018
 20
16.0735752331
 30
0.0
 10
11.2194050092
 20
16.073534474
 30
0.0
  0
SPLINE
  5
27A
100
AcDbEntity
  8
0
100
AcDbSpline
 62
7
  6
CONTINUOUS
 70
0
 71
3
 72
28
 73
24
 74
0
 42
0.0000001
 43
0.0000001
 44
0.0000000001
 40
0.0
 40
0.0
 40
0.0
 40
0.0
 40
0.1693984442
 40
0.3444027625
 40
0.4308327643
 40
0.5148474785
 40
0.595222438
 40
0.6707917437
 40
0.7404557882
 40
0.8032194568
 40
0.8581968521
 40
0.8825262374
 40
0.9046407143
 40
0.9244779849
 40
0.9419825429
 40
0.9571210085
 40
0.9698931259
 40
0.9803341685
 40
0.9885599803
 40
0.9919323549
 40
0.994889552
 40
0.9975318894
 40
1.0
 40
1.0
 40
1.0
 40
1.0
 10
9.9414448535
 20
15.9499254514
 30
0.0
 10
9.9444229344
 20
15.9509070511
 30
0.0
 10
9.9505097428
 20
15.9528060741
 30
0.0
 10
9.958184983
 20
15.9549756401
 30
0.0
 10
9.9643727365
 20
15.9565892271
 30
0.0
 10
9.9688817742
 20
15.9576965636
 30
0.0
 10
9.9732112744
 20
15.9586899211
 30
0.0
 10
9.9772971275
 20
15.9595548047
 30
0.0
 10
9.9810789498
 20
15.9602786443
 30
0.0
 10
9.9845007159
 20
15.9608511767
 30
0.0
 10
9.9871066104
 20
15.9612095578
 30
0.0
 10
9.9889736276
 20
15.9614078701
 30
0.0
 10
9.9901965806
 20
15.9615081002
 30
0.0
 10
9.9912958194
 20
15.9615660091
 30
0.0
 10
9.9922674385
 20
15.9615814606
 30
0.0
 10
9.99310804
 20
15.9615545651
 30
0.0
 10
9.993815461
 20
15.9614859303
 30
0.0
 10
9.994387747
 20
15.9613760466
 30
0.0
 10
9.9947764183
 20
15.961242537
 30
0.0
 10
9.9950106629
 20
15.9611076455
 30
0.0
 10
9.9951399648
 20
15.9610019019
 30
0.0
 10
9.9952341337
 20
15.9608843171
 30
0.0
 10
9.9952728507
 20
15.9607965001
 30
0.0
 10
9.995285217
 20
15.9607525191
 30
0.0
  0
SPLINE
  5
27B
100
AcDbEntity
  8
0
100
AcDbSpline
 62
7
  6
CONTINUOUS
 70
0
 71
3
 72
29
 73
25
 74
0
 42
0.0000001
 43
0.0000001
 44
0.0000000001
 40
0.0
 40
0.0
 40
0.0
 40
0.0
 40
0.1693407669
 40
0.2572413887
 40
0.3455284346
 40
0.4328643758
 40
0.5179090911
 40
0.5993700992
 40
0.6760120814
 40
0.7466640529
 40
0.810257504
 40
0.8658275576
 40
0.9125316081
 40
0.9323390749
 40
0.9496800333
 40
0.96449151
 40
0.9767296811
 40
0.9818721139
 40
0.9863582675
 40
0.9901875569
 40
0.9933639348
 40
0.9958963291
 40
0.9978049483
 40
1.0
 40
1.0
 40
1.0
 40
1.0
 10
9.9188032813
 20
16.0699254504
 30
0.0
 10
9.9219416542
 20
16.070262783
 30
0.0
 10
9.926712086
 20
16.0707475667
 30
0.0
 10
9.9331241203
 20
16.0713528157
 30
0.0
 10
9.9380165496
 20
16.0717909166
 30
0.0
 10
9.9428579816
 20
16.0722010127
 30
0.0
 10
9.947574574
 20
16.0725767806
 30
0.0
 10
9.9520943267
 20
16.0729125553
 30
0.0
 10
9.9563483394
 20
16.0732033162
 30
0.0
 10
9.9602718208
 20
16.0734446771
 30
0.0
 10
9.9638049362
 20
16.0736332483
 30
0.0
 10
9.9668938376
 20
16.073766307
 30
0.0
 10
9.9691685366
 20
16.0738333483
 30
0.0
 10
9.9707314106
 20
16.0738542074
 30
0.0
 10
9.971699963
 20
16.0738542376
 30
0.0
 10
9.9725273109
 20
16.0738396325
 30
0.0
 10
9.9731269263
 20
16.0738145225
 30
0.0
 10
9.9735335344
 20
16.0737852988
 30
0.0
 10
9.9737831622
 20
16.0737611361
 30
0.0
 10
9.9739958682
 20
16.0737332748
 30
0.0
 10
9.9741702963
 20
16.0737026084
 30
0.0
 10
9.9743101351
 20
16.0736672233
 30
0.0
 10
9.9744212454
 20
16.0736275373
 30
0.0
 10
9.9744996225
 20
16.0735752221
 30
0.0
 10
9.9745033141
 20
16.073534474
 30
0.0
  0
SPLINE
  5
27C
100
AcDbEntity
  8
0
100
AcDbSpline
 62
7
  6
CONTINUOUS
 70
0
 71
3
 72
45
 73
41
 74
0
 42
0.0000001
 43
0.0000001
 44
0.0000000001
 40
0.0
 40
0.0
 40
0.0
 40
0.0
 40
0.0048506377
 40
0.0097652918
 40
0.0148053236
 40
0.0200274609
 40
0.0254824483
 40
0.0312141102
 40
0.037259627
 40
0.0436501809
 40
0.0504115399
 40
0.0575643035
 40
0.0651250267
 40
0.0731070465
 40
0.0815208834
 40
0.090374155
 40
0.0996724576
 40
0.1094198721
 40
0.1196190502
 40
0.1302708636
 40
0.1529295109
 40
0.1773860569
 40
0.2036145674
 40
0.2315798606
 40
0.2612363854
 40
0.2925322281
 40
0.3254073901
 40
0.3597971284
 40
0.3956300839
 40
0.4328311743
 40
0.4713197781
 40
0.5110122839
 40
0.5518204748
 40
0.5936536992
 40
0.6364174047
 40
0.724346459
 40
0.8148086748
 40
0.8607306464
 40
0.9069765276
 40
1.0
 40
1.0
 40
1.0
 40
1.0
 10
11.4719541616
 20
11.0528868563
 30
0.0
 10
11.4719541616
 20
11.0543776508
 30
0.0
 10
11.4717755745
 20
11.0573818579
 30
0.0
 10
11.4709749131
 20
11.0618708245
 30
0.0
 10
11.469643011
 20
11.0663508924
 30
0.0
 10
11.4677823856
 20
11.0708176619
 30
0.0
 10
11.4653956132
 20
11.0752684416
 30
0.0
 10
11.4624859984
 20
11.0797011859
 30
0.0
 10
11.4590563307
 20
11.08411412
 30
0.0
 10
11.4551090261
 20
11.0885054028
 30
0.0
 10
11.4506464202
 20
11.0928729484
 30
0.0
 10
11.4456715051
 20
11.0972149901
 30
0.0
 10
11.4401872491
 20
11.1015294429
 30
0.0
 10
11.4341966573
 20
11.1058140278
 30
0.0
 10
11.4277029814
 20
11.1100662317
 30
0.0
 10
11.4207101578
 20
11.1142839018
 30
0.0
 10
11.4132223166
 20
11.1184646612
 30
0.0
 10
11.4052437092
 20
11.122606012
 30
0.0
 10
11.3967788793
 20
11.1267054191
 30
0.0
 10
11.3845982936
 20
11.1322265092
 30
0.0
 10
11.368171561
 20
11.1389785656
 30
0.0
 10
11.34699539
 20
11.1467181615
 30
0.0
 10
11.3240172152
 20
11.1542355092
 30
0.0
 10
11.2992915855
 20
11.1615113756
 30
0.0
 10
11.2728770577
 20
11.1685288868
 30
0.0
 10
11.244836613
 20
11.1752700173
 30
0.0
 10
11.2152372833
 20
11.1817191116
 30
0.0
 10
11.1841500143
 20
11.1878596352
 30
0.0
 10
11.1516493648
 20
11.1936773522
 30
0.0
 10
11.1178134466
 20
11.1991573668
 30
0.0
 10
11.0827235411
 20
11.2042870206
 30
0.0
 10
11.0464640861
 20
11.2090531786
 30
0.0
 10
11.0091222589
 20
11.2134448668
 30
0.0
 10
10.9707879559
 20
11.2174508827
 30
0.0
 10
10.9179858606
 20
11.2223104443
 30
0.0
 10
10.8501950399
 20
11.2273271212
 30
0.0
 10
10.7813415142
 20
11.2308958483
 30
0.0
 10
10.7252475042
 20
11.2329173019
 30
0.0
 10
10.6683487428
 20
11.2343745218
 30
0.0
 10
10.6255439855
 20
11.2348095858
 30
0.0
 10
10.5969541616
 20
11.2348095858
 30
0.0
  0
SPLINE
  5
27D
100
AcDbEntity
  8
0
100
AcDbSpline
 62
7
  6
CONTINUOUS
 70
0
 71
3
 72
44
 73
40
 74
0
 42
0.0000001
 43
0.0000001
 44
0.0000000001
 40
0.0
 40
0.0
 40
0.0
 40
0.0
 40
0.004850643
 40
0.0097652978
 40
0.0148053347
 40
0.0200275017
 40
0.0254824974
 40
0.0312141286
 40
0.0372596373
 40
0.0436502753
 40
0.0504116444
 40
0.057564335
 40
0.0651250426
 40
0.0731072077
 40
0.0815210437
 40
0.0903742024
 40
0.0996725
 40
0.1094201085
 40
0.1196192636
 40
0.130270934
 40
0.1529298249
 40
0.1773861616
 40
0.20361496
 40
0.2315800163
 40
0.2612368548
 40
0.2925324553
 40
0.325407934
 40
0.3597974509
 40
0.3956307001
 40
0.4328316083
 40
0.4713204702
 40
0.5110128504
 40
0.5518212341
 40
0.5936543702
 40
0.6364182773
 40
0.7243473175
 40
0.8148099315
 40
0.9069759498
 40
1.0
 40
1.0
 40
1.0
 40
1.0
 10
9.5169541616
 20
9.1552805109
 30
0.0
 10
9.5169541616
 20
9.157120577
 30
0.0
 10
9.5171745681
 20
9.1608286248
 30
0.0
 10
9.5181627724
 20
9.1663692966
 30
0.0
 10
9.5198067048
 20
9.1718989955
 30
0.0
 10
9.5221033513
 20
9.1774122329
 30
0.0
 10
9.5250493004
 20
9.1829057612
 30
0.0
 10
9.5286405075
 20
9.1883770681
 30
0.0
 10
9.5328736672
 20
9.1938239303
 30
0.0
 10
9.5377459164
 20
9.1992439282
 30
0.0
 10
9.5432540269
 20
9.204634739
 30
0.0
 10
9.5493943857
 20
9.2099941222
 30
0.0
 10
9.5561635054
 20
9.2153194377
 30
0.0
 10
9.5635577618
 20
9.2206076887
 30
0.0
 10
9.5715727842
 20
9.2258561612
 30
0.0
 10
9.5802038106
 20
9.231062053
 30
0.0
 10
9.5894459479
 20
9.2362223391
 30
0.0
 10
9.5992939734
 20
9.2413337784
 30
0.0
 10
9.6097419579
 20
9.2463936731
 30
0.0
 10
9.6247762048
 20
9.2532084732
 30
0.0
 10
9.6450515678
 20
9.2615420611
 30
0.0
 10
9.6711889441
 20
9.271095372
 30
0.0
 10
9.6995506224
 20
9.2803734857
 30
0.0
 10
9.7300690839
 20
9.289354429
 30
0.0
 10
9.7626721703
 20
9.2980155997
 30
0.0
 10
9.7972820901
 20
9.3063365182
 30
0.0
 10
9.8338161101
 20
9.3142961193
 30
0.0
 10
9.8721867021
 20
9.3218756852
 30
0.0
 10
9.912301766
 20
9.3290560283
 30
0.0
 10
9.9540649874
 20
9.3358202866
 30
0.0
 10
9.9973759316
 20
9.3421514204
 30
0.0
 10
10.0421304887
 20
9.348034511
 30
0.0
 10
10.0882209374
 20
9.3534548527
 30
0.0
 10
10.135536457
 20
9.3583996427
 30
0.0
 10
10.2007092926
 20
9.3643975061
 30
0.0
 10
10.2843827548
 20
9.3705897344
 30
0.0
 10
10.3868875647
 20
9.3759022924
 30
0.0
 10
10.491412966
 20
9.3791108874
 30
0.0
 10
10.5616659746
 20
9.379825137
 30
0.0
 10
10.5969541616
 20
9.379825137
 30
0.0
  0
SPLINE
  5
27E
100
AcDbEntity
  8
0
100
AcDbSpline
 62
7
  6
CONTINUOUS
 70
0
 71
3
 72
44
 73
40
 74
0
 42
0.0000001
 43
0.0000001
 44
0.0000000001
 40
0.0
 40
0.0
 40
0.0
 40
0.0
 40
0.004850643
 40
0.0097652978
 40
0.0148053347
 40
0.0200275017
 40
0.0254824974
 40
0.0312141286
 40
0.0372596373
 40
0.0436502753
 40
0.0504116444
 40
0.057564335
 40
0.0651250426
 40
0.0731072077
 40
0.0815210437
 40
0.0903742024
 40
0.0996725
 40
0.1094201085
 40
0.1196192636
 40
0.130270934
 40
0.1529298249
 40
0.1773861616
 40
0.20361496
 40
0.2315800163
 40
0.2612368548
 40
0.2925324553
 40
0.325407934
 40
0.3597974509
 40
0.3956307001
 40
0.4328316083
 40
0.4713204702
 40
0.5110128504
 40
0.5518212341
 40
0.5936543702
 40
0.6364182773
 40
0.7243473175
 40
0.8148099315
 40
0.9069759498
 40
1.0
 40
1.0
 40
1.0
 40
1.0
 10
9.5169541616
 20
9.233532319
 30
0.0
 10
9.5169541616
 20
9.235372385
 30
0.0
 10
9.5171745681
 20
9.2390804329
 30
0.0
 10
9.5181627724
 20
9.2446211047
 30
0.0
 10
9.5198067048
 20
9.2501508036
 30
0.0
 10
9.5221033513
 20
9.2556640409
 30
0.0
 10
9.5250493004
 20
9.2611575693
 30
0.0
 10
9.5286405075
 20
9.2666288762
 30
0.0
 10
9.5328736672
 20
9.2720757384
 30
0.0
 10
9.5377459164
 20
9.2774957363
 30
0.0
 10
9.5432540269
 20
9.2828865471
 30
0.0
 10
9.5493943857
 20
9.2882459302
 30
0.0
 10
9.5561635054
 20
9.2935712458
 30
0.0
 10
9.5635577618
 20
9.2988594968
 30
0.0
 10
9.5715727842
 20
9.3041079693
 30
0.0
 10
9.5802038106
 20
9.3093138611
 30
0.0
 10
9.5894459479
 20
9.3144741472
 30
0.0
 10
9.5992939734
 20
9.3195855864
 30
0.0
 10
9.6097419579
 20
9.3246454812
 30
0.0
 10
9.6247762048
 20
9.3314602812
 30
0.0
 10
9.6450515678
 20
9.3397938691
 30
0.0
 10
9.6711889441
 20
9.3493471801
 30
0.0
 10
9.6995506224
 20
9.3586252938
 30
0.0
 10
9.7300690839
 20
9.3676062371
 30
0.0
 10
9.7626721703
 20
9.3762674078
 30
0.0
 10
9.7972820901
 20
9.3845883263
 30
0.0
 10
9.8338161101
 20
9.3925479274
 30
0.0
 10
9.8721867021
 20
9.4001274932
 30
0.0
 10
9.912301766
 20
9.4073078364
 30
0.0
 10
9.9540649874
 20
9.4140720947
 30
0.0
 10
9.9973759316
 20
9.4204032284
 30
0.0
 10
10.0421304887
 20
9.4262863191
 30
0.0
 10
10.0882209374
 20
9.4317066607
 30
0.0
 10
10.135536457
 20
9.4366514507
 30
0.0
 10
10.2007092926
 20
9.4426493142
 30
0.0
 10
10.2843827548
 20
9.4488415424
 30
0.0
 10
10.3868875647
 20
9.4541541004
 30
0.0
 10
10.491412966
 20
9.4573626955
 30
0.0
 10
10.5616659746
 20
9.458076945
 30
0.0
 10
10.5969541616
 20
9.458076945
 30
0.0
  0
SPLINE
  5
27F
100
AcDbEntity
  8
0
100
AcDbSpline
 62
7
  6
CONTINUOUS
 70
0
 71
3
 72
45
 73
41
 74
0
 42
0.0000001
 43
0.0000001
 44
0.0000000001
 40
0.0
 40
0.0
 40
0.0
 40
0.0
 40
0.0930234724
 40
0.1392693536
 40
0.1851913252
 40
0.275653541
 40
0.3635825953
 40
0.4063463008
 40
0.4481795252
 40
0.4889877161
 40
0.5286802219
 40
0.5671688257
 40
0.6043699161
 40
0.6402028716
 40
0.6745926099
 40
0.7074677719
 40
0.7387636146
 40
0.7684201394
 40
0.7963854326
 40
0.8226139431
 40
0.8470704891
 40
0.8697291364
 40
0.8803809498
 40
0.8905801279
 40
0.9003275424
 40
0.909625845
 40
0.9184791166
 40
0.9268929535
 40
0.9348749733
 40
0.9424356965
 40
0.9495884601
 40
0.9563498191
 40
0.962740373
 40
0.9687858898
 40
0.9745175517
 40
0.9799725391
 40
0.9851946764
 40
0.9902347082
 40
0.9951493623
 40
1.0
 40
1.0
 40
1.0
 40
1.0
 10
10.5969541616
 20
11.2348095858
 30
0.0
 10
10.5683643378
 20
11.2348095858
 30
0.0
 10
10.5255595805
 20
11.2343745218
 30
0.0
 10
10.4686608191
 20
11.2329173019
 30
0.0
 10
10.4125668091
 20
11.2308958483
 30
0.0
 10
10.3437132834
 20
11.2273271212
 30
0.0
 10
10.2759224627
 20
11.2223104443
 30
0.0
 10
10.2231203674
 20
11.2174508827
 30
0.0
 10
10.1847860644
 20
11.2134448668
 30
0.0
 10
10.1474442372
 20
11.2090531786
 30
0.0
 10
10.1111847822
 20
11.2042870206
 30
0.0
 10
10.0760948767
 20
11.1991573668
 30
0.0
 10
10.0422589585
 20
11.1936773522
 30
0.0
 10
10.009758309
 20
11.1878596352
 30
0.0
 10
9.97867104
 20
11.1817191116
 30
0.0
 10
9.9490717102
 20
11.1752700173
 30
0.0
 10
9.9210312656
 20
11.1685288868
 30
0.0
 10
9.8946167378
 20
11.1615113756
 30
0.0
 10
9.8698911081
 20
11.1542355092
 30
0.0
 10
9.8469129333
 20
11.1467181615
 30
0.0
 10
9.8257367623
 20
11.1389785656
 30
0.0
 10
9.8093100297
 20
11.1322265092
 30
0.0
 10
9.797129444
 20
11.1267054191
 30
0.0
 10
9.7886646141
 20
11.122606012
 30
0.0
 10
9.7806860067
 20
11.1184646612
 30
0.0
 10
9.7731981655
 20
11.1142839018
 30
0.0
 10
9.7662053418
 20
11.1100662317
 30
0.0
 10
9.759711666
 20
11.1058140278
 30
0.0
 10
9.7537210742
 20
11.1015294429
 30
0.0
 10
9.7482368182
 20
11.0972149901
 30
0.0
 10
9.743261903
 20
11.0928729484
 30
0.0
 10
9.7387992972
 20
11.0885054028
 30
0.0
 10
9.7348519926
 20
11.08411412
 30
0.0
 10
9.7314223249
 20
11.0797011859
 30
0.0
 10
9.7285127101
 20
11.0752684416
 30
0.0
 10
9.7261259376
 20
11.0708176619
 30
0.0
 10
9.7242653123
 20
11.0663508924
 30
0.0
 10
9.7229334102
 20
11.0618708245
 30
0.0
 10
9.7221327488
 20
11.0573818579
 30
0.0
 10
9.7219541616
 20
11.0543776508
 30
0.0
 10
9.7219541616
 20
11.0528868563
 30
0.0
  0
SPLINE
  5
280
100
AcDbEntity
  8
0
100
AcDbSpline
 62
7
  6
CONTINUOUS
 70
0
 71
3
 72
36
 73
32
 74
0
 42
0.0000001
 43
0.0000001
 44
0.0000000001
 40
0.0
 40
0.0
 40
0.0
 40
0.0
 40
0.0111968354
 40
0.0172379622
 40
0.0235999434
 40
0.030299585
 40
0.0373506749
 40
0.0447640839
 40
0.0525485429
 40
0.0692549389
 40
0.0875097211
 40
0.1073298311
 40
0.128717629
 40
0.1516629466
 40
0.1761468819
 40
0.2021415913
 40
0.229613558
 40
0.2585222466
 40
0.288823127
 40
0.3204658936
 40
0.3533971675
 40
0.387558788
 40
0.4228900064
 40
0.4593261771
 40
0.4968003225
 40
0.5745788674
 40
0.655640296
 40
0.7393661874
 40
0.8251116426
 40
0.9122156349
 40
1.0
 40
1.0
 40
1.0
 40
1.0
 10
11.5490272944
 20
9.3765065257
 30
0.0
 10
11.5470869048
 20
9.3796265536
 30
0.0
 10
11.5436969756
 20
9.3841868405
 30
0.0
 10
11.5385066038
 20
9.3899368272
 30
0.0
 10
11.5340377858
 20
9.3943382551
 30
0.0
 10
11.5290951233
 20
9.3987157968
 30
0.0
 10
11.5236801889
 20
9.403068277
 30
0.0
 10
11.5177960695
 20
9.4073938269
 30
0.0
 10
11.5091229579
 20
9.4132614463
 30
0.0
 10
11.4970863516
 20
9.4204851535
 30
0.0
 10
11.4811499234
 20
9.4288197376
 30
0.0
 10
11.4634265926
 20
9.4369982633
 30
0.0
 10
11.4439509559
 20
9.4450041353
 30
0.0
 10
11.4227606742
 20
9.4528218955
 30
0.0
 10
11.3998975238
 20
9.4604349553
 30
0.0
 10
11.3754070462
 20
9.4678284528
 30
0.0
 10
11.3493382346
 20
9.474986423
 30
0.0
 10
11.3217435249
 20
9.4818949353
 30
0.0
 10
11.2926785443
 20
9.4885389993
 30
0.0
 10
11.2622019967
 20
9.4949057134
 30
0.0
 10
11.2303755502
 20
9.5009812947
 30
0.0
 10
11.1972636151
 20
9.5067539215
 30
0.0
 10
11.1629333213
 20
9.5122111692
 30
0.0
 10
11.1274541987
 20
9.5173424235
 30
0.0
 10
11.0780995671
 20
9.5238149117
 30
0.0
 10
11.0140726102
 20
9.5309781726
 30
0.0
 10
10.9347821592
 20
9.5380255955
 30
0.0
 10
10.852752139
 20
9.5435682833
 30
0.0
 10
10.7686473402
 20
9.5475606036
 30
0.0
 10
10.6831505204
 20
9.549969191
 30
0.0
 10
10.6257602116
 20
9.5505052542
 30
0.0
 10
10.5969541616
 20
9.5505052542
 30
0.0
  0
SPLINE
  5
281
100
AcDbEntity
  8
0
100
AcDbSpline
 62
7
  6
CONTINUOUS
 70
0
 71
3
 72
43
 73
39
 74
0
 42
0.0000001
 43
0.0000001
 44
0.0000000001
 40
0.0
 40
0.0
 40
0.0
 40
0.0
 40
0.004851743
 40
0.0098091947
 40
0.0149289154
 40
0.0202618631
 40
0.0258527964
 40
0.0317401733
 40
0.0379560771
 40
0.0445270148
 40
0.0514748439
 40
0.0588173878
 40
0.0665685569
 40
0.0747392823
 40
0.0833382061
 40
0.0923719261
 40
0.1018447953
 40
0.1117596702
 40
0.1329198281
 40
0.1558538912
 40
0.1805466781
 40
0.2069709316
 40
0.2350898574
 40
0.2648580248
 40
0.2962231935
 40
0.3291263597
 40
0.3635033419
 40
0.3992843704
 40
0.4363955963
 40
0.4747584319
 40
0.5142910278
 40
0.5549075387
 40
0.5965195183
 40
0.6390350834
 40
0.7263975615
 40
0.8162187909
 40
0.9076934917
 40
1.0
 40
1.0
 40
1.0
 40
1.0
 10
11.5568057787
 20
10.3130020361
 30
0.0
 10
11.5566685008
 20
10.3146265551
 30
0.0
 10
11.5561981867
 20
10.3178976456
 30
0.0
 10
11.5549265017
 20
10.3227602042
 30
0.0
 10
11.5530866738
 20
10.3276104701
 30
0.0
 10
11.5506820741
 20
10.3324445121
 30
0.0
 10
11.5477155944
 20
10.3372601508
 30
0.0
 10
11.5441897682
 20
10.3420550337
 30
0.0
 10
11.5401076646
 20
10.3468274129
 30
0.0
 10
11.5354721496
 20
10.3515754055
 30
0.0
 10
11.5302858884
 20
10.356296898
 30
0.0
 10
11.5245516196
 20
10.3609894475
 30
0.0
 10
11.5182728027
 20
10.3656509357
 30
0.0
 10
11.5114530517
 20
10.3702789854
 30
0.0
 10
11.5040960742
 20
10.3748710509
 30
0.0
 10
11.4962058669
 20
10.3794243677
 30
0.0
 10
11.4877870931
 20
10.3839366689
 30
0.0
 10
11.4755974675
 20
10.3900275966
 30
0.0
 10
11.4590447277
 20
10.3974880654
 30
0.0
 10
11.4375696134
 20
10.4060531298
 30
0.0
 10
11.4141206868
 20
10.4143941912
 30
0.0
 10
11.3887522825
 20
10.4224917538
 30
0.0
 10
11.3615227166
 20
10.4303262478
 30
0.0
 10
11.3324953295
 20
10.4378792487
 30
0.0
 10
11.3017378042
 20
10.4451323831
 30
0.0
 10
11.2693221037
 20
10.4520686696
 30
0.0
 10
11.2353242038
 20
10.458671182
 30
0.0
 10
11.1998238808
 20
10.464924566
 30
0.0
 10
11.1629045428
 20
10.4708135157
 30
0.0
 10
11.1246529493
 20
10.4763244383
 30
0.0
 10
11.0851590778
 20
10.4814437975
 30
0.0
 10
11.0445158066
 20
10.4861598525
 30
0.0
 10
11.0028187695
 20
10.4904610308
 30
0.0
 10
10.9454290887
 20
10.4956765372
 30
0.0
 10
10.8717942087
 20
10.5010605223
 30
0.0
 10
10.7816297475
 20
10.5056796737
 30
0.0
 10
10.6897284792
 20
10.5084689906
 30
0.0
 10
10.6279714953
 20
10.509089903
 30
0.0
 10
10.5969541616
 20
10.509089903
 30
0.0
  0
SPLINE
  5
282
100
AcDbEntity
  8
0
100
AcDbSpline
 62
7
  6
CONTINUOUS
 70
0
 71
3
 72
28
 73
24
 74
0
 42
0.0000001
 43
0.0000001
 44
0.0000000001
 40
0.0
 40
0.0
 40
0.0
 40
0.0
 40
0.0623701013
 40
0.1251843525
 40
0.1884202693
 40
0.2520304595
 40
0.3159242657
 40
0.3799787067
 40
0.4440383845
 40
0.47601825
 40
0.5079340601
 40
0.5714842443
 40
0.6030861605
 40
0.6345501106
 40
0.6658627224
 40
0.6970147677
 40
0.7588160415
 40
0.7894692467
 40
0.8199602027
 40
0.8502943643
 40
0.8804803093
 40
0.9404544326
 40
1.0
 40
1.0
 40
1.0
 40
1.0
 10
9.5121644011
 20
10.9374811688
 30
0.0
 10
9.5057502631
 20
10.9148277255
 30
0.0
 10
9.4938499472
 20
10.8690772906
 30
0.0
 10
9.4789357258
 20
10.7995099928
 30
0.0
 10
9.4670285182
 20
10.728888092
 30
0.0
 10
9.4582765522
 20
10.6573944768
 30
0.0
 10
9.4528502629
 20
10.5852597558
 30
0.0
 10
9.4509066962
 20
10.5127766749
 30
0.0
 10
9.4523058946
 20
10.4523308033
 30
0.0
 10
9.4552987642
 20
10.4041169185
 30
0.0
 10
9.4595485836
 20
10.3561913256
 30
0.0
 10
9.4657021258
 20
10.3085923512
 30
0.0
 10
9.4737986211
 20
10.2614820975
 30
0.0
 10
9.4808166048
 20
10.2265483478
 30
0.0
 10
9.4887895675
 20
10.1919941104
 30
0.0
 10
9.5006539126
 20
10.1466053646
 30
0.0
 10
9.5144173147
 20
10.1019876869
 30
0.0
 10
9.5300641237
 20
10.0582887161
 30
0.0
 10
9.5426743972
 20
10.0261356677
 30
0.0
 10
9.5561814359
 20
9.9945407147
 30
0.0
 10
9.5753292062
 20
9.9532755753
 30
0.0
 10
9.6014445855
 20
9.9031187553
 30
0.0
 10
9.6246989844
 20
9.8644179945
 30
0.0
 10
9.6368660493
 20
9.8455179294
 30
0.0
  0
SPLINE
  5
283
100
AcDbEntity
  8
0
100
AcDbSpline
 62
7
  6
CONTINUOUS
 70
0
 71
3
 72
23
 73
19
 74
0
 42
0.0000001
 43
0.0000001
 44
0.0000000001
 40
0.0
 40
0.0
 40
0.0
 40
0.0
 40
0.0622123571
 40
0.1242565819
 40
0.1861659788
 40
0.2480086019
 40
0.3098449295
 40
0.3717331557
 40
0.4337288519
 40
0.4958782727
 40
0.5582167455
 40
0.6207676953
 40
0.6835391372
 40
0.746525059
 40
0.8097043615
 40
0.8730399456
 40
0.936495292
 40
1.0
 40
1.0
 40
1.0
 40
1.0
 10
11.2061610984
 20
15.8299254514
 30
0.0
 10
11.1990311495
 20
15.8161847959
 30
0.0
 10
11.1838160101
 20
15.7892339611
 30
0.0
 10
11.1582548335
 20
15.7505578352
 30
0.0
 10
11.1301201513
 20
15.7138249442
 30
0.0
 10
11.0995494283
 20
15.6791636854
 30
0.0
 10
11.0666753045
 20
15.6466867263
 30
0.0
 10
11.0316308111
 20
15.6165066546
 30
0.0
 10
10.9945514492
 20
15.5887348976
 30
0.0
 10
10.9555795523
 20
15.5634817191
 30
0.0
 10
10.9148670098
 20
15.5408571529
 30
0.0
 10
10.8725779079
 20
15.5209709281
 30
0.0
 10
10.8288917914
 20
15.5039285305
 30
0.0
 10
10.784005157
 20
15.4898284163
 30
0.0
 10
10.7381321683
 20
15.4787595874
 30
0.0
 10
10.6915001568
 20
15.4707964086
 30
0.0
 10
10.6443581068
 20
15.4659960361
 30
0.0
 10
10.6127561065
 20
15.4649255776
 30
0.0
 10
10.5969541616
 20
15.4649254514
 30
0.0
  0
SPLINE
  5
284
100
AcDbEntity
  8
0
100
AcDbSpline
 62
7
  6
CONTINUOUS
 70
0
 71
3
 72
19
 73
15
 74
0
 42
0.0000001
 43
0.0000001
 44
0.0000000001
 40
0.0
 40
0.0
 40
0.0
 40
0.0
 40
0.0648101095
 40
0.1296040838
 40
0.2587806882
 40
0.3230134626
 40
0.3869013362
 40
0.4503823637
 40
0.5134013173
 40
0.6379332406
 40
0.7604358164
 40
0.820962532
 40
0.8810384773
 40
1.0
 40
1.0
 40
1.0
 40
1.0
 10
9.4969541548
 20
10.5100316221
 30
0.0
 10
9.4969541408
 20
10.4982212428
 30
0.0
 10
9.497314508
 20
10.4746014068
 30
0.0
 10
9.4994983588
 20
10.4274890753
 30
0.0
 10
9.5039227384
 20
10.3806048895
 30
0.0
 10
9.5106431284
 20
10.3341947344
 30
0.0
 10
9.5168118179
 20
10.2998211864
 30
0.0
 10
9.5241024452
 20
10.2658941376
 30
0.0
 10
9.5352602214
 20
10.2215222143
 30
0.0
 10
9.5518925329
 20
10.1674726221
 30
0.0
 10
9.5721430614
 20
10.1151583152
 30
0.0
 10
9.5903231769
 20
10.0747499287
 30
0.0
 10
9.6096380525
 20
10.0355920411
 30
0.0
 10
9.6256130767
 20
10.0071040067
 30
0.0
 10
9.6368746066
 20
9.9885801898
 30
0.0
  0
SPLINE
  5
285
100
AcDbEntity
  8
0
100
AcDbSpline
 62
7
  6
CONTINUOUS
 70
0
 71
3
 72
26
 73
22
 74
0
 42
0.0000001
 43
0.0000001
 44
0.0000000001
 40
0.0
 40
0.0
 40
0.0
 40
0.0
 40
0.0825523036
 40
0.1675473193
 40
0.3397341342
 40
0.4245859564
 40
0.5070135858
 40
0.5858730037
 40
0.6600754376
 40
0.7286222162
 40
0.7905995674
 40
0.8452380382
 40
0.8919203921
 40
0.9121547063
 40
0.9302776984
 40
0.9463067444
 40
0.9602967263
 40
0.9723606846
 40
0.9827172467
 40
0.9917396904
 40
1.0
 40
1.0
 40
1.0
 40
1.0
 10
11.2061610984
 20
15.8299254514
 30
0.0
 10
11.204841279
 20
15.8307144934
 30
0.0
 10
11.2021413735
 20
15.8322807074
 30
0.0
 10
11.1965928582
 20
15.8353245761
 30
0.0
 10
11.1909026935
 20
15.8381962554
 30
0.0
 10
11.1851628414
 20
15.8408500414
 30
0.0
 10
11.1809556723
 20
15.842673453
 30
0.0
 10
11.1768868695
 20
15.8443136908
 30
0.0
 10
11.1730150936
 20
15.8457469247
 30
0.0
 10
11.1693966957
 20
15.846953299
 30
0.0
 10
11.1660835008
 20
15.8479157648
 30
0.0
 10
11.1631234552
 20
15.8486215421
 30
0.0
 10
11.1608895107
 20
15.8490062927
 30
0.0
 10
11.1593126213
 20
15.8491633886
 30
0.0
 10
11.1582997819
 20
15.8492059744
 30
0.0
 10
11.1574024754
 20
15.8491795137
 30
0.0
 10
11.1566229693
 20
15.8490840591
 30
0.0
 10
11.1559628253
 20
15.8489189742
 30
0.0
 10
11.1554228881
 20
15.8486826507
 30
0.0
 10
11.1550052376
 20
15.8483722041
 30
0.0
 10
11.1548106675
 20
15.8481078818
 30
0.0
 10
11.1547412551
 20
15.8479705642
 30
0.0
  0
SPLINE
  5
286
100
AcDbEntity
  8
0
100
AcDbSpline
 62
7
  6
CONTINUOUS
 70
0
 71
3
 72
23
 73
19
 74
0
 42
0.0000001
 43
0.0000001
 44
0.0000000001
 40
0.0
 40
0.0
 40
0.0
 40
0.0
 40
0.0635047807
 40
0.1269601952
 40
0.1902958234
 40
0.2534751147
 40
0.3164610198
 40
0.3792324734
 40
0.4417834089
 40
0.5041218712
 40
0.566271293
 40
0.6282669691
 40
0.6901551741
 40
0.7519914981
 40
0.8138340714
 40
0.8757434686
 40
0.9377877122
 40
1.0
 40
1.0
 40
1.0
 40
1.0
 10
10.5969541616
 20
15.4649254514
 30
0.0
 10
10.5811521987
 20
15.4649255316
 30
0.0
 10
10.5495501471
 20
15.4659954755
 30
0.0
 10
10.502408044
 20
15.4707960604
 30
0.0
 10
10.4557761335
 20
15.4787598901
 30
0.0
 10
10.4099030549
 20
15.4898283245
 30
0.0
 10
10.3650164388
 20
15.5039285276
 30
0.0
 10
10.3213303915
 20
15.5209710726
 30
0.0
 10
10.2790412567
 20
15.5408572168
 30
0.0
 10
10.2383287336
 20
15.5634818102
 30
0.0
 10
10.1993568307
 20
15.5887349586
 30
0.0
 10
10.1622774192
 20
15.6165066412
 30
0.0
 10
10.1272330947
 20
15.6466868946
 30
0.0
 10
10.0943588794
 20
15.679163709
 30
0.0
 10
10.0637877752
 20
15.7138246387
 30
0.0
 10
10.0356537896
 20
15.7505580731
 30
0.0
 10
10.0100927852
 20
15.7892342567
 30
0.0
 10
9.9948771924
 20
15.816184825
 30
0.0
 10
9.9877472249
 20
15.8299254514
 30
0.0
  0
SPLINE
  5
287
100
AcDbEntity
  8
0
100
AcDbSpline
 62
7
  6
CONTINUOUS
 70
0
 71
3
 72
44
 73
40
 74
0
 42
0.0000001
 43
0.0000001
 44
0.0000000001
 40
0.0
 40
0.0
 40
0.0
 40
0.0
 40
0.004850643
 40
0.0097652978
 40
0.0148053347
 40
0.0200275017
 40
0.0254824974
 40
0.0312141286
 40
0.0372596373
 40
0.0436502753
 40
0.0504116444
 40
0.057564335
 40
0.0651250426
 40
0.0731072077
 40
0.0815210437
 40
0.0903742024
 40
0.0996725
 40
0.1094201085
 40
0.1196192636
 40
0.130270934
 40
0.1529298249
 40
0.1773861616
 40
0.20361496
 40
0.2315800163
 40
0.2612368548
 40
0.2925324553
 40
0.325407934
 40
0.3597974509
 40
0.3956307001
 40
0.4328316083
 40
0.4713204702
 40
0.5110128504
 40
0.5518212341
 40
0.5936543702
 40
0.6364182773
 40
0.7243473175
 40
0.8148099315
 40
0.9069759498
 40
1.0
 40
1.0
 40
1.0
 40
1.0
 10
9.5169541616
 20
10.4268723919
 30
0.0
 10
9.5169541616
 20
10.4287124579
 30
0.0
 10
9.5171745681
 20
10.4324205058
 30
0.0
 10
9.5181627724
 20
10.4379611776
 30
0.0
 10
9.5198067048
 20
10.4434908765
 30
0.0
 10
9.5221033513
 20
10.4490041138
 30
0.0
 10
9.5250493004
 20
10.4544976422
 30
0.0
 10
9.5286405075
 20
10.4599689491
 30
0.0
 10
9.5328736672
 20
10.4654158113
 30
0.0
 10
9.5377459164
 20
10.4708358092
 30
0.0
 10
9.5432540269
 20
10.47622662
 30
0.0
 10
9.5493943857
 20
10.4815860031
 30
0.0
 10
9.5561635054
 20
10.4869113187
 30
0.0
 10
9.5635577618
 20
10.4921995697
 30
0.0
 10
9.5715727842
 20
10.4974480422
 30
0.0
 10
9.5802038106
 20
10.502653934
 30
0.0
 10
9.5894459479
 20
10.5078142201
 30
0.0
 10
9.5992939734
 20
10.5129256593
 30
0.0
 10
9.6097419579
 20
10.5179855541
 30
0.0
 10
9.6247762048
 20
10.5248003541
 30
0.0
 10
9.6450515678
 20
10.533133942
 30
0.0
 10
9.6711889441
 20
10.542687253
 30
0.0
 10
9.6995506224
 20
10.5519653667
 30
0.0
 10
9.7300690839
 20
10.56094631
 30
0.0
 10
9.7626721703
 20
10.5696074807
 30
0.0
 10
9.7972820901
 20
10.5779283992
 30
0.0
 10
9.8338161101
 20
10.5858880003
 30
0.0
 10
9.8721867021
 20
10.5934675661
 30
0.0
 10
9.912301766
 20
10.6006479093
 30
0.0
 10
9.9540649874
 20
10.6074121676
 30
0.0
 10
9.9973759316
 20
10.6137433013
 30
0.0
 10
10.0421304887
 20
10.619626392
 30
0.0
 10
10.0882209374
 20
10.6250467336
 30
0.0
 10
10.135536457
 20
10.6299915236
 30
0.0
 10
10.2007092926
 20
10.6359893871
 30
0.0
 10
10.2843827548
 20
10.6421816153
 30
0.0
 10
10.3868875647
 20
10.6474941733
 30
0.0
 10
10.491412966
 20
10.6507027684
 30
0.0
 10
10.5616659746
 20
10.6514170179
 30
0.0
 10
10.5969541616
 20
10.6514170179
 30
0.0
  0
SPLINE
  5
288
100
AcDbEntity
  8
0
100
AcDbSpline
 62
7
  6
CONTINUOUS
 70
0
 71
3
 72
44
 73
40
 74
0
 42
0.0000001
 43
0.0000001
 44
0.0000000001
 40
0.0
 40
0.0
 40
0.0
 40
0.0
 40
0.004850643
 40
0.0097652978
 40
0.0148053347
 40
0.0200275017
 40
0.0254824974
 40
0.0312141286
 40
0.0372596373
 40
0.0436502753
 40
0.0504116444
 40
0.057564335
 40
0.0651250426
 40
0.0731072077
 40
0.0815210437
 40
0.0903742024
 40
0.0996725
 40
0.1094201085
 40
0.1196192636
 40
0.130270934
 40
0.1529298249
 40
0.1773861616
 40
0.20361496
 40
0.2315800163
 40
0.2612368548
 40
0.2925324553
 40
0.325407934
 40
0.3597974509
 40
0.3956307001
 40
0.4328316083
 40
0.4713204702
 40
0.5110128504
 40
0.5518212341
 40
0.5936543702
 40
0.6364182773
 40
0.7243473175
 40
0.8148099315
 40
0.9069759498
 40
1.0
 40
1.0
 40
1.0
 40
1.0
 10
9.5169541616
 20
10.5051241999
 30
0.0
 10
9.5169541616
 20
10.506964266
 30
0.0
 10
9.5171745681
 20
10.5106723139
 30
0.0
 10
9.5181627724
 20
10.5162129856
 30
0.0
 10
9.5198067048
 20
10.5217426845
 30
0.0
 10
9.5221033513
 20
10.5272559219
 30
0.0
 10
9.5250493004
 20
10.5327494502
 30
0.0
 10
9.5286405075
 20
10.5382207571
 30
0.0
 10
9.5328736672
 20
10.5436676193
 30
0.0
 10
9.5377459164
 20
10.5490876172
 30
0.0
 10
9.5432540269
 20
10.554478428
 30
0.0
 10
9.5493943857
 20
10.5598378112
 30
0.0
 10
9.5561635054
 20
10.5651631268
 30
0.0
 10
9.5635577618
 20
10.5704513778
 30
0.0
 10
9.5715727842
 20
10.5756998502
 30
0.0
 10
9.5802038106
 20
10.580905742
 30
0.0
 10
9.5894459479
 20
10.5860660281
 30
0.0
 10
9.5992939734
 20
10.5911774674
 30
0.0
 10
9.6097419579
 20
10.5962373622
 30
0.0
 10
9.6247762048
 20
10.6030521622
 30
0.0
 10
9.6450515678
 20
10.6113857501
 30
0.0
 10
9.6711889441
 20
10.620939061
 30
0.0
 10
9.6995506224
 20
10.6302171747
 30
0.0
 10
9.7300690839
 20
10.639198118
 30
0.0
 10
9.7626721703
 20
10.6478592887
 30
0.0
 10
9.7972820901
 20
10.6561802072
 30
0.0
 10
9.8338161101
 20
10.6641398083
 30
0.0
 10
9.8721867021
 20
10.6717193742
 30
0.0
 10
9.912301766
 20
10.6788997173
 30
0.0
 10
9.9540649874
 20
10.6856639756
 30
0.0
 10
9.9973759316
 20
10.6919951094
 30
0.0
 10
10.0421304887
 20
10.6978782
 30
0.0
 10
10.0882209374
 20
10.7032985417
 30
0.0
 10
10.135536457
 20
10.7082433317
 30
0.0
 10
10.2007092926
 20
10.7142411951
 30
0.0
 10
10.2843827548
 20
10.7204334234
 30
0.0
 10
10.3868875647
 20
10.7257459814
 30
0.0
 10
10.491412966
 20
10.7289545764
 30
0.0
 10
10.5616659746
 20
10.729668826
 30
0.0
 10
10.5969541616
 20
10.729668826
 30
0.0
  0
SPLINE
  5
289
100
AcDbEntity
  8
0
100
AcDbSpline
 62
7
  6
CONTINUOUS
 70
0
 71
3
 72
19
 73
15
 74
0
 42
0.0000001
 43
0.0000001
 44
0.0000000001
 40
0.0
 40
0.0
 40
0.0
 40
0.0
 40
0.1189626225
 40
0.1790392144
 40
0.2395660814
 40
0.3620662571
 40
0.486598003
 40
0.5496177905
 40
0.6130994365
 40
0.6769874936
 40
0.7412201432
 40
0.8703960042
 40
0.9351899567
 40
1.0
 40
1.0
 40
1.0
 40
1.0
 10
11.5570451593
 20
9.9885990352
 30
0.0
 10
11.5683058967
 20
10.0071225373
 30
0.0
 10
11.5842797002
 20
10.0356101
 30
0.0
 10
11.60359302
 20
10.0747671601
 30
0.0
 10
11.6217715121
 20
10.1151739774
 30
0.0
 10
11.6420206215
 20
10.1674859055
 30
0.0
 10
11.6586514567
 20
10.2215332267
 30
0.0
 10
11.6698081257
 20
10.2659037483
 30
0.0
 10
11.6770981842
 20
10.2998297797
 30
0.0
 10
11.6832663602
 20
10.3342021031
 30
0.0
 10
11.6899861211
 20
10.3806102964
 30
0.0
 10
11.6944101602
 20
10.427492423
 30
0.0
 10
11.6965938818
 20
10.4746026897
 30
0.0
 10
11.6969542109
 20
10.4982215505
 30
0.0
 10
11.6969541628
 20
10.5100314377
 30
0.0
  0
SPLINE
  5
28A
100
AcDbEntity
  8
0
100
AcDbSpline
 62
7
  6
CONTINUOUS
 70
0
 71
3
 72
16
 73
12
 74
0
 42
0.0000001
 43
0.0000001
 44
0.0000000001
 40
0.0
 40
0.0
 40
0.0
 40
0.0
 40
0.1470406012
 40
0.2868482846
 40
0.4194041071
 40
0.4831186358
 40
0.5452125384
 40
0.6648918206
 40
0.779580264
 40
0.8907425613
 40
1.0
 40
1.0
 40
1.0
 40
1.0
 10
11.0897146517
 20
15.7733217311
 30
0.0
 10
11.0882406942
 20
15.775970889
 30
0.0
 10
11.0855781853
 20
15.7812621235
 30
0.0
 10
11.0824255454
 20
15.789327869
 30
0.0
 10
11.0805841574
 20
15.7960240004
 30
0.0
 10
11.0796289377
 20
15.8012675098
 30
0.0
 10
11.0790276227
 20
15.806295561
 30
0.0
 10
11.0788816285
 20
15.8124258472
 30
0.0
 10
11.0797228736
 20
15.8195260598
 30
0.0
 10
11.0815799785
 20
15.8262091462
 30
0.0
 10
11.0834923353
 20
15.8303577552
 30
0.0
 10
11.0845998326
 20
15.8323193075
 30
0.0
  0
SPLINE
  5
28B
100
AcDbEntity
  8
0
100
AcDbSpline
 62
7
  6
CONTINUOUS
 70
0
 71
3
 72
16
 73
12
 74
0
 42
0.0000001
 43
0.0000001
 44
0.0000000001
 40
0.0
 40
0.0
 40
0.0
 40
0.0
 40
0.1470405955
 40
0.2868482766
 40
0.4194041065
 40
0.4831186374
 40
0.5452125393
 40
0.6648918103
 40
0.7795802409
 40
0.8907425384
 40
1.0
 40
1.0
 40
1.0
 40
1.0
 10
10.1041934373
 20
15.7733266083
 30
0.0
 10
10.1056674139
 20
15.775975741
 30
0.0
 10
10.1083299632
 20
15.7812669272
 30
0.0
 10
10.1114826709
 20
15.7893326075
 30
0.0
 10
10.1133241198
 20
15.7960286922
 30
0.0
 10
10.1142793892
 20
15.8012721701
 30
0.0
 10
10.1148807532
 20
15.806300194
 30
0.0
 10
10.1150268091
 20
15.8124304527
 30
0.0
 10
10.114185638
 20
15.8195306438
 30
0.0
 10
10.1123286038
 20
15.8262137202
 30
0.0
 10
10.1104162923
 20
15.8303623297
 30
0.0
 10
10.1093088167
 20
15.832323884
 30
0.0
  0
SPLINE
  5
28C
100
AcDbEntity
  8
0
100
AcDbSpline
 62
7
  6
CONTINUOUS
 70
0
 71
3
 72
27
 73
23
 74
0
 42
0.0000001
 43
0.0000001
 44
0.0000000001
 40
0.0
 40
0.0
 40
0.0
 40
0.0
 40
0.0894668203
 40
0.1785253889
 40
0.2662626057
 40
0.3519052425
 40
0.4346888755
 40
0.5138343174
 40
0.5886382236
 40
0.6584687512
 40
0.7227442438
 40
0.7809609294
 40
0.8327838446
 40
0.8780270566
 40
0.8981850744
 40
0.9167252939
 40
0.933704512
 40
0.9492083365
 40
0.9633616274
 40
0.976356542
 40
0.988459042
 40
1.0
 40
1.0
 40
1.0
 40
1.0
 10
11.2524634698
 20
15.9499254514
 30
0.0
 10
11.2522784892
 20
15.9479665672
 30
0.0
 10
11.2518527716
 20
15.944062899
 30
0.0
 10
11.2510662227
 20
15.9382596151
 30
0.0
 10
11.250149151
 20
15.9325605974
 30
0.0
 10
11.2491009727
 20
15.9270244967
 30
0.0
 10
11.2479309942
 20
15.9217061481
 30
0.0
 10
11.2466596464
 20
15.9166565381
 30
0.0
 10
11.2452981193
 20
15.9119260022
 30
0.0
 10
11.2438530826
 20
15.9075632708
 30
0.0
 10
11.2423451351
 20
15.9036098923
 30
0.0
 10
11.2407938201
 20
15.9001017385
 30
0.0
 10
11.2392107715
 20
15.8970726938
 30
0.0
 10
11.2378273745
 20
15.8948916306
 30
0.0
 10
11.2367063165
 20
15.8934235356
 30
0.0
 10
11.2358993993
 20
15.8925011193
 30
0.0
 10
11.2350959532
 20
15.891715841
 30
0.0
 10
11.2342976001
 20
15.8910691423
 30
0.0
 10
11.2335054438
 20
15.8905624592
 30
0.0
 10
11.2327197367
 20
15.8901974989
 30
0.0
 10
11.231941176
 20
15.8899762091
 30
0.0
 10
11.2314200858
 20
15.8899254687
 30
0.0
 10
11.2311662713
 20
15.8899254514
 30
0.0
  0
SPLINE
  5
28D
100
AcDbEntity
  8
0
100
AcDbSpline
 62
7
  6
CONTINUOUS
 70
0
 71
3
 72
32
 73
28
 74
0
 42
0.0000001
 43
0.0000001
 44
0.0000000001
 40
0.0
 40
0.0
 40
0.0
 40
0.0
 40
0.0096682635
 40
0.018913577
 40
0.0280975531
 40
0.0376390992
 40
0.0479603367
 40
0.059443322
 40
0.0724189491
 40
0.0871654566
 40
0.1039082898
 40
0.1228374897
 40
0.1441208484
 40
0.1678812919
 40
0.2231752654
 40
0.2889454708
 40
0.3255721842
 40
0.3644503973
 40
0.4053523054
 40
0.4479722139
 40
0.5370910286
 40
0.5829942168
 40
0.6294255339
 40
0.7230156884
 40
0.8164731767
 40
0.9089774432
 40
1.0
 40
1.0
 40
1.0
 40
1.0
 10
11.2311662713
 20
15.8899254514
 30
0.0
 10
11.2313921571
 20
15.8899254044
 30
0.0
 10
11.2318354627
 20
15.8898889459
 30
0.0
 10
11.232470594
 20
15.8897050207
 30
0.0
 10
11.2330480592
 20
15.8893874276
 30
0.0
 10
11.2335594843
 20
15.8889333714
 30
0.0
 10
11.2339991985
 20
15.8883421045
 30
0.0
 10
11.234362421
 20
15.8876112103
 30
0.0
 10
11.2346449651
 20
15.8867370255
 30
0.0
 10
11.2348424137
 20
15.8857149684
 30
0.0
 10
11.2349486825
 20
15.8845401551
 30
0.0
 10
11.2349564968
 20
15.8832081787
 30
0.0
 10
11.2348588887
 20
15.8817156348
 30
0.0
 10
11.234560955
 20
15.8793890909
 30
0.0
 10
11.2338409067
 20
15.8760764927
 30
0.0
 10
11.232746959
 20
15.872554537
 30
0.0
 10
11.2316016165
 20
15.8694583655
 30
0.0
 10
11.2305685425
 20
15.8669418963
 30
0.0
 10
11.2293943429
 20
15.8643338314
 30
0.0
 10
11.2276282306
 20
15.860707012
 30
0.0
 10
11.2256537956
 20
15.857053697
 30
0.0
 10
11.2234990353
 20
15.853402375
 30
0.0
 10
11.2211994617
 20
15.8497166354
 30
0.0
 10
11.2181580608
 20
15.8451862183
 30
0.0
 10
11.214309328
 20
15.8399075001
 30
0.0
 10
11.2103104109
 20
15.8348179693
 30
0.0
 10
11.207552452
 20
15.8315337545
 30
0.0
 10
11.2061610984
 20
15.8299254514
 30
0.0
  0
SPLINE
  5
28E
100
AcDbEntity
  8
0
100
AcDbSpline
 62
7
  6
CONTINUOUS
 70
0
 71
3
 72
27
 73
23
 74
0
 42
0.0000001
 43
0.0000001
 44
0.0000000001
 40
0.0
 40
0.0
 40
0.0
 40
0.0
 40
0.059546324
 40
0.119523052
 40
0.1497106814
 40
0.1800460858
 40
0.2411843739
 40
0.3029872794
 40
0.334140534
 40
0.3654545035
 40
0.3969197198
 40
0.4285228482
 40
0.4920750028
 40
0.5239916078
 40
0.5559724123
 40
0.6200342792
 40
0.6840908522
 40
0.7160701592
 40
0.7479909245
 40
0.811603034
 40
0.8748408742
 40
1.0
 40
1.0
 40
1.0
 40
1.0
 10
11.5570590296
 20
9.8455505512
 30
0.0
 10
11.5692265847
 20
9.8644486275
 30
0.0
 10
11.5924837608
 20
9.9031454155
 30
0.0
 10
11.6185922279
 20
9.9533032324
 30
0.0
 10
11.6377353532
 20
9.994569275
 30
0.0
 10
11.6557886308
 20
10.0368008355
 30
0.0
 10
11.6761082589
 20
10.09101041
 30
0.0
 10
11.6932645362
 20
10.1466243522
 30
0.0
 10
11.7051268987
 20
10.1920122626
 30
0.0
 10
11.7130970946
 20
10.2265657597
 30
0.0
 10
11.7201124504
 20
10.2614988094
 30
0.0
 10
11.7282064477
 20
10.3086075059
 30
0.0
 10
11.734361977
 20
10.3562040475
 30
0.0
 10
11.7386129067
 20
10.4041273168
 30
0.0
 10
11.7416043698
 20
10.4523392205
 30
0.0
 10
11.7430008081
 20
10.5127819965
 30
0.0
 10
11.7413819126
 20
10.5732163234
 30
0.0
 10
11.7383402835
 20
10.6214230341
 30
0.0
 10
11.7341658121
 20
10.6693761236
 30
0.0
 10
11.7268791007
 20
10.7288860978
 30
0.0
 10
11.7110597951
 20
10.8227059971
 30
0.0
 10
11.6946164431
 20
10.8920125455
 30
0.0
 10
11.6817467487
 20
10.937468363
 30
0.0
  0
SPLINE
  5
28F
100
AcDbEntity
  8
0
100
AcDbSpline
 62
7
  6
CONTINUOUS
 70
0
 71
3
 72
39
 73
35
 74
0
 42
0.0000001
 43
0.0000001
 44
0.0000000001
 40
0.0
 40
0.0
 40
0.0
 40
0.0
 40
0.1513800333
 40
0.2262809185
 40
0.3005715111
 40
0.3741728681
 40
0.4469698473
 40
0.5188148205
 40
0.5894947676
 40
0.6587105778
 40
0.7260273626
 40
0.7587724459
 40
0.7907690648
 40
0.8218566099
 40
0.8518574105
 40
0.8805087786
 40
0.9074884229
 40
0.9323525781
 40
0.9438145101
 40
0.9545253134
 40
0.9643788331
 40
0.9732643081
 40
0.9810704913
 40
0.987681157
 40
0.9905009224
 40
0.9929771013
 40
0.9950948793
 40
0.9968428793
 40
0.9982141043
 40
0.9992018414
 40
0.9995498042
 40
0.9997993776
 40
0.9999497226
 40
1.0
 40
1.0
 40
1.0
 40
1.0
 10
11.089713742
 20
15.7733203878
 30
0.0
 10
11.0924496345
 20
15.7805887882
 30
0.0
 10
11.0963854323
 20
15.7915122732
 30
0.0
 10
11.1013128483
 20
15.8061243714
 30
0.0
 10
11.1048200042
 20
15.8170033455
 30
0.0
 10
11.1081524784
 20
15.8278241407
 30
0.0
 10
11.1113108165
 20
15.8385663157
 30
0.0
 10
11.1142939752
 20
15.8492028508
 30
0.0
 10
11.1170998348
 20
15.859697442
 30
0.0
 10
11.1197239359
 20
15.8699993605
 30
0.0
 10
11.1217710121
 20
15.8784393123
 30
0.0
 10
11.1233133522
 20
15.8850364495
 30
0.0
 10
11.1244067725
 20
15.8898296733
 30
0.0
 10
11.1254448741
 20
15.8944910408
 30
0.0
 10
11.1264229706
 20
15.8989898837
 30
0.0
 10
11.1273358149
 20
15.9032871882
 30
0.0
 10
11.1281755048
 20
15.9073305802
 30
0.0
 10
11.128822457
 20
15.9105132788
 30
0.0
 10
11.1292962529
 20
15.912879446
 30
0.0
 10
11.1296158995
 20
15.9144910989
 30
0.0
 10
11.129907386
 20
15.9159735789
 30
0.0
 10
11.130168127
 20
15.9173102362
 30
0.0
 10
11.1303954402
 20
15.9184839
 30
0.0
 10
11.1305625614
 20
15.9193522724
 30
0.0
 10
11.1306775315
 20
15.9199521723
 30
0.0
 10
11.1307489687
 20
15.920325818
 30
0.0
 10
11.1308099348
 20
15.9206452144
 30
0.0
 10
11.130860311
 20
15.9209096907
 30
0.0
 10
11.1308995003
 20
15.9211152427
 30
0.0
 10
11.13092585
 20
15.9212546738
 30
0.0
 10
11.1309404473
 20
15.9213305143
 30
0.0
 10
11.1309485439
 20
15.9213749384
 30
0.0
 10
11.1309511689
 20
15.9213856942
 30
0.0
 10
11.1309548277
 20
15.921408208
 30
0.0
 10
11.130954591
 20
15.9214056395
 30
0.0
  0
SPLINE
  5
290
100
AcDbEntity
  8
0
100
AcDbSpline
 62
7
  6
CONTINUOUS
 70
0
 71
3
 72
25
 73
21
 74
0
 42
0.0000001
 43
0.0000001
 44
0.0000000001
 40
0.0
 40
0.0
 40
0.0
 40
0.0
 40
0.0122211256
 40
0.0247461669
 40
0.0519615495
 40
0.067249073
 40
0.083879206
 40
0.1019751057
 40
0.1216229378
 40
0.1657267505
 40
0.2163575834
 40
0.2734251974
 40
0.3366787326
 40
0.4057109507
 40
0.480024086
 40
0.55903855
 40
0.6421091222
 40
0.7285142781
 40
0.8175069489
 40
1.0
 40
1.0
 40
1.0
 40
1.0
 10
11.260750064
 20
16.1299254514
 30
0.0
 10
11.261012828
 20
16.1299254322
 30
0.0
 10
11.2615461613
 20
16.1298760816
 30
0.0
 10
11.2626270022
 20
16.1295738534
 30
0.0
 10
11.2636658965
 20
16.1289659818
 30
0.0
 10
11.264629241
 20
16.1281348979
 30
0.0
 10
11.2653665817
 20
16.1273492702
 30
0.0
 10
11.266088035
 20
16.1264278327
 30
0.0
 10
11.2670656839
 20
16.1249629062
 30
0.0
 10
11.268224338
 20
16.1227869979
 30
0.0
 10
11.2694786971
 20
16.1197701515
 30
0.0
 10
11.2706354256
 20
16.1162783961
 30
0.0
 10
11.2716854352
 20
16.1123429094
 30
0.0
 10
11.2726168529
 20
16.1079980008
 30
0.0
 10
11.2734171784
 20
16.1032832584
 30
0.0
 10
11.2740796358
 20
16.0982427951
 30
0.0
 10
11.2745976563
 20
16.0929243306
 30
0.0
 10
11.2749676731
 20
16.0873785388
 30
0.0
 10
11.2752578596
 20
16.0796882387
 30
0.0
 10
11.2752236401
 20
16.0738474053
 30
0.0
 10
11.275105042
 20
16.0699254514
 30
0.0
  0
SPLINE
  5
291
100
AcDbEntity
  8
0
100
AcDbSpline
 62
7
  6
CONTINUOUS
 70
0
 71
3
 72
39
 73
35
 74
0
 42
0.0000001
 43
0.0000001
 44
0.0000000001
 40
0.0
 40
0.0
 40
0.0
 40
0.0
 40
0.0000501641
 40
0.0002004439
 40
0.0004499932
 40
0.0007979654
 40
0.0017857928
 40
0.0031571548
 40
0.0049052801
 40
0.0070231132
 40
0.0094992568
 40
0.0123189231
 40
0.0189293156
 40
0.0267353174
 40
0.0356208123
 40
0.045474445
 40
0.0561853239
 40
0.0676472044
 40
0.0925110354
 40
0.119490392
 40
0.148141759
 40
0.178142737
 40
0.2092305617
 40
0.2412274115
 40
0.2739725547
 40
0.3412891263
 40
0.4105046561
 40
0.4811844747
 40
0.553029478
 40
0.6258265278
 40
0.6994279429
 40
0.7737185888
 40
0.8486196345
 40
1.0
 40
1.0
 40
1.0
 40
1.0
 10
10.062954591
 20
15.9214096704
 30
0.0
 10
10.0629544123
 20
15.9214122378
 30
0.0
 10
10.0629579324
 20
15.921389737
 30
0.0
 10
10.062960687
 20
15.9213790006
 30
0.0
 10
10.0629687089
 20
15.9213345725
 30
0.0
 10
10.0629833494
 20
15.9212587347
 30
0.0
 10
10.0630096646
 20
15.9211192879
 30
0.0
 10
10.0630488673
 20
15.9209137216
 30
0.0
 10
10.0630992352
 20
15.9206492305
 30
0.0
 10
10.063160201
 20
15.92032983
 30
0.0
 10
10.0632316347
 20
15.919956192
 30
0.0
 10
10.0633465995
 20
15.9193563192
 30
0.0
 10
10.0635137135
 20
15.9184879842
 30
0.0
 10
10.0637410145
 20
15.9173143541
 30
0.0
 10
10.0640017382
 20
15.9159777111
 30
0.0
 10
10.0642932065
 20
15.9144952336
 30
0.0
 10
10.0646128343
 20
15.9128835881
 30
0.0
 10
10.0650866063
 20
15.9105174588
 30
0.0
 10
10.0657335337
 20
15.9073348262
 30
0.0
 10
10.0665731892
 20
15.9032915054
 30
0.0
 10
10.0674859883
 20
15.8989942464
 30
0.0
 10
10.0684640308
 20
15.8944954195
 30
0.0
 10
10.0695020686
 20
15.8898340552
 30
0.0
 10
10.0705954246
 20
15.885040842
 30
0.0
 10
10.0721376885
 20
15.8784437591
 30
0.0
 10
10.0741846898
 20
15.8700039098
 30
0.0
 10
10.0768087099
 20
15.8597021239
 30
0.0
 10
10.0796144718
 20
15.84920765
 30
0.0
 10
10.0825975143
 20
15.8385712096
 30
0.0
 10
10.0857557305
 20
15.8278291181
 30
0.0
 10
10.0890880859
 20
15.8170084064
 30
0.0
 10
10.0925951337
 20
15.8061295144
 30
0.0
 10
10.0975223587
 20
15.7915175014
 30
0.0
 10
10.1014579432
 20
15.7805940465
 30
0.0
 10
10.104193798
 20
15.7733257046
 30
0.0
  0
SPLINE
  5
292
100
AcDbEntity
  8
0
100
AcDbSpline
 62
7
  6
CONTINUOUS
 70
0
 71
3
 72
31
 73
27
 74
0
 42
0.0000001
 43
0.0000001
 44
0.0000000001
 40
0.0
 40
0.0
 40
0.0
 40
0.0
 40
0.1835089323
 40
0.2769706491
 40
0.3705558204
 40
0.4628934411
 40
0.5520195406
 40
0.5946296217
 40
0.635525788
 40
0.6744097008
 40
0.7110435416
 40
0.7768021983
 40
0.8057770608
 40
0.832114968
 40
0.8558823125
 40
0.8771682144
 40
0.8960962477
 40
0.9128383123
 40
0.9275857786
 40
0.9405622172
 40
0.9520442559
 40
0.9623628667
 40
0.9719020098
 40
0.9810848439
 40
0.9903303794
 40
1.0
 40
1.0
 40
1.0
 40
1.0
 10
9.9877472249
 20
15.8299254514
 30
0.0
 10
9.9849426403
 20
15.8331682641
 30
0.0
 10
9.980852795
 20
15.8381905664
 30
0.0
 10
9.9757469082
 20
15.8451840169
 30
0.0
 10
9.972111634
 20
15.8506078433
 30
0.0
 10
9.9687722253
 20
15.8561005766
 30
0.0
 10
9.9662758969
 20
15.8607054327
 30
0.0
 10
9.9645128459
 20
15.8643335501
 30
0.0
 10
9.9633413242
 20
15.8669424725
 30
0.0
 10
9.9623077071
 20
15.8694588565
 30
0.0
 10
9.9611596306
 20
15.8725537987
 30
0.0
 10
9.9602494087
 20
15.8754893088
 30
0.0
 10
9.9595992997
 20
15.87824313
 30
0.0
 10
9.9592625417
 20
15.8800605941
 30
0.0
 10
9.959048565
 20
15.8817156855
 30
0.0
 10
9.9589496779
 20
15.8832083441
 30
0.0
 10
9.9589581532
 20
15.8845403517
 30
0.0
 10
9.9590658089
 20
15.8857150089
 30
0.0
 10
9.9592643388
 20
15.8867368393
 30
0.0
 10
9.959547018
 20
15.8876109501
 30
0.0
 10
9.9599098981
 20
15.8883419063
 30
0.0
 10
9.9603491434
 20
15.8889333349
 30
0.0
 10
9.9608602966
 20
15.8893874858
 30
0.0
 10
9.9614376558
 20
15.8897051073
 30
0.0
 10
9.9620727972
 20
15.8898890142
 30
0.0
 10
9.9625161381
 20
15.8899254305
 30
0.0
 10
9.962742052
 20
15.8899254514
 30
0.0
  0
SPLINE
  5
293
100
AcDbEntity
  8
0
100
AcDbSpline
 62
7
  6
CONTINUOUS
 70
0
 71
3
 72
83
 73
79
 74
0
 42
0.0000001
 43
0.0000001
 44
0.0000000001
 40
0.0
 40
0.0
 40
0.0
 40
0.0
 40
0.0465118222
 40
0.0696342679
 40
0.0925953732
 40
0.1378266572
 40
0.1817911303
 40
0.2031730616
 40
0.2240896098
 40
0.2444937875
 40
0.2643399617
 40
0.2835843773
 40
0.3021848147
 40
0.3201014242
 40
0.3372961684
 40
0.3537338945
 40
0.3693816825
 40
0.3842100892
 40
0.3981926067
 40
0.4113069946
 40
0.4235351538
 40
0.4348645894
 40
0.4401904206
 40
0.4452899944
 40
0.4501637944
 40
0.4548129391
 40
0.459239515
 40
0.4634464297
 40
0.4674375086
 40
0.4712178591
 40
0.4747942015
 40
0.4781748832
 40
0.4813701991
 40
0.4843929507
 40
0.4872587638
 40
0.489986259
 40
0.49259734
 40
0.4951173559
 40
0.4975746809
 40
0.5
 40
0.5024253191
 40
0.5048826441
 40
0.50740266
 40
0.510013741
 40
0.5127412362
 40
0.5156070493
 40
0.5186298009
 40
0.5218251168
 40
0.5252057985
 40
0.5287821409
 40
0.5325624914
 40
0.5365535703
 40
0.540760485
 40
0.5451870609
 40
0.5498362056
 40
0.5547100056
 40
0.5598095794
 40
0.5651354106
 40
0.5764648462
 40
0.5886930054
 40
0.6018073933
 40
0.6157899108
 40
0.6306183175
 40
0.6462661055
 40
0.6627038316
 40
0.6798985758
 40
0.6978151853
 40
0.7164156227
 40
0.7356600383
 40
0.7555062125
 40
0.7759103902
 40
0.7968269384
 40
0.8182088697
 40
0.8621733428
 40
0.9074046268
 40
0.9303657321
 40
0.9534881778
 40
1.0
 40
1.0
 40
1.0
 40
1.0
 10
10.5969541616
 20
8.8845217302
 30
0.0
 10
10.5636265331
 20
8.8845217302
 30
0.0
 10
10.5137287076
 20
8.8850288748
 30
0.0
 10
10.4474012142
 20
8.8867275789
 30
0.0
 10
10.3820117679
 20
8.8890840378
 30
0.0
 10
10.3017480493
 20
8.8932440901
 30
0.0
 10
10.2227231877
 20
8.899092243
 30
0.0
 10
10.1611710374
 20
8.9047568927
 30
0.0
 10
10.1164841445
 20
8.9094269724
 30
0.0
 10
10.0729542559
 20
8.9145461803
 30
0.0
 10
10.0306860426
 20
8.9201024347
 30
0.0
 10
9.9897812441
 20
8.9260818361
 30
0.0
 10
9.9503381855
 20
8.9324703037
 30
0.0
 10
9.9124517206
 20
8.9392517376
 30
0.0
 10
9.8762128122
 20
8.9464102172
 30
0.0
 10
9.8417084442
 20
8.953927619
 30
0.0
 10
9.8090212825
 20
8.9617862642
 30
0.0
 10
9.7782294643
 20
8.9699662611
 30
0.0
 10
9.7494064593
 20
8.9784482625
 30
0.0
 10
9.7226204172
 20
8.987210929
 30
0.0
 10
9.6979351051
 20
8.9962334997
 30
0.0
 10
9.6787861424
 20
9.0041041139
 30
0.0
 10
9.6645871242
 20
9.0105403147
 30
0.0
 10
9.6547195779
 20
9.0153191045
 30
0.0
 10
9.6454186608
 20
9.0201465765
 30
0.0
 10
9.6366899717
 20
9.0250201815
 30
0.0
 10
9.6285384423
 20
9.0299368577
 30
0.0
 10
9.6209686947
 20
9.034893749
 30
0.0
 10
9.6139852275
 20
9.0398882102
 30
0.0
 10
9.607592167
 20
9.0449176761
 30
0.0
 10
9.6017929358
 20
9.0499793166
 30
0.0
 10
9.5965908284
 20
9.0550706388
 30
0.0
 10
9.5919892583
 20
9.0601895279
 30
0.0
 10
9.587991272
 20
9.0653337866
 30
0.0
 10
9.5845995743
 20
9.070501137
 30
0.0
 10
9.5818172874
 20
9.0756894573
 30
0.0
 10
9.579648232
 20
9.0808964515
 30
0.0
 10
9.5780956283
 20
9.086118782
 30
0.0
 10
9.5771623235
 20
9.0913522311
 30
0.0
 10
9.576850763
 20
9.0965916549
 30
0.0
 10
9.5771623235
 20
9.1018310786
 30
0.0
 10
9.5780956283
 20
9.1070645277
 30
0.0
 10
9.579648232
 20
9.1122868582
 30
0.0
 10
9.5818172874
 20
9.1174938524
 30
0.0
 10
9.5845995743
 20
9.1226821728
 30
0.0
 10
9.587991272
 20
9.1278495231
 30
0.0
 10
9.5919892583
 20
9.1329937818
 30
0.0
 10
9.5965908284
 20
9.1381126709
 30
0.0
 10
9.6017929358
 20
9.1432039931
 30
0.0
 10
9.607592167
 20
9.1482656336
 30
0.0
 10
9.6139852275
 20
9.1532950995
 30
0.0
 10
9.6209686947
 20
9.1582895607
 30
0.0
 10
9.6285384423
 20
9.163246452
 30
0.0
 10
9.6366899717
 20
9.1681631282
 30
0.0
 10
9.6454186608
 20
9.1730367332
 30
0.0
 10
9.6547195779
 20
9.1778642052
 30
0.0
 10
9.6645871242
 20
9.1826429951
 30
0.0
 10
9.6787861424
 20
9.1890791959
 30
0.0
 10
9.6979351051
 20
9.19694981
 30
0.0
 10
9.7226204172
 20
9.2059723808
 30
0.0
 10
9.7494064593
 20
9.2147350472
 30
0.0
 10
9.7782294643
 20
9.2232170486
 30
0.0
 10
9.8090212825
 20
9.2313970455
 30
0.0
 10
9.8417084442
 20
9.2392556908
 30
0.0
 10
9.8762128122
 20
9.2467730925
 30
0.0
 10
9.9124517206
 20
9.2539315722
 30
0.0
 10
9.9503381855
 20
9.260713006
 30
0.0
 10
9.9897812441
 20
9.2671014736
 30
0.0
 10
10.0306860426
 20
9.2730808751
 30
0.0
 10
10.0729542559
 20
9.2786371294
 30
0.0
 10
10.1164841445
 20
9.2837563373
 30
0.0
 10
10.1611710374
 20
9.2884264171
 30
0.0
 10
10.2227231877
 20
9.2940910668
 30
0.0
 10
10.3017480493
 20
9.2999392197
 30
0.0
 10
10.3820117679
 20
9.304099272
 30
0.0
 10
10.4474012142
 20
9.3064557308
 30
0.0
 10
10.5137287076
 20
9.308154435
 30
0.0
 10
10.5636265331
 20
9.3086615795
 30
0.0
 10
10.5969541616
 20
9.3086615795
 30
0.0
  0
SPLINE
  5
294
100
AcDbEntity
  8
0
100
AcDbSpline
 62
7
  6
CONTINUOUS
 70
0
 71
3
 72
83
 73
79
 74
0
 42
0.0000001
 43
0.0000001
 44
0.0000000001
 40
0.0
 40
0.0
 40
0.0
 40
0.0
 40
0.0465118222
 40
0.0696342679
 40
0.0925953732
 40
0.1378266572
 40
0.1817911303
 40
0.2031730616
 40
0.2240896098
 40
0.2444937875
 40
0.2643399617
 40
0.2835843773
 40
0.3021848147
 40
0.3201014242
 40
0.3372961684
 40
0.3537338945
 40
0.3693816825
 40
0.3842100892
 40
0.3981926067
 40
0.4113069946
 40
0.4235351538
 40
0.4348645894
 40
0.4401904206
 40
0.4452899944
 40
0.4501637944
 40
0.4548129391
 40
0.459239515
 40
0.4634464297
 40
0.4674375086
 40
0.4712178591
 40
0.4747942015
 40
0.4781748832
 40
0.4813701991
 40
0.4843929507
 40
0.4872587638
 40
0.489986259
 40
0.49259734
 40
0.4951173559
 40
0.4975746809
 40
0.5
 40
0.5024253191
 40
0.5048826441
 40
0.50740266
 40
0.510013741
 40
0.5127412362
 40
0.5156070493
 40
0.5186298009
 40
0.5218251168
 40
0.5252057985
 40
0.5287821409
 40
0.5325624914
 40
0.5365535703
 40
0.540760485
 40
0.5451870609
 40
0.5498362056
 40
0.5547100056
 40
0.5598095794
 40
0.5651354106
 40
0.5764648462
 40
0.5886930054
 40
0.6018073933
 40
0.6157899108
 40
0.6306183175
 40
0.6462661055
 40
0.6627038316
 40
0.6798985758
 40
0.6978151853
 40
0.7164156227
 40
0.7356600383
 40
0.7555062125
 40
0.7759103902
 40
0.7968269384
 40
0.8182088697
 40
0.8621733428
 40
0.9074046268
 40
0.9303657321
 40
0.9534881778
 40
1.0
 40
1.0
 40
1.0
 40
1.0
 10
10.5969541616
 20
9.3086615795
 30
0.0
 10
10.6302817902
 20
9.3086615795
 30
0.0
 10
10.6801796157
 20
9.308154435
 30
0.0
 10
10.746507109
 20
9.3064557308
 30
0.0
 10
10.8118965554
 20
9.304099272
 30
0.0
 10
10.892160274
 20
9.2999392197
 30
0.0
 10
10.9711851356
 20
9.2940910668
 30
0.0
 10
11.0327372859
 20
9.2884264171
 30
0.0
 10
11.0774241788
 20
9.2837563373
 30
0.0
 10
11.1209540673
 20
9.2786371294
 30
0.0
 10
11.1632222807
 20
9.2730808751
 30
0.0
 10
11.2041270792
 20
9.2671014736
 30
0.0
 10
11.2435701378
 20
9.260713006
 30
0.0
 10
11.2814566027
 20
9.2539315722
 30
0.0
 10
11.317695511
 20
9.2467730925
 30
0.0
 10
11.3521998791
 20
9.2392556908
 30
0.0
 10
11.3848870408
 20
9.2313970455
 30
0.0
 10
11.415678859
 20
9.2232170486
 30
0.0
 10
11.444501864
 20
9.2147350472
 30
0.0
 10
11.4712879061
 20
9.2059723808
 30
0.0
 10
11.4959732181
 20
9.19694981
 30
0.0
 10
11.5151221809
 20
9.1890791959
 30
0.0
 10
11.529321199
 20
9.1826429951
 30
0.0
 10
11.5391887454
 20
9.1778642052
 30
0.0
 10
11.5484896625
 20
9.1730367332
 30
0.0
 10
11.5572183516
 20
9.1681631282
 30
0.0
 10
11.565369881
 20
9.163246452
 30
0.0
 10
11.5729396286
 20
9.1582895607
 30
0.0
 10
11.5799230958
 20
9.1532950995
 30
0.0
 10
11.5863161563
 20
9.1482656336
 30
0.0
 10
11.5921153874
 20
9.1432039931
 30
0.0
 10
11.5973174948
 20
9.1381126709
 30
0.0
 10
11.601919065
 20
9.1329937818
 30
0.0
 10
11.6059170512
 20
9.1278495231
 30
0.0
 10
11.609308749
 20
9.1226821728
 30
0.0
 10
11.6120910358
 20
9.1174938524
 30
0.0
 10
11.6142600913
 20
9.1122868582
 30
0.0
 10
11.615812695
 20
9.1070645277
 30
0.0
 10
11.6167459998
 20
9.1018310786
 30
0.0
 10
11.6170575603
 20
9.0965916549
 30
0.0
 10
11.6167459998
 20
9.0913522311
 30
0.0
 10
11.615812695
 20
9.086118782
 30
0.0
 10
11.6142600913
 20
9.0808964515
 30
0.0
 10
11.6120910358
 20
9.0756894573
 30
0.0
 10
11.609308749
 20
9.070501137
 30
0.0
 10
11.6059170512
 20
9.0653337866
 30
0.0
 10
11.601919065
 20
9.0601895279
 30
0.0
 10
11.5973174948
 20
9.0550706388
 30
0.0
 10
11.5921153874
 20
9.0499793166
 30
0.0
 10
11.5863161563
 20
9.0449176761
 30
0.0
 10
11.5799230958
 20
9.0398882102
 30
0.0
 10
11.5729396286
 20
9.034893749
 30
0.0
 10
11.565369881
 20
9.0299368577
 30
0.0
 10
11.5572183516
 20
9.0250201815
 30
0.0
 10
11.5484896625
 20
9.0201465765
 30
0.0
 10
11.5391887454
 20
9.0153191045
 30
0.0
 10
11.529321199
 20
9.0105403147
 30
0.0
 10
11.5151221809
 20
9.0041041139
 30
0.0
 10
11.4959732181
 20
8.9962334997
 30
0.0
 10
11.4712879061
 20
8.987210929
 30
0.0
 10
11.444501864
 20
8.9784482625
 30
0.0
 10
11.415678859
 20
8.9699662611
 30
0.0
 10
11.3848870408
 20
8.9617862642
 30
0.0
 10
11.3521998791
 20
8.953927619
 30
0.0
 10
11.317695511
 20
8.9464102172
 30
0.0
 10
11.2814566027
 20
8.9392517376
 30
0.0
 10
11.2435701378
 20
8.9324703037
 30
0.0
 10
11.2041270792
 20
8.9260818361
 30
0.0
 10
11.1632222807
 20
8.9201024347
 30
0.0
 10
11.1209540673
 20
8.9145461803
 30
0.0
 10
11.0774241788
 20
8.9094269724
 30
0.0
 10
11.0327372859
 20
8.9047568927
 30
0.0
 10
10.9711851356
 20
8.899092243
 30
0.0
 10
10.892160274
 20
8.8932440901
 30
0.0
 10
10.8118965554
 20
8.8890840378
 30
0.0
 10
10.746507109
 20
8.8867275789
 30
0.0
 10
10.6801796157
 20
8.8850288748
 30
0.0
 10
10.6302817902
 20
8.8845217302
 30
0.0
 10
10.5969541616
 20
8.8845217302
 30
0.0
  0
SPLINE
  5
295
100
AcDbEntity
  8
0
100
AcDbSpline
 62
7
  6
CONTINUOUS
 70
0
 71
3
 72
44
 73
40
 74
0
 42
0.0000001
 43
0.0000001
 44
0.0000000001
 40
0.0
 40
0.0
 40
0.0
 40
0.0
 40
0.0930240502
 40
0.1851900685
 40
0.2756526825
 40
0.3635817227
 40
0.4063456298
 40
0.4481787659
 40
0.4889871496
 40
0.5286795298
 40
0.5671683917
 40
0.6043692999
 40
0.6402025491
 40
0.674592066
 40
0.7074675447
 40
0.7387631452
 40
0.7684199837
 40
0.79638504
 40
0.8226138384
 40
0.8470701751
 40
0.869729066
 40
0.8803807364
 40
0.8905798915
 40
0.9003275
 40
0.9096257976
 40
0.9184789563
 40
0.9268927923
 40
0.9348749574
 40
0.942435665
 40
0.9495883556
 40
0.9563497247
 40
0.9627403627
 40
0.9687858714
 40
0.9745175026
 40
0.9799724983
 40
0.9851946653
 40
0.9902347022
 40
0.995149357
 40
1.0
 40
1.0
 40
1.0
 40
1.0
 10
10.5969541616
 20
10.729668826
 30
0.0
 10
10.6322423486
 20
10.729668826
 30
0.0
 10
10.7024953573
 20
10.7289545764
 30
0.0
 10
10.8070207585
 20
10.7257459814
 30
0.0
 10
10.9095255685
 20
10.7204334234
 30
0.0
 10
10.9931990306
 20
10.7142411951
 30
0.0
 10
11.0583718663
 20
10.7082433317
 30
0.0
 10
11.1056873859
 20
10.7032985417
 30
0.0
 10
11.1517778346
 20
10.6978782
 30
0.0
 10
11.1965323917
 20
10.6919951094
 30
0.0
 10
11.2398433359
 20
10.6856639756
 30
0.0
 10
11.2816065572
 20
10.6788997173
 30
0.0
 10
11.3217216211
 20
10.6717193742
 30
0.0
 10
11.3600922132
 20
10.6641398083
 30
0.0
 10
11.3966262331
 20
10.6561802072
 30
0.0
 10
11.4312361529
 20
10.6478592887
 30
0.0
 10
11.4638392394
 20
10.639198118
 30
0.0
 10
11.4943577008
 20
10.6302171747
 30
0.0
 10
11.5227193792
 20
10.620939061
 30
0.0
 10
11.5488567555
 20
10.6113857501
 30
0.0
 10
11.5691321185
 20
10.6030521622
 30
0.0
 10
11.5841663654
 20
10.5962373622
 30
0.0
 10
11.5946143499
 20
10.5911774674
 30
0.0
 10
11.6044623753
 20
10.5860660281
 30
0.0
 10
11.6137045126
 20
10.580905742
 30
0.0
 10
11.6223355391
 20
10.5756998502
 30
0.0
 10
11.6303505614
 20
10.5704513778
 30
0.0
 10
11.6377448178
 20
10.5651631268
 30
0.0
 10
11.6445139376
 20
10.5598378112
 30
0.0
 10
11.6506542964
 20
10.554478428
 30
0.0
 10
11.6561624069
 20
10.5490876172
 30
0.0
 10
11.6610346561
 20
10.5436676193
 30
0.0
 10
11.6652678158
 20
10.5382207571
 30
0.0
 10
11.6688590229
 20
10.5327494502
 30
0.0
 10
11.671804972
 20
10.5272559219
 30
0.0
 10
11.6741016184
 20
10.5217426845
 30
0.0
 10
11.6757455508
 20
10.5162129856
 30
0.0
 10
11.6767337552
 20
10.5106723139
 30
0.0
 10
11.6769541616
 20
10.506964266
 30
0.0
 10
11.6769541616
 20
10.5051241999
 30
0.0
  0
SPLINE
  5
296
100
AcDbEntity
  8
0
100
AcDbSpline
 62
7
  6
CONTINUOUS
 70
0
 71
3
 72
44
 73
40
 74
0
 42
0.0000001
 43
0.0000001
 44
0.0000000001
 40
0.0
 40
0.0
 40
0.0
 40
0.0
 40
0.0930240502
 40
0.1851900685
 40
0.2756526825
 40
0.3635817227
 40
0.4063456298
 40
0.4481787659
 40
0.4889871496
 40
0.5286795298
 40
0.5671683917
 40
0.6043692999
 40
0.6402025491
 40
0.674592066
 40
0.7074675447
 40
0.7387631452
 40
0.7684199837
 40
0.79638504
 40
0.8226138384
 40
0.8470701751
 40
0.869729066
 40
0.8803807364
 40
0.8905798915
 40
0.9003275
 40
0.9096257976
 40
0.9184789563
 40
0.9268927923
 40
0.9348749574
 40
0.942435665
 40
0.9495883556
 40
0.9563497247
 40
0.9627403627
 40
0.9687858714
 40
0.9745175026
 40
0.9799724983
 40
0.9851946653
 40
0.9902347022
 40
0.995149357
 40
1.0
 40
1.0
 40
1.0
 40
1.0
 10
10.5969541616
 20
10.6514170179
 30
0.0
 10
10.6322423486
 20
10.6514170179
 30
0.0
 10
10.7024953573
 20
10.6507027684
 30
0.0
 10
10.8070207585
 20
10.6474941733
 30
0.0
 10
10.9095255685
 20
10.6421816153
 30
0.0
 10
10.9931990306
 20
10.6359893871
 30
0.0
 10
11.0583718663
 20
10.6299915236
 30
0.0
 10
11.1056873859
 20
10.6250467336
 30
0.0
 10
11.1517778346
 20
10.619626392
 30
0.0
 10
11.1965323917
 20
10.6137433013
 30
0.0
 10
11.2398433359
 20
10.6074121676
 30
0.0
 10
11.2816065572
 20
10.6006479093
 30
0.0
 10
11.3217216211
 20
10.5934675661
 30
0.0
 10
11.3600922132
 20
10.5858880003
 30
0.0
 10
11.3966262331
 20
10.5779283992
 30
0.0
 10
11.4312361529
 20
10.5696074807
 30
0.0
 10
11.4638392394
 20
10.56094631
 30
0.0
 10
11.4943577008
 20
10.5519653667
 30
0.0
 10
11.5227193792
 20
10.542687253
 30
0.0
 10
11.5488567555
 20
10.533133942
 30
0.0
 10
11.5691321185
 20
10.5248003541
 30
0.0
 10
11.5841663654
 20
10.5179855541
 30
0.0
 10
11.5946143499
 20
10.5129256593
 30
0.0
 10
11.6044623753
 20
10.5078142201
 30
0.0
 10
11.6137045126
 20
10.502653934
 30
0.0
 10
11.6223355391
 20
10.4974480422
 30
0.0
 10
11.6303505614
 20
10.4921995697
 30
0.0
 10
11.6377448178
 20
10.4869113187
 30
0.0
 10
11.6445139376
 20
10.4815860031
 30
0.0
 10
11.6506542964
 20
10.47622662
 30
0.0
 10
11.6561624069
 20
10.4708358092
 30
0.0
 10
11.6610346561
 20
10.4654158113
 30
0.0
 10
11.6652678158
 20
10.4599689491
 30
0.0
 10
11.6688590229
 20
10.4544976422
 30
0.0
 10
11.671804972
 20
10.4490041138
 30
0.0
 10
11.6741016184
 20
10.4434908765
 30
0.0
 10
11.6757455508
 20
10.4379611776
 30
0.0
 10
11.6767337552
 20
10.4324205058
 30
0.0
 10
11.6769541616
 20
10.4287124579
 30
0.0
 10
11.6769541616
 20
10.4268723919
 30
0.0
  0
SPLINE
  5
297
100
AcDbEntity
  8
0
100
AcDbSpline
 62
7
  6
CONTINUOUS
 70
0
 71
3
 72
44
 73
40
 74
0
 42
0.0000001
 43
0.0000001
 44
0.0000000001
 40
0.0
 40
0.0
 40
0.0
 40
0.0
 40
0.0930240502
 40
0.1851900685
 40
0.2756526825
 40
0.3635817227
 40
0.4063456298
 40
0.4481787659
 40
0.4889871496
 40
0.5286795298
 40
0.5671683917
 40
0.6043692999
 40
0.6402025491
 40
0.674592066
 40
0.7074675447
 40
0.7387631452
 40
0.7684199837
 40
0.79638504
 40
0.8226138384
 40
0.8470701751
 40
0.869729066
 40
0.8803807364
 40
0.8905798915
 40
0.9003275
 40
0.9096257976
 40
0.9184789563
 40
0.9268927923
 40
0.9348749574
 40
0.942435665
 40
0.9495883556
 40
0.9563497247
 40
0.9627403627
 40
0.9687858714
 40
0.9745175026
 40
0.9799724983
 40
0.9851946653
 40
0.9902347022
 40
0.995149357
 40
1.0
 40
1.0
 40
1.0
 40
1.0
 10
10.5969541616
 20
9.458076945
 30
0.0
 10
10.6322423486
 20
9.458076945
 30
0.0
 10
10.7024953573
 20
9.4573626955
 30
0.0
 10
10.8070207585
 20
9.4541541004
 30
0.0
 10
10.9095255685
 20
9.4488415424
 30
0.0
 10
10.9931990306
 20
9.4426493142
 30
0.0
 10
11.0583718663
 20
9.4366514507
 30
0.0
 10
11.1056873859
 20
9.4317066607
 30
0.0
 10
11.1517778346
 20
9.4262863191
 30
0.0
 10
11.1965323917
 20
9.4204032284
 30
0.0
 10
11.2398433359
 20
9.4140720947
 30
0.0
 10
11.2816065572
 20
9.4073078364
 30
0.0
 10
11.3217216211
 20
9.4001274932
 30
0.0
 10
11.3600922132
 20
9.3925479274
 30
0.0
 10
11.3966262331
 20
9.3845883263
 30
0.0
 10
11.4312361529
 20
9.3762674078
 30
0.0
 10
11.4638392394
 20
9.3676062371
 30
0.0
 10
11.4943577008
 20
9.3586252938
 30
0.0
 10
11.5227193792
 20
9.3493471801
 30
0.0
 10
11.5488567555
 20
9.3397938691
 30
0.0
 10
11.5691321185
 20
9.3314602812
 30
0.0
 10
11.5841663654
 20
9.3246454812
 30
0.0
 10
11.5946143499
 20
9.3195855864
 30
0.0
 10
11.6044623753
 20
9.3144741472
 30
0.0
 10
11.6137045126
 20
9.3093138611
 30
0.0
 10
11.6223355391
 20
9.3041079693
 30
0.0
 10
11.6303505614
 20
9.2988594968
 30
0.0
 10
11.6377448178
 20
9.2935712458
 30
0.0
 10
11.6445139376
 20
9.2882459302
 30
0.0
 10
11.6506542964
 20
9.2828865471
 30
0.0
 10
11.6561624069
 20
9.2774957363
 30
0.0
 10
11.6610346561
 20
9.2720757384
 30
0.0
 10
11.6652678158
 20
9.2666288762
 30
0.0
 10
11.6688590229
 20
9.2611575693
 30
0.0
 10
11.671804972
 20
9.2556640409
 30
0.0
 10
11.6741016184
 20
9.2501508036
 30
0.0
 10
11.6757455508
 20
9.2446211047
 30
0.0
 10
11.6767337552
 20
9.2390804329
 30
0.0
 10
11.6769541616
 20
9.235372385
 30
0.0
 10
11.6769541616
 20
9.233532319
 30
0.0
  0
SPLINE
  5
298
100
AcDbEntity
  8
0
100
AcDbSpline
 62
7
  6
CONTINUOUS
 70
0
 71
3
 72
44
 73
40
 74
0
 42
0.0000001
 43
0.0000001
 44
0.0000000001
 40
0.0
 40
0.0
 40
0.0
 40
0.0
 40
0.0930240502
 40
0.1851900685
 40
0.2756526825
 40
0.3635817227
 40
0.4063456298
 40
0.4481787659
 40
0.4889871496
 40
0.5286795298
 40
0.5671683917
 40
0.6043692999
 40
0.6402025491
 40
0.674592066
 40
0.7074675447
 40
0.7387631452
 40
0.7684199837
 40
0.79638504
 40
0.8226138384
 40
0.8470701751
 40
0.869729066
 40
0.8803807364
 40
0.8905798915
 40
0.9003275
 40
0.9096257976
 40
0.9184789563
 40
0.9268927923
 40
0.9348749574
 40
0.942435665
 40
0.9495883556
 40
0.9563497247
 40
0.9627403627
 40
0.9687858714
 40
0.9745175026
 40
0.9799724983
 40
0.9851946653
 40
0.9902347022
 40
0.995149357
 40
1.0
 40
1.0
 40
1.0
 40
1.0
 10
10.5969541616
 20
9.379825137
 30
0.0
 10
10.6322423486
 20
9.379825137
 30
0.0
 10
10.7024953573
 20
9.3791108874
 30
0.0
 10
10.8070207585
 20
9.3759022924
 30
0.0
 10
10.9095255685
 20
9.3705897344
 30
0.0
 10
10.9931990306
 20
9.3643975061
 30
0.0
 10
11.0583718663
 20
9.3583996427
 30
0.0
 10
11.1056873859
 20
9.3534548527
 30
0.0
 10
11.1517778346
 20
9.348034511
 30
0.0
 10
11.1965323917
 20
9.3421514204
 30
0.0
 10
11.2398433359
 20
9.3358202866
 30
0.0
 10
11.2816065572
 20
9.3290560283
 30
0.0
 10
11.3217216211
 20
9.3218756852
 30
0.0
 10
11.3600922132
 20
9.3142961193
 30
0.0
 10
11.3966262331
 20
9.3063365182
 30
0.0
 10
11.4312361529
 20
9.2980155997
 30
0.0
 10
11.4638392394
 20
9.289354429
 30
0.0
 10
11.4943577008
 20
9.2803734857
 30
0.0
 10
11.5227193792
 20
9.271095372
 30
0.0
 10
11.5488567555
 20
9.2615420611
 30
0.0
 10
11.5691321185
 20
9.2532084732
 30
0.0
 10
11.5841663654
 20
9.2463936731
 30
0.0
 10
11.5946143499
 20
9.2413337784
 30
0.0
 10
11.6044623753
 20
9.2362223391
 30
0.0
 10
11.6137045126
 20
9.231062053
 30
0.0
 10
11.6223355391
 20
9.2258561612
 30
0.0
 10
11.6303505614
 20
9.2206076887
 30
0.0
 10
11.6377448178
 20
9.2153194377
 30
0.0
 10
11.6445139376
 20
9.2099941222
 30
0.0
 10
11.6506542964
 20
9.204634739
 30
0.0
 10
11.6561624069
 20
9.1992439282
 30
0.0
 10
11.6610346561
 20
9.1938239303
 30
0.0
 10
11.6652678158
 20
9.1883770681
 30
0.0
 10
11.6688590229
 20
9.1829057612
 30
0.0
 10
11.671804972
 20
9.1774122329
 30
0.0
 10
11.6741016184
 20
9.1718989955
 30
0.0
 10
11.6757455508
 20
9.1663692966
 30
0.0
 10
11.6767337552
 20
9.1608286248
 30
0.0
 10
11.6769541616
 20
9.157120577
 30
0.0
 10
11.6769541616
 20
9.1552805109
 30
0.0
  0
SPLINE
  5
299
100
AcDbEntity
  8
0
100
AcDbSpline
 62
7
  6
CONTINUOUS
 70
0
 71
3
 72
44
 73
40
 74
0
 42
0.0000001
 43
0.0000001
 44
0.0000000001
 40
0.0
 40
0.0
 40
0.0
 40
0.0
 40
0.0930238971
 40
0.1392693633
 40
0.185191495
 40
0.2756540455
 40
0.3635831698
 40
0.4063470195
 40
0.448180253
 40
0.4889885737
 40
0.5286810632
 40
0.5671698332
 40
0.6043708696
 40
0.6402040178
 40
0.6745936622
 40
0.7074690505
 40
0.7387647557
 40
0.7684215404
 40
0.7963866523
 40
0.8226154547
 40
0.8470717785
 40
0.8697307439
 40
0.8905797889
 40
0.9003273294
 40
0.9096258375
 40
0.9184790248
 40
0.9268926753
 40
0.9348748299
 40
0.9424357419
 40
0.9495884056
 40
0.9563496078
 40
0.9627402889
 40
0.9687859526
 40
0.9745175257
 40
0.9799724167
 40
0.9851946394
 40
0.9902347393
 40
0.9951493644
 40
1.0
 40
1.0
 40
1.0
 40
1.0
 10
10.5969541616
 20
10.509089903
 30
0.0
 10
10.5655869501
 20
10.509089903
 30
0.0
 10
10.5186240918
 20
10.5086125839
 30
0.0
 10
10.4561980699
 20
10.5070137976
 30
0.0
 10
10.3946550046
 20
10.5047959641
 30
0.0
 10
10.319112785
 20
10.5008805895
 30
0.0
 10
10.2447365156
 20
10.4953765176
 30
0.0
 10
10.1868050887
 20
10.4900449635
 30
0.0
 10
10.1447468661
 20
10.4856497111
 30
0.0
 10
10.1037775637
 20
10.4808314969
 30
0.0
 10
10.0639957498
 20
10.4756022279
 30
0.0
 10
10.0254971242
 20
10.4699743967
 30
0.0
 10
9.9883742733
 20
10.4639618857
 30
0.0
 10
9.9527164324
 20
10.4575791929
 30
0.0
 10
9.918609245
 20
10.4508419625
 30
0.0
 10
9.886134561
 20
10.4437666111
 30
0.0
 10
9.855370181
 20
10.4363703714
 30
0.0
 10
9.8263896762
 20
10.4286714486
 30
0.0
 10
9.7992621039
 20
10.4206884598
 30
0.0
 10
9.774051872
 20
10.4124412114
 30
0.0
 10
9.7508181544
 20
10.4039494001
 30
0.0
 10
9.7296157644
 20
10.3952340269
 30
0.0
 10
9.7133329804
 20
10.3876407795
 30
0.0
 10
9.7013914103
 20
10.3814429146
 30
0.0
 10
9.6931760267
 20
10.376856098
 30
0.0
 10
9.685503967
 20
10.3722286785
 30
0.0
 10
9.6783796676
 20
10.3675632219
 30
0.0
 10
9.6718070323
 20
10.3628625147
 30
0.0
 10
9.6657898171
 20
10.3581290956
 30
0.0
 10
9.660331731
 20
10.353365175
 30
0.0
 10
9.6554358689
 20
10.3485731793
 30
0.0
 10
9.6511049577
 20
10.3437554293
 30
0.0
 10
9.6473418428
 20
10.3389139524
 30
0.0
 10
9.6441497604
 20
10.3340504895
 30
0.0
 10
9.6415314659
 20
10.3291672292
 30
0.0
 10
9.6394898437
 20
10.3242666583
 30
0.0
 10
9.6380282065
 20
10.3193514368
 30
0.0
 10
9.637150066
 20
10.3144263207
 30
0.0
 10
9.6369543675
 20
10.3111302908
 30
0.0
 10
9.6369543675
 20
10.3094946798
 30
0.0
  0
SPLINE
  5
29A
100
AcDbEntity
  8
0
100
AcDbSpline
 62
7
  6
CONTINUOUS
 70
0
 71
3
 72
36
 73
32
 74
0
 42
0.0000001
 43
0.0000001
 44
0.0000000001
 40
0.0
 40
0.0
 40
0.0
 40
0.0
 40
0.0877810893
 40
0.1748819103
 40
0.2606243968
 40
0.3443476221
 40
0.4254067793
 40
0.503183534
 40
0.5406569892
 40
0.577092618
 40
0.6124234515
 40
0.6465848505
 40
0.6795160733
 40
0.7111589641
 40
0.7414601484
 40
0.7703693235
 40
0.7978419605
 40
0.8238375242
 40
0.8483224943
 40
0.8712690233
 40
0.8926581988
 40
0.9124798415
 40
0.9307362895
 40
0.9474444586
 40
0.9552298301
 40
0.9626441613
 40
0.9696961755
 40
0.9763967336
 40
0.982759611
 40
0.9888016004
 40
1.0
 40
1.0
 40
1.0
 40
1.0
 10
10.5969541616
 20
9.5505052542
 30
0.0
 10
10.5681497455
 20
9.5505052542
 30
0.0
 10
10.5107626659
 20
9.5499692514
 30
0.0
 10
10.42527059
 20
9.5475609353
 30
0.0
 10
10.3411702991
 20
9.5435690618
 30
0.0
 10
10.2591444372
 20
9.5380269891
 30
0.0
 10
10.1798576854
 20
9.5309803391
 30
0.0
 10
10.1158334688
 20
9.523817862
 30
0.0
 10
10.0664807193
 20
9.5173460786
 30
0.0
 10
10.0310027568
 20
9.5122153692
 30
0.0
 10
9.9966734366
 20
9.5067586953
 30
0.0
 10
9.9635622782
 20
9.5009866675
 30
0.0
 10
9.9317364029
 20
9.4949117091
 30
0.0
 10
9.901260212
 20
9.488545638
 30
0.0
 10
9.8721953664
 20
9.481902235
 30
0.0
 10
9.8446005631
 20
9.4749943985
 30
0.0
 10
9.8185314231
 20
9.4678371155
 30
0.0
 10
9.7940403775
 20
9.4604443145
 30
0.0
 10
9.7711764157
 20
9.4528319558
 30
0.0
 10
9.7499850755
 20
9.4450149004
 30
0.0
 10
9.7305081319
 20
9.4370097308
 30
0.0
 10
9.7127832448
 20
9.4288319062
 30
0.0
 10
9.6968450119
 20
9.4204980149
 30
0.0
 10
9.6848066985
 20
9.4132749195
 30
0.0
 10
9.6761320752
 20
9.407407787
 30
0.0
 10
9.6702467621
 20
9.4030825739
 30
0.0
 10
9.6648305711
 20
9.3987304276
 30
0.0
 10
9.6598865895
 20
9.3943532167
 30
0.0
 10
9.6554163917
 20
9.3899521161
 30
0.0
 10
9.65022415
 20
9.3842025531
 30
0.0
 10
9.6468326521
 20
9.3796425993
 30
0.0
 10
9.6448911269
 20
9.3765227574
 30
0.0
  0
SPLINE
  5
29B
100
AcDbEntity
  8
0
100
AcDbSpline
 62
7
  6
CONTINUOUS
 70
0
 71
3
 72
55
 73
51
 74
0
 42
0.0000001
 43
0.0000001
 44
0.0000000001
 40
0.0
 40
0.0
 40
0.0
 40
0.0
 40
0.0520445106
 40
0.1039187915
 40
0.1554313861
 40
0.2064125678
 40
0.2566884963
 40
0.3060868713
 40
0.3544405809
 40
0.4015867522
 40
0.4473672032
 40
0.4916298419
 40
0.5342295158
 40
0.5750281851
 40
0.6138966045
 40
0.6507152087
 40
0.6853747138
 40
0.7177786539
 40
0.733109049
 40
0.7478460352
 40
0.7619817184
 40
0.7755100512
 40
0.7884261166
 40
0.8007263246
 40
0.812409526
 40
0.8234764908
 40
0.8339301607
 40
0.8437770419
 40
0.8530271059
 40
0.86169433
 40
0.8697985708
 40
0.877366245
 40
0.8844315177
 40
0.8910387893
 40
0.8972440763
 40
0.9031161685
 40
0.9087376592
 40
0.9142034419
 40
0.9196170599
 40
0.925085303
 40
0.9307115672
 40
0.9365904973
 40
0.9428043707
 40
0.9494216655
 40
0.956498119
 40
0.9640778713
 40
0.9721948823
 40
0.98087541
 40
0.9901391608
 40
1.0
 40
1.0
 40
1.0
 40
1.0
 10
10.5969541616
 20
10.5802534605
 30
0.0
 10
10.6172911091
 20
10.5802534605
 30
0.0
 10
10.6578989398
 20
10.5800010131
 30
0.0
 10
10.7186263265
 20
10.5788665848
 30
0.0
 10
10.778919424
 20
10.5769799777
 30
0.0
 10
10.8385594466
 20
10.5743483092
 30
0.0
 10
10.8973350625
 20
10.570981251
 30
0.0
 10
10.9550356129
 20
10.566890741
 30
0.0
 10
11.0114543577
 20
10.562091557
 30
0.0
 10
11.0663895953
 20
10.5566013043
 30
0.0
 10
11.1196447979
 20
10.5504396658
 30
0.0
 10
11.1710295254
 20
10.5436289658
 30
0.0
 10
11.2203601461
 20
10.5361941634
 30
0.0
 10
11.2674604734
 20
10.5281620254
 30
0.0
 10
11.3121624433
 20
10.5195618575
 30
0.0
 10
11.3543070076
 20
10.5104252911
 30
0.0
 10
11.3937438639
 20
10.500785185
 30
0.0
 10
11.4247839053
 20
10.492211083
 30
0.0
 10
11.4481364079
 20
10.4850955121
 30
0.0
 10
11.464563626
 20
10.4797537026
 30
0.0
 10
11.4802145766
 20
10.474312376
 30
0.0
 10
11.4950755105
 20
10.4687766333
 30
0.0
 10
11.5091333159
 20
10.4631514942
 30
0.0
 10
11.5223754626
 20
10.4574416238
 30
0.0
 10
11.53479048
 20
10.4516523872
 30
0.0
 10
11.5463676366
 20
10.4457889783
 30
0.0
 10
11.5570967253
 20
10.4398560823
 30
0.0
 10
11.56696873
 20
10.4338590174
 30
0.0
 10
11.5759754753
 20
10.4278028914
 30
0.0
 10
11.5841091472
 20
10.4216920127
 30
0.0
 10
11.5913631447
 20
10.4155310832
 30
0.0
 10
11.5977316368
 20
10.4093243971
 30
0.0
 10
11.6032084682
 20
10.4030750657
 30
0.0
 10
11.6077880177
 20
10.396786373
 30
0.0
 10
11.611464491
 20
10.3904614861
 30
0.0
 10
11.6142300332
 20
10.3841035746
 30
0.0
 10
11.6160766069
 20
10.3777183126
 30
0.0
 10
11.6169972654
 20
10.3713145215
 30
0.0
 10
11.6169864601
 20
10.3649040645
 30
0.0
 10
11.6160442781
 20
10.3585005806
 30
0.0
 10
11.6141763341
 20
10.352115863
 30
0.0
 10
11.6113895897
 20
10.3457586668
 30
0.0
 10
11.6076921152
 20
10.3394345859
 30
0.0
 10
11.6030917179
 20
10.3331467664
 30
0.0
 10
11.5975941611
 20
10.3268983895
 30
0.0
 10
11.5912050848
 20
10.3206927233
 30
0.0
 10
11.5839306491
 20
10.3145329043
 30
0.0
 10
11.5757766373
 20
10.3084232271
 30
0.0
 10
11.5667498884
 20
10.3023684877
 30
0.0
 10
11.5603566969
 20
10.2984935216
 30
0.0
 10
11.5570227512
 20
10.2965616383
 30
0.0
  0
SPLINE
  5
29C
100
AcDbEntity
  8
0
100
AcDbSpline
 62
7
  6
CONTINUOUS
 70
0
 71
3
 72
55
 73
51
 74
0
 42
0.0000001
 43
0.0000001
 44
0.0000000001
 40
0.0
 40
0.0
 40
0.0
 40
0.0
 40
0.0098608392
 40
0.01912459
 40
0.0278051177
 40
0.0359221287
 40
0.043501881
 40
0.0505783345
 40
0.0571956293
 40
0.0634095027
 40
0.0692884328
 40
0.074914697
 40
0.0803829401
 40
0.0857965581
 40
0.0912623408
 40
0.0968838315
 40
0.1027559237
 40
0.1089612107
 40
0.1155684823
 40
0.122633755
 40
0.1302014292
 40
0.13830567
 40
0.1469728941
 40
0.1562229581
 40
0.1660698393
 40
0.1765235092
 40
0.187590474
 40
0.1992736754
 40
0.2115738834
 40
0.2244899488
 40
0.2380182816
 40
0.2521539648
 40
0.266890951
 40
0.2822213461
 40
0.3146252862
 40
0.3492847913
 40
0.3861033955
 40
0.4249718149
 40
0.4657704842
 40
0.5083701581
 40
0.5526327968
 40
0.5984132478
 40
0.6455594191
 40
0.6939131287
 40
0.7433115037
 40
0.7935874322
 40
0.8445686139
 40
0.8960812085
 40
0.9479554894
 40
1.0
 40
1.0
 40
1.0
 40
1.0
 10
9.636885572
 20
10.2965616383
 30
0.0
 10
9.6335516264
 20
10.2984935216
 30
0.0
 10
9.6271584349
 20
10.3023684877
 30
0.0
 10
9.618131686
 20
10.3084232271
 30
0.0
 10
9.6099776742
 20
10.3145329043
 30
0.0
 10
9.6027032384
 20
10.3206927233
 30
0.0
 10
9.5963141622
 20
10.3268983895
 30
0.0
 10
9.5908166054
 20
10.3331467664
 30
0.0
 10
9.5862162081
 20
10.3394345859
 30
0.0
 10
9.5825187336
 20
10.3457586668
 30
0.0
 10
9.5797319892
 20
10.352115863
 30
0.0
 10
9.5778640452
 20
10.3585005806
 30
0.0
 10
9.5769218631
 20
10.3649040645
 30
0.0
 10
9.5769110579
 20
10.3713145215
 30
0.0
 10
9.5778317163
 20
10.3777183126
 30
0.0
 10
9.5796782901
 20
10.3841035746
 30
0.0
 10
9.5824438323
 20
10.3904614861
 30
0.0
 10
9.5861203056
 20
10.396786373
 30
0.0
 10
9.5906998551
 20
10.4030750657
 30
0.0
 10
9.5961766864
 20
10.4093243971
 30
0.0
 10
9.6025451786
 20
10.4155310832
 30
0.0
 10
9.6097991761
 20
10.4216920127
 30
0.0
 10
9.617932848
 20
10.4278028914
 30
0.0
 10
9.6269395933
 20
10.4338590174
 30
0.0
 10
9.6368115979
 20
10.4398560823
 30
0.0
 10
9.6475406867
 20
10.4457889783
 30
0.0
 10
9.6591178433
 20
10.4516523872
 30
0.0
 10
9.6715328606
 20
10.4574416238
 30
0.0
 10
9.6847750074
 20
10.4631514942
 30
0.0
 10
9.6988328128
 20
10.4687766333
 30
0.0
 10
9.7136937467
 20
10.474312376
 30
0.0
 10
9.7293446973
 20
10.4797537026
 30
0.0
 10
9.7457719154
 20
10.4850955121
 30
0.0
 10
9.769124418
 20
10.492211083
 30
0.0
 10
9.8001644594
 20
10.500785185
 30
0.0
 10
9.8396013157
 20
10.5104252911
 30
0.0
 10
9.88174588
 20
10.5195618575
 30
0.0
 10
9.9264478499
 20
10.5281620254
 30
0.0
 10
9.9735481772
 20
10.5361941634
 30
0.0
 10
10.0228787979
 20
10.5436289658
 30
0.0
 10
10.0742635254
 20
10.5504396658
 30
0.0
 10
10.127518728
 20
10.5566013043
 30
0.0
 10
10.1824539656
 20
10.562091557
 30
0.0
 10
10.2388727104
 20
10.566890741
 30
0.0
 10
10.2965732608
 20
10.570981251
 30
0.0
 10
10.3553488767
 20
10.5743483092
 30
0.0
 10
10.4149888993
 20
10.5769799777
 30
0.0
 10
10.4752819968
 20
10.5788665848
 30
0.0
 10
10.5360093835
 20
10.5800010131
 30
0.0
 10
10.5766172142
 20
10.5802534605
 30
0.0
 10
10.5969541616
 20
10.5802534605
 30
0.0
  0
ENDSEC
  0
SECTION
  2
OBJECTS
  0
DICTIONARY
  5
C
100
AcDbDictionary
280
0
281
1
  3
ACAD_GROUP
350
D
  3
ACAD_MLINESTYLE
350
17
  3
ACAD_LAYOUT
350
1A
  3
ACAD_PLOTSETTINGS
350
19
  3
ACAD_PLOTSTYLENAME
350
E
  0
DICTIONARY
  5
D
102
{ACAD_REACTORS
330
C
102
}
100
AcDbDictionary
280
0
281
1
  0
ACDBDICTIONARYWDFLT
  5
E
102
{ACAD_REACTORS
330
C
102
}
100
AcDbDictionary
281
1
  3
Normal
350
F
100
AcDbDictionaryWithDefault
340
F
  0
DICTIONARY
  5
17
102
{ACAD_REACTORS
330
C
102
}
100
AcDbDictionary
280
0
281
1
  3
Standard
350
18
  0
DICTIONARY
  5
19
102
{ACAD_REACTORS
330
C
102
}
100
AcDbDictionary
281
1
  0
DICTIONARY
  5
1A
102
{ACAD_REACTORS
330
C
102
}
100
AcDbDictionary
281
1
  3
Model
350
29D
  3
Layout1
350
29E
  0
ACDBPLACEHOLDER
  5
F
102
{ACAD_REACTORS
330
E
102
}
  0
MLINESTYLE
  5
18
102
{ACAD_REACTORS
330
17
102
}
100
AcDbMlineStyle
  2
STANDARD
 70
0
  3

 62
256
 51
90.0
 52
90.0
 71
2
 49
0.5
 62
256
  6
BYLAYER
 49
-0.5
 62
256
  6
BYLAYER
  0
LAYOUT
  5
29D
102
{ACAD_REACTORS
330
1A
102
}
100
AcDbPlotSettings
  1

  2
none_device
  4
ANSI_C_(22.00_x_17.00_Inches)
  6

 40
0.0
 41
0.0
 42
0.0
 43
0.0
 44
558.8
 45
431.8
 46
0.0
 47
0.0
 48
0.0
 49
0.0
140
0.0
141
0.0
142
1.0
143
1.0
 70
1024
 72
0
 73
0
 74
0
  7

 75
0
147
1.0
148
0.0
149
0.0
100
AcDbLayout
  1
Model
 70
0
 71
0
 10
0.0
 20
0.0
 11
22.0
 21
17.0
 12
0.0
 22
0.0
 32
0.0
 14
0.0
 24
0.0
 34
0.0
 15
0.0
 25
0.0
 35
0.0
146
0.0
 13
0.0
 23
0.0
 33
0.0
 16
1.0
 26
0.0
 36
0.0
 17
0.0
 27
1.0
 37
0.0
 76
0
330
202
345
0
346
0
  0
LAYOUT
  5
29E
102
{ACAD_REACTORS
330
1A
102
}
100
AcDbPlotSettings
  1

  2
none_device
  4
ANSI_C_(22.00_x_17.00_Inches)
  6

 40
0.0
 41
0.0
 42
0.0
 43
0.0
 44
558.8
 45
431.8
 46
0.0
 47
0.0
 48
0.0
 49
0.0
140
0.0
141
0.0
142
1.0
143
1.0
 70
0
 72
0
 73
0
 74
0
  7

 75
0
147
1.0
148
0.0
149
0.0
100
AcDbLayout
  1
Layout1
 70
0
 71
1
 10
0.0
 20
0.0
 11
22.0
 21
17.0
 12
0.0
 22
0.0
 32
0.0
 14
0.0
 24
0.0
 34
0.0
 15
0.0
 25
0.0
 35
0.0
146
0.0
 13
0.0
 23
0.0
 33
0.0
 16
1.0
 26
0.0
 36
0.0
 17
0.0
 27
1.0
 37
0.0
 76
0
330
203
345
0
346
0
  0
ENDSEC
  0
EOF
