999
DXF file: 3273_RIGHT.dxf
999
Pro/ENGINEER 2023134 by Parametric Technology Corporation
  0
SECTION
  2
HEADER
  9
$ACADVER
  1
AC1032
  9
$DWGCODEPAGE
  3
ANSI_1252
  9
$EXTMAX
 10
22.0
 20
17.0
 30
0.0
  9
$EXTMIN
 10
0.0
 20
0.0
 30
0.0
  9
$LIMMIN
 10
0.0
 20
0.0
  9
$LIMMAX
 10
22.0
 20
17.0
  9
$VIEWCTR
 10
11.0
 20
8.5
  9
$VIEWSIZE
 40
17.0
  9
$CLAYER
  8
0
  9
$LTSCALE
 40
1.21
  9
$CELTYPE
  6
BYLAYER
  9
$DIMSCALE
 40
1.0
  9
$DIMASZ
 40
0.1
  9
$DIMEXO
 40
0.0625
  9
$DIMDLI
 40
0.836
  9
$DIMEXE
 40
0.125
  9
$DIMCEN
 40
0.198
  9
$DIMLFAC
 40
1.0
  9
$DIMBLK
  1
_FILLED
  9
$DIMALT
 70
1
  9
$DIMALTD
 70
2
  9
$DIMALTTD
 70
2
  9
$DIMALTF
 40
25.4
  9
$DIMTXT
 40
0.08
  9
$DIMTOL
 70
1
  9
$DIMLIM
 70
0
  9
$DIMTFAC
 40
1.0
  9
$DIMTP
 40
0.001
  9
$DIMTM
 40
0.001
  9
$DIMGAP
 40
0.09
  9
$DIMDSEP
 70
46
  9
$AUNITS
 70
0
  9
$PDMODE
 70
3
  9
$PDSIZE
 40
0.3125
  9
$HANDSEED
  5
2B2
  9
$TILEMODE
 70
1
  9
$MEASUREMENT
 70
0
  9
$INSUNITS
 70
1
  0
ENDSEC
  0
SECTION
  2
CLASSES
  0
CLASS
  1
ACDBDICTIONARYWDFLT
  2
AcDbDictionaryWithDefault
  3
AutoCAD 2000
 90
0
 91
1
280
0
281
0
  0
CLASS
  1
ACDBPLACEHOLDER
  2
AcDbPlaceHolder
  3
AutoCAD 2000
 90
0
 91
1
280
0
281
0
  0
CLASS
  1
LAYOUT
  2
AcDbLayout
  3
AutoCAD 2000
 90
0
 91
0
280
0
281
0
  0
ENDSEC
  0
SECTION
  2
TABLES
  0
TABLE
  2
VPORT
  5
8
100
AcDbSymbolTable
 70
2
  0
VPORT
  5
1F4
100
AcDbSymbolTableRecord
100
AcDbViewportTableRecord
  2
*ACTIVE
 70
0
 10
0.0
 20
0.0
 11
1.0
 21
1.0
 12
11.0
 22
8.5
 13
0.0
 23
0.0
 14
1.0
 24
1.0
 15
0.0
 25
0.0
 16
0.0
 26
0.0
 36
1.0
 17
0.0
 27
0.0
 37
0.0
 40
17.0
 41
1.2941176471
 42
50.0
 43
0.0
 44
0.0
 50
0.0
 51
0.0
 71
0
 72
100
 73
1
 74
1
 75
0
 76
0
 77
0
 78
0
  0
ENDTAB
  0
TABLE
  2
LTYPE
  5
5
100
AcDbSymbolTable
 70
6
  0
LTYPE
  5
14
100
AcDbSymbolTableRecord
100
AcDbLinetypeTableRecord
  2
BYBLOCK
 70
0
  3

 72
65
 73
0
 40
0.0
  0
LTYPE
  5
15
100
AcDbSymbolTableRecord
100
AcDbLinetypeTableRecord
  2
BYLAYER
 70
0
  3

 72
65
 73
0
 40
0.0
  0
LTYPE
  5
16
100
AcDbSymbolTableRecord
100
AcDbLinetypeTableRecord
  2
CONTINUOUS
 70
64
  3
Solid line
 72
65
 73
0
 40
0.0
  0
LTYPE
  5
1F5
100
AcDbSymbolTableRecord
100
AcDbLinetypeTableRecord
  2
CENTER
 70
64
  3
____ _ ____ _ ____ _ ____ _ ____ _ ____ _ ____
 72
65
 73
4
 40
0.6
 49
0.375
 74
0
 49
-0.075
 74
0
 49
0.075
 74
0
 49
-0.075
 74
0
  0
LTYPE
  5
1F6
100
AcDbSymbolTableRecord
100
AcDbLinetypeTableRecord
  2
HIDDEN
 70
64
  3
- - - - - - - - - - - - - - - - - - - -
 72
65
 73
2
 40
0.2
 49
0.1
 74
0
 49
-0.1
 74
0
  0
LTYPE
  5
1F7
100
AcDbSymbolTableRecord
100
AcDbLinetypeTableRecord
  2
PHANTOM
 70
64
  3
_____ _ _ _____ _ _ _____ _ _ _____
 72
65
 73
6
 40
0.8
 49
0.45
 74
0
 49
-0.05
 74
0
 49
0.1
 74
0
 49
-0.05
 74
0
 49
0.1
 74
0
 49
-0.05
 74
0
  0
LTYPE
  5
1F8
100
AcDbSymbolTableRecord
100
AcDbLinetypeTableRecord
  2
DOT
 70
64
  3
. . . . . . . . . . . . . . . . . . . .
 72
65
 73
2
 40
0.2
 49
0.1
 74
0
 49
-0.1
 74
0
  0
LTYPE
  5
1F9
100
AcDbSymbolTableRecord
100
AcDbLinetypeTableRecord
  2
DASHED
 70
64
  3
- - - - - - - - - - - - - - - - - - - -
 72
65
 73
2
 40
0.2
 49
0.1
 74
0
 49
-0.1
 74
0
  0
ENDTAB
  0
TABLE
  2
LAYER
  5
2
100
AcDbSymbolTable
 70
36
  0
LAYER
  5
10
100
AcDbSymbolTableRecord
100
AcDbLayerTableRecord
  2
0
 70
0
 62
7
  6
CONTINUOUS
370
-3
390
F
  0
LAYER
  5
1FA
100
AcDbSymbolTableRecord
100
AcDbLayerTableRecord
  2
DEFAULT_1
 70
0
 62
7
  6
CENTER
370
-3
390
F
  0
LAYER
  5
1FB
100
AcDbSymbolTableRecord
100
AcDbLayerTableRecord
  2
DEFAULT_2
 70
0
 62
8
  6
HIDDEN
370
-3
390
F
  0
LAYER
  5
1FC
100
AcDbSymbolTableRecord
100
AcDbLayerTableRecord
  2
DEFAULT_3
 70
0
 62
7
  6
PHANTOM
370
-3
390
F
  0
LAYER
  5
1FD
100
AcDbSymbolTableRecord
100
AcDbLayerTableRecord
  2
DEFAULT_COORDINATE_SYSTEM
 70
0
 62
7
  6
CONTINUOUS
370
-3
390
F
  0
LAYER
  5
1FE
100
AcDbSymbolTableRecord
100
AcDbLayerTableRecord
  2
DEFAULT_DATUM_AXES
 70
0
 62
7
  6
CONTINUOUS
370
-3
390
F
  0
LAYER
  5
1FF
100
AcDbSymbolTableRecord
100
AcDbLayerTableRecord
  2
DEFAULT_DATUM_PLANES
 70
0
 62
7
  6
CONTINUOUS
370
-3
390
F
  0
ENDTAB
  0
TABLE
  2
STYLE
  5
3
100
AcDbSymbolTable
 70
1
  0
STYLE
  5
11
100
AcDbSymbolTableRecord
100
AcDbTextStyleTableRecord
  2
STANDARD
 70
0
 40
0.0
 41
0.8
 50
0.0
 71
0
 42
0.2
  3
txt
  4

  0
STYLE
  5
200
100
AcDbSymbolTableRecord
100
AcDbTextStyleTableRecord
  2
TEXTSTYLE_1
 70
0
 40
0.0
 41
0.8
 50
0.0
 71
0
 42
0.2
  3
gdt
  4

  0
ENDTAB
  0
TABLE
  2
VIEW
  5
6
100
AcDbSymbolTable
 70
0
  0
ENDTAB
  0
TABLE
  2
UCS
  5
7
100
AcDbSymbolTable
 70
0
  0
ENDTAB
  0
TABLE
  2
APPID
  5
9
100
AcDbSymbolTable
 70
1
  0
APPID
  5
201
100
AcDbSymbolTableRecord
100
AcDbRegAppTableRecord
  2
ACAD
 70
0
  0
ENDTAB
  0
TABLE
  2
BLOCK_RECORD
  5
1
100
AcDbSymbolTable
 70
0
  0
BLOCK_RECORD
  5
202
100
AcDbSymbolTableRecord
100
AcDbBlockTableRecord
  2
*Model_Space
  0
BLOCK_RECORD
  5
203
100
AcDbSymbolTableRecord
100
AcDbBlockTableRecord
  2
*Paper_Space
  0
BLOCK_RECORD
  5
204
100
AcDbSymbolTableRecord
100
AcDbBlockTableRecord
  2
_FILLED
  0
ENDTAB
  0
TABLE
  2
DIMSTYLE
  5
A
100
AcDbSymbolTable
 70
1
100
AcDbDimStyleTable
 71
0
  0
DIMSTYLE
105
205
100
AcDbSymbolTableRecord
100
AcDbDimStyleTableRecord
  2
STANDARD
 70
0
  3

  4

 40
1.0
 41
0.1
 42
0.0625
 43
0.38
 44
0.125
 45
0.0
 46
0.0
 47
0.001
 48
0.001
140
0.08
141
0.09
142
0.0
143
25.4
144
1.0
145
0.0
146
1.0
147
0.09
 71
1
 72
0
 73
1
 74
1
 75
0
 76
0
 77
0
 78
4
 79
1
170
1
171
2
172
0
173
0
174
0
175
0
176
0
177
0
178
0
270
2
179
3
271
3
272
3
273
2
274
2
275
0
280
0
281
0
282
0
283
1
284
4
285
0
286
0
287
3
288
0
340
11
278
46
341
204
342
204
343
204
344
204
  0
ENDTAB
  0
ENDSEC
  0
SECTION
  2
BLOCKS
  0
BLOCK
  5
20
100
AcDbEntity
  8
0
100
AcDbBlockBegin
  2
*Model_Space
 70
0
 10
0.0
 20
0.0
 30
0.0
  3
*Model_Space
  1

  0
ENDBLK
  5
21
100
AcDbEntity
  8
0
100
AcDbBlockEnd
  0
BLOCK
  5
1C
100
AcDbEntity
  8
0
100
AcDbBlockBegin
  2
*Paper_Space
 70
0
 10
0.0
 20
0.0
 30
0.0
  3
*Paper_Space
  1

  0
ENDBLK
  5
1D
100
AcDbEntity
  8
0
100
AcDbBlockEnd
  0
BLOCK
  5
206
100
AcDbEntity
  8
0
100
AcDbBlockBegin
  2
_FILLED
 70
64
 10
0.0
 20
0.0
  3
_FILLED
  1

  0
SOLID
  5
207
100
AcDbEntity
  8
0
  6
BYBLOCK
 62
0
100
AcDbTrace
 10
0.0
 20
0.0
 11
-1.0
 21
0.2
 12
-1.0
 22
-0.2
 13
-1.0
 23
-0.2
  0
ENDBLK
  5
208
100
AcDbEntity
  8
0
  6
BYBLOCK
 62
0
100
AcDbBlockEnd
  0
ENDSEC
  0
SECTION
  2
ENTITIES
  0
LINE
  5
209
100
AcDbEntity
  8
0
100
AcDbLine
 62
7
  6
CONTINUOUS
 10
0.0
 20
0.0
 11
0.0
 21
17.0
  0
LINE
  5
20A
100
AcDbEntity
  8
0
100
AcDbLine
 62
7
  6
CONTINUOUS
 10
0.0
 20
0.0
 11
22.0
 21
0.0
  0
LINE
  5
20B
100
AcDbEntity
  8
0
100
AcDbLine
 62
7
  6
CONTINUOUS
 10
0.0
 20
17.0
 11
22.0
 21
17.0
  0
LINE
  5
20C
100
AcDbEntity
  8
0
100
AcDbLine
 62
7
  6
CONTINUOUS
 10
22.0
 20
0.0
 11
22.0
 21
17.0
  0
LINE
  5
20D
100
AcDbEntity
  8
0
100
AcDbLine
 62
7
  6
CONTINUOUS
 10
2.7630598234
 20
9.379825137
 11
2.7796927586
 21
9.458076945
  0
LINE
  5
20E
100
AcDbEntity
  8
0
100
AcDbLine
 62
7
  6
CONTINUOUS
 10
3.0333450214
 20
10.6514170179
 11
3.0499779567
 21
10.729668826
  0
LINE
  5
20F
100
AcDbEntity
  8
0
100
AcDbLine
 62
7
  6
CONTINUOUS
 10
2.9220198736
 20
9.5505052542
 11
3.1257733306
 21
10.509089903
  0
LINE
  5
210
100
AcDbEntity
  8
0
100
AcDbLine
 62
7
  6
CONTINUOUS
 10
3.3669287617
 20
11.2348095858
 11
3.2629729163
 21
10.7457357854
  0
LINE
  5
211
100
AcDbEntity
  8
0
100
AcDbLine
 62
7
  6
CONTINUOUS
 10
13.9321230935
 20
0.8929254514
 11
18.4321230935
 21
0.8929254514
  0
LINE
  5
212
100
AcDbEntity
  8
0
100
AcDbLine
 62
7
  6
CONTINUOUS
 10
18.4321230935
 20
1.0329254514
 11
13.9321230935
 21
1.0329254514
  0
LINE
  5
213
100
AcDbEntity
  8
0
100
AcDbLine
 62
7
  6
CONTINUOUS
 10
18.3721230935
 20
1.0929254514
 11
13.9921230935
 21
1.0929254514
  0
LINE
  5
214
100
AcDbEntity
  8
0
100
AcDbLine
 62
7
  6
CONTINUOUS
 10
14.0921230935
 20
1.1529254514
 11
18.2721230935
 21
1.1529254514
  0
LINE
  5
215
100
AcDbEntity
  8
0
100
AcDbLine
 62
7
  6
CONTINUOUS
 10
18.2721230935
 20
1.6829254514
 11
14.0921230935
 21
1.6829254514
  0
LINE
  5
216
100
AcDbEntity
  8
0
100
AcDbLine
 62
7
  6
CONTINUOUS
 10
18.2121230935
 20
1.7429254514
 11
14.1521230935
 21
1.7429254514
  0
LINE
  5
217
100
AcDbEntity
  8
0
100
AcDbLine
 62
7
  6
CONTINUOUS
 10
5.078687063
 20
10.8709641269
 11
4.9747312176
 21
10.3818903265
  0
LINE
  5
218
100
AcDbEntity
  8
0
100
AcDbLine
 62
7
  6
CONTINUOUS
 10
4.800063267
 20
9.1513148079
 11
5.003816724
 21
10.1098994566
  0
LINE
  5
219
100
AcDbEntity
  8
0
100
AcDbLine
 62
7
  6
CONTINUOUS
 10
4.8758586409
 20
8.9307358848
 11
4.8924915762
 21
9.0089876929
  0
LINE
  5
21A
100
AcDbEntity
  8
0
100
AcDbLine
 62
7
  6
CONTINUOUS
 10
5.146143839
 20
10.2023277658
 11
5.1627767743
 21
10.2805795738
  0
LINE
  5
21B
100
AcDbEntity
  8
0
100
AcDbLine
 62
7
  6
CONTINUOUS
 10
6.0571859785
 20
11.5064087525
 11
6.4210314374
 21
13.2181670538
  0
LINE
  5
21C
100
AcDbEntity
  8
0
100
AcDbLine
 62
7
  6
CONTINUOUS
 10
2.8092739779
 20
9.3086615795
 11
4.8046950834
 21
8.8845217302
  0
LINE
  5
21D
100
AcDbEntity
  8
0
100
AcDbLine
 62
7
  6
CONTINUOUS
 10
2.7630598234
 20
9.379825137
 11
4.8758586409
 21
8.9307358848
  0
LINE
  5
21E
100
AcDbEntity
  8
0
100
AcDbLine
 62
7
  6
CONTINUOUS
 10
2.7796927586
 20
9.458076945
 11
4.8924915762
 21
9.0089876929
  0
LINE
  5
21F
100
AcDbEntity
  8
0
100
AcDbLine
 62
7
  6
CONTINUOUS
 10
2.8508563161
 20
9.5042910996
 11
4.8462774216
 21
9.0801512504
  0
LINE
  5
220
100
AcDbEntity
  8
0
100
AcDbLine
 62
7
  6
CONTINUOUS
 10
4.800063267
 20
9.1513148079
 11
2.9220198736
 21
9.5505052542
  0
LINE
  5
221
100
AcDbEntity
  8
0
100
AcDbLine
 62
7
  6
CONTINUOUS
 10
9.9821233733
 20
15.5876300745
 11
9.9821209489
 21
16.6276300745
  0
LINE
  5
222
100
AcDbEntity
  8
0
100
AcDbLine
 62
7
  6
CONTINUOUS
 10
10.0221234665
 20
15.5476301678
 11
10.0221208556
 21
16.6676301678
  0
LINE
  5
223
100
AcDbEntity
  8
0
100
AcDbLine
 62
7
  6
CONTINUOUS
 10
5.003816724
 20
10.1098994566
 11
3.1257733306
 21
10.509089903
  0
LINE
  5
224
100
AcDbEntity
  8
0
100
AcDbLine
 62
7
  6
CONTINUOUS
 10
3.079559176
 20
10.5802534605
 11
5.0749802815
 21
10.1561136112
  0
LINE
  5
225
100
AcDbEntity
  8
0
100
AcDbLine
 62
7
  6
CONTINUOUS
 10
3.0333450214
 20
10.6514170179
 11
5.146143839
 21
10.2023277658
  0
LINE
  5
226
100
AcDbEntity
  8
0
100
AcDbLine
 62
7
  6
CONTINUOUS
 10
3.0499779567
 20
10.729668826
 11
5.1627767743
 21
10.2805795738
  0
LINE
  5
227
100
AcDbEntity
  8
0
100
AcDbLine
 62
7
  6
CONTINUOUS
 10
3.1211415142
 20
10.7758829806
 11
5.1165626197
 21
10.3517431313
  0
LINE
  5
228
100
AcDbEntity
  8
0
100
AcDbLine
 62
7
  6
CONTINUOUS
 10
14.6605840155
 20
15.540160508
 11
14.6535701397
 21
15.5231485247
  0
LINE
  5
229
100
AcDbEntity
  8
0
100
AcDbLine
 62
7
  6
CONTINUOUS
 10
14.6535701397
 20
15.5231485247
 11
14.6476197485
 21
15.5090172292
  0
LINE
  5
22A
100
AcDbEntity
  8
0
100
AcDbLine
 62
7
  6
CONTINUOUS
 10
14.6476197485
 20
15.5090172292
 11
14.6428171111
 21
15.4977997098
  0
LINE
  5
22B
100
AcDbEntity
  8
0
100
AcDbLine
 62
7
  6
CONTINUOUS
 10
14.6428171111
 20
15.4977997098
 11
14.6378665061
 21
15.4864024426
  0
LINE
  5
22C
100
AcDbEntity
  8
0
100
AcDbLine
 62
7
  6
CONTINUOUS
 10
14.6378665061
 20
15.4864024426
 11
14.6355293239
 21
15.4810777275
  0
LINE
  5
22D
100
AcDbEntity
  8
0
100
AcDbLine
 62
7
  6
CONTINUOUS
 10
14.6368296569
 20
15.4840354268
 11
14.6361005661
 21
15.4823747278
  0
LINE
  5
22E
100
AcDbEntity
  8
0
100
AcDbLine
 62
7
  6
CONTINUOUS
 10
14.6376737065
 20
15.4772969211
 11
14.6321230935
 21
15.4649254514
  0
LINE
  5
22F
100
AcDbEntity
  8
0
100
AcDbLine
 62
7
  6
CONTINUOUS
 10
14.6322773886
 20
15.4652605306
 11
14.6321230935
 21
15.4649254514
  0
LINE
  5
230
100
AcDbEntity
  8
0
100
AcDbLine
 62
7
  6
CONTINUOUS
 10
5.078687063
 20
10.8709641269
 11
3.3669287617
 21
11.2348095858
  0
LINE
  5
231
100
AcDbEntity
  8
0
100
AcDbLine
 62
7
  6
CONTINUOUS
 10
14.455388964
 20
9.4912889679
 11
13.5519238497
 21
9.6833264062
  0
LINE
  5
232
100
AcDbEntity
  8
0
100
AcDbLine
 62
7
  6
CONTINUOUS
 10
13.442200364
 20
9.9366754869
 11
6.0571859785
 21
11.5064087525
  0
LINE
  5
233
100
AcDbEntity
  8
0
100
AcDbLine
 62
7
  6
CONTINUOUS
 10
13.4286861041
 20
9.8730958928
 11
13.8195600829
 21
11.7120133822
  0
LINE
  5
234
100
AcDbEntity
  8
0
100
AcDbLine
 62
7
  6
CONTINUOUS
 10
13.5519238497
 20
9.6833264062
 11
14.0093295695
 21
11.8352511278
  0
LINE
  5
235
100
AcDbEntity
  8
0
100
AcDbLine
 62
7
  6
CONTINUOUS
 10
14.7545460757
 20
15.8383738262
 11
14.7545466576
 21
15.8383765157
  0
LINE
  5
236
100
AcDbEntity
  8
0
100
AcDbLine
 62
7
  6
CONTINUOUS
 10
14.7545460757
 20
15.8383738262
 11
14.7514219432
 21
15.8242402799
  0
LWPOLYLINE
  5
237
100
AcDbEntity
  8
0
100
AcDbPolyline
 62
7
  6
CONTINUOUS
 90
20
 70
0
 10
14.7514219432
 20
15.8242402799
 10
14.7469405369
 20
15.8049831427
 10
14.7422886029
 20
15.7860659479
 10
14.7374873089
 20
15.7675088588
 10
14.7325613053
 20
15.7493438263
 10
14.7275382682
 20
15.7316081455
 10
14.7224412703
 20
15.7143195594
 10
14.7172936591
 20
15.6974964449
 10
14.7121235946
 20
15.6811721576
 10
14.7069543878
 20
15.6653637338
 10
14.7018098938
 20
15.6500899708
 10
14.6967183306
 20
15.6353827668
 10
14.6917021764
 20
15.6212573508
 10
14.686783694
 20
15.6077289856
 10
14.681988845
 20
15.5948246839
 10
14.6773382258
 20
15.5825574175
 10
14.6728518599
 20
15.5709402583
 10
14.6685524394
 20
15.5599952179
 10
14.6644576229
 20
15.5497319665
 10
14.6605840155
 20
15.540160508
  0
LINE
  5
238
100
AcDbEntity
  8
0
100
AcDbLine
 62
7
  6
CONTINUOUS
 10
13.9321230935
 20
1.0329254514
 11
13.9321230935
 21
0.8929254514
  0
LINE
  5
239
100
AcDbEntity
  8
0
100
AcDbLine
 62
7
  6
CONTINUOUS
 10
14.0921230935
 20
1.6829254514
 11
14.0921230935
 21
1.1529254514
  0
LINE
  5
23A
100
AcDbEntity
  8
0
100
AcDbLine
 62
7
  6
CONTINUOUS
 10
14.6090930295
 20
16.0714897638
 11
14.6087580467
 21
16.0634791132
  0
LWPOLYLINE
  5
23B
100
AcDbEntity
  8
0
100
AcDbPolyline
 62
7
  6
CONTINUOUS
 90
9
 70
0
 10
14.6087580467
 20
16.0634791132
 10
14.6080504014
 20
16.0491215749
 10
14.6072049413
 20
16.0347589504
 10
14.6062223793
 20
16.0204007488
 10
14.6051039184
 20
16.0060557578
 10
14.6038510528
 20
15.9917330682
 10
14.6024657177
 20
15.9774415636
 10
14.6009501349
 20
15.9631900709
 10
14.5998856357
 20
15.9538168365
  0
LWPOLYLINE
  5
23C
100
AcDbEntity
  8
0
100
AcDbPolyline
 62
7
  6
CONTINUOUS
 90
3
 70
0
 10
14.5998856357
 20
15.9538168365
 10
14.599623397
 20
15.950193641
 10
14.599585553
 20
15.9465681475
  0
LINE
  5
23D
100
AcDbEntity
  8
0
100
AcDbLine
 62
7
  6
CONTINUOUS
 10
13.806045823
 20
11.6484337882
 11
6.4210314374
 21
13.2181670538
  0
LINE
  5
23E
100
AcDbEntity
  8
0
100
AcDbLine
 62
7
  6
CONTINUOUS
 10
14.388857223
 20
11.7545800347
 11
14.0093295695
 21
11.8352511278
  0
LINE
  5
23F
100
AcDbEntity
  8
0
100
AcDbLine
 62
7
  6
CONTINUOUS
 10
14.599585553
 20
15.9465681475
 11
14.5997714184
 21
15.9429538452
  0
LINE
  5
240
100
AcDbEntity
  8
0
100
AcDbLine
 62
7
  6
CONTINUOUS
 10
14.4721230935
 20
13.8219254514
 11
14.4721230935
 21
13.7019254514
  0
LINE
  5
241
100
AcDbEntity
  8
0
100
AcDbLine
 62
7
  6
CONTINUOUS
 10
14.5821230935
 20
13.5289254514
 11
14.5821230935
 21
11.9110836508
  0
LINE
  5
242
100
AcDbEntity
  8
0
100
AcDbLine
 62
7
  6
CONTINUOUS
 10
14.5821230935
 20
9.3347853518
 11
14.5821230935
 21
1.7429254514
  0
LINE
  5
243
100
AcDbEntity
  8
0
100
AcDbLine
 62
7
  6
CONTINUOUS
 10
14.6321230935
 20
15.4649254514
 11
14.6321230935
 21
13.9419254514
  0
LINE
  5
244
100
AcDbEntity
  8
0
100
AcDbLine
 62
7
  6
CONTINUOUS
 10
14.6721230935
 20
13.5889254514
 11
14.6721230935
 21
13.6419254514
  0
LINE
  5
245
100
AcDbEntity
  8
0
100
AcDbLine
 62
7
  6
CONTINUOUS
 10
17.7821230935
 20
13.5289254514
 11
14.5821230935
 21
13.5289254514
  0
LINE
  5
246
100
AcDbEntity
  8
0
100
AcDbLine
 62
7
  6
CONTINUOUS
 10
17.7221230935
 20
13.5889254514
 11
14.6421230935
 21
13.5889254514
  0
LINE
  5
247
100
AcDbEntity
  8
0
100
AcDbLine
 62
7
  6
CONTINUOUS
 10
14.5321230935
 20
13.6419254514
 11
17.8321230935
 21
13.6419254514
  0
LINE
  5
248
100
AcDbEntity
  8
0
100
AcDbLine
 62
7
  6
CONTINUOUS
 10
14.4721230935
 20
13.7019254514
 11
17.8921230935
 21
13.7019254514
  0
LINE
  5
249
100
AcDbEntity
  8
0
100
AcDbLine
 62
7
  6
CONTINUOUS
 10
14.4721230935
 20
13.8219254514
 11
17.8921230935
 21
13.8219254514
  0
LINE
  5
24A
100
AcDbEntity
  8
0
100
AcDbLine
 62
7
  6
CONTINUOUS
 10
14.5321230935
 20
13.8819254514
 11
17.8321230935
 21
13.8819254514
  0
LINE
  5
24B
100
AcDbEntity
  8
0
100
AcDbLine
 62
7
  6
CONTINUOUS
 10
17.7321230935
 20
13.9419254514
 11
14.6321230935
 21
13.9419254514
  0
LWPOLYLINE
  5
24C
100
AcDbEntity
  8
0
100
AcDbPolyline
 62
7
  6
CONTINUOUS
 90
25
 70
0
 10
14.5997714184
 20
15.9429538452
 10
14.6001823413
 20
15.9393537774
 10
14.600820054
 20
15.9357833993
 10
14.6016836244
 20
15.9322605932
 10
14.6027707326
 20
15.928792317
 10
14.6040765544
 20
15.925395917
 10
14.6055960272
 20
15.9220884465
 10
14.6073295643
 20
15.9188767605
 10
14.6092713684
 20
15.9157778202
 10
14.6114099637
 20
15.9128063752
 10
14.6137411491
 20
15.9099673898
 10
14.6162541317
 20
15.9072769297
 10
14.6189377081
 20
15.9047513169
 10
14.6217888638
 20
15.9023955277
 10
14.624793777
 20
15.9002193637
 10
14.6279363728
 20
15.8982337755
 10
14.6312099536
 20
15.8964447557
 10
14.6346009482
 20
15.8948618033
 10
14.6380940838
 20
15.8934909388
 10
14.641680776
 20
15.8923354412
 10
14.6453450866
 20
15.8914018996
 10
14.6490725197
 20
15.8906944537
 10
14.6528565747
 20
15.8902140439
 10
14.6566839558
 20
15.8899637422
 10
14.6589010763
 20
15.8899254548
  0
LWPOLYLINE
  5
24D
100
AcDbEntity
  8
0
100
AcDbPolyline
 62
7
  6
CONTINUOUS
 90
24
 70
0
 10
17.9421233211
 20
15.5476488205
 10
17.9442299403
 20
15.5477043369
 10
17.9469853365
 20
15.5479454212
 10
17.9497174843
 20
15.5483763453
 10
17.9524133204
 20
15.5489950488
 10
17.9550599548
 20
15.5497985733
 10
17.9576447327
 20
15.5507830769
 10
17.9601552952
 20
15.5519438522
 10
17.9625796384
 20
15.5532753491
 10
17.9649061702
 20
15.5547712011
 10
17.9671237667
 20
15.556424256
 10
17.9692218245
 20
15.5582266099
 10
17.9711903117
 20
15.5601696449
 10
17.9730198157
 20
15.5622440702
 10
17.974701589
 20
15.5644399669
 10
17.97622759
 20
15.5667468355
 10
17.9775905218
 20
15.5691536445
 10
17.9787838679
 20
15.5716488857
 10
17.9798019225
 20
15.5742206281
 10
17.9806398179
 20
15.5768565737
 10
17.9812935483
 20
15.5795441189
 10
17.9817599885
 20
15.5822704131
 10
17.9820369088
 20
15.5850224191
 10
17.9821232246
 20
15.5876488794
  0
LINE
  5
24E
100
AcDbEntity
  8
0
100
AcDbLine
 62
7
  6
CONTINUOUS
 10
17.7321230935
 20
14.8919254514
 11
17.731220485
 21
14.8919254514
  0
LINE
  5
24F
100
AcDbEntity
  8
0
100
AcDbLine
 62
7
  6
CONTINUOUS
 10
10.0221234665
 20
15.5476301678
 11
14.6636113955
 21
15.5476409878
  0
LINE
  5
250
100
AcDbEntity
  8
0
100
AcDbLine
 62
7
  6
CONTINUOUS
 10
17.5778434342
 20
15.5476477813
 11
17.9421233211
 21
15.5476486305
  0
LINE
  5
251
100
AcDbEntity
  8
0
100
AcDbLine
 62
7
  6
CONTINUOUS
 10
17.7540091859
 20
16.0699254514
 11
17.7539001614
 21
16.0734777492
  0
LINE
  5
252
100
AcDbEntity
  8
0
100
AcDbLine
 62
7
  6
CONTINUOUS
 10
17.5737176973
 20
15.8299254514
 11
17.5737176973
 21
15.5549254514
  0
LINE
  5
253
100
AcDbEntity
  8
0
100
AcDbLine
 62
7
  6
CONTINUOUS
 10
17.5778055785
 20
15.8299254514
 11
17.5778055785
 21
15.5549254436
  0
LINE
  5
254
100
AcDbEntity
  8
0
100
AcDbLine
 62
7
  6
CONTINUOUS
 10
17.6921230935
 20
13.5889254514
 11
17.6921230935
 21
13.6419254514
  0
LINE
  5
255
100
AcDbEntity
  8
0
100
AcDbLine
 62
7
  6
CONTINUOUS
 10
17.7321230935
 20
13.9419254514
 11
17.7321230935
 21
14.8919254514
  0
LINE
  5
256
100
AcDbEntity
  8
0
100
AcDbLine
 62
7
  6
CONTINUOUS
 10
17.7507010683
 20
16.0699254514
 11
17.7507010683
 21
15.9499254514
  0
LINE
  5
257
100
AcDbEntity
  8
0
100
AcDbLine
 62
7
  6
CONTINUOUS
 10
17.7540091859
 20
16.0699254514
 11
17.7540091859
 21
15.9499254246
  0
LINE
  5
258
100
AcDbEntity
  8
0
100
AcDbLine
 62
7
  6
CONTINUOUS
 10
17.7821230935
 20
13.5289254514
 11
17.7821230935
 21
1.7429254514
  0
LINE
  5
259
100
AcDbEntity
  8
0
100
AcDbLine
 62
7
  6
CONTINUOUS
 10
17.8921230935
 20
13.8219254514
 11
17.8921230935
 21
13.7019254514
  0
LINE
  5
25A
100
AcDbEntity
  8
0
100
AcDbLine
 62
7
  6
CONTINUOUS
 10
17.9821233732
 20
15.5876488794
 11
17.9821209488
 21
16.6276485809
  0
LWPOLYLINE
  5
25B
100
AcDbEntity
  8
0
100
AcDbPolyline
 62
7
  6
CONTINUOUS
 90
29
 70
0
 10
17.5778055784
 20
15.8299254514
 10
17.5778348381
 20
15.8316143937
 10
17.5780340943
 20
15.8346700713
 10
17.5784234069
 20
15.8377369514
 10
17.5790055978
 20
15.8408076381
 10
17.5797852536
 20
15.8438763592
 10
17.5807663863
 20
15.8469328036
 10
17.5819504495
 20
15.8499688561
 10
17.5833402244
 20
15.8529799063
 10
17.5849360976
 20
15.8559538815
 10
17.586739594
 20
15.8588804175
 10
17.5887565035
 20
15.8617559619
 10
17.590988029
 20
15.8645702585
 10
17.5934313424
 20
15.8673080321
 10
17.5960859984
 20
15.8699570222
 10
17.5989524053
 20
15.8725053279
 10
17.602022137
 20
15.8749351843
 10
17.6052780206
 20
15.8772253601
 10
17.6087095074
 20
15.8793623633
 10
17.6123071695
 20
15.8813342538
 10
17.6160522593
 20
15.8831256371
 10
17.6199326336
 20
15.8847267142
 10
17.6239366766
 20
15.8861286399
 10
17.6280447914
 20
15.8873209148
 10
17.6322408117
 20
15.8882959815
 10
17.6365102007
 20
15.8890481654
 10
17.6408342428
 20
15.8895718605
 10
17.6451948981
 20
15.8898625479
 10
17.6483192004
 20
15.8899254321
  0
LWPOLYLINE
  5
25C
100
AcDbEntity
  8
0
100
AcDbPolyline
 62
7
  6
CONTINUOUS
 90
28
 70
0
 10
17.6921729689
 20
15.8899254518
 10
17.6937284762
 20
15.8899442738
 10
17.6975003642
 20
15.8901477712
 10
17.7012557483
 20
15.8905741428
 10
17.7049792668
 20
15.891222053
 10
17.708650864
 20
15.8920882142
 10
17.7122606669
 20
15.8931702867
 10
17.7157975365
 20
15.8944652556
 10
17.7192413764
 20
15.8959654378
 10
17.722581762
 20
15.8976652569
 10
17.7258086007
 20
15.8995592192
 10
17.7289041688
 20
15.9016364621
 10
17.7318576765
 20
15.9038886949
 10
17.7346606474
 20
15.9063076702
 10
17.7373003759
 20
15.9088798486
 10
17.7397668704
 20
15.9115928868
 10
17.7420532307
 20
15.9144371665
 10
17.7441529028
 20
15.9174019799
 10
17.7460594278
 20
15.9204721736
 10
17.7477673044
 20
15.9236328883
 10
17.7492723047
 20
15.9268714308
 10
17.7505694318
 20
15.9301729777
 10
17.7516563133
 20
15.9335251921
 10
17.7525354845
 20
15.9369163334
 10
17.7532082342
 20
15.9403275912
 10
17.7536763522
 20
15.9437424444
 10
17.75394204
 20
15.9471530894
 10
17.7540091859
 20
15.9499254246
  0
LWPOLYLINE
  5
25D
100
AcDbEntity
  8
0
100
AcDbPolyline
 62
7
  6
CONTINUOUS
 90
28
 70
0
 10
14.6715587836
 20
16.1299254481
 10
14.6708840262
 20
16.129922092
 10
14.6672023924
 20
16.1297778873
 10
14.6635310813
 20
16.1294214224
 10
14.6598835434
 20
16.128853814
 10
14.6562773325
 20
16.1280776895
 10
14.6527226757
 20
16.1270949897
 10
14.6492307913
 20
16.1259082102
 10
14.6458196153
 20
16.1245234753
 10
14.6424983219
 20
16.1229448209
 10
14.6392755496
 20
16.1211761031
 10
14.6361672912
 20
16.1192262165
 10
14.6331835272
 20
16.1171022468
 10
14.6303337011
 20
16.1148111413
 10
14.6276325099
 20
16.112365032
 10
14.6250893328
 20
16.1097733488
 10
14.6227105788
 20
16.1070447028
 10
14.6205047807
 20
16.104191316
 10
14.618478932
 20
16.1012242188
 10
14.6166389595
 20
16.0981536179
 10
14.6149904325
 20
16.0949919545
 10
14.6135379973
 20
16.0917517431
 10
14.6122857982
 20
16.0884449556
 10
14.6112374122
 20
16.0850839891
 10
14.6103941991
 20
16.0816856005
 10
14.6097556577
 20
16.0782657434
 10
14.6093210679
 20
16.0748376427
 10
14.6090930268
 20
16.071489695
  0
LINE
  5
25E
100
AcDbEntity
  8
0
100
AcDbLine
 62
7
  6
CONTINUOUS
 10
17.5778055785
 20
15.5549254436
 11
17.5737176973
 21
15.5549254514
  0
LINE
  5
25F
100
AcDbEntity
  8
0
100
AcDbLine
 62
7
  6
CONTINUOUS
 10
17.5778055784
 20
15.8299254514
 11
14.7568627986
 21
15.8299254514
  0
LINE
  5
260
100
AcDbEntity
  8
0
100
AcDbLine
 62
7
  6
CONTINUOUS
 10
17.6921810455
 20
15.8899254514
 11
14.6588781873
 21
15.8899254514
  0
LINE
  5
261
100
AcDbEntity
  8
0
100
AcDbLine
 62
7
  6
CONTINUOUS
 10
17.7540091859
 20
15.9499254246
 11
14.6027537425
 21
15.9499254514
  0
LINE
  5
262
100
AcDbEntity
  8
0
100
AcDbLine
 62
7
  6
CONTINUOUS
 10
17.7540091859
 20
16.0699254514
 11
14.6123424134
 21
16.0699254514
  0
LINE
  5
263
100
AcDbEntity
  8
0
100
AcDbLine
 62
7
  6
CONTINUOUS
 10
14.6715354422
 20
16.1299254514
 11
17.6921810516
 21
16.1299254514
  0
LWPOLYLINE
  5
264
100
AcDbEntity
  8
0
100
AcDbPolyline
 62
7
  6
CONTINUOUS
 90
32
 70
0
 10
14.7023545409
 20
15.889925428
 10
14.7031343963
 20
15.889920922
 10
14.706905739
 20
15.8897879794
 10
14.7105347055
 20
15.8894817689
 10
14.7140212537
 20
15.8890155962
 10
14.7173888089
 20
15.888396395
 10
14.7206280724
 20
15.8876336321
 10
14.7237298829
 20
15.8867378289
 10
14.7267155159
 20
15.8857093398
 10
14.7295758625
 20
15.8845554656
 10
14.7323012877
 20
15.8832845859
 10
14.7349080629
 20
15.8818918139
 10
14.7373874015
 20
15.8803832478
 10
14.739724703
 20
15.87876966
 10
14.7419224586
 20
15.8770497715
 10
14.7439709788
 20
15.8752297799
 10
14.7458608172
 20
15.8733206655
 10
14.7475931217
 20
15.8713239024
 10
14.7491646247
 20
15.8692412563
 10
14.7505651322
 20
15.8670833812
 10
14.7517917385
 20
15.8648624641
 10
14.7528464197
 20
15.862583996
 10
14.7537304828
 20
15.8602481097
 10
14.754443903
 20
15.857854556
 10
14.7549898481
 20
15.8554054762
 10
14.7553714502
 20
15.8528970201
 10
14.7555886129
 20
15.8503192545
 10
14.7556371043
 20
15.8476729733
 10
14.7555144833
 20
15.844960305
 10
14.7552174558
 20
15.8421756124
 10
14.754741523
 20
15.839321909
 10
14.7545466576
 20
15.8383765157
  0
LINE
  5
265
100
AcDbEntity
  8
0
100
AcDbLine
 62
7
  6
CONTINUOUS
 10
17.7539001614
 20
16.0734777492
 11
17.7535857586
 21
16.0769302414
  0
LWPOLYLINE
  5
266
100
AcDbEntity
  8
0
100
AcDbPolyline
 62
7
  6
CONTINUOUS
 90
24
 70
0
 10
17.9821208114
 20
16.6276485808
 10
17.9820344886
 20
16.6302749612
 10
17.9817575623
 20
16.6330269567
 10
17.9812911162
 20
16.6357532468
 10
17.9806373792
 20
16.6384407918
 10
17.9797994758
 20
16.6410767406
 10
17.9787814108
 20
16.6436484896
 10
17.9775880524
 20
16.6461437383
 10
17.9762251059
 20
16.6485505553
 10
17.9746990875
 20
16.6508574322
 10
17.9730172954
 20
16.6530533356
 10
17.9711877715
 20
16.655127765
 10
17.9692192631
 20
16.6570708023
 10
17.9671211839
 20
16.6588731556
 10
17.9649035665
 20
16.6605262068
 10
17.9625770141
 20
16.6620220526
 10
17.9601526506
 20
16.6633535408
 10
17.9576420683
 20
16.6645143051
 10
17.9550572715
 20
16.6654987953
 10
17.9524106188
 20
16.6663023044
 10
17.9497147652
 20
16.6669209903
 10
17.9469826009
 20
16.6673518948
 10
17.944227189
 20
16.6675929574
 10
17.9421207212
 20
16.667648456
  0
LINE
  5
267
100
AcDbEntity
  8
0
100
AcDbLine
 62
7
  6
CONTINUOUS
 10
18.2721230935
 20
1.6829254514
 11
18.2721230935
 21
1.1529254514
  0
LINE
  5
268
100
AcDbEntity
  8
0
100
AcDbLine
 62
7
  6
CONTINUOUS
 10
18.4321230935
 20
1.0329254514
 11
18.4321230935
 21
0.8929254514
  0
LINE
  5
269
100
AcDbEntity
  8
0
100
AcDbLine
 62
7
  6
CONTINUOUS
 10
10.0221208556
 20
16.6676301678
 11
17.9421207212
 21
16.6676486305
  0
LWPOLYLINE
  5
26A
100
AcDbEntity
  8
0
100
AcDbPolyline
 62
7
  6
CONTINUOUS
 90
26
 70
0
 10
17.7535857586
 20
16.0769302414
 10
17.7530652258
 20
16.0803750661
 10
17.7523358494
 20
16.0838038346
 10
17.7513962427
 20
16.0872004961
 10
17.7502487951
 20
16.0905496136
 10
17.7488943419
 20
16.0938419937
 10
17.7473350291
 20
16.0970635008
 10
17.7455758675
 20
16.1001989466
 10
17.7436218464
 20
16.1032363846
 10
17.7414793142
 20
16.1061616654
 10
17.7391554838
 20
16.1089618485
 10
17.7366572908
 20
16.1116273501
 10
17.7339921386
 20
16.1141480976
 10
17.7311703074
 20
16.1165118231
 10
17.7282035666
 20
16.118707926
 10
17.725100733
 20
16.1207294032
 10
17.7218733907
 20
16.1225676219
 10
17.7185382169
 20
16.1242123181
 10
17.7151039277
 20
16.1256589226
 10
17.711580416
 20
16.1269025822
 10
17.7079857695
 20
16.1279365659
 10
17.7043316631
 20
16.1287576408
 10
17.7006287319
 20
16.1293634053
 10
17.6968945134
 20
16.1297508084
 10
17.6931432092
 20
16.1299181524
 10
17.6921648214
 20
16.1299254498
  0
LINE
  5
26B
100
AcDbEntity
  8
0
100
AcDbLine
 62
7
  6
CONTINUOUS
 10
17.7287162263
 20
14.9060791704
 11
17.723464859
 21
14.9180928514
  0
LINE
  5
26C
100
AcDbEntity
  8
0
100
AcDbLine
 62
7
  6
CONTINUOUS
 10
17.723464859
 20
14.9180928514
 11
17.7193707803
 21
14.9275870843
  0
LINE
  5
26D
100
AcDbEntity
  8
0
100
AcDbLine
 62
7
  6
CONTINUOUS
 10
17.7193707803
 20
14.9275870843
 11
17.7141479545
 21
14.9398711519
  0
LWPOLYLINE
  5
26E
100
AcDbEntity
  8
0
100
AcDbPolyline
 62
7
  6
CONTINUOUS
 90
38
 70
0
 10
17.7141479545
 20
14.9398711519
 10
17.7078507253
 20
14.954953637
 10
17.7043210043
 20
14.9635454327
 10
17.7005523805
 20
14.9728342137
 10
17.6965561719
 20
14.9828208992
 10
17.6923441343
 20
14.9935069085
 10
17.6879337358
 20
15.0048829104
 10
17.6833465148
 20
15.0169303996
 10
17.6785992633
 20
15.0296450196
 10
17.6737127093
 20
15.0430149
 10
17.6687170584
 20
15.0570025454
 10
17.6636337652
 20
15.0715957814
 10
17.658485457
 20
15.0867806761
 10
17.6533065229
 20
15.1025080585
 10
17.6481196525
 20
15.1187633553
 10
17.6429494797
 20
15.1355263844
 10
17.637834244
 20
15.1527299926
 10
17.6327973655
 20
15.1703517073
 10
17.6278617834
 20
15.188369582
 10
17.6230638673
 20
15.2067077078
 10
17.6184274462
 20
15.2253271945
 10
17.6139688557
 20
15.2442139768
 10
17.6097108907
 20
15.2633237002
 10
17.6056731483
 20
15.2826188617
 10
17.6018684835
 20
15.3020831294
 10
17.5983080317
 20
15.3217030172
 10
17.5950050304
 20
15.3414520166
 10
17.5919718916
 20
15.3613042936
 10
17.5892172628
 20
15.3812479906
 10
17.5867489251
 20
15.4012561521
 10
17.584573522
 20
15.4213029355
 10
17.5826957914
 20
15.4413776274
 10
17.5811217386
 20
15.4614548166
 10
17.5798542269
 20
15.4815098083
 10
17.5788915139
 20
15.5015317894
 10
17.5782324871
 20
15.5214985005
 10
17.5778760554
 20
15.5413764252
 10
17.5778055785
 20
15.5549254436
  0
LINE
  5
26F
100
AcDbEntity
  8
0
100
AcDbLine
 62
7
  6
CONTINUOUS
 10
17.7290838348
 20
14.8966681848
 11
17.731220485
 21
14.8919254514
  0
LINE
  5
270
100
AcDbEntity
  8
0
100
AcDbLine
 62
7
  6
CONTINUOUS
 10
17.7235417114
 20
14.9091327582
 11
17.731220485
 21
14.8919254514
  0
LINE
  5
271
100
AcDbEntity
  8
0
100
AcDbLine
 62
7
  6
CONTINUOUS
 10
17.7287162249
 20
14.9060791734
 11
17.728146268
 21
14.907373238
  0
ARC
  5
272
100
AcDbEntity
  8
0
100
AcDbCircle
 62
7
  6
CONTINUOUS
 10
5.8856588336
 20
10.6994369819
 40
2.575
100
AcDbArc
 50
78.0
 51
168.0
  0
ARC
  5
273
100
AcDbEntity
  8
0
100
AcDbCircle
 62
7
  6
CONTINUOUS
 10
5.8856588336
 20
10.6994369819
 40
0.825
100
AcDbArc
 50
78.0
 51
168.0
  0
ARC
  5
274
100
AcDbEntity
  8
0
100
AcDbCircle
 62
7
  6
CONTINUOUS
 10
3.1086668127
 20
10.7171941246
 40
0.06
100
AcDbArc
 50
78.0
 51
168.0
  0
ARC
  5
275
100
AcDbEntity
  8
0
100
AcDbCircle
 62
7
  6
CONTINUOUS
 10
5.1040879182
 20
10.2930542753
 40
0.06
100
AcDbArc
 50
348.0
 51
78.0
  0
ARC
  5
276
100
AcDbEntity
  8
0
100
AcDbCircle
 62
7
  6
CONTINUOUS
 10
3.0920338775
 20
10.6389423165
 40
0.06
100
AcDbArc
 50
168.0
 51
258.0
  0
ARC
  5
277
100
AcDbEntity
  8
0
100
AcDbCircle
 62
7
  6
CONTINUOUS
 10
5.087454983
 20
10.2148024672
 40
0.06
100
AcDbArc
 50
258.0
 51
348.0
  0
ARC
  5
278
100
AcDbEntity
  8
0
100
AcDbCircle
 62
7
  6
CONTINUOUS
 10
5.0625055801
 20
10.0974247551
 40
0.06
100
AcDbArc
 50
78.0
 51
168.0
  0
ARC
  5
279
100
AcDbEntity
  8
0
100
AcDbCircle
 62
7
  6
CONTINUOUS
 10
3.0670844746
 20
10.5215646044
 40
0.06
100
AcDbArc
 50
348.0
 51
78.0
  0
ARC
  5
27A
100
AcDbEntity
  8
0
100
AcDbCircle
 62
7
  6
CONTINUOUS
 10
4.8587521231
 20
9.1388401064
 40
0.06
100
AcDbArc
 50
168.0
 51
258.0
  0
ARC
  5
27B
100
AcDbEntity
  8
0
100
AcDbCircle
 62
7
  6
CONTINUOUS
 10
2.8633310176
 20
9.5629799557
 40
0.06
100
AcDbArc
 50
258.0
 51
348.0
  0
ARC
  5
27C
100
AcDbEntity
  8
0
100
AcDbCircle
 62
7
  6
CONTINUOUS
 10
2.8383816147
 20
9.4456022436
 40
0.06
100
AcDbArc
 50
78.0
 51
168.0
  0
ARC
  5
27D
100
AcDbEntity
  8
0
100
AcDbCircle
 62
7
  6
CONTINUOUS
 10
4.8338027202
 20
9.0214623943
 40
0.06
100
AcDbArc
 50
348.0
 51
78.0
  0
ARC
  5
27E
100
AcDbEntity
  8
0
100
AcDbCircle
 62
7
  6
CONTINUOUS
 10
2.8217486794
 20
9.3673504355
 40
0.06
100
AcDbArc
 50
168.0
 51
258.0
  0
ARC
  5
27F
100
AcDbEntity
  8
0
100
AcDbCircle
 62
7
  6
CONTINUOUS
 10
4.8171697849
 20
8.9432105863
 40
0.06
100
AcDbArc
 50
258.0
 51
348.0
  0
ARC
  5
280
100
AcDbEntity
  8
0
100
AcDbCircle
 62
7
  6
CONTINUOUS
 10
10.0221233733
 20
15.5876301678
 40
0.04
100
AcDbArc
 50
180.0001335656
 51
270.0001335656
  0
ARC
  5
281
100
AcDbEntity
  8
0
100
AcDbCircle
 62
7
  6
CONTINUOUS
 10
10.0221209489
 20
16.6276301678
 40
0.04
100
AcDbArc
 50
90.0001335656
 51
180.0001335656
  0
ARC
  5
282
100
AcDbEntity
  8
0
100
AcDbCircle
 62
7
  6
CONTINUOUS
 10
18.2121230935
 20
1.6829254514
 40
0.06
100
AcDbArc
 50
0.0
 51
90.0
  0
ARC
  5
283
100
AcDbEntity
  8
0
100
AcDbCircle
 62
7
  6
CONTINUOUS
 10
14.1521230935
 20
1.6829254514
 40
0.06
100
AcDbArc
 50
90.0
 51
180.0
  0
ARC
  5
284
100
AcDbEntity
  8
0
100
AcDbCircle
 62
7
  6
CONTINUOUS
 10
18.3321230935
 20
1.1529254514
 40
0.06
100
AcDbArc
 50
180.0
 51
270.0
  0
ARC
  5
285
100
AcDbEntity
  8
0
100
AcDbCircle
 62
7
  6
CONTINUOUS
 10
14.0321230935
 20
1.1529254514
 40
0.06
100
AcDbArc
 50
270.0
 51
360.0
  0
ARC
  5
286
100
AcDbEntity
  8
0
100
AcDbCircle
 62
7
  6
CONTINUOUS
 10
18.3721230935
 20
1.0329254514
 40
0.06
100
AcDbArc
 50
0.0
 51
90.0
  0
ARC
  5
287
100
AcDbEntity
  8
0
100
AcDbCircle
 62
7
  6
CONTINUOUS
 10
13.9921230935
 20
1.0329254514
 40
0.06
100
AcDbArc
 50
90.0
 51
180.0
  0
ARC
  5
288
100
AcDbEntity
  8
0
100
AcDbCircle
 62
7
  6
CONTINUOUS
 10
12.523541432
 20
16.4187373292
 40
2.3142742526
100
AcDbArc
 50
335.9961986229
 51
336.2586112109
  0
ARC
  5
289
100
AcDbEntity
  8
0
100
AcDbCircle
 62
7
  6
CONTINUOUS
 10
13.0573675481
 20
16.1345904316
 40
1.5563803021
100
AcDbArc
 50
353.185786392
 51
353.343290162
  0
ARC
  5
28A
100
AcDbEntity
  8
0
100
AcDbCircle
 62
7
  6
CONTINUOUS
 10
13.0890539613
 20
16.1312767951
 40
1.5245234323
100
AcDbArc
 50
353.3289410277
 51
357.6936251168
  0
ARC
  5
28B
100
AcDbEntity
  8
0
100
AcDbCircle
 62
7
  6
CONTINUOUS
 10
14.4221230935
 20
9.3347853518
 40
0.16
100
AcDbArc
 50
0.0
 51
78.0000000001
  0
ARC
  5
28C
100
AcDbEntity
  8
0
100
AcDbCircle
 62
7
  6
CONTINUOUS
 10
14.4221230935
 20
11.9110836508
 40
0.16
100
AcDbArc
 50
257.9999999992
 51
360.0
  0
ARC
  5
28D
100
AcDbEntity
  8
0
100
AcDbCircle
 62
7
  6
CONTINUOUS
 10
13.5851897203
 20
9.8398300223
 40
0.16
100
AcDbArc
 50
168.0
 51
258.0
  0
ARC
  5
28E
100
AcDbEntity
  8
0
100
AcDbCircle
 62
7
  6
CONTINUOUS
 10
13.976063699
 20
11.6787475117
 40
0.16
100
AcDbArc
 50
78.0
 51
168.0
  0
ARC
  5
28F
100
AcDbEntity
  8
0
100
AcDbCircle
 62
7
  6
CONTINUOUS
 10
17.6892036088
 20
16.0699174546
 40
0.0614974601
100
AcDbArc
 50
0.0074505135
 51
6.4379391308
  0
ARC
  5
290
100
AcDbEntity
  8
0
100
AcDbCircle
 62
7
  6
CONTINUOUS
 10
17.6895939947
 20
15.9499263005
 40
0.0611070736
100
AcDbArc
 50
356.7835833376
 51
359.9992038724
  0
ARC
  5
291
100
AcDbEntity
  8
0
100
AcDbCircle
 62
7
  6
CONTINUOUS
 10
14.6733799043
 20
16.0691279966
 40
0.0610427
100
AcDbArc
 50
177.9109083425
 51
179.2514732525
  0
ARC
  5
292
100
AcDbEntity
  8
0
100
AcDbCircle
 62
7
  6
CONTINUOUS
 10
17.7221230935
 20
13.5289254514
 40
0.06
100
AcDbArc
 50
0.0
 51
90.0
  0
ARC
  5
293
100
AcDbEntity
  8
0
100
AcDbCircle
 62
7
  6
CONTINUOUS
 10
14.6421230935
 20
13.5289254514
 40
0.06
100
AcDbArc
 50
90.0
 51
180.0
  0
ARC
  5
294
100
AcDbEntity
  8
0
100
AcDbCircle
 62
7
  6
CONTINUOUS
 10
17.7921230935
 20
13.9419254514
 40
0.06
100
AcDbArc
 50
180.0
 51
270.0
  0
ARC
  5
295
100
AcDbEntity
  8
0
100
AcDbCircle
 62
7
  6
CONTINUOUS
 10
14.5721230935
 20
13.9419254514
 40
0.06
100
AcDbArc
 50
270.0
 51
360.0
  0
ARC
  5
296
100
AcDbEntity
  8
0
100
AcDbCircle
 62
7
  6
CONTINUOUS
 10
17.8321230935
 20
13.8219254514
 40
0.06
100
AcDbArc
 50
0.0
 51
90.0
  0
ARC
  5
297
100
AcDbEntity
  8
0
100
AcDbCircle
 62
7
  6
CONTINUOUS
 10
14.5321230935
 20
13.8219254514
 40
0.06
100
AcDbArc
 50
90.0
 51
180.0
  0
ARC
  5
298
100
AcDbEntity
  8
0
100
AcDbCircle
 62
7
  6
CONTINUOUS
 10
17.8321230935
 20
13.7019254514
 40
0.06
100
AcDbArc
 50
270.0
 51
360.0
  0
ARC
  5
299
100
AcDbEntity
  8
0
100
AcDbCircle
 62
7
  6
CONTINUOUS
 10
14.5321230935
 20
13.7019254514
 40
0.06
100
AcDbArc
 50
180.0
 51
270.0
  0
ARC
  5
29A
100
AcDbEntity
  8
0
100
AcDbCircle
 62
7
  6
CONTINUOUS
 10
17.6921708742
 20
16.0728581867
 40
0.0570674205
100
AcDbArc
 50
86.2367765855
 51
87.5264085412
  0
ARC
  5
29B
100
AcDbEntity
  8
0
100
AcDbCircle
 62
7
  6
CONTINUOUS
 10
14.6588772294
 20
15.9468300364
 40
0.0569045255
100
AcDbArc
 50
265.8962324671
 51
269.9986190313
  0
ARC
  5
29C
100
AcDbEntity
  8
0
100
AcDbCircle
 62
7
  6
CONTINUOUS
 10
17.6921789046
 20
16.0730629668
 40
0.0568624847
100
AcDbArc
 50
87.5255871038
 51
89.9978489051
  0
ARC
  5
29D
100
AcDbEntity
  8
0
100
AcDbCircle
 62
7
  6
CONTINUOUS
 10
17.6921230935
 20
14.8899254514
 40
0.04
100
AcDbArc
 50
2.8659839826
 51
23.8186421729
  0
ARC
  5
29E
100
AcDbEntity
  8
0
100
AcDbCircle
 62
7
  6
CONTINUOUS
 10
14.6721230935
 20
15.4649254514
 40
0.04
100
AcDbArc
 50
156.1836169345
 51
180.0
  0
SPLINE
  5
29F
100
AcDbEntity
  8
0
100
AcDbSpline
 62
7
  6
CONTINUOUS
 70
0
 71
3
 72
125
 73
121
 74
0
 42
0.0000001
 43
0.0000001
 44
0.0000000001
 40
0.0
 40
0.0
 40
0.0
 40
0.0
 40
0.0000027587
 40
0.0000061761
 40
0.0000109519
 40
0.0000245765
 40
0.0000436295
 40
0.0000681079
 40
0.0000980086
 40
0.0001333285
 40
0.0001740645
 40
0.0002717728
 40
0.0003911089
 40
0.0005320485
 40
0.0006945671
 40
0.0008786402
 40
0.0010842434
 40
0.0015599423
 40
0.0021214687
 40
0.0027685881
 40
0.0035009315
 40
0.0043181009
 40
0.0052196984
 40
0.0062053262
 40
0.0084270805
 40
0.0109797682
 40
0.0138581321
 40
0.0170565035
 40
0.0205692145
 40
0.0243902274
 40
0.0285130112
 40
0.0329310124
 40
0.0426257878
 40
0.0534170883
 40
0.0652460005
 40
0.0780540259
 40
0.0917835946
 40
0.1063792116
 40
0.1217871836
 40
0.1379567141
 40
0.154839787
 40
0.172392196
 40
0.1905732158
 40
0.2093433933
 40
0.2286668912
 40
0.2485085078
 40
0.2688358797
 40
0.2896129492
 40
0.3108050479
 40
0.3215446062
 40
0.3323729813
 40
0.3432837421
 40
0.3542701933
 40
0.3764431076
 40
0.3876169901
 40
0.3988384365
 40
0.4100994025
 40
0.4213916427
 40
0.4440364058
 40
0.4553761819
 40
0.4667164295
 40
0.4780509409
 40
0.4893732508
 40
0.5119555985
 40
0.5344266963
 40
0.5567527462
 40
0.5789075557
 40
0.6008688947
 40
0.6117716131
 40
0.6226183027
 40
0.665401724
 40
0.6864043016
 40
0.7071209159
 40
0.7275299387
 40
0.7476067777
 40
0.7673246462
 40
0.7866534723
 40
0.8055574264
 40
0.8239984456
 40
0.8419317963
 40
0.8593066038
 40
0.8760678933
 40
0.8921501909
 40
0.907484037
 40
0.921988843
 40
0.9355782432
 40
0.9481562263
 40
0.9540344146
 40
0.9596211714
 40
0.9649028441
 40
0.9698657716
 40
0.9744962883
 40
0.9787807277
 40
0.9827054183
 40
0.9862570866
 40
0.9894239926
 40
0.9921947608
 40
0.9934280757
 40
0.9945584287
 40
0.9955848111
 40
0.9965062147
 40
0.9973216313
 40
0.9980300522
 40
0.9986305358
 40
0.9988901336
 40
0.9991225821
 40
0.9993278412
 40
0.999505871
 40
0.9996566317
 40
0.9997800833
 40
0.9998315557
 40
0.9998761859
 40
0.9999139688
 40
0.9999448994
 40
0.9999689729
 40
0.9999861841
 40
0.9999922148
 40
0.9999965281
 40
0.9999991234
 40
1.0
 40
1.0
 40
1.0
 40
1.0
 10
14.455388964
 20
9.4912889679
 30
0.0
 10
14.4553910639
 20
9.4912900095
 30
0.0
 10
14.455393894
 20
9.4912948683
 30
0.0
 10
14.4554006424
 20
9.4913011336
 30
0.0
 10
14.455413078
 20
9.4913149792
 30
0.0
 10
14.4554349552
 20
9.4913380218
 30
0.0
 10
14.4554679946
 20
9.4913736497
 30
0.0
 10
14.4555105587
 20
9.4914192583
 30
0.0
 10
14.4555624859
 20
9.4914750523
 30
0.0
 10
14.4556238238
 20
9.4915409524
 30
0.0
 10
14.45572438
 20
9.4916490621
 30
0.0
 10
14.4558734982
 20
9.4918094956
 30
0.0
 10
14.4560804796
 20
9.4920323875
 30
0.0
 10
14.4563248195
 20
9.4922957377
 30
0.0
 10
14.4566064425
 20
9.4925995314
 30
0.0
 10
14.4569252739
 20
9.4929437527
 30
0.0
 10
14.457424707
 20
9.4934834096
 30
0.0
 10
14.4581414766
 20
9.4942589153
 30
0.0
 10
14.4591120178
 20
9.4953107159
 30
0.0
 10
14.4602294603
 20
9.496523684
 30
0.0
 10
14.4614931232
 20
9.4978972886
 30
0.0
 10
14.4629022174
 20
9.4994309097
 30
0.0
 10
14.4644559438
 20
9.5011239028
 30
0.0
 10
14.4668152364
 20
9.5036974671
 30
0.0
 10
14.470119703
 20
9.5073077636
 30
0.0
 10
14.4745053766
 20
9.5121086215
 30
0.0
 10
14.4794422292
 20
9.5175299003
 30
0.0
 10
14.4849164399
 20
9.5235650835
 30
0.0
 10
14.4909136419
 20
9.5302072219
 30
0.0
 10
14.4974189752
 20
9.5374487845
 30
0.0
 10
14.5044170705
 20
9.5452816489
 30
0.0
 10
14.5147067682
 20
9.556866234
 30
0.0
 10
14.5286852814
 20
9.5727527715
 30
0.0
 10
14.5466706172
 20
9.5935004024
 30
0.0
 10
14.5661935538
 20
9.6164147124
 30
0.0
 10
14.5870892484
 20
9.6414374378
 30
0.0
 10
14.6091933312
 20
9.6685112907
 30
0.0
 10
14.6323276393
 20
9.6975924377
 30
0.0
 10
14.6563165948
 20
9.7286383949
 30
0.0
 10
14.6809608442
 20
9.7616280498
 30
0.0
 10
14.706062359
 20
9.7965423737
 30
0.0
 10
14.731407947
 20
9.8333754726
 30
0.0
 10
14.7567866282
 20
9.8721188641
 30
0.0
 10
14.7819442546
 20
9.9127886211
 30
0.0
 10
14.8066092947
 20
9.9553995928
 30
0.0
 10
14.8304926647
 20
9.999962881
 30
0.0
 10
14.8532937416
 20
10.0464722366
 30
0.0
 10
14.8746580386
 20
10.0949188398
 30
0.0
 10
14.8908750668
 20
10.1366850116
 30
0.0
 10
14.9027852768
 20
10.1710134168
 30
0.0
 10
14.9111671891
 20
10.19730971
 30
0.0
 10
14.9189119951
 20
10.2240195793
 30
0.0
 10
14.9283555778
 20
10.2602586778
 30
0.0
 10
14.9362916792
 20
10.2971083208
 30
0.0
 10
14.9426362678
 20
10.3344463742
 30
0.0
 10
14.9465863004
 20
10.3627740699
 30
0.0
 10
14.9496969245
 20
10.3913073969
 30
0.0
 10
14.9527071838
 20
10.4295979311
 30
0.0
 10
14.953967256
 20
10.4680760397
 30
0.0
 10
14.9535286766
 20
10.5065893721
 30
0.0
 10
14.9523602484
 20
10.5354716893
 30
0.0
 10
14.9503772722
 20
10.5642942097
 30
0.0
 10
14.9466833913
 20
10.6025595495
 30
0.0
 10
14.9401600498
 20
10.6500388361
 30
0.0
 10
14.9295645052
 20
10.706322431
 30
0.0
 10
14.9165053886
 20
10.7617099841
 30
0.0
 10
14.9012903167
 20
10.8160908718
 30
0.0
 10
14.8870190353
 20
10.860619011
 30
0.0
 10
14.8747950185
 20
10.8956916368
 30
0.0
 10
14.8559316923
 20
10.947179077
 30
0.0
 10
14.8318970816
 20
11.0059043873
 30
0.0
 10
14.802312238
 20
11.0713300715
 30
0.0
 10
14.7795187875
 20
11.1189499077
 30
0.0
 10
14.7561643798
 20
11.1654166676
 30
0.0
 10
14.7323985958
 20
11.2107178318
 30
0.0
 10
14.7083622158
 20
11.2548329118
 30
0.0
 10
14.6841992631
 20
11.2977381976
 30
0.0
 10
14.6600345798
 20
11.3393925308
 30
0.0
 10
14.6360007623
 20
11.3797481193
 30
0.0
 10
14.6122275343
 20
11.4187435912
 30
0.0
 10
14.5888436171
 20
11.4563023736
 30
0.0
 10
14.5659873576
 20
11.4923350119
 30
0.0
 10
14.5437968186
 20
11.5267347637
 30
0.0
 10
14.5224221506
 20
11.5593780196
 30
0.0
 10
14.5020185037
 20
11.5901243089
 30
0.0
 10
14.4827526603
 20
11.6188146545
 30
0.0
 10
14.4674636438
 20
11.6413458205
 30
0.0
 10
14.455937863
 20
11.6582129229
 30
0.0
 10
14.447886486
 20
11.6699453922
 30
0.0
 10
14.4402544433
 20
11.6810224043
 30
0.0
 10
14.4330653253
 20
11.691417877
 30
0.0
 10
14.4263426775
 20
11.701105701
 30
0.0
 10
14.4201099655
 20
11.7100597195
 30
0.0
 10
14.4143904486
 20
11.7182540536
 30
0.0
 10
14.4092064713
 20
11.7256641978
 30
0.0
 10
14.4045778221
 20
11.7322662499
 30
0.0
 10
14.4010752359
 20
11.7372519998
 30
0.0
 10
14.3985649343
 20
11.7408200818
 30
0.0
 10
14.3969065087
 20
11.7431752453
 30
0.0
 10
14.395399845
 20
11.7453131331
 30
0.0
 10
14.3940466643
 20
11.7472318132
 30
0.0
 10
14.3928486906
 20
11.7489293558
 30
0.0
 10
14.3918076031
 20
11.7504038688
 30
0.0
 10
14.3910387965
 20
11.7514925014
 30
0.0
 10
14.3905032407
 20
11.7522507467
 30
0.0
 10
14.3901614001
 20
11.7527346793
 30
0.0
 10
14.3898595256
 20
11.7531619885
 30
0.0
 10
14.38959768
 20
11.7535325942
 30
0.0
 10
14.3893759256
 20
11.7538464156
 30
0.0
 10
14.389216213
 20
11.7540724056
 30
0.0
 10
14.3891085334
 20
11.7542247431
 30
0.0
 10
14.3890428677
 20
11.7543176391
 30
0.0
 10
14.3889872624
 20
11.754396269
 30
0.0
 10
14.388941762
 20
11.7544606605
 30
0.0
 10
14.3889062771
 20
11.7545107033
 30
0.0
 10
14.3888831591
 20
11.7545436294
 30
0.0
 10
14.3888694873
 20
11.7545625912
 30
0.0
 10
14.3888633621
 20
11.7545718013
 30
0.0
 10
14.3888591219
 20
11.7545767699
 30
0.0
 10
14.3888578394
 20
11.7545796166
 30
0.0
 10
14.388857223
 20
11.7545800347
 30
0.0
  0
SPLINE
  5
2A0
100
AcDbEntity
  8
0
100
AcDbSpline
 62
7
  6
CONTINUOUS
 70
0
 71
3
 72
13
 73
9
 74
0
 42
0.0000001
 43
0.0000001
 44
0.0000000001
 40
0.0
 40
0.0
 40
0.0
 40
0.0
 40
0.3133885587
 40
0.5772216439
 40
0.6931456111
 40
0.8005679464
 40
0.9018873219
 40
1.0
 40
1.0
 40
1.0
 40
1.0
 10
14.6027537425
 20
15.9499254513
 30
0.0
 10
14.6022929361
 20
15.9502913543
 30
0.0
 10
14.6014806929
 20
15.9510141475
 30
0.0
 10
14.6006616339
 20
15.9520393542
 30
0.0
 10
14.6002362654
 20
15.9528522346
 30
0.0
 10
14.6000348858
 20
15.9534303176
 30
0.0
 10
14.5999387744
 20
15.9540013217
 30
0.0
 10
14.5999462567
 20
15.9543783704
 30
0.0
 10
14.5999676555
 20
15.9545613374
 30
0.0
  0
SPLINE
  5
2A1
100
AcDbEntity
  8
0
100
AcDbSpline
 62
7
  6
CONTINUOUS
 70
0
 71
3
 72
17
 73
13
 74
0
 42
0.0000001
 43
0.0000001
 44
0.0000000001
 40
0.0
 40
0.0
 40
0.0
 40
0.0
 40
0.2100524023
 40
0.3950071914
 40
0.5546095775
 40
0.6887813686
 40
0.7978854488
 40
0.8832627269
 40
0.9179891652
 40
0.9482302806
 40
0.9750573633
 40
1.0
 40
1.0
 40
1.0
 40
1.0
 10
14.6123424134
 20
16.0699254514
 30
0.0
 10
14.6120885099
 20
16.0699886344
 30
0.0
 10
14.6116125421
 20
16.0701136726
 30
0.0
 10
14.6109506964
 20
16.0703123467
 30
0.0
 10
14.6103876945
 20
16.070509567
 30
0.0
 10
14.6099247209
 20
16.0707046355
 30
0.0
 10
14.6095628478
 20
16.0708970878
 30
0.0
 10
14.6093297222
 20
16.0710654074
 30
0.0
 10
14.6092009131
 20
16.0712021824
 30
0.0
 10
14.6091367815
 20
16.0712976608
 30
0.0
 10
14.6090988271
 20
16.0713935259
 30
0.0
 10
14.609091826
 20
16.071458649
 30
0.0
 10
14.6090930612
 20
16.0714896936
 30
0.0
  0
SPLINE
  5
2A2
100
AcDbEntity
  8
0
100
AcDbSpline
 62
7
  6
CONTINUOUS
 70
0
 71
3
 72
44
 73
40
 74
0
 42
0.0000001
 43
0.0000001
 44
0.0000000001
 40
0.0
 40
0.0
 40
0.0
 40
0.0
 40
0.097243344
 40
0.1935469693
 40
0.2879820971
 40
0.379665867
 40
0.4677539566
 40
0.5514519888
 40
0.6300077699
 40
0.7027070389
 40
0.7688673687
 40
0.7992903858
 40
0.8278366619
 40
0.854429207
 40
0.8789951715
 40
0.9014630724
 40
0.9217669877
 40
0.9398435095
 40
0.9556357325
 40
0.9626588844
 40
0.9690915497
 40
0.9749286329
 40
0.9801654849
 40
0.9847974518
 40
0.9888199253
 40
0.9922293855
 40
0.9937034611
 40
0.9950233621
 40
0.9961887849
 40
0.9971994257
 40
0.9980549805
 40
0.9987551477
 40
0.9992997423
 40
0.9995136945
 40
0.9996887499
 40
0.9998249082
 40
0.9999221694
 40
0.9999805334
 40
1.0
 40
1.0
 40
1.0
 40
1.0
 10
17.8635501256
 20
16.1076463338
 30
0.0
 10
17.8635502459
 20
16.1260315698
 30
0.0
 10
17.8640752525
 20
16.1626263421
 30
0.0
 10
17.8663654151
 20
16.2170319062
 30
0.0
 10
17.8700875066
 20
16.2703047236
 30
0.0
 10
17.8750662697
 20
16.321913572
 30
0.0
 10
17.8810948025
 20
16.3713651672
 30
0.0
 10
17.8879302374
 20
16.4182037931
 30
0.0
 10
17.8953005215
 20
16.4620125832
 30
0.0
 10
17.9029230237
 20
16.5024075505
 30
0.0
 10
17.9094160745
 20
16.5337489178
 30
0.0
 10
17.9144945468
 20
16.5568551173
 30
0.0
 10
17.9180823381
 20
16.5726290618
 30
0.0
 10
17.9215231623
 20
16.5873004052
 30
0.0
 10
17.924785743
 20
16.600832868
 30
0.0
 10
17.9278388949
 20
16.6131925749
 30
0.0
 10
17.9306548112
 20
16.6243469124
 30
0.0
 10
17.93320634
 20
16.6342661438
 30
0.0
 10
17.9351619714
 20
16.6417459274
 30
0.0
 10
17.9365750613
 20
16.6470920866
 30
0.0
 10
17.9375124871
 20
16.650617169
 30
0.0
 10
17.9383676258
 20
16.6538146672
 30
0.0
 10
17.9391385529
 20
16.6566822716
 30
0.0
 10
17.9398233834
 20
16.6592177605
 30
0.0
 10
17.9404202107
 20
16.6614191427
 30
0.0
 10
17.9408620832
 20
16.6630439373
 30
0.0
 10
17.9411705388
 20
16.664175497
 30
0.0
 10
17.9413676678
 20
16.6648976557
 30
0.0
 10
17.9415419318
 20
16.6655352313
 30
0.0
 10
17.9416932026
 20
16.6660880797
 30
0.0
 10
17.9418213731
 20
16.6665560532
 30
0.0
 10
17.9419262843
 20
16.6669390366
 30
0.0
 10
17.9419992052
 20
16.6672050167
 30
0.0
 10
17.9420457738
 20
16.6673752668
 30
0.0
 10
17.9420721604
 20
16.6674710011
 30
0.0
 10
17.9420921769
 20
16.6675455537
 30
0.0
 10
17.9421076338
 20
16.6675986021
 30
0.0
 10
17.942114835
 20
16.6676308046
 30
0.0
 10
17.942120322
 20
16.6676447119
 30
0.0
 10
17.9421206362
 20
16.667648379
 30
0.0
  0
SPLINE
  5
2A3
100
AcDbEntity
  8
0
100
AcDbSpline
 62
7
  6
CONTINUOUS
 70
0
 71
3
 72
121
 73
117
 74
0
 42
0.0000001
 43
0.0000001
 44
0.0000000001
 40
0.0
 40
0.0
 40
0.0
 40
0.0
 40
0.0000028841
 40
0.000011429
 40
0.0000256308
 40
0.0000454851
 40
0.0000709879
 40
0.0001021349
 40
0.000181345
 40
0.0002830821
 40
0.0004073129
 40
0.000554004
 40
0.0007231221
 40
0.0009146338
 40
0.0011285058
 40
0.0016231971
 40
0.0022069271
 40
0.0028793708
 40
0.0036401481
 40
0.0044888767
 40
0.0054251745
 40
0.0064486595
 40
0.0087556144
 40
0.0114051466
 40
0.0143909569
 40
0.0177066569
 40
0.0213457279
 40
0.0253012292
 40
0.0295661472
 40
0.0341334315
 40
0.044143376
 40
0.0552649788
 40
0.0674329942
 40
0.0805837394
 40
0.0946535234
 40
0.1095793514
 40
0.1253025444
 40
0.1417676709
 40
0.1589216926
 40
0.1950963746
 40
0.2140292474
 40
0.2334681048
 40
0.2533721749
 40
0.2737013227
 40
0.2944177279
 40
0.3154802705
 40
0.3368481373
 40
0.34763336
 40
0.358478795
 40
0.3693788163
 40
0.380327293
 40
0.3913183675
 40
0.4023462859
 40
0.4244873069
 40
0.4355901833
 40
0.4467067848
 40
0.4578315499
 40
0.4689588058
 40
0.4911998984
 40
0.5023055321
 40
0.5133944824
 40
0.5355070889
 40
0.5575085765
 40
0.5793735098
 40
0.6010777944
 40
0.622600467
 40
0.6439212659
 40
0.6650196139
 40
0.6858759302
 40
0.7064680868
 40
0.7267730845
 40
0.7467659678
 40
0.7856974508
 40
0.8045711882
 40
0.8229975293
 40
0.8409329117
 40
0.8583261758
 40
0.8751201344
 40
0.8912513234
 40
0.9066465998
 40
0.9212267435
 40
0.9349015184
 40
0.9475741849
 40
0.9535017416
 40
0.9591388337
 40
0.9644713674
 40
0.9694850876
 40
0.9741657369
 40
0.9784991025
 40
0.9824709982
 40
0.9860673189
 40
0.9892753029
 40
0.9920832683
 40
0.9933336035
 40
0.9944797028
 40
0.9955205086
 40
0.9964549929
 40
0.9972821274
 40
0.998000884
 40
0.9986102545
 40
0.9988736984
 40
0.9991095907
 40
0.9993178907
 40
0.9994985579
 40
0.9996515517
 40
0.9997768315
 40
0.999829066
 40
0.9998743568
 40
0.9999126989
 40
0.9999440871
 40
0.9999685163
 40
0.9999859816
 40
0.9999921012
 40
0.9999964779
 40
0.999999111
 40
1.0
 40
1.0
 40
1.0
 40
1.0
 10
14.5821230935
 20
9.3347853518
 30
0.0
 10
14.5821241295
 20
9.3347878269
 30
0.0
 10
14.5821317756
 20
9.3347956289
 30
0.0
 10
14.5821447188
 20
9.3348154923
 30
0.0
 10
14.5821690709
 20
9.3348469037
 30
0.0
 10
14.5822018065
 20
9.3348915551
 30
0.0
 10
14.582244397
 20
9.3349486034
 30
0.0
 10
14.58231977
 20
9.3350500573
 30
0.0
 10
14.5824375963
 20
9.3352083441
 30
0.0
 10
14.5826071041
 20
9.3354361091
 30
0.0
 10
14.5828141654
 20
9.3357141887
 30
0.0
 10
14.583058706
 20
9.3360425166
 30
0.0
 10
14.5833406934
 20
9.3364210028
 30
0.0
 10
14.5836600805
 20
9.3368495657
 30
0.0
 10
14.5841605581
 20
9.3375209291
 30
0.0
 10
14.5848793174
 20
9.3384847032
 30
0.0
 10
14.5858535064
 20
9.3397901923
 30
0.0
 10
14.5869758553
 20
9.3412940009
 30
0.0
 10
14.5882452443
 20
9.3429957023
 30
0.0
 10
14.5896605982
 20
9.3448947699
 30
0.0
 10
14.5912208103
 20
9.3469906975
 30
0.0
 10
14.5935889703
 20
9.3501764581
 30
0.0
 10
14.5969026978
 20
9.3546453627
 30
0.0
 10
14.6012937515
 20
9.3605881919
 30
0.0
 10
14.6062307608
 20
9.3672944807
 30
0.0
 10
14.6117000673
 20
9.3747520627
 30
0.0
 10
14.6176873939
 20
9.382948472
 30
0.0
 10
14.624175217
 20
9.3918728675
 30
0.0
 10
14.6311459329
 20
9.4015138056
 30
0.0
 10
14.6413767211
 20
9.4157483528
 30
0.0
 10
14.6552379425
 20
9.4352292576
 30
0.0
 10
14.6730240582
 20
9.4605953347
 30
0.0
 10
14.6922645193
 20
9.4885092716
 30
0.0
 10
14.7127793262
 20
9.5188743848
 30
0.0
 10
14.7343862621
 20
9.5515956347
 30
0.0
 10
14.756903697
 20
9.5865805442
 30
0.0
 10
14.7801353801
 20
9.623751669
 30
0.0
 10
14.8038840345
 20
9.6630391674
 30
0.0
 10
14.8365460871
 20
9.7191609365
 30
0.0
 10
14.8687319334
 20
9.7782098031
 30
0.0
 10
14.8998557608
 20
9.8401941396
 30
0.0
 10
14.9229587444
 20
9.8892492027
 30
0.0
 10
14.9452202279
 20
9.9401143713
 30
0.0
 10
14.9663732629
 20
9.9927356457
 30
0.0
 10
14.9861359527
 20
10.04704525
 30
0.0
 10
15.0042399988
 20
10.1029483127
 30
0.0
 10
15.0176748123
 20
10.150614393
 30
0.0
 10
15.0273490141
 20
10.1894329612
 30
0.0
 10
15.0340482179
 20
10.2189494195
 30
0.0
 10
15.0401422334
 20
10.2487517551
 30
0.0
 10
15.0456110236
 20
10.2788129107
 30
0.0
 10
15.050432426
 20
10.3091054854
 30
0.0
 10
15.0559784646
 20
10.3498160723
 30
0.0
 10
15.060158782
 20
10.3908085041
 30
0.0
 10
15.0629388798
 20
10.4319880558
 30
0.0
 10
15.0643288611
 20
10.4629813093
 30
0.0
 10
15.0650273642
 20
10.4940204627
 30
0.0
 10
15.0650417998
 20
10.5354170386
 30
0.0
 10
15.0637038915
 20
10.5767866362
 30
0.0
 10
15.0610710037
 20
10.6180454858
 30
0.0
 10
15.0576005911
 20
10.6591227353
 30
0.0
 10
15.0517547705
 20
10.7101608215
 30
0.0
 10
15.0425046048
 20
10.7708560752
 30
0.0
 10
15.0312327874
 20
10.8308205933
 30
0.0
 10
15.0181506096
 20
10.8899582609
 30
0.0
 10
15.0034632125
 20
10.9481942796
 30
0.0
 10
14.9873762516
 20
11.0054725213
 30
0.0
 10
14.970080208
 20
11.061747917
 30
0.0
 10
14.9517508642
 20
11.1169804501
 30
0.0
 10
14.9325633851
 20
11.171137461
 30
0.0
 10
14.9126668671
 20
11.22418036
 30
0.0
 10
14.8856379852
 20
11.2927594106
 30
0.0
 10
14.8575930154
 20
11.3594961659
 30
0.0
 10
14.8288955866
 20
11.4243535533
 30
0.0
 10
14.807572584
 20
11.4711101338
 30
0.0
 10
14.7863577945
 20
11.5163989757
 30
0.0
 10
14.7653815823
 20
11.5601201112
 30
0.0
 10
14.744777261
 20
11.602155964
 30
0.0
 10
14.7246858253
 20
11.6423715515
 30
0.0
 10
14.7052521543
 20
11.6806121838
 30
0.0
 10
14.6866319188
 20
11.716701773
 30
0.0
 10
14.6689867613
 20
11.7504434928
 30
0.0
 10
14.6549420677
 20
11.7769834284
 30
0.0
 10
14.6443289367
 20
11.7968787282
 30
0.0
 10
14.636902026
 20
11.8107339291
 30
0.0
 10
14.6298522361
 20
11.8238266227
 30
0.0
 10
14.6232030365
 20
11.8361243727
 30
0.0
 10
14.6169780912
 20
11.8475947434
 30
0.0
 10
14.6112002073
 20
11.8582049267
 30
0.0
 10
14.6058917216
 20
11.8679220331
 30
0.0
 10
14.6010744212
 20
11.8767144228
 30
0.0
 10
14.5967688283
 20
11.8845524305
 30
0.0
 10
14.5935084358
 20
11.8904743857
 30
0.0
 10
14.5911708071
 20
11.8947145971
 30
0.0
 10
14.5896260858
 20
11.8975145786
 30
0.0
 10
14.5882225613
 20
11.9000568542
 30
0.0
 10
14.5869618216
 20
11.902338991
 30
0.0
 10
14.5858454367
 20
11.904358578
 30
0.0
 10
14.5848749643
 20
11.906113218
 30
0.0
 10
14.5841580571
 20
11.9074088063
 30
0.0
 10
14.5836585331
 20
11.9083112627
 30
0.0
 10
14.5833396614
 20
11.9088872319
 30
0.0
 10
14.5830580489
 20
11.9093958035
 30
0.0
 10
14.5828137629
 20
11.9098368852
 30
0.0
 10
14.5826068712
 20
11.9102103851
 30
0.0
 10
14.5824578592
 20
11.9104793528
 30
0.0
 10
14.5823574008
 20
11.9106606686
 30
0.0
 10
14.5822961353
 20
11.9107712332
 30
0.0
 10
14.5822442808
 20
11.9108648376
 30
0.0
 10
14.5822017999
 20
11.9109414535
 30
0.0
 10
14.5821688232
 20
11.9110011141
 30
0.0
 10
14.5821470471
 20
11.9110401417
 30
0.0
 10
14.5821346252
 20
11.9110629657
 30
0.0
 10
14.5821284195
 20
11.911073547
 30
0.0
 10
14.582125384
 20
11.9110801684
 30
0.0
 10
14.5821232625
 20
11.9110828412
 30
0.0
 10
14.5821230935
 20
11.9110836508
 30
0.0
  0
SPLINE
  5
2A4
100
AcDbEntity
  8
0
100
AcDbSpline
 62
7
  6
CONTINUOUS
 70
0
 71
3
 72
12
 73
8
 74
0
 42
0.0000001
 43
0.0000001
 44
0.0000000001
 40
0.0
 40
0.0
 40
0.0
 40
0.0
 40
0.1742578192
 40
0.3375400843
 40
0.6249723452
 40
0.8499380865
 40
1.0
 40
1.0
 40
1.0
 40
1.0
 10
14.7568627986
 20
15.8299254514
 30
0.0
 10
14.7523069496
 20
15.8093843557
 30
0.0
 10
14.7426567303
 20
15.7697740861
 30
0.0
 10
14.7220390784
 20
15.6971715099
 30
0.0
 10
14.6960493805
 20
15.6197861132
 30
0.0
 10
14.6670085591
 20
15.5452375718
 30
0.0
 10
14.6492580324
 20
15.5035748618
 30
0.0
 10
14.6419632813
 20
15.4869894101
 30
0.0
  0
SPLINE
  5
2A5
100
AcDbEntity
  8
0
100
AcDbSpline
 62
7
  6
CONTINUOUS
 70
0
 71
3
 72
15
 73
11
 74
0
 42
0.0000001
 43
0.0000001
 44
0.0000000001
 40
0.0
 40
0.0
 40
0.0
 40
0.0
 40
0.122611694
 40
0.2457091035
 40
0.369541279
 40
0.4942428586
 40
0.61981584
 40
0.7461413156
 40
0.8729610923
 40
1.0
 40
1.0
 40
1.0
 40
1.0
 10
14.6715354595
 20
16.1299254514
 30
0.0
 10
14.6677824519
 20
16.1299253757
 30
0.0
 10
14.6602408083
 20
16.1291772547
 30
0.0
 10
14.6493544847
 20
16.1258607412
 30
0.0
 10
14.6392562732
 20
16.1204690705
 30
0.0
 10
14.630321018
 20
16.1131957224
 30
0.0
 10
14.622879825
 20
16.1043013338
 30
0.0
 10
14.617211811
 20
16.0941092094
 30
0.0
 10
14.6135428413
 20
16.0829967217
 30
0.0
 10
14.6125194803
 20
16.0752391505
 30
0.0
 10
14.6123777762
 20
16.0713532136
 30
0.0
  0
SPLINE
  5
2A6
100
AcDbEntity
  8
0
100
AcDbSpline
 62
7
  6
CONTINUOUS
 70
0
 71
3
 72
12
 73
8
 74
0
 42
0.0000001
 43
0.0000001
 44
0.0000000001
 40
0.0
 40
0.0
 40
0.0
 40
0.0
 40
0.2829832527
 40
0.5394212001
 40
0.7751466619
 40
0.8882989154
 40
1.0
 40
1.0
 40
1.0
 40
1.0
 10
14.7568627986
 20
15.8299254514
 30
0.0
 10
14.7563684167
 20
15.8306169281
 30
0.0
 10
14.7555133224
 20
15.8320024266
 30
0.0
 10
14.7546463207
 20
15.8341779266
 30
0.0
 10
14.7543449995
 20
15.8359894184
 30
0.0
 10
14.7543748909
 20
15.8373756725
 30
0.0
 10
14.7544751888
 20
15.8380458696
 30
0.0
 10
14.7545461607
 20
15.8383738079
 30
0.0
  0
SPLINE
  5
2A7
100
AcDbEntity
  8
0
100
AcDbSpline
 62
7
  6
CONTINUOUS
 70
0
 71
3
 72
18
 73
14
 74
0
 42
0.0000001
 43
0.0000001
 44
0.0000000001
 40
0.0
 40
0.0
 40
0.0
 40
0.0
 40
0.1691014256
 40
0.2520801932
 40
0.3332147725
 40
0.4119779624
 40
0.4878926432
 40
0.6294347115
 40
0.6942695042
 40
0.7546155233
 40
0.860239182
 40
0.9430769072
 40
1.0
 40
1.0
 40
1.0
 40
1.0
 10
17.5737176973
 20
15.5549254514
 30
0.0
 10
17.5737182319
 20
15.5172836351
 30
0.0
 10
17.5761306759
 20
15.4611333081
 30
0.0
 10
17.5839428957
 20
15.3873594625
 30
0.0
 10
17.5917638287
 20
15.3338491893
 30
0.0
 10
17.6012896413
 20
15.2822174813
 30
0.0
 10
17.6154966867
 20
15.2178174639
 30
0.0
 10
17.6318917901
 20
15.1571125729
 30
0.0
 10
17.6496604782
 20
15.1004574989
 30
0.0
 10
17.6661670735
 20
15.0518002793
 30
0.0
 10
17.6854906387
 20
14.9998824525
 30
0.0
 10
17.7060907043
 20
14.9492875561
 30
0.0
 10
17.718424911
 20
14.9207247063
 30
0.0
 10
17.7235417114
 20
14.9091327582
 30
0.0
  0
SPLINE
  5
2A8
100
AcDbEntity
  8
0
100
AcDbSpline
 62
7
  6
CONTINUOUS
 70
0
 71
3
 72
38
 73
34
 74
0
 42
0.0000001
 43
0.0000001
 44
0.0000000001
 40
0.0
 40
0.0
 40
0.0
 40
0.0
 40
0.0000765171
 40
0.0001722142
 40
0.0003062047
 40
0.0006890685
 40
0.0012251143
 40
0.0019143279
 40
0.0027565228
 40
0.0037514245
 40
0.0048987578
 40
0.007649619
 40
0.0110069069
 40
0.0149683935
 40
0.0195309334
 40
0.0246903192
 40
0.0304422897
 40
0.0437066789
 40
0.0592830838
 40
0.0771237805
 40
0.0971773263
 40
0.1193856231
 40
0.1700207727
 40
0.2285017653
 40
0.2942580611
 40
0.3666833902
 40
0.4451353867
 40
0.5289290367
 40
0.6173274933
 40
0.7095335169
 40
0.8046785826
 40
0.9018313178
 40
1.0
 40
1.0
 40
1.0
 40
1.0
 10
17.9821231526
 20
15.5876489474
 30
0.0
 10
17.9821262275
 20
15.5876358341
 30
0.0
 10
17.9821064745
 20
15.5877058934
 30
0.0
 10
17.9820965917
 20
15.5877362527
 30
0.0
 10
17.9820621906
 20
15.5878515999
 30
0.0
 10
17.9820110565
 20
15.5880200128
 30
0.0
 10
17.9819280998
 20
15.5882953633
 30
0.0
 10
17.9818233957
 20
15.5886420676
 30
0.0
 10
17.981694791
 20
15.5890684256
 30
0.0
 10
17.9815432391
 20
15.5895712018
 30
0.0
 10
17.9812949005
 20
15.590396034
 30
0.0
 10
17.9809273952
 20
15.5916191117
 30
0.0
 10
17.980418688
 20
15.5933170885
 30
0.0
 10
17.9798201396
 20
15.5953210232
 30
0.0
 10
17.9791331121
 20
15.5976296047
 30
0.0
 10
17.9783594447
 20
15.6002412293
 30
0.0
 10
17.9771564191
 20
15.6043232098
 30
0.0
 10
17.9754486413
 20
15.6101680688
 30
0.0
 10
17.9731725685
 20
15.6180637401
 30
0.0
 10
17.9706039812
 20
15.627118743
 30
0.0
 10
17.9677654905
 20
15.6373105224
 30
0.0
 10
17.9634644918
 20
15.6530871343
 30
0.0
 10
17.9575946613
 20
15.6754467613
 30
0.0
 10
17.9502103644
 20
15.7053313409
 30
0.0
 10
17.942474325
 20
15.7390755934
 30
0.0
 10
17.9346703825
 20
15.7764044181
 30
0.0
 10
17.9270918998
 20
15.8170151453
 30
0.0
 10
17.9200332361
 20
15.8605713773
 30
0.0
 10
17.9137798797
 20
15.9066960228
 30
0.0
 10
17.9085969371
 20
15.9549643048
 30
0.0
 10
17.9047131769
 20
16.0049012688
 30
0.0
 10
17.9023069554
 20
16.0559821241
 30
0.0
 10
17.9017644792
 20
16.0903662726
 30
0.0
 10
17.9017643975
 20
16.1076465292
 30
0.0
  0
SPLINE
  5
2A9
100
AcDbEntity
  8
0
100
AcDbSpline
 62
7
  6
CONTINUOUS
 70
0
 71
3
 72
37
 73
33
 74
0
 42
0.0000001
 43
0.0000001
 44
0.0000000001
 40
0.0
 40
0.0
 40
0.0
 40
0.0
 40
0.0981655291
 40
0.1953180004
 40
0.290461635
 40
0.3826666115
 40
0.4710650978
 40
0.5548582084
 40
0.6333095328
 40
0.7057348934
 40
0.7714915955
 40
0.8299729595
 40
0.8563055873
 40
0.880608894
 40
0.9028174917
 40
0.9228713915
 40
0.9407124242
 40
0.956289331
 40
0.969554152
 40
0.9753064485
 40
0.9804661836
 40
0.9850290302
 40
0.9889907759
 40
0.9923484292
 40
0.9950997093
 40
0.9972423428
 40
0.9980847062
 40
0.9987740621
 40
0.9993102761
 40
0.9996933397
 40
0.999923249
 40
1.0
 40
1.0
 40
1.0
 40
1.0
 10
17.9017643975
 20
16.1076465292
 30
0.0
 10
17.9017645951
 20
16.1249263609
 30
0.0
 10
17.9023102987
 20
16.1593100853
 30
0.0
 10
17.9047116041
 20
16.210390672
 30
0.0
 10
17.9085963874
 20
16.260327499
 30
0.0
 10
17.9137790571
 20
16.3085957177
 30
0.0
 10
17.920031627
 20
16.3547205523
 30
0.0
 10
17.9270901488
 20
16.3982769368
 30
0.0
 10
17.9346685441
 20
16.4388877809
 30
0.0
 10
17.942472253
 20
16.4762169143
 30
0.0
 10
17.9502079718
 20
16.5099616196
 30
0.0
 10
17.9565661264
 20
16.5356934781
 30
0.0
 10
17.9613828557
 20
16.5542874934
 30
0.0
 10
17.9646811075
 20
16.5666787795
 30
0.0
 10
17.9677628803
 20
16.5779837292
 30
0.0
 10
17.9706013871
 20
16.5881757647
 30
0.0
 10
17.9731699165
 20
16.5972310765
 30
0.0
 10
17.975446048
 20
16.6051270275
 30
0.0
 10
17.9771537715
 20
16.6109721813
 30
0.0
 10
17.9783568263
 20
16.6150543895
 30
0.0
 10
17.9791305245
 20
16.6176662075
 30
0.0
 10
17.9798175664
 20
16.6199749689
 30
0.0
 10
17.9804160919
 20
16.6219791062
 30
0.0
 10
17.9809248278
 20
16.6236772559
 30
0.0
 10
17.9813427676
 20
16.6250683308
 30
0.0
 10
17.9816340416
 20
16.6260351511
 30
0.0
 10
17.9818207523
 20
16.626654401
 30
0.0
 10
17.9819260484
 20
16.6270028562
 30
0.0
 10
17.9820074647
 20
16.6272740531
 30
0.0
 10
17.9820667494
 20
16.6274674841
 30
0.0
 10
17.9821003244
 20
16.6275841303
 30
0.0
 10
17.9821174643
 20
16.6276353843
 30
0.0
 10
17.982120728
 20
16.6276484945
 30
0.0
  0
SPLINE
  5
2AA
100
AcDbEntity
  8
0
100
AcDbSpline
 62
7
  6
CONTINUOUS
 70
0
 71
3
 72
54
 73
50
 74
0
 42
0.0000001
 43
0.0000001
 44
0.0000000001
 40
0.0
 40
0.0
 40
0.0
 40
0.0
 40
0.0000048609
 40
0.0000109381
 40
0.0000194463
 40
0.0000437561
 40
0.0000777903
 40
0.0001215491
 40
0.0001750324
 40
0.0002382404
 40
0.0003111729
 40
0.0004862121
 40
0.0007001503
 40
0.0009529878
 40
0.0012447249
 40
0.0015753613
 40
0.0019448788
 40
0.0028004094
 40
0.0038110171
 40
0.0049764013
 40
0.0062962614
 40
0.007770297
 40
0.0093982077
 40
0.0111796933
 40
0.0152021322
 40
0.0198340388
 40
0.0250708149
 40
0.0309078293
 40
0.037340455
 40
0.0443635614
 40
0.0519708015
 40
0.0601556592
 40
0.0782320927
 40
0.0985358847
 40
0.1210036816
 40
0.1455695283
 40
0.1721619549
 40
0.2007081228
 40
0.2311310192
 40
0.2633525373
 40
0.2972917179
 40
0.3699908353
 40
0.4485464778
 40
0.5322444198
 40
0.6203325926
 40
0.7120164911
 40
0.806451908
 40
0.9027560479
 40
1.0
 40
1.0
 40
1.0
 40
1.0
 10
17.9421232516
 20
15.5476488821
 30
0.0
 10
17.9421226757
 20
15.5476481659
 30
0.0
 10
17.9421226532
 20
15.5476526884
 30
0.0
 10
17.9421214098
 20
15.547654926
 30
0.0
 10
17.9421196207
 20
15.5476627643
 30
0.0
 10
17.9421161646
 20
15.5476743987
 30
0.0
 10
17.942111118
 20
15.5476932841
 30
0.0
 10
17.9421045365
 20
15.5477171165
 30
0.0
 10
17.942096527
 20
15.5477464108
 30
0.0
 10
17.9420870493
 20
15.547780974
 30
0.0
 10
17.9420715017
 20
15.5478377202
 30
0.0
 10
17.942048421
 20
15.5479219419
 30
0.0
 10
17.9420163523
 20
15.5480389724
 30
0.0
 10
17.9419784522
 20
15.5481772798
 30
0.0
 10
17.9419347215
 20
15.5483368667
 30
0.0
 10
17.94188516
 20
15.5485177288
 30
0.0
 10
17.9418074334
 20
15.5488013951
 30
0.0
 10
17.941695776
 20
15.5492090602
 30
0.0
 10
17.9415444971
 20
15.549761884
 30
0.0
 10
17.9413702306
 20
15.5503994324
 30
0.0
 10
17.9411730984
 20
15.5511215618
 30
0.0
 10
17.9409532226
 20
15.551928129
 30
0.0
 10
17.9407107244
 20
15.5528189902
 30
0.0
 10
17.9403422107
 20
15.5541748891
 30
0.0
 10
17.9398258924
 20
15.5560791637
 30
0.0
 10
17.9391410445
 20
15.558614597
 30
0.0
 10
17.9383701002
 20
15.5614821369
 30
0.0
 10
17.9375149403
 20
15.5646795713
 30
0.0
 10
17.936577474
 20
15.5682045886
 30
0.0
 10
17.9355597993
 20
15.5720545881
 30
0.0
 10
17.9344645999
 20
15.5762267501
 30
0.0
 10
17.93285035
 20
15.5824232256
 30
0.0
 10
17.9306570188
 20
15.5909493927
 30
0.0
 10
17.9278410435
 20
15.6021035768
 30
0.0
 10
17.9247878073
 20
15.6144631116
 30
0.0
 10
17.9215251654
 20
15.6279954011
 30
0.0
 10
17.9180842864
 20
15.6426665672
 30
0.0
 10
17.914496442
 20
15.6584403179
 30
0.0
 10
17.9107953557
 20
15.6752793055
 30
0.0
 10
17.907015086
 20
15.6931443247
 30
0.0
 10
17.9017951677
 20
15.7188736716
 30
0.0
 10
17.8953018507
 20
15.7532818939
 30
0.0
 10
17.8879315969
 20
15.7970902644
 30
0.0
 10
17.8810966976
 20
15.8439286455
 30
0.0
 10
17.8750663256
 20
15.8933796945
 30
0.0
 10
17.87008707
 20
15.944988312
 30
0.0
 10
17.8663675416
 20
15.9982610532
 30
0.0
 10
17.8640681435
 20
16.0526662059
 30
0.0
 10
17.8635502109
 20
16.0892611009
 30
0.0
 10
17.8635501256
 20
16.1076463338
 30
0.0
  0
SPLINE
  5
2AB
100
AcDbEntity
  8
0
100
AcDbSpline
 62
7
  6
CONTINUOUS
 70
0
 71
3
 72
19
 73
15
 74
0
 42
0.0000001
 43
0.0000001
 44
0.0000000001
 40
0.0
 40
0.0
 40
0.0
 40
0.0
 40
0.0636972262
 40
0.1273231417
 40
0.1908306392
 40
0.254213253
 40
0.3174402881
 40
0.3804791367
 40
0.4433179704
 40
0.505951273
 40
0.6304388591
 40
0.7541482184
 40
0.877244221
 40
1.0
 40
1.0
 40
1.0
 40
1.0
 10
17.7506048081
 20
15.9464977305
 30
0.0
 10
17.7504981886
 20
15.9445989822
 30
0.0
 10
17.7501086627
 20
15.9408111655
 30
0.0
 10
17.7490027047
 20
15.935214216
 30
0.0
 10
17.7473851397
 20
15.9297522981
 30
0.0
 10
17.745268192
 20
15.9244768238
 30
0.0
 10
17.742675492
 20
15.9194338825
 30
0.0
 10
17.7396316056
 20
15.9146690899
 30
0.0
 10
17.7361645253
 20
15.910224519
 30
0.0
 10
17.7310339086
 20
15.9047926607
 30
0.0
 10
17.7237266458
 20
15.8989742605
 30
0.0
 10
17.7138420505
 20
15.8938096752
 30
0.0
 10
17.7032057167
 20
15.8906383347
 30
0.0
 10
17.6958460263
 20
15.8899254773
 30
0.0
 10
17.6921810394
 20
15.8899254514
 30
0.0
  0
SPLINE
  5
2AC
100
AcDbEntity
  8
0
100
AcDbSpline
 62
7
  6
CONTINUOUS
 70
0
 71
3
 72
19
 73
15
 74
0
 42
0.0000001
 43
0.0000001
 44
0.0000000001
 40
0.0
 40
0.0
 40
0.0
 40
0.0
 40
0.1238127972
 40
0.2476704231
 40
0.3716888561
 40
0.4960332956
 40
0.5584471793
 40
0.6210135826
 40
0.6837581694
 40
0.7466853843
 40
0.8098040687
 40
0.8730851493
 40
0.9365189684
 40
1.0
 40
1.0
 40
1.0
 40
1.0
 10
17.6483226744
 20
15.8899254377
 30
0.0
 10
17.6439562872
 20
15.8899230131
 30
0.0
 10
17.6352092857
 20
15.8892807696
 30
0.0
 10
17.6223696797
 20
15.8864237328
 30
0.0
 10
17.6100806844
 20
15.8816659585
 30
0.0
 10
17.6005785041
 20
15.8760882519
 30
0.0
 10
17.5936530463
 20
15.8706528856
 30
0.0
 10
17.5888526685
 20
15.8660775136
 30
0.0
 10
17.5845373987
 20
15.8610164113
 30
0.0
 10
17.5807977346
 20
15.8554901878
 30
0.0
 10
17.5777339635
 20
15.8495385954
 30
0.0
 10
17.5754510106
 20
15.8432240705
 30
0.0
 10
17.5740388738
 20
15.8366462191
 30
0.0
 10
17.5737179512
 20
15.8321641764
 30
0.0
 10
17.5737176973
 20
15.8299254514
 30
0.0
  0
SPLINE
  5
2AD
100
AcDbEntity
  8
0
100
AcDbSpline
 62
7
  6
CONTINUOUS
 70
0
 71
3
 72
21
 73
17
 74
0
 42
0.0000001
 43
0.0000001
 44
0.0000000001
 40
0.0
 40
0.0
 40
0.0
 40
0.0
 40
0.1274277455
 40
0.2540204939
 40
0.317031037
 40
0.3798079426
 40
0.4423622618
 40
0.5046991746
 40
0.5668447261
 40
0.6288437888
 40
0.6907355579
 40
0.7525516141
 40
0.8143325902
 40
0.8761261057
 40
0.9380036409
 40
1.0
 40
1.0
 40
1.0
 40
1.0
 10
14.6027537425
 20
15.9499254514
 30
0.0
 10
14.6026078453
 20
15.9461985198
 30
0.0
 10
14.6029821606
 20
15.9387249327
 30
0.0
 10
14.6051711447
 20
15.929648475
 30
0.0
 10
14.6079008945
 20
15.9227740506
 30
0.0
 10
14.6104192495
 20
15.9178602243
 30
0.0
 10
14.6133892618
 20
15.913229273
 30
0.0
 10
14.616782067
 20
15.9089218435
 30
0.0
 10
14.620567112
 20
15.9049769749
 30
0.0
 10
14.6247120338
 20
15.9014320427
 30
0.0
 10
14.6291773915
 20
15.8983172078
 30
0.0
 10
14.6339221789
 20
15.8956603623
 30
0.0
 10
14.6389018421
 20
15.8934825865
 30
0.0
 10
14.6440728664
 20
15.8918030794
 30
0.0
 10
14.649388448
 20
15.8906339169
 30
0.0
 10
14.652995
 20
15.8902012727
 30
0.0
 10
14.654804969
 20
15.8900714096
 30
0.0
  0
SPLINE
  5
2AE
100
AcDbEntity
  8
0
100
AcDbSpline
 62
7
  6
CONTINUOUS
 70
0
 71
3
 72
17
 73
13
 74
0
 42
0.0000001
 43
0.0000001
 44
0.0000000001
 40
0.0
 40
0.0
 40
0.0
 40
0.0
 40
0.0614751606
 40
0.1230123719
 40
0.1846252763
 40
0.2463618434
 40
0.3701971115
 40
0.4947635364
 40
0.6201020202
 40
0.7461821838
 40
0.8728683272
 40
1.0
 40
1.0
 40
1.0
 40
1.0
 10
17.6959164045
 20
16.1298025586
 30
0.0
 10
17.6976004117
 20
16.1296917981
 30
0.0
 10
17.7009622463
 20
16.1293207688
 30
0.0
 10
17.7059370572
 20
16.1283189779
 30
0.0
 10
17.7108113299
 20
16.1268786788
 30
0.0
 10
17.717130605
 20
16.1243861492
 30
0.0
 10
17.7246116841
 20
16.1202219959
 30
0.0
 10
17.7326085808
 20
16.1137127417
 30
0.0
 10
17.7393985276
 20
16.1058697833
 30
0.0
 10
17.7447680479
 20
16.0969259065
 30
0.0
 10
17.7485467581
 20
16.0871529416
 30
0.0
 10
17.7499219873
 20
16.0802810547
 30
0.0
 10
17.7503132591
 20
16.0768129768
 30
0.0
  0
SPLINE
  5
2AF
100
AcDbEntity
  8
0
100
AcDbSpline
 62
7
  6
CONTINUOUS
 70
0
 71
3
 72
25
 73
21
 74
0
 42
0.0000001
 43
0.0000001
 44
0.0000000001
 40
0.0
 40
0.0
 40
0.0
 40
0.0
 40
0.1330853235
 40
0.2676674921
 40
0.33535598
 40
0.3692121005
 40
0.4030139974
 40
0.4701958762
 40
0.5364306777
 40
0.5690357158
 40
0.6011795607
 40
0.6638307422
 40
0.7242220298
 40
0.7535937251
 40
0.7824280408
 40
0.8386920278
 40
0.8934680627
 40
0.9204309287
 40
0.9471515498
 40
1.0
 40
1.0
 40
1.0
 40
1.0
 10
14.7023512317
 20
15.8899254342
 30
0.0
 10
14.7066513874
 20
15.8899227181
 30
0.0
 10
14.7153146184
 20
15.889273716
 30
0.0
 10
14.7258978799
 20
15.8866682442
 30
0.0
 10
14.7329709093
 20
15.8837715027
 30
0.0
 10
14.736870447
 20
15.8817869574
 30
0.0
 10
14.7406351675
 20
15.8795899722
 30
0.0
 10
14.7450467754
 20
15.8764440556
 30
0.0
 10
14.748970102
 20
15.8727570559
 30
0.0
 10
14.7517152528
 20
15.8695310231
 30
0.0
 10
14.7541388552
 20
15.866199364
 30
0.0
 10
14.7566039574
 20
15.8618069058
 30
0.0
 10
14.758307055
 20
15.8571627207
 30
0.0
 10
14.7591946036
 20
15.8534314885
 30
0.0
 10
14.759774018
 20
15.8497753189
 30
0.0
 10
14.7599948939
 20
15.8452453833
 30
0.0
 10
14.7596208893
 20
15.8407899298
 30
0.0
 10
14.7590168724
 20
15.8373362568
 30
0.0
 10
14.7582354325
 20
15.8339825308
 30
0.0
 10
14.7574548976
 20
15.8315271129
 30
0.0
 10
14.7568627986
 20
15.8299254514
 30
0.0
  0
ENDSEC
  0
SECTION
  2
OBJECTS
  0
DICTIONARY
  5
C
100
AcDbDictionary
280
0
281
1
  3
ACAD_GROUP
350
D
  3
ACAD_MLINESTYLE
350
17
  3
ACAD_LAYOUT
350
1A
  3
ACAD_PLOTSETTINGS
350
19
  3
ACAD_PLOTSTYLENAME
350
E
  0
DICTIONARY
  5
D
102
{ACAD_REACTORS
330
C
102
}
100
AcDbDictionary
280
0
281
1
  0
ACDBDICTIONARYWDFLT
  5
E
102
{ACAD_REACTORS
330
C
102
}
100
AcDbDictionary
281
1
  3
Normal
350
F
100
AcDbDictionaryWithDefault
340
F
  0
DICTIONARY
  5
17
102
{ACAD_REACTORS
330
C
102
}
100
AcDbDictionary
280
0
281
1
  3
Standard
350
18
  0
DICTIONARY
  5
19
102
{ACAD_REACTORS
330
C
102
}
100
AcDbDictionary
281
1
  0
DICTIONARY
  5
1A
102
{ACAD_REACTORS
330
C
102
}
100
AcDbDictionary
281
1
  3
Model
350
2B0
  3
Layout1
350
2B1
  0
ACDBPLACEHOLDER
  5
F
102
{ACAD_REACTORS
330
E
102
}
  0
MLINESTYLE
  5
18
102
{ACAD_REACTORS
330
17
102
}
100
AcDbMlineStyle
  2
STANDARD
 70
0
  3

 62
256
 51
90.0
 52
90.0
 71
2
 49
0.5
 62
256
  6
BYLAYER
 49
-0.5
 62
256
  6
BYLAYER
  0
LAYOUT
  5
2B0
102
{ACAD_REACTORS
330
1A
102
}
100
AcDbPlotSettings
  1

  2
none_device
  4
ANSI_C_(22.00_x_17.00_Inches)
  6

 40
0.0
 41
0.0
 42
0.0
 43
0.0
 44
558.8
 45
431.8
 46
0.0
 47
0.0
 48
0.0
 49
0.0
140
0.0
141
0.0
142
1.0
143
1.0
 70
1024
 72
0
 73
0
 74
0
  7

 75
0
147
1.0
148
0.0
149
0.0
100
AcDbLayout
  1
Model
 70
0
 71
0
 10
0.0
 20
0.0
 11
22.0
 21
17.0
 12
0.0
 22
0.0
 32
0.0
 14
0.0
 24
0.0
 34
0.0
 15
0.0
 25
0.0
 35
0.0
146
0.0
 13
0.0
 23
0.0
 33
0.0
 16
1.0
 26
0.0
 36
0.0
 17
0.0
 27
1.0
 37
0.0
 76
0
330
202
345
0
346
0
  0
LAYOUT
  5
2B1
102
{ACAD_REACTORS
330
1A
102
}
100
AcDbPlotSettings
  1

  2
none_device
  4
ANSI_C_(22.00_x_17.00_Inches)
  6

 40
0.0
 41
0.0
 42
0.0
 43
0.0
 44
558.8
 45
431.8
 46
0.0
 47
0.0
 48
0.0
 49
0.0
140
0.0
141
0.0
142
1.0
143
1.0
 70
0
 72
0
 73
0
 74
0
  7

 75
0
147
1.0
148
0.0
149
0.0
100
AcDbLayout
  1
Layout1
 70
0
 71
1
 10
0.0
 20
0.0
 11
22.0
 21
17.0
 12
0.0
 22
0.0
 32
0.0
 14
0.0
 24
0.0
 34
0.0
 15
0.0
 25
0.0
 35
0.0
146
0.0
 13
0.0
 23
0.0
 33
0.0
 16
1.0
 26
0.0
 36
0.0
 17
0.0
 27
1.0
 37
0.0
 76
0
330
203
345
0
346
0
  0
ENDSEC
  0
EOF
