999
DXF file: 3273_TOP.dxf
999
Pro/ENGINEER 2023134 by Parametric Technology Corporation
  0
SECTION
  2
HEADER
  9
$ACADVER
  1
AC1032
  9
$DWGCODEPAGE
  3
ANSI_1252
  9
$EXTMAX
 10
22.0
 20
17.0
 30
0.0
  9
$EXTMIN
 10
0.0
 20
0.0
 30
0.0
  9
$LIMMIN
 10
0.0
 20
0.0
  9
$LIMMAX
 10
22.0
 20
17.0
  9
$VIEWCTR
 10
11.0
 20
8.5
  9
$VIEWSIZE
 40
17.0
  9
$CLAYER
  8
0
  9
$LTSCALE
 40
1.21
  9
$CELTYPE
  6
BYLAYER
  9
$DIMSCALE
 40
1.0
  9
$DIMASZ
 40
0.1
  9
$DIMEXO
 40
0.0625
  9
$DIMDLI
 40
0.836
  9
$DIMEXE
 40
0.125
  9
$DIMCEN
 40
0.198
  9
$DIMLFAC
 40
1.0
  9
$DIMBLK
  1
_FILLED
  9
$DIMALT
 70
1
  9
$DIMALTD
 70
2
  9
$DIMALTTD
 70
2
  9
$DIMALTF
 40
25.4
  9
$DIMTXT
 40
0.08
  9
$DIMTOL
 70
1
  9
$DIMLIM
 70
0
  9
$DIMTFAC
 40
1.0
  9
$DIMTP
 40
0.001
  9
$DIMTM
 40
0.001
  9
$DIMGAP
 40
0.09
  9
$DIMDSEP
 70
46
  9
$AUNITS
 70
0
  9
$PDMODE
 70
3
  9
$PDSIZE
 40
0.3125
  9
$HANDSEED
  5
2AC
  9
$TILEMODE
 70
1
  9
$MEASUREMENT
 70
0
  9
$INSUNITS
 70
1
  0
ENDSEC
  0
SECTION
  2
CLASSES
  0
CLASS
  1
ACDBDICTIONARYWDFLT
  2
AcDbDictionaryWithDefault
  3
AutoCAD 2000
 90
0
 91
1
280
0
281
0
  0
CLASS
  1
ACDBPLACEHOLDER
  2
AcDbPlaceHolder
  3
AutoCAD 2000
 90
0
 91
1
280
0
281
0
  0
CLASS
  1
LAYOUT
  2
AcDbLayout
  3
AutoCAD 2000
 90
0
 91
0
280
0
281
0
  0
ENDSEC
  0
SECTION
  2
TABLES
  0
TABLE
  2
VPORT
  5
8
100
AcDbSymbolTable
 70
2
  0
VPORT
  5
1F4
100
AcDbSymbolTableRecord
100
AcDbViewportTableRecord
  2
*ACTIVE
 70
0
 10
0.0
 20
0.0
 11
1.0
 21
1.0
 12
11.0
 22
8.5
 13
0.0
 23
0.0
 14
1.0
 24
1.0
 15
0.0
 25
0.0
 16
0.0
 26
0.0
 36
1.0
 17
0.0
 27
0.0
 37
0.0
 40
17.0
 41
1.2941176471
 42
50.0
 43
0.0
 44
0.0
 50
0.0
 51
0.0
 71
0
 72
100
 73
1
 74
1
 75
0
 76
0
 77
0
 78
0
  0
ENDTAB
  0
TABLE
  2
LTYPE
  5
5
100
AcDbSymbolTable
 70
6
  0
LTYPE
  5
14
100
AcDbSymbolTableRecord
100
AcDbLinetypeTableRecord
  2
BYBLOCK
 70
0
  3

 72
65
 73
0
 40
0.0
  0
LTYPE
  5
15
100
AcDbSymbolTableRecord
100
AcDbLinetypeTableRecord
  2
BYLAYER
 70
0
  3

 72
65
 73
0
 40
0.0
  0
LTYPE
  5
16
100
AcDbSymbolTableRecord
100
AcDbLinetypeTableRecord
  2
CONTINUOUS
 70
64
  3
Solid line
 72
65
 73
0
 40
0.0
  0
LTYPE
  5
1F5
100
AcDbSymbolTableRecord
100
AcDbLinetypeTableRecord
  2
CENTER
 70
64
  3
____ _ ____ _ ____ _ ____ _ ____ _ ____ _ ____
 72
65
 73
4
 40
0.6
 49
0.375
 74
0
 49
-0.075
 74
0
 49
0.075
 74
0
 49
-0.075
 74
0
  0
LTYPE
  5
1F6
100
AcDbSymbolTableRecord
100
AcDbLinetypeTableRecord
  2
HIDDEN
 70
64
  3
- - - - - - - - - - - - - - - - - - - -
 72
65
 73
2
 40
0.2
 49
0.1
 74
0
 49
-0.1
 74
0
  0
LTYPE
  5
1F7
100
AcDbSymbolTableRecord
100
AcDbLinetypeTableRecord
  2
PHANTOM
 70
64
  3
_____ _ _ _____ _ _ _____ _ _ _____
 72
65
 73
6
 40
0.8
 49
0.45
 74
0
 49
-0.05
 74
0
 49
0.1
 74
0
 49
-0.05
 74
0
 49
0.1
 74
0
 49
-0.05
 74
0
  0
LTYPE
  5
1F8
100
AcDbSymbolTableRecord
100
AcDbLinetypeTableRecord
  2
DOT
 70
64
  3
. . . . . . . . . . . . . . . . . . . .
 72
65
 73
2
 40
0.2
 49
0.1
 74
0
 49
-0.1
 74
0
  0
LTYPE
  5
1F9
100
AcDbSymbolTableRecord
100
AcDbLinetypeTableRecord
  2
DASHED
 70
64
  3
- - - - - - - - - - - - - - - - - - - -
 72
65
 73
2
 40
0.2
 49
0.1
 74
0
 49
-0.1
 74
0
  0
ENDTAB
  0
TABLE
  2
LAYER
  5
2
100
AcDbSymbolTable
 70
36
  0
LAYER
  5
10
100
AcDbSymbolTableRecord
100
AcDbLayerTableRecord
  2
0
 70
0
 62
7
  6
CONTINUOUS
370
-3
390
F
  0
LAYER
  5
1FA
100
AcDbSymbolTableRecord
100
AcDbLayerTableRecord
  2
DEFAULT_1
 70
0
 62
7
  6
CENTER
370
-3
390
F
  0
LAYER
  5
1FB
100
AcDbSymbolTableRecord
100
AcDbLayerTableRecord
  2
DEFAULT_2
 70
0
 62
8
  6
HIDDEN
370
-3
390
F
  0
LAYER
  5
1FC
100
AcDbSymbolTableRecord
100
AcDbLayerTableRecord
  2
DEFAULT_3
 70
0
 62
7
  6
PHANTOM
370
-3
390
F
  0
LAYER
  5
1FD
100
AcDbSymbolTableRecord
100
AcDbLayerTableRecord
  2
DEFAULT_COORDINATE_SYSTEM
 70
0
 62
7
  6
CONTINUOUS
370
-3
390
F
  0
LAYER
  5
1FE
100
AcDbSymbolTableRecord
100
AcDbLayerTableRecord
  2
DEFAULT_DATUM_AXES
 70
0
 62
7
  6
CONTINUOUS
370
-3
390
F
  0
LAYER
  5
1FF
100
AcDbSymbolTableRecord
100
AcDbLayerTableRecord
  2
DEFAULT_DATUM_PLANES
 70
0
 62
7
  6
CONTINUOUS
370
-3
390
F
  0
ENDTAB
  0
TABLE
  2
STYLE
  5
3
100
AcDbSymbolTable
 70
1
  0
STYLE
  5
11
100
AcDbSymbolTableRecord
100
AcDbTextStyleTableRecord
  2
STANDARD
 70
0
 40
0.0
 41
0.8
 50
0.0
 71
0
 42
0.2
  3
txt
  4

  0
STYLE
  5
200
100
AcDbSymbolTableRecord
100
AcDbTextStyleTableRecord
  2
TEXTSTYLE_1
 70
0
 40
0.0
 41
0.8
 50
0.0
 71
0
 42
0.2
  3
gdt
  4

  0
ENDTAB
  0
TABLE
  2
VIEW
  5
6
100
AcDbSymbolTable
 70
0
  0
ENDTAB
  0
TABLE
  2
UCS
  5
7
100
AcDbSymbolTable
 70
0
  0
ENDTAB
  0
TABLE
  2
APPID
  5
9
100
AcDbSymbolTable
 70
1
  0
APPID
  5
201
100
AcDbSymbolTableRecord
100
AcDbRegAppTableRecord
  2
ACAD
 70
0
  0
ENDTAB
  0
TABLE
  2
BLOCK_RECORD
  5
1
100
AcDbSymbolTable
 70
0
  0
BLOCK_RECORD
  5
202
100
AcDbSymbolTableRecord
100
AcDbBlockTableRecord
  2
*Model_Space
  0
BLOCK_RECORD
  5
203
100
AcDbSymbolTableRecord
100
AcDbBlockTableRecord
  2
*Paper_Space
  0
BLOCK_RECORD
  5
204
100
AcDbSymbolTableRecord
100
AcDbBlockTableRecord
  2
_FILLED
  0
ENDTAB
  0
TABLE
  2
DIMSTYLE
  5
A
100
AcDbSymbolTable
 70
1
100
AcDbDimStyleTable
 71
0
  0
DIMSTYLE
105
205
100
AcDbSymbolTableRecord
100
AcDbDimStyleTableRecord
  2
STANDARD
 70
0
  3

  4

 40
1.0
 41
0.1
 42
0.0625
 43
0.38
 44
0.125
 45
0.0
 46
0.0
 47
0.001
 48
0.001
140
0.08
141
0.09
142
0.0
143
25.4
144
1.0
145
0.0
146
1.0
147
0.09
 71
1
 72
0
 73
1
 74
1
 75
0
 76
0
 77
0
 78
4
 79
1
170
1
171
2
172
0
173
0
174
0
175
0
176
0
177
0
178
0
270
2
179
3
271
3
272
3
273
2
274
2
275
0
280
0
281
0
282
0
283
1
284
4
285
0
286
0
287
3
288
0
340
11
278
46
341
204
342
204
343
204
344
204
  0
ENDTAB
  0
ENDSEC
  0
SECTION
  2
BLOCKS
  0
BLOCK
  5
20
100
AcDbEntity
  8
0
100
AcDbBlockBegin
  2
*Model_Space
 70
0
 10
0.0
 20
0.0
 30
0.0
  3
*Model_Space
  1

  0
ENDBLK
  5
21
100
AcDbEntity
  8
0
100
AcDbBlockEnd
  0
BLOCK
  5
1C
100
AcDbEntity
  8
0
100
AcDbBlockBegin
  2
*Paper_Space
 70
0
 10
0.0
 20
0.0
 30
0.0
  3
*Paper_Space
  1

  0
ENDBLK
  5
1D
100
AcDbEntity
  8
0
100
AcDbBlockEnd
  0
BLOCK
  5
206
100
AcDbEntity
  8
0
100
AcDbBlockBegin
  2
_FILLED
 70
64
 10
0.0
 20
0.0
  3
_FILLED
  1

  0
SOLID
  5
207
100
AcDbEntity
  8
0
  6
BYBLOCK
 62
0
100
AcDbTrace
 10
0.0
 20
0.0
 11
-1.0
 21
0.2
 12
-1.0
 22
-0.2
 13
-1.0
 23
-0.2
  0
ENDBLK
  5
208
100
AcDbEntity
  8
0
  6
BYBLOCK
 62
0
100
AcDbBlockEnd
  0
ENDSEC
  0
SECTION
  2
ENTITIES
  0
LINE
  5
209
100
AcDbEntity
  8
0
100
AcDbLine
 62
7
  6
CONTINUOUS
 10
0.0
 20
0.0
 11
0.0
 21
17.0
  0
LINE
  5
20A
100
AcDbEntity
  8
0
100
AcDbLine
 62
7
  6
CONTINUOUS
 10
0.0
 20
0.0
 11
22.0
 21
0.0
  0
LINE
  5
20B
100
AcDbEntity
  8
0
100
AcDbLine
 62
7
  6
CONTINUOUS
 10
0.0
 20
17.0
 11
22.0
 21
17.0
  0
LINE
  5
20C
100
AcDbEntity
  8
0
100
AcDbLine
 62
7
  6
CONTINUOUS
 10
22.0
 20
0.0
 11
22.0
 21
17.0
  0
LINE
  5
20D
100
AcDbEntity
  8
0
100
AcDbLine
 62
7
  6
CONTINUOUS
 10
9.4969541616
 20
11.9635654913
 11
9.4969541616
 21
13.056020639
  0
LINE
  5
20E
100
AcDbEntity
  8
0
100
AcDbLine
 62
7
  6
CONTINUOUS
 10
9.5169541616
 20
2.2893161471
 11
9.5169541616
 21
2.2726832119
  0
LINE
  5
20F
100
AcDbEntity
  8
0
100
AcDbLine
 62
7
  6
CONTINUOUS
 10
9.5169541616
 20
2.0190309491
 11
9.5169541616
 21
2.0023980138
  0
LINE
  5
210
100
AcDbEntity
  8
0
100
AcDbLine
 62
7
  6
CONTINUOUS
 10
9.7219541616
 20
11.8070618752
 11
9.7219541616
 21
2.3017908486
  0
LINE
  5
211
100
AcDbEntity
  8
0
100
AcDbLine
 62
7
  6
CONTINUOUS
 10
9.9319541616
 20
15.8751198291
 11
9.9319541616
 21
14.2400618752
  0
LINE
  5
212
100
AcDbEntity
  8
0
100
AcDbLine
 62
7
  6
CONTINUOUS
 10
9.9331582593
 20
12.8544742334
 11
9.9331582593
 21
14.2000618752
  0
LINE
  5
213
100
AcDbEntity
  8
0
100
AcDbLine
 62
7
  6
CONTINUOUS
 10
9.9719541616
 20
15.8969479675
 11
9.9719541616
 21
14.2400618752
  0
LINE
  5
214
100
AcDbEntity
  8
0
100
AcDbLine
 62
7
  6
CONTINUOUS
 10
9.9730858323
 20
12.8544742412
 11
9.9730858323
 21
14.201282414
  0
LINE
  5
215
100
AcDbEntity
  8
0
100
AcDbLine
 62
7
  6
CONTINUOUS
 10
10.0008901488
 20
12.8852392507
 11
10.0008901488
 21
12.8418169835
  0
LINE
  5
216
100
AcDbEntity
  8
0
100
AcDbLine
 62
7
  6
CONTINUOUS
 10
10.0369552939
 20
16.0464889073
 11
10.0369552939
 21
8.2050609427
  0
LWPOLYLINE
  5
217
100
AcDbEntity
  8
0
100
AcDbPolyline
 62
7
  6
CONTINUOUS
 90
4
 70
0
 10
10.002742052
 20
12.8418165192
 10
10.0027422043
 20
12.8855593325
 10
10.0027588986
 20
12.8885908666
 10
10.0028036421
 20
12.8916309218
  0
LWPOLYLINE
  5
218
100
AcDbEntity
  8
0
100
AcDbPolyline
 62
7
  6
CONTINUOUS
 90
28
 70
0
 10
10.0028036421
 20
12.8916309218
 10
10.0028768422
 20
12.8946662009
 10
10.0029788819
 20
12.8976909601
 10
10.0031101718
 20
12.9007003482
 10
10.0032706991
 20
12.903681698
 10
10.0034606404
 20
12.9066292775
 10
10.003680048
 20
12.9095377757
 10
10.0039281771
 20
12.9123943614
 10
10.0042047143
 20
12.9151937747
 10
10.0045092625
 20
12.9179300309
 10
10.0048402338
 20
12.9205882372
 10
10.0051969341
 20
12.9231633411
 10
10.0055782468
 20
12.9256486986
 10
10.005980666
 20
12.9280262857
 10
10.0064023743
 20
12.9302926956
 10
10.0068405559
 20
12.9324408378
 10
10.0072880432
 20
12.9344470354
 10
10.0077406382
 20
12.9363063042
 10
10.0081949716
 20
12.9380166003
 10
10.0086422809
 20
12.9395600873
 10
10.0090760377
 20
12.9409336442
 10
10.0094907972
 20
12.9421406728
 10
10.0098771063
 20
12.9431756727
 10
10.0102269832
 20
12.9440406517
 10
10.0105338505
 20
12.9447412685
 10
10.0107887352
 20
12.9452775571
 10
10.0109812659
 20
12.9456503329
 10
10.0110325732
 20
12.9457439322
  0
LWPOLYLINE
  5
219
100
AcDbEntity
  8
0
100
AcDbPolyline
 62
7
  6
CONTINUOUS
 90
3
 70
0
 10
10.0025462312
 20
12.8352004111
 10
10.0026882431
 20
12.8383355787
 10
10.0027420493
 20
12.8418165164
  0
LWPOLYLINE
  5
21A
100
AcDbEntity
  8
0
100
AcDbPolyline
 62
7
  6
CONTINUOUS
 90
3
 70
0
 10
10.0020625967
 20
12.8296589493
 10
10.0023334481
 20
12.8323178767
 10
10.0025462312
 20
12.8352004111
  0
LINE
  5
21B
100
AcDbEntity
  8
0
100
AcDbLine
 62
7
  6
CONTINUOUS
 10
11.1169552939
 20
8.1650609427
 11
10.0769552939
 21
8.1650609427
  0
LINE
  5
21C
100
AcDbEntity
  8
0
100
AcDbLine
 62
7
  6
CONTINUOUS
 10
11.1569552939
 20
8.2050609427
 11
10.0369552939
 21
8.2050609427
  0
LINE
  5
21D
100
AcDbEntity
  8
0
100
AcDbLine
 62
7
  6
CONTINUOUS
 10
11.1569552939
 20
16.0464889073
 11
11.1569552939
 21
8.2050609427
  0
LINE
  5
21E
100
AcDbEntity
  8
0
100
AcDbLine
 62
7
  6
CONTINUOUS
 10
11.1911662713
 20
12.8418169835
 11
11.1911569918
 21
12.8877266561
  0
LINE
  5
21F
100
AcDbEntity
  8
0
100
AcDbLine
 62
7
  6
CONTINUOUS
 10
11.1930181744
 20
12.8418169835
 11
11.1930181744
 21
12.8852392507
  0
LWPOLYLINE
  5
220
100
AcDbEntity
  8
0
100
AcDbPolyline
 62
7
  6
CONTINUOUS
 90
3
 70
0
 10
11.1913571186
 20
12.8352822689
 10
11.1915717737
 20
12.8323530384
 10
11.191855474
 20
12.8295741124
  0
LINE
  5
221
100
AcDbEntity
  8
0
100
AcDbLine
 62
7
  6
CONTINUOUS
 10
11.19121897
 20
12.838368977
 11
11.1913571186
 21
12.8352822689
  0
LINE
  5
222
100
AcDbEntity
  8
0
100
AcDbLine
 62
7
  6
CONTINUOUS
 10
11.1911662714
 20
12.8418169835
 11
11.19121897
 21
12.838368977
  0
LINE
  5
223
100
AcDbEntity
  8
0
100
AcDbLine
 62
7
  6
CONTINUOUS
 10
11.1911205653
 20
12.8907454024
 11
11.1911569918
 21
12.8877266561
  0
LINE
  5
224
100
AcDbEntity
  8
0
100
AcDbLine
 62
7
  6
CONTINUOUS
 10
11.2208224909
 20
14.201282414
 11
11.2208224909
 21
12.8544742412
  0
LINE
  5
225
100
AcDbEntity
  8
0
100
AcDbLine
 62
7
  6
CONTINUOUS
 10
11.2219541616
 20
14.2400618752
 11
11.2219541616
 21
15.8969479675
  0
LINE
  5
226
100
AcDbEntity
  8
0
100
AcDbLine
 62
7
  6
CONTINUOUS
 10
11.260750064
 20
14.2000618752
 11
11.260750064
 21
12.8544742239
  0
LINE
  5
227
100
AcDbEntity
  8
0
100
AcDbLine
 62
7
  6
CONTINUOUS
 10
11.2619541616
 20
14.2400618752
 11
11.2619541616
 21
15.8751198333
  0
LINE
  5
228
100
AcDbEntity
  8
0
100
AcDbLine
 62
7
  6
CONTINUOUS
 10
11.4719541616
 20
11.8070618752
 11
11.4719541616
 21
2.3017908486
  0
LINE
  5
229
100
AcDbEntity
  8
0
100
AcDbLine
 62
7
  6
CONTINUOUS
 10
11.6769541616
 20
2.2893161471
 11
11.6769541616
 21
2.2726832119
  0
LINE
  5
22A
100
AcDbEntity
  8
0
100
AcDbLine
 62
7
  6
CONTINUOUS
 10
11.6769541616
 20
2.0190309491
 11
11.6769541616
 21
2.0023980138
  0
LINE
  5
22B
100
AcDbEntity
  8
0
100
AcDbLine
 62
7
  6
CONTINUOUS
 10
11.6969541616
 20
11.9635654913
 11
11.6969541616
 21
13.056020639
  0
LWPOLYLINE
  5
22C
100
AcDbEntity
  8
0
100
AcDbPolyline
 62
7
  6
CONTINUOUS
 90
7
 70
0
 10
11.191855474
 20
12.8295741124
 10
11.1922038544
 20
12.8269218498
 10
11.1926127135
 20
12.8243920046
 10
11.1930792782
 20
12.8219747399
 10
11.1936076952
 20
12.8196350297
 10
11.1942007542
 20
12.8173618885
 10
11.1948607729
 20
12.8151519435
  0
LWPOLYLINE
  5
22D
100
AcDbEntity
  8
0
100
AcDbPolyline
 62
7
  6
CONTINUOUS
 90
28
 70
0
 10
11.1948607729
 20
12.8151519435
 10
11.1955974091
 20
12.8129800065
 10
11.1964165068
 20
12.8108410954
 10
11.1973252698
 20
12.8087312462
 10
11.1983412347
 20
12.8066299721
 10
11.1994791324
 20
12.8045325153
 10
11.200746725
 20
12.8024491945
 10
11.2021527345
 20
12.8003884826
 10
11.2037087237
 20
12.7983565125
 10
11.2054206796
 20
12.7963683447
 10
11.2072832416
 20
12.7944498598
 10
11.2092987946
 20
12.7926154452
 10
11.2114691823
 20
12.7908797492
 10
11.2137796496
 20
12.7892683396
 10
11.2162250111
 20
12.7877957311
 10
11.2187993291
 20
12.7864756821
 10
11.2214789547
 20
12.7853282344
 10
11.2242520633
 20
12.784364039
 10
11.2271069335
 20
12.7835924454
 10
11.2300149757
 20
12.7830245651
 10
11.2329591453
 20
12.7826649704
 10
11.2359261638
 20
12.7825163079
 10
11.2388910981
 20
12.782579873
 10
11.2418389778
 20
12.7828542634
 10
11.2447537011
 20
12.7833366857
 10
11.2476092006
 20
12.7840199999
 10
11.2503881183
 20
12.7848953278
 10
11.2524671374
 20
12.7856940493
  0
LWPOLYLINE
  5
22E
100
AcDbEntity
  8
0
100
AcDbPolyline
 62
7
  6
CONTINUOUS
 90
31
 70
0
 10
11.1827939021
 20
12.9458968505
 10
11.1827733962
 20
12.9459259653
 10
11.1827315481
 20
12.9459875789
 10
11.1827855825
 20
12.9458981986
 10
11.1829238709
 20
12.945651546
 10
11.1831308128
 20
12.9452515998
 10
11.1833955338
 20
12.9446956772
 10
11.1837124505
 20
12.9439714025
 10
11.1840754963
 20
12.9430672853
 10
11.1844789059
 20
12.9419713325
 10
11.1849118906
 20
12.9406877623
 10
11.1853622856
 20
12.9392326613
 10
11.1858246784
 20
12.9376054485
 10
11.1862922514
 20
12.9358095782
 10
11.1867539964
 20
12.9338702978
 10
11.1872054809
 20
12.9317933561
 10
11.1876434639
 20
12.9295821361
 10
11.188061931
 20
12.9272593968
 10
11.1884588938
 20
12.9248332552
 10
11.1888331387
 20
12.9223081224
 10
11.1891818907
 20
12.919700497
 10
11.1895041917
 20
12.917016927
 10
11.1897993195
 20
12.9142627761
 10
11.1900659257
 20
12.9114512195
 10
11.1903036415
 20
12.9085885125
 10
11.1905122901
 20
12.9056803429
 10
11.1906916281
 20
12.9027376842
 10
11.1908419305
 20
12.8997657128
 10
11.1909634142
 20
12.8967701469
 10
11.1910561629
 20
12.8937617869
 10
11.1911205653
 20
12.8907454024
  0
LWPOLYLINE
  5
22F
100
AcDbEntity
  8
0
100
AcDbPolyline
 62
7
  6
CONTINUOUS
 90
34
 70
0
 10
9.9414425758
 20
12.7856934727
 10
9.9437443074
 20
12.7848166721
 10
9.9464849422
 20
12.7839688427
 10
9.9492802
 20
12.7833112423
 10
9.9521166108
 20
12.7828478601
 10
9.9549807795
 20
12.7825815756
 10
9.9578587415
 20
12.7825142661
 10
9.9607359179
 20
12.7826466616
 10
9.9635979515
 20
12.7829782787
 10
9.9664308257
 20
12.7835075073
 10
9.9692203367
 20
12.7842315197
 10
9.9719525508
 20
12.7851462715
 10
9.9746149815
 20
12.7862469866
 10
9.9771943448
 20
12.7875273382
 10
9.9796775036
 20
12.7889794232
 10
9.9820615495
 20
12.7906006293
 10
9.9843285111
 20
12.7923772784
 10
9.9864498418
 20
12.7942803341
 10
9.9884271792
 20
12.7963011652
 10
9.9902547206
 20
12.7984231128
 10
9.9919079409
 20
12.8005992802
 10
9.9933950124
 20
12.8028147424
 10
9.9947281972
 20
12.8050614467
 10
9.9959039034
 20
12.8073009014
 10
9.9969346351
 20
12.8095179237
 10
9.9978408682
 20
12.811719246
 10
9.998634707
 20
12.8138999872
 10
9.9993233876
 20
12.8160418236
 10
9.9999265124
 20
12.818167214
 10
10.0004657698
 20
12.8203303226
 10
10.0009424894
 20
12.8225258727
 10
10.0013615139
 20
12.8247689389
 10
10.0017364335
 20
12.8271437583
 10
10.0020625967
 20
12.8296589493
  0
LINE
  5
230
100
AcDbEntity
  8
0
100
AcDbLine
 62
7
  6
CONTINUOUS
 10
11.1911662713
 20
12.8418169835
 11
11.1930181744
 21
12.8418169835
  0
LINE
  5
231
100
AcDbEntity
  8
0
100
AcDbLine
 62
7
  6
CONTINUOUS
 10
11.260750064
 20
12.8544742412
 11
11.2208224909
 21
12.8544742412
  0
LINE
  5
232
100
AcDbEntity
  8
0
100
AcDbLine
 62
7
  6
CONTINUOUS
 10
9.9331582593
 20
12.8544742412
 11
9.9730858323
 21
12.8544742412
  0
LINE
  5
233
100
AcDbEntity
  8
0
100
AcDbLine
 62
7
  6
CONTINUOUS
 10
10.002742052
 20
12.8852392507
 11
10.0008901488
 21
12.8852392507
  0
LINE
  5
234
100
AcDbEntity
  8
0
100
AcDbLine
 62
7
  6
CONTINUOUS
 10
11.1911662713
 20
12.8852393684
 11
11.1930181744
 21
12.8852392507
  0
LINE
  5
235
100
AcDbEntity
  8
0
100
AcDbLine
 62
7
  6
CONTINUOUS
 10
10.002742052
 20
12.8418165192
 11
10.0008901488
 21
12.8418169835
  0
LINE
  5
236
100
AcDbEntity
  8
0
100
AcDbLine
 62
7
  6
CONTINUOUS
 10
9.9730858323
 20
14.201282414
 11
9.9331582593
 21
14.2000618752
  0
LINE
  5
237
100
AcDbEntity
  8
0
100
AcDbLine
 62
7
  6
CONTINUOUS
 10
9.9719541616
 20
14.2400618752
 11
9.9319541616
 21
14.2400618752
  0
LINE
  5
238
100
AcDbEntity
  8
0
100
AcDbLine
 62
7
  6
CONTINUOUS
 10
11.2219541616
 20
14.2400618752
 11
11.2619541616
 21
14.2400618752
  0
LINE
  5
239
100
AcDbEntity
  8
0
100
AcDbLine
 62
7
  6
CONTINUOUS
 10
11.2208224909
 20
14.201282414
 11
11.260750064
 21
14.2000618752
  0
LINE
  5
23A
100
AcDbEntity
  8
0
100
AcDbLine
 62
7
  6
CONTINUOUS
 10
11.2219541616
 20
15.7207443601
 11
11.2192933224
 21
15.7221331738
  0
LINE
  5
23B
100
AcDbEntity
  8
0
100
AcDbLine
 62
7
  6
CONTINUOUS
 10
9.9719541616
 20
15.8751198211
 11
9.9319541616
 21
15.8751198211
  0
LINE
  5
23C
100
AcDbEntity
  8
0
100
AcDbLine
 62
7
  6
CONTINUOUS
 10
11.2219541616
 20
15.8751198211
 11
11.2619541616
 21
15.875119821
  0
ARC
  5
23D
100
AcDbEntity
  8
0
100
AcDbCircle
 62
7
  6
CONTINUOUS
 10
10.5533717428
 20
2.0190096971
 40
1.0364175814
100
AcDbArc
 50
172.969590321
 51
179.9988251376
  0
ARC
  5
23E
100
AcDbEntity
  8
0
100
AcDbCircle
 62
7
  6
CONTINUOUS
 10
10.5498884773
 20
2.0190319439
 40
1.0329343156
100
AcDbArc
 50
180.0000551827
 51
180.9225871142
  0
ARC
  5
23F
100
AcDbEntity
  8
0
100
AcDbCircle
 62
7
  6
CONTINUOUS
 10
10.5498884773
 20
2.289317142
 40
1.0329343156
100
AcDbArc
 50
180.0000551827
 51
180.9225871142
  0
ARC
  5
240
100
AcDbEntity
  8
0
100
AcDbCircle
 62
7
  6
CONTINUOUS
 10
10.0769552939
 20
8.2050609427
 40
0.04
100
AcDbArc
 50
180.0000000005
 51
270.0
  0
ARC
  5
241
100
AcDbEntity
  8
0
100
AcDbCircle
 62
7
  6
CONTINUOUS
 10
10.596954096
 20
14.3650616826
 40
1.8
100
AcDbArc
 50
72.8152317001
 51
107.1848146489
  0
ARC
  5
242
100
AcDbEntity
  8
0
100
AcDbCircle
 62
7
  6
CONTINUOUS
 10
10.5849695107
 20
14.2122308673
 40
1.5190596782
100
AcDbArc
 50
293.8265592693
 51
294.6863201203
  0
ARC
  5
243
100
AcDbEntity
  8
0
100
AcDbCircle
 62
7
  6
CONTINUOUS
 10
10.5809457879
 20
14.4922789608
 40
1.3856501583
100
AcDbArc
 50
62.568735005
 51
65.4334253145
  0
ARC
  5
244
100
AcDbEntity
  8
0
100
AcDbCircle
 62
7
  6
CONTINUOUS
 10
10.3956383084
 20
12.8852513014
 40
0.3947481597
100
AcDbArc
 50
179.1320094057
 51
180.0017491026
  0
ARC
  5
245
100
AcDbEntity
  8
0
100
AcDbCircle
 62
7
  6
CONTINUOUS
 10
9.9319541616
 20
15.8969479675
 40
0.04
100
AcDbArc
 50
0.0
 51
113.4659243258
  0
ARC
  5
246
100
AcDbEntity
  8
0
100
AcDbCircle
 62
7
  6
CONTINUOUS
 10
10.0769552939
 20
16.0464889073
 40
0.04
100
AcDbArc
 50
107.1847959008
 51
179.9999999994
  0
ARC
  5
247
100
AcDbEntity
  8
0
100
AcDbCircle
 62
7
  6
CONTINUOUS
 10
10.6405363903
 20
2.0190096862
 40
1.0364177716
100
AcDbArc
 50
0.0011754649
 51
7.0303032941
  0
ARC
  5
248
100
AcDbEntity
  8
0
100
AcDbCircle
 62
7
  6
CONTINUOUS
 10
10.644019846
 20
2.289317142
 40
1.0329343157
100
AcDbArc
 50
359.0774128858
 51
359.9999448173
  0
ARC
  5
249
100
AcDbEntity
  8
0
100
AcDbCircle
 62
7
  6
CONTINUOUS
 10
10.644019846
 20
2.0190319439
 40
1.0329343156
100
AcDbArc
 50
359.0774128858
 51
359.9999448173
  0
ARC
  5
24A
100
AcDbEntity
  8
0
100
AcDbCircle
 62
7
  6
CONTINUOUS
 10
11.1169552939
 20
8.2050609427
 40
0.04
100
AcDbArc
 50
270.0
 51
360.0
  0
ARC
  5
24B
100
AcDbEntity
  8
0
100
AcDbCircle
 62
7
  6
CONTINUOUS
 10
10.5969541616
 20
14.3650618752
 40
2.25
100
AcDbArc
 50
299.272081238
 51
240.727918762
  0
ARC
  5
24C
100
AcDbEntity
  8
0
100
AcDbCircle
 62
7
  6
CONTINUOUS
 10
10.5969541616
 20
14.3650618752
 40
2.19
100
AcDbArc
 50
300.1523550707
 51
239.847644904
  0
ARC
  5
24D
100
AcDbEntity
  8
0
100
AcDbCircle
 62
7
  6
CONTINUOUS
 10
10.5969541616
 20
14.3650618752
 40
2.15
100
AcDbArc
 50
300.7766946628
 51
239.2233053443
  0
ARC
  5
24E
100
AcDbEntity
  8
0
100
AcDbCircle
 62
7
  6
CONTINUOUS
 10
10.5969541616
 20
14.3650618752
 40
2.09
100
AcDbArc
 50
301.759763046
 51
238.240236954
  0
ARC
  5
24F
100
AcDbEntity
  8
0
100
AcDbCircle
 62
7
  6
CONTINUOUS
 10
10.5969541616
 20
14.3650618752
 40
2.03
100
AcDbArc
 50
302.8173617391
 51
237.1826382619
  0
ARC
  5
250
100
AcDbEntity
  8
0
100
AcDbCircle
 62
7
  6
CONTINUOUS
 10
10.5969564921
 20
14.3650602027
 40
1.8
100
AcDbArc
 50
72.8152474936
 51
107.1848253765
  0
ARC
  5
251
100
AcDbEntity
  8
0
100
AcDbCircle
 62
7
  6
CONTINUOUS
 10
10.5969541616
 20
14.3650618752
 40
1.71
100
AcDbArc
 50
289.1169974449
 51
70.8830025551
  0
ARC
  5
252
100
AcDbEntity
  8
0
100
AcDbCircle
 62
7
  6
CONTINUOUS
 10
10.5969541616
 20
14.3650618752
 40
1.71
100
AcDbArc
 50
109.1169168293
 51
250.8830831707
  0
ARC
  5
253
100
AcDbEntity
  8
0
100
AcDbCircle
 62
7
  6
CONTINUOUS
 10
10.5969541616
 20
14.3650618752
 40
1.65
100
AcDbArc
 50
67.7405132129
 51
70.1583568228
  0
ARC
  5
254
100
AcDbEntity
  8
0
100
AcDbCircle
 62
7
  6
CONTINUOUS
 10
10.5969541616
 20
14.3650618752
 40
1.65
100
AcDbArc
 50
109.8415596127
 51
112.2594867866
  0
ARC
  5
255
100
AcDbEntity
  8
0
100
AcDbCircle
 62
7
  6
CONTINUOUS
 10
10.5969541616
 20
14.3650618752
 40
1.65
100
AcDbArc
 50
248.8478974234
 51
250.1584403873
  0
ARC
  5
256
100
AcDbEntity
  8
0
100
AcDbCircle
 62
7
  6
CONTINUOUS
 10
10.5969541616
 20
14.3650618752
 40
1.65
100
AcDbArc
 50
289.8416431773
 51
291.1520673529
  0
ARC
  5
257
100
AcDbEntity
  8
0
100
AcDbCircle
 62
7
  6
CONTINUOUS
 10
10.5969541616
 20
14.3650618752
 40
1.65
100
AcDbArc
 50
293.7220755272
 51
66.2322456183
  0
ARC
  5
258
100
AcDbEntity
  8
0
100
AcDbCircle
 62
7
  6
CONTINUOUS
 10
10.5969541616
 20
14.3650618752
 40
1.65
100
AcDbArc
 50
113.7677544401
 51
246.2779243399
  0
ARC
  5
259
100
AcDbEntity
  8
0
100
AcDbCircle
 62
7
  6
CONTINUOUS
 10
10.5969541616
 20
14.3650618752
 40
1.61
100
AcDbArc
 50
248.3392178262
 51
249.6437987761
  0
ARC
  5
25A
100
AcDbEntity
  8
0
100
AcDbCircle
 62
7
  6
CONTINUOUS
 10
10.5969541616
 20
14.3650618752
 40
1.61
100
AcDbArc
 50
110.3562012239
 51
112.8434572394
  0
ARC
  5
25B
100
AcDbEntity
  8
0
100
AcDbCircle
 62
7
  6
CONTINUOUS
 10
10.5969541616
 20
14.3650618752
 40
1.61
100
AcDbArc
 50
67.1565427604
 51
69.6437128634
  0
ARC
  5
25C
100
AcDbEntity
  8
0
100
AcDbCircle
 62
7
  6
CONTINUOUS
 10
10.5969541616
 20
14.3650618752
 40
1.61
100
AcDbArc
 50
290.3562871366
 51
291.6607821737
  0
ARC
  5
25D
100
AcDbEntity
  8
0
100
AcDbCircle
 62
7
  6
CONTINUOUS
 10
10.5969541616
 20
14.3650618752
 40
1.55
100
AcDbArc
 50
291.1816512782
 51
292.3859042692
  0
ARC
  5
25E
100
AcDbEntity
  8
0
100
AcDbCircle
 62
7
  6
CONTINUOUS
 10
10.5969541616
 20
14.3650618752
 40
1.55
100
AcDbArc
 50
66.2188850593
 51
68.8187569063
  0
ARC
  5
25F
100
AcDbEntity
  8
0
100
AcDbCircle
 62
7
  6
CONTINUOUS
 10
10.5969541616
 20
14.3650618752
 40
1.55
100
AcDbArc
 50
111.1814746806
 51
113.7806406461
  0
ARC
  5
260
100
AcDbEntity
  8
0
100
AcDbCircle
 62
7
  6
CONTINUOUS
 10
10.5969541616
 20
14.3650618752
 40
1.55
100
AcDbArc
 50
247.6162431667
 51
248.8200647247
  0
ARC
  5
261
100
AcDbEntity
  8
0
100
AcDbCircle
 62
7
  6
CONTINUOUS
 10
10.6089375366
 20
14.2122280355
 40
1.5190565722
100
AcDbArc
 50
245.3136790007
 51
246.1734416097
  0
ARC
  5
262
100
AcDbEntity
  8
0
100
AcDbCircle
 62
7
  6
CONTINUOUS
 10
10.5969541616
 20
14.2400618752
 40
0.665
100
AcDbArc
 50
356.551555736
 51
360.0
  0
ARC
  5
263
100
AcDbEntity
  8
0
100
AcDbCircle
 62
7
  6
CONTINUOUS
 10
10.5969541616
 20
14.2400618752
 40
0.665
100
AcDbArc
 50
180.0
 51
183.448444264
  0
ARC
  5
264
100
AcDbEntity
  8
0
100
AcDbCircle
 62
7
  6
CONTINUOUS
 10
10.5969541616
 20
14.2400618752
 40
0.625
100
AcDbArc
 50
356.3499107495
 51
360.0
  0
ARC
  5
265
100
AcDbEntity
  8
0
100
AcDbCircle
 62
7
  6
CONTINUOUS
 10
10.5969541616
 20
14.2400618752
 40
0.625
100
AcDbArc
 50
180.0
 51
183.6498734581
  0
ARC
  5
266
100
AcDbEntity
  8
0
100
AcDbCircle
 62
7
  6
CONTINUOUS
 10
10.5969541616
 20
14.2400618752
 40
0.625
100
AcDbArc
 50
333.6553593802
 51
356.3305995381
  0
ARC
  5
267
100
AcDbEntity
  8
0
100
AcDbCircle
 62
7
  6
CONTINUOUS
 10
10.5969541616
 20
14.2400618752
 40
0.625
100
AcDbArc
 50
183.6694003837
 51
206.3449493402
  0
ARC
  5
268
100
AcDbEntity
  8
0
100
AcDbCircle
 62
7
  6
CONTINUOUS
 10
10.7985220504
 20
12.8852484518
 40
0.3944961242
100
AcDbArc
 50
359.9986636402
 51
0.8667579398
  0
ARC
  5
269
100
AcDbEntity
  8
0
100
AcDbCircle
 62
7
  6
CONTINUOUS
 10
10.6109737674
 20
14.4964438749
 40
1.3810352878
100
AcDbArc
 50
114.5632530939
 51
117.5482415422
  0
ARC
  5
26A
100
AcDbEntity
  8
0
100
AcDbCircle
 62
7
  6
CONTINUOUS
 10
10.5969541616
 20
15.0100618752
 40
0.625
100
AcDbArc
 50
0.0
 51
26.347002138
  0
ARC
  5
26B
100
AcDbEntity
  8
0
100
AcDbCircle
 62
7
  6
CONTINUOUS
 10
10.5969541616
 20
15.0100618752
 40
0.625
100
AcDbArc
 50
153.652515104
 51
180.0
  0
ARC
  5
26C
100
AcDbEntity
  8
0
100
AcDbCircle
 62
7
  6
CONTINUOUS
 10
11.1942703931
 20
12.9726500363
 40
0.0353813111
100
AcDbArc
 50
252.6055514937
 51
255.8265776275
  0
ARC
  5
26D
100
AcDbEntity
  8
0
100
AcDbCircle
 62
7
  6
CONTINUOUS
 10
11.2619541616
 20
15.8969479675
 40
0.04
100
AcDbArc
 50
66.5340756742
 51
180.0
  0
ARC
  5
26E
100
AcDbEntity
  8
0
100
AcDbCircle
 62
7
  6
CONTINUOUS
 10
11.1169552939
 20
16.0464889073
 40
0.04
100
AcDbArc
 50
0.0000000016
 51
72.8152040992
  0
SPLINE
  5
26F
100
AcDbEntity
  8
0
100
AcDbSpline
 62
7
  6
CONTINUOUS
 70
0
 71
3
 72
35
 73
31
 74
0
 42
0.0000001
 43
0.0000001
 44
0.0000000001
 40
0.0
 40
0.0
 40
0.0
 40
0.0
 40
0.0315554811
 40
0.0631147576
 40
0.0946651354
 40
0.1262054332
 40
0.1892326921
 40
0.2521931261
 40
0.283651819
 40
0.3150872887
 40
0.346497778
 40
0.377881744
 40
0.4092379392
 40
0.4405653287
 40
0.4718631962
 40
0.5031310776
 40
0.5343688184
 40
0.5655765436
 40
0.5967546686
 40
0.6279039057
 40
0.6590252188
 40
0.6901198834
 40
0.7211894041
 40
0.7522355481
 40
0.783260216
 40
0.8142657224
 40
0.8452546138
 40
0.8762290009
 40
0.9381259324
 40
1.0
 40
1.0
 40
1.0
 40
1.0
 10
10.5969541616
 20
0.9446874611
 30
0.0
 10
10.5792966946
 20
0.9446874611
 30
0.0
 10
10.5439737324
 20
0.9455368757
 30
0.0
 10
10.4911203903
 20
0.949351364
 30
0.0
 10
10.4385175537
 20
0.9557017562
 30
0.0
 10
10.3689197084
 20
0.9675207766
 30
0.0
 10
10.2831648242
 20
0.9885389394
 30
0.0
 10
10.1998754713
 20
1.0177043044
 30
0.0
 10
10.1352482471
 20
1.0457425495
 30
0.0
 10
10.087891651
 20
1.0690726932
 30
0.0
 10
10.0417591542
 20
1.0946502056
 30
0.0
 10
9.9969609451
 20
1.1224152203
 30
0.0
 10
9.9536046116
 20
1.1523000587
 30
0.0
 10
9.9117955872
 20
1.1842346386
 30
0.0
 10
9.8716335768
 20
1.2181408991
 30
0.0
 10
9.8332169797
 20
1.2539392615
 30
0.0
 10
9.7966370619
 20
1.2915421833
 30
0.0
 10
9.7619839704
 20
1.3308610546
 30
0.0
 10
9.7293398909
 20
1.3717999426
 30
0.0
 10
9.698785538
 20
1.4142617639
 30
0.0
 10
9.6703934916
 20
1.4581432917
 30
0.0
 10
9.6442339105
 20
1.5033397471
 30
0.0
 10
9.6203693447
 20
1.5497416881
 30
0.0
 10
9.5988584352
 20
1.5972375517
 30
0.0
 10
9.5797531507
 20
1.645712725
 30
0.0
 10
9.5630998829
 20
1.6950499455
 30
0.0
 10
9.548939814
 20
1.7451316117
 30
0.0
 10
9.5334342113
 20
1.8127084511
 30
0.0
 10
9.5204315589
 20
1.8984698994
 30
0.0
 10
9.5169541616
 20
1.9677752075
 30
0.0
 10
9.5169541616
 20
2.0023980138
 30
0.0
  0
SPLINE
  5
270
100
AcDbEntity
  8
0
100
AcDbSpline
 62
7
  6
CONTINUOUS
 70
0
 71
3
 72
35
 73
31
 74
0
 42
0.0000001
 43
0.0000001
 44
0.0000000001
 40
0.0
 40
0.0
 40
0.0
 40
0.0
 40
0.0618740623
 40
0.1237709896
 40
0.154745376
 40
0.1857342666
 40
0.2167397729
 40
0.247764441
 40
0.2788105857
 40
0.3098801073
 40
0.3409747731
 40
0.3720960878
 40
0.4032453266
 40
0.4344234533
 40
0.4656311805
 40
0.4968689232
 40
0.5281368066
 40
0.559434676
 40
0.5907620673
 40
0.6221182641
 40
0.6535022315
 40
0.6849127218
 40
0.7163481924
 40
0.7478068858
 40
0.8107673195
 40
0.8737945767
 40
0.9053348733
 40
0.9368852478
 40
0.9684445203
 40
1.0
 40
1.0
 40
1.0
 40
1.0
 10
11.6769541616
 20
2.0023980138
 30
0.0
 10
11.6769541616
 20
1.9677752105
 30
0.0
 10
11.6734767652
 20
1.8984699077
 30
0.0
 10
11.6604741138
 20
1.812708465
 30
0.0
 10
11.644968514
 20
1.7451316282
 30
0.0
 10
11.6308084453
 20
1.695049963
 30
0.0
 10
11.6141551794
 20
1.6457127422
 30
0.0
 10
11.5950498947
 20
1.5972375686
 30
0.0
 10
11.5735389864
 20
1.5497417032
 30
0.0
 10
11.5496744199
 20
1.5033397608
 30
0.0
 10
11.523514839
 20
1.4581433029
 30
0.0
 10
11.4951227913
 20
1.4142617731
 30
0.0
 10
11.4645684374
 20
1.371799949
 30
0.0
 10
11.4319243561
 20
1.3308610586
 30
0.0
 10
11.3972712627
 20
1.2915421846
 30
0.0
 10
11.3606913425
 20
1.2539392606
 30
0.0
 10
11.3222747431
 20
1.2181408959
 30
0.0
 10
11.2821127299
 20
1.1842346339
 30
0.0
 10
11.2403037032
 20
1.1523000521
 30
0.0
 10
11.1969473668
 20
1.1224152132
 30
0.0
 10
11.1521491557
 20
1.0946501974
 30
0.0
 10
11.1060166565
 20
1.0690726854
 30
0.0
 10
11.0586600592
 20
1.0457425412
 30
0.0
 10
10.9940328335
 20
1.0177042978
 30
0.0
 10
10.9107434811
 20
0.9885389341
 30
0.0
 10
10.8249885982
 20
0.9675207734
 30
0.0
 10
10.7553907562
 20
0.9557017543
 30
0.0
 10
10.7027879243
 20
0.9493513633
 30
0.0
 10
10.649934587
 20
0.9455368752
 30
0.0
 10
10.6146116279
 20
0.9446874611
 30
0.0
 10
10.5969541616
 20
0.9446874611
 30
0.0
  0
SPLINE
  5
271
100
AcDbEntity
  8
0
100
AcDbSpline
 62
7
  6
CONTINUOUS
 70
0
 71
3
 72
35
 73
31
 74
0
 42
0.0000001
 43
0.0000001
 44
0.0000000001
 40
0.0
 40
0.0
 40
0.0
 40
0.0
 40
0.0315554811
 40
0.0631147576
 40
0.0946651354
 40
0.1262054332
 40
0.1892326921
 40
0.2521931261
 40
0.283651819
 40
0.3150872887
 40
0.346497778
 40
0.377881744
 40
0.4092379392
 40
0.4405653287
 40
0.4718631962
 40
0.5031310776
 40
0.5343688184
 40
0.5655765436
 40
0.5967546686
 40
0.6279039057
 40
0.6590252188
 40
0.6901198834
 40
0.7211894041
 40
0.7522355481
 40
0.783260216
 40
0.8142657224
 40
0.8452546138
 40
0.8762290009
 40
0.9381259324
 40
1.0
 40
1.0
 40
1.0
 40
1.0
 10
10.5969541616
 20
1.2149726591
 30
0.0
 10
10.5792966946
 20
1.2149726591
 30
0.0
 10
10.5439737324
 20
1.2158220738
 30
0.0
 10
10.4911203903
 20
1.219636562
 30
0.0
 10
10.4385175537
 20
1.2259869543
 30
0.0
 10
10.3689197084
 20
1.2378059746
 30
0.0
 10
10.2831648242
 20
1.2588241375
 30
0.0
 10
10.1998754713
 20
1.2879895025
 30
0.0
 10
10.1352482471
 20
1.3160277476
 30
0.0
 10
10.087891651
 20
1.3393578913
 30
0.0
 10
10.0417591542
 20
1.3649354037
 30
0.0
 10
9.9969609451
 20
1.3927004184
 30
0.0
 10
9.9536046116
 20
1.4225852567
 30
0.0
 10
9.9117955872
 20
1.4545198367
 30
0.0
 10
9.8716335768
 20
1.4884260971
 30
0.0
 10
9.8332169797
 20
1.5242244596
 30
0.0
 10
9.7966370619
 20
1.5618273814
 30
0.0
 10
9.7619839704
 20
1.6011462527
 30
0.0
 10
9.7293398909
 20
1.6420851407
 30
0.0
 10
9.698785538
 20
1.684546962
 30
0.0
 10
9.6703934916
 20
1.7284284897
 30
0.0
 10
9.6442339105
 20
1.7736249452
 30
0.0
 10
9.6203693447
 20
1.8200268861
 30
0.0
 10
9.5988584352
 20
1.8675227498
 30
0.0
 10
9.5797531507
 20
1.9159979231
 30
0.0
 10
9.5630998829
 20
1.9653351436
 30
0.0
 10
9.548939814
 20
2.0154168097
 30
0.0
 10
9.5334342113
 20
2.0829936491
 30
0.0
 10
9.5204315589
 20
2.1687550975
 30
0.0
 10
9.5169541616
 20
2.2380604056
 30
0.0
 10
9.5169541616
 20
2.2726832119
 30
0.0
  0
SPLINE
  5
272
100
AcDbEntity
  8
0
100
AcDbSpline
 62
7
  6
CONTINUOUS
 70
0
 71
3
 72
35
 73
31
 74
0
 42
0.0000001
 43
0.0000001
 44
0.0000000001
 40
0.0
 40
0.0
 40
0.0
 40
0.0
 40
0.0618740623
 40
0.1237709896
 40
0.154745376
 40
0.1857342666
 40
0.2167397729
 40
0.247764441
 40
0.2788105857
 40
0.3098801073
 40
0.3409747731
 40
0.3720960878
 40
0.4032453266
 40
0.4344234533
 40
0.4656311805
 40
0.4968689232
 40
0.5281368066
 40
0.559434676
 40
0.5907620673
 40
0.6221182641
 40
0.6535022315
 40
0.6849127218
 40
0.7163481924
 40
0.7478068858
 40
0.8107673195
 40
0.8737945767
 40
0.9053348733
 40
0.9368852478
 40
0.9684445203
 40
1.0
 40
1.0
 40
1.0
 40
1.0
 10
11.6769541616
 20
2.2726832119
 30
0.0
 10
11.6769541616
 20
2.2380604085
 30
0.0
 10
11.6734767652
 20
2.1687551057
 30
0.0
 10
11.6604741138
 20
2.0829936631
 30
0.0
 10
11.644968514
 20
2.0154168263
 30
0.0
 10
11.6308084453
 20
1.965335161
 30
0.0
 10
11.6141551794
 20
1.9159979403
 30
0.0
 10
11.5950498947
 20
1.8675227666
 30
0.0
 10
11.5735389864
 20
1.8200269013
 30
0.0
 10
11.5496744199
 20
1.7736249589
 30
0.0
 10
11.523514839
 20
1.728428501
 30
0.0
 10
11.4951227913
 20
1.6845469712
 30
0.0
 10
11.4645684374
 20
1.642085147
 30
0.0
 10
11.4319243561
 20
1.6011462567
 30
0.0
 10
11.3972712627
 20
1.5618273827
 30
0.0
 10
11.3606913425
 20
1.5242244586
 30
0.0
 10
11.3222747431
 20
1.4884260939
 30
0.0
 10
11.2821127299
 20
1.454519832
 30
0.0
 10
11.2403037032
 20
1.4225852502
 30
0.0
 10
11.1969473668
 20
1.3927004113
 30
0.0
 10
11.1521491557
 20
1.3649353954
 30
0.0
 10
11.1060166565
 20
1.3393578835
 30
0.0
 10
11.0586600592
 20
1.3160277392
 30
0.0
 10
10.9940328335
 20
1.2879894959
 30
0.0
 10
10.9107434811
 20
1.2588241322
 30
0.0
 10
10.8249885982
 20
1.2378059715
 30
0.0
 10
10.7553907562
 20
1.2259869524
 30
0.0
 10
10.7027879243
 20
1.2196365613
 30
0.0
 10
10.649934587
 20
1.2158220732
 30
0.0
 10
10.6146116279
 20
1.2149726591
 30
0.0
 10
10.5969541616
 20
1.2149726591
 30
0.0
  0
SPLINE
  5
273
100
AcDbEntity
  8
0
100
AcDbSpline
 62
7
  6
CONTINUOUS
 70
0
 71
3
 72
15
 73
11
 74
0
 42
0.0000001
 43
0.0000001
 44
0.0000000001
 40
0.0
 40
0.0
 40
0.0
 40
0.0
 40
0.1247019912
 40
0.2494407055
 40
0.3742334756
 40
0.4991168627
 40
0.6241132753
 40
0.7492469262
 40
0.8745372148
 40
1.0
 40
1.0
 40
1.0
 40
1.0
 10
9.5169541616
 20
2.2893161471
 30
0.0
 10
9.5169541616
 20
2.3169105677
 30
0.0
 10
9.5191625345
 20
2.3721329293
 30
0.0
 10
9.5290770581
 20
2.4544332376
 30
0.0
 10
9.5455347878
 20
2.5357247398
 30
0.0
 10
9.5684310469
 20
2.6155002281
 30
0.0
 10
9.5976256611
 20
2.6932725208
 30
0.0
 10
9.6329381707
 20
2.7685653262
 30
0.0
 10
9.6741466632
 20
2.840912291
 30
0.0
 10
9.7053679462
 20
2.8868648183
 30
0.0
 10
9.7218609877
 20
2.9091975533
 30
0.0
  0
SPLINE
  5
274
100
AcDbEntity
  8
0
100
AcDbSpline
 62
7
  6
CONTINUOUS
 70
0
 71
3
 72
15
 73
11
 74
0
 42
0.0000001
 43
0.0000001
 44
0.0000000001
 40
0.0
 40
0.0
 40
0.0
 40
0.0
 40
0.1254627773
 40
0.2507530593
 40
0.3758867058
 40
0.5008831162
 40
0.6257665042
 40
0.750559276
 40
0.8752980016
 40
1.0
 40
1.0
 40
1.0
 40
1.0
 10
11.4720472713
 20
2.9091976402
 30
0.0
 10
11.4885403168
 20
2.8868649048
 30
0.0
 10
11.5197616075
 20
2.8409123756
 30
0.0
 10
11.5609701114
 20
2.7685654065
 30
0.0
 10
11.5962826317
 20
2.6932725944
 30
0.0
 10
11.6254772557
 20
2.6155002922
 30
0.0
 10
11.6483735228
 20
2.5357247921
 30
0.0
 10
11.66483126
 20
2.4544332744
 30
0.0
 10
11.6747457873
 20
2.3721329484
 30
0.0
 10
11.6769541616
 20
2.3169105738
 30
0.0
 10
11.6769541616
 20
2.2893161471
 30
0.0
  0
SPLINE
  5
275
100
AcDbEntity
  8
0
100
AcDbSpline
 62
7
  6
CONTINUOUS
 70
0
 71
3
 72
30
 73
26
 74
0
 42
0.0000001
 43
0.0000001
 44
0.0000000001
 40
0.0
 40
0.0
 40
0.0
 40
0.0
 40
0.0605824108
 40
0.1197493013
 40
0.1777590893
 40
0.2349030124
 40
0.2632691648
 40
0.2915680561
 40
0.319855867
 40
0.3481914708
 40
0.4632747927
 40
0.4928586468
 40
0.5228866941
 40
0.5534302786
 40
0.5845347882
 40
0.6162237277
 40
0.648533536
 40
0.7150087504
 40
0.7838328399
 40
0.8190452634
 40
0.8547128447
 40
0.8907185927
 40
0.9269350373
 40
0.9633353784
 40
1.0
 40
1.0
 40
1.0
 40
1.0
 10
9.7218758868
 20
11.7177943258
 30
0.0
 10
9.715130804
 20
11.7202911318
 30
0.0
 10
9.7018627049
 20
11.7254033346
 30
0.0
 10
9.6824048888
 20
11.73358299
 30
0.0
 10
9.6636062138
 20
11.7422480223
 30
0.0
 10
9.6484047552
 20
11.7499555837
 30
0.0
 10
9.6365572638
 20
11.7564535947
 30
0.0
 10
9.6278270747
 20
11.7615054003
 30
0.0
 10
9.6192237231
 20
11.7667645691
 30
0.0
 10
9.6021075534
 20
11.7778346375
 30
0.0
 10
9.5856289201
 20
11.7902151999
 30
0.0
 10
9.5701976354
 20
11.8040761778
 30
0.0
 10
9.5625132871
 20
11.8115311813
 30
0.0
 10
9.5550118073
 20
11.8194211724
 30
0.0
 10
9.5477245802
 20
11.8277736677
 30
0.0
 10
9.5406949434
 20
11.8366146613
 30
0.0
 10
9.5316469685
 20
11.8491935374
 30
0.0
 10
9.5212731266
 20
11.8662196189
 30
0.0
 10
9.5126944443
 20
11.8846083688
 30
0.0
 10
9.5070297096
 20
11.9002058863
 30
0.0
 10
9.5034368051
 20
11.9123849012
 30
0.0
 10
9.5005765206
 20
11.9248785618
 30
0.0
 10
9.4984964842
 20
11.9376144981
 30
0.0
 10
9.4972354227
 20
11.9505356834
 30
0.0
 10
9.4969541616
 20
11.9592126517
 30
0.0
 10
9.4969541616
 20
11.9635654913
 30
0.0
  0
SPLINE
  5
276
100
AcDbEntity
  8
0
100
AcDbSpline
 62
7
  6
CONTINUOUS
 70
0
 71
3
 72
35
 73
31
 74
0
 42
0.0000001
 43
0.0000001
 44
0.0000000001
 40
0.0
 40
0.0
 40
0.0
 40
0.0
 40
0.0366845093
 40
0.0730751816
 40
0.1092672046
 40
0.1452588138
 40
0.1809275934
 40
0.2161438884
 40
0.2508458513
 40
0.2849920307
 40
0.3185359396
 40
0.3514708008
 40
0.3837881773
 40
0.4154728993
 40
0.4465620746
 40
0.4771060546
 40
0.5071418978
 40
0.5367160705
 40
0.5659051183
 40
0.594781806
 40
0.6234110944
 40
0.6518556772
 40
0.6801843167
 40
0.708463529
 40
0.7367561352
 40
0.765121029
 40
0.8222635076
 40
0.8802548301
 40
0.9394204752
 40
1.0
 40
1.0
 40
1.0
 40
1.0
 10
11.6969541616
 20
11.9635654913
 30
0.0
 10
11.6969541616
 20
11.9592094784
 30
0.0
 10
11.69667303
 20
11.9505296664
 30
0.0
 10
11.6954115963
 20
11.9376077689
 30
0.0
 10
11.6933314195
 20
11.9248752147
 30
0.0
 10
11.6904692549
 20
11.912384008
 30
0.0
 10
11.6868766936
 20
11.900203956
 30
0.0
 10
11.682595941
 20
11.8884115012
 30
0.0
 10
11.6776932543
 20
11.8770612177
 30
0.0
 10
11.6722393948
 20
11.8661875865
 30
0.0
 10
11.6662963093
 20
11.8558152304
 30
0.0
 10
11.6599308292
 20
11.8459548743
 30
0.0
 10
11.6532060379
 20
11.8366073366
 30
0.0
 10
11.6461776416
 20
11.8277648197
 30
0.0
 10
11.6388912989
 20
11.8194117056
 30
0.0
 10
11.6313863554
 20
11.811523218
 30
0.0
 10
11.6236989916
 20
11.8040692481
 30
0.0
 10
11.6158559173
 20
11.7970182097
 30
0.0
 10
11.6078698874
 20
11.7903425367
 30
0.0
 10
11.5997514383
 20
11.7840098652
 30
0.0
 10
11.5915103495
 20
11.7779867591
 30
0.0
 10
11.5831524595
 20
11.7722412357
 30
0.0
 10
11.5746736851
 20
11.766751983
 30
0.0
 10
11.5660700712
 20
11.7614953768
 30
0.0
 10
11.5573369878
 20
11.7564484175
 30
0.0
 10
11.545487682
 20
11.7499509442
 30
0.0
 10
11.5302896447
 20
11.7422349817
 30
0.0
 10
11.5114856354
 20
11.7335780361
 30
0.0
 10
11.4920272253
 20
11.725396983
 30
0.0
 10
11.4787581179
 20
11.7202812394
 30
0.0
 10
11.4720119018
 20
11.7177846182
 30
0.0
  0
SPLINE
  5
277
100
AcDbEntity
  8
0
100
AcDbSpline
 62
7
  6
CONTINUOUS
 70
0
 71
3
 72
13
 73
9
 74
0
 42
0.0000001
 43
0.0000001
 44
0.0000000001
 40
0.0
 40
0.0
 40
0.0
 40
0.0
 40
0.1195330422
 40
0.241075372
 40
0.4893205429
 40
0.7432534749
 40
0.8715548183
 40
1.0
 40
1.0
 40
1.0
 40
1.0
 10
11.1836932091
 20
12.9388867374
 30
0.0
 10
11.1821897676
 20
12.9393575412
 30
0.0
 10
11.1792169043
 20
12.9405090581
 30
0.0
 10
11.1735321583
 20
12.9435834686
 30
0.0
 10
11.1670754103
 20
12.9488062653
 30
0.0
 10
11.1619374457
 20
12.9554323778
 30
0.0
 10
11.1587464417
 20
12.9613708242
 30
0.0
 10
11.1574824884
 20
12.964519164
 30
0.0
 10
11.1569402288
 20
12.9661228624
 30
0.0
  0
SPLINE
  5
278
100
AcDbEntity
  8
0
100
AcDbSpline
 62
7
  6
CONTINUOUS
 70
0
 71
3
 72
45
 73
41
 74
0
 42
0.0000001
 43
0.0000001
 44
0.0000000001
 40
0.0
 40
0.0
 40
0.0
 40
0.0
 40
0.0930234724
 40
0.1392693536
 40
0.1851913252
 40
0.275653541
 40
0.3635825953
 40
0.4063463008
 40
0.4481795252
 40
0.4889877161
 40
0.5286802219
 40
0.5671688257
 40
0.6043699161
 40
0.6402028716
 40
0.6745926099
 40
0.7074677719
 40
0.7387636146
 40
0.7684201394
 40
0.7963854326
 40
0.8226139431
 40
0.8470704891
 40
0.8697291364
 40
0.8803809498
 40
0.8905801279
 40
0.9003275424
 40
0.909625845
 40
0.9184791166
 40
0.9268929535
 40
0.9348749733
 40
0.9424356965
 40
0.9495884601
 40
0.9563498191
 40
0.962740373
 40
0.9687858898
 40
0.9745175517
 40
0.9799725391
 40
0.9851946764
 40
0.9902347082
 40
0.9951493623
 40
1.0
 40
1.0
 40
1.0
 40
1.0
 10
10.5969541616
 20
4.6039702191
 30
0.0
 10
10.5683643378
 20
4.6039702191
 30
0.0
 10
10.5255595805
 20
4.6035351551
 30
0.0
 10
10.4686608191
 20
4.6020779352
 30
0.0
 10
10.4125668091
 20
4.6000564816
 30
0.0
 10
10.3437132834
 20
4.5964877545
 30
0.0
 10
10.2759224627
 20
4.5914710776
 30
0.0
 10
10.2231203674
 20
4.586611516
 30
0.0
 10
10.1847860644
 20
4.5826055001
 30
0.0
 10
10.1474442372
 20
4.5782138119
 30
0.0
 10
10.1111847822
 20
4.5734476539
 30
0.0
 10
10.0760948767
 20
4.5683180001
 30
0.0
 10
10.0422589585
 20
4.5628379855
 30
0.0
 10
10.009758309
 20
4.5570202685
 30
0.0
 10
9.97867104
 20
4.5508797449
 30
0.0
 10
9.9490717102
 20
4.5444306506
 30
0.0
 10
9.9210312656
 20
4.5376895201
 30
0.0
 10
9.8946167378
 20
4.5306720089
 30
0.0
 10
9.8698911081
 20
4.5233961425
 30
0.0
 10
9.8469129333
 20
4.5158787948
 30
0.0
 10
9.8257367623
 20
4.5081391989
 30
0.0
 10
9.8093100297
 20
4.5013871425
 30
0.0
 10
9.797129444
 20
4.4958660524
 30
0.0
 10
9.7886646141
 20
4.4917666453
 30
0.0
 10
9.7806860067
 20
4.4876252945
 30
0.0
 10
9.7731981655
 20
4.4834445351
 30
0.0
 10
9.7662053418
 20
4.479226865
 30
0.0
 10
9.759711666
 20
4.4749746611
 30
0.0
 10
9.7537210742
 20
4.4706900762
 30
0.0
 10
9.7482368182
 20
4.4663756234
 30
0.0
 10
9.743261903
 20
4.4620335817
 30
0.0
 10
9.7387992972
 20
4.4576660361
 30
0.0
 10
9.7348519926
 20
4.4532747533
 30
0.0
 10
9.7314223249
 20
4.4488618192
 30
0.0
 10
9.7285127101
 20
4.4444290749
 30
0.0
 10
9.7261259376
 20
4.4399782952
 30
0.0
 10
9.7242653123
 20
4.4355115257
 30
0.0
 10
9.7229334102
 20
4.4310314578
 30
0.0
 10
9.7221327488
 20
4.4265424912
 30
0.0
 10
9.7219541616
 20
4.4235382841
 30
0.0
 10
9.7219541616
 20
4.4220474896
 30
0.0
  0
SPLINE
  5
279
100
AcDbEntity
  8
0
100
AcDbSpline
 62
7
  6
CONTINUOUS
 70
0
 71
3
 72
37
 73
33
 74
0
 42
0.0000001
 43
0.0000001
 44
0.0000000001
 40
0.0
 40
0.0
 40
0.0
 40
0.0
 40
0.0309053947
 40
0.0618141436
 40
0.0927295804
 40
0.1236549472
 40
0.1545934234
 40
0.185548013
 40
0.2165216124
 40
0.2475168735
 40
0.278536292
 40
0.3095820689
 40
0.3406561985
 40
0.3717603513
 40
0.4028959413
 40
0.4340640491
 40
0.4652654546
 40
0.4965006118
 40
0.5277696397
 40
0.5590723518
 40
0.5904082081
 40
0.6217763911
 40
0.653175723
 40
0.6846047907
 40
0.7160618536
 40
0.7475449331
 40
0.8105614997
 40
0.8736528236
 40
0.9052273525
 40
0.9368129822
 40
0.9684082168
 40
1.0
 40
1.0
 40
1.0
 40
1.0
 10
9.5169541616
 20
2.2726832119
 30
0.0
 10
9.5169541616
 20
2.2553994184
 30
0.0
 10
9.5178222892
 20
2.2208236918
 30
0.0
 10
9.5217232973
 20
2.1690909928
 30
0.0
 10
9.528215988
 20
2.1176066987
 30
0.0
 10
9.5372826522
 20
2.0664963397
 30
0.0
 10
9.5489031981
 20
2.0158829262
 30
0.0
 10
9.5630481724
 20
1.965888231
 30
0.0
 10
9.5796845129
 20
1.916632971
 30
0.0
 10
9.5987714713
 20
1.8682356416
 30
0.0
 10
9.6202632426
 20
1.820812917
 30
0.0
 10
9.6441082057
 20
1.7744791629
 30
0.0
 10
9.670248296
 20
1.7293456881
 30
0.0
 10
9.6986214212
 20
1.6855217772
 30
0.0
 10
9.7291579743
 20
1.6431121931
 30
0.0
 10
9.7617857909
 20
1.6022201473
 30
0.0
 10
9.7964246385
 20
1.5629428453
 30
0.0
 10
9.8329927054
 20
1.5253763731
 30
0.0
 10
9.8714002019
 20
1.4896095727
 30
0.0
 10
9.911556159
 20
1.4557302839
 30
0.0
 10
9.9533623879
 20
1.4238183854
 30
0.0
 10
9.9967193728
 20
1.3939523469
 30
0.0
 10
10.0415217369
 20
1.3662025871
 30
0.0
 10
10.0876619488
 20
1.3406372526
 30
0.0
 10
10.1350297336
 20
1.3173165565
 30
0.0
 10
10.1996789062
 20
1.2892868046
 30
0.0
 10
10.2830027839
 20
1.2601283499
 30
0.0
 10
10.3687955668
 20
1.2391145809
 30
0.0
 10
10.4384284235
 20
1.2272971785
 30
0.0
 10
10.4910601541
 20
1.220947361
 30
0.0
 10
10.5439433658
 20
1.2171331608
 30
0.0
 10
10.5792865065
 20
1.2162838031
 30
0.0
 10
10.5969541616
 20
1.2162838031
 30
0.0
  0
SPLINE
  5
27A
100
AcDbEntity
  8
0
100
AcDbSpline
 62
7
  6
CONTINUOUS
 70
0
 71
3
 72
27
 73
23
 74
0
 42
0.0000001
 43
0.0000001
 44
0.0000000001
 40
0.0
 40
0.0
 40
0.0
 40
0.0
 40
0.0315970192
 40
0.0631987776
 40
0.0947910564
 40
0.1263714737
 40
0.1894746627
 40
0.2525033464
 40
0.2839924061
 40
0.3154554985
 40
0.3468905703
 40
0.3782959112
 40
0.4409932995
 40
0.5035582459
 40
0.5659878664
 40
0.6282844756
 40
0.6904555306
 40
0.7525133728
 40
0.8144747724
 40
0.8763602924
 40
0.9381934912
 40
1.0
 40
1.0
 40
1.0
 40
1.0
 10
10.5969541616
 20
1.4459116979
 30
0.0
 10
10.5826404527
 20
1.4459116979
 30
0.0
 10
10.5540061132
 20
1.4465999819
 30
0.0
 10
10.5111607728
 20
1.4496899978
 30
0.0
 10
10.4685188977
 20
1.4548345948
 30
0.0
 10
10.4121032421
 20
1.4644087624
 30
0.0
 10
10.3425953861
 20
1.4814340208
 30
0.0
 10
10.2750875278
 20
1.5050572808
 30
0.0
 10
10.2227099447
 20
1.5277672837
 30
0.0
 10
10.18433313
 20
1.5466605789
 30
0.0
 10
10.1469507314
 20
1.5673744552
 30
0.0
 10
10.0985873027
 20
1.5973280706
 30
0.0
 10
10.0410359695
 20
1.6390685293
 30
0.0
 10
9.9773076369
 20
1.6955550191
 30
0.0
 10
9.9195407439
 20
1.7578844781
 30
0.0
 10
9.8682968643
 20
1.8254545765
 30
0.0
 10
9.8240692937
 20
1.8976156616
 30
0.0
 10
9.7872853477
 20
1.9736729056
 30
0.0
 10
9.7583002468
 20
2.0528928718
 30
0.0
 10
9.7373941065
 20
2.1345150665
 30
0.0
 10
9.7247690131
 20
2.2177415425
 30
0.0
 10
9.7219541616
 20
2.2737919929
 30
0.0
 10
9.7219541616
 20
2.3017908486
 30
0.0
  0
SPLINE
  5
27B
100
AcDbEntity
  8
0
100
AcDbSpline
 62
7
  6
CONTINUOUS
 70
0
 71
3
 72
27
 73
23
 74
0
 42
0.0000001
 43
0.0000001
 44
0.0000000001
 40
0.0
 40
0.0
 40
0.0
 40
0.0
 40
0.0315970192
 40
0.0631987776
 40
0.0947910564
 40
0.1263714737
 40
0.1894746627
 40
0.2525033464
 40
0.2839924061
 40
0.3154554985
 40
0.3468905703
 40
0.3782959112
 40
0.4409932995
 40
0.5035582459
 40
0.5659878664
 40
0.6282844756
 40
0.6904555306
 40
0.7525133728
 40
0.8144747724
 40
0.8763602924
 40
0.9381934912
 40
1.0
 40
1.0
 40
1.0
 40
1.0
 10
10.5969541616
 20
1.5498675434
 30
0.0
 10
10.5826404527
 20
1.5498675434
 30
0.0
 10
10.5540061132
 20
1.5505558274
 30
0.0
 10
10.5111607728
 20
1.5536458432
 30
0.0
 10
10.4685188977
 20
1.5587904402
 30
0.0
 10
10.4121032421
 20
1.5683646078
 30
0.0
 10
10.3425953861
 20
1.5853898662
 30
0.0
 10
10.2750875278
 20
1.6090131262
 30
0.0
 10
10.2227099447
 20
1.6317231292
 30
0.0
 10
10.18433313
 20
1.6506164243
 30
0.0
 10
10.1469507314
 20
1.6713303006
 30
0.0
 10
10.0985873027
 20
1.701283916
 30
0.0
 10
10.0410359695
 20
1.7430243748
 30
0.0
 10
9.9773076369
 20
1.7995108645
 30
0.0
 10
9.9195407439
 20
1.8618403235
 30
0.0
 10
9.8682968643
 20
1.9294104219
 30
0.0
 10
9.8240692937
 20
2.001571507
 30
0.0
 10
9.7872853477
 20
2.077628751
 30
0.0
 10
9.7583002468
 20
2.1568487172
 30
0.0
 10
9.7373941065
 20
2.2384709119
 30
0.0
 10
9.7247690131
 20
2.3216973879
 30
0.0
 10
9.7219541616
 20
2.3777478383
 30
0.0
 10
9.7219541616
 20
2.405746694
 30
0.0
  0
SPLINE
  5
27C
100
AcDbEntity
  8
0
100
AcDbSpline
 62
7
  6
CONTINUOUS
 70
0
 71
3
 72
27
 73
23
 74
0
 42
0.0000001
 43
0.0000001
 44
0.0000000001
 40
0.0
 40
0.0
 40
0.0
 40
0.0
 40
0.0618065088
 40
0.1236397076
 40
0.1855252276
 40
0.2474866272
 40
0.3095444694
 40
0.3717155244
 40
0.4340121336
 40
0.4964417541
 40
0.5590067005
 40
0.6217040888
 40
0.6531094297
 40
0.6845445015
 40
0.7160075939
 40
0.7474966536
 40
0.8105253373
 40
0.8736285263
 40
0.9052089436
 40
0.9368012224
 40
0.9684029808
 40
1.0
 40
1.0
 40
1.0
 40
1.0
 10
11.4719541616
 20
2.3017908486
 30
0.0
 10
11.4719541616
 20
2.2737919929
 30
0.0
 10
11.4691393102
 20
2.2177415425
 30
0.0
 10
11.4565142168
 20
2.1345150665
 30
0.0
 10
11.4356080765
 20
2.0528928718
 30
0.0
 10
11.4066229755
 20
1.9736729056
 30
0.0
 10
11.3698390295
 20
1.8976156616
 30
0.0
 10
11.325611459
 20
1.8254545765
 30
0.0
 10
11.2743675794
 20
1.7578844781
 30
0.0
 10
11.2166006863
 20
1.6955550191
 30
0.0
 10
11.1528723538
 20
1.6390685293
 30
0.0
 10
11.0953210206
 20
1.5973280706
 30
0.0
 10
11.0469575919
 20
1.5673744552
 30
0.0
 10
11.0095751933
 20
1.5466605789
 30
0.0
 10
10.9711983786
 20
1.5277672837
 30
0.0
 10
10.9188207955
 20
1.5050572808
 30
0.0
 10
10.8513129372
 20
1.4814340208
 30
0.0
 10
10.7818050812
 20
1.4644087624
 30
0.0
 10
10.7253894256
 20
1.4548345948
 30
0.0
 10
10.6827475504
 20
1.4496899978
 30
0.0
 10
10.63990221
 20
1.4465999819
 30
0.0
 10
10.6112678706
 20
1.4459116979
 30
0.0
 10
10.5969541616
 20
1.4459116979
 30
0.0
  0
SPLINE
  5
27D
100
AcDbEntity
  8
0
100
AcDbSpline
 62
7
  6
CONTINUOUS
 70
0
 71
3
 72
27
 73
23
 74
0
 42
0.0000001
 43
0.0000001
 44
0.0000000001
 40
0.0
 40
0.0
 40
0.0
 40
0.0
 40
0.0618065088
 40
0.1236397076
 40
0.1855252276
 40
0.2474866272
 40
0.3095444694
 40
0.3717155244
 40
0.4340121336
 40
0.4964417541
 40
0.5590067005
 40
0.6217040888
 40
0.6531094297
 40
0.6845445015
 40
0.7160075939
 40
0.7474966536
 40
0.8105253373
 40
0.8736285263
 40
0.9052089436
 40
0.9368012224
 40
0.9684029808
 40
1.0
 40
1.0
 40
1.0
 40
1.0
 10
11.4719541616
 20
2.405746694
 30
0.0
 10
11.4719541616
 20
2.3777478383
 30
0.0
 10
11.4691393102
 20
2.3216973879
 30
0.0
 10
11.4565142168
 20
2.2384709119
 30
0.0
 10
11.4356080765
 20
2.1568487172
 30
0.0
 10
11.4066229755
 20
2.077628751
 30
0.0
 10
11.3698390295
 20
2.001571507
 30
0.0
 10
11.325611459
 20
1.9294104219
 30
0.0
 10
11.2743675794
 20
1.8618403235
 30
0.0
 10
11.2166006863
 20
1.7995108645
 30
0.0
 10
11.1528723538
 20
1.7430243748
 30
0.0
 10
11.0953210206
 20
1.701283916
 30
0.0
 10
11.0469575919
 20
1.6713303006
 30
0.0
 10
11.0095751933
 20
1.6506164243
 30
0.0
 10
10.9711983786
 20
1.6317231292
 30
0.0
 10
10.9188207955
 20
1.6090131262
 30
0.0
 10
10.8513129372
 20
1.5853898662
 30
0.0
 10
10.7818050812
 20
1.5683646078
 30
0.0
 10
10.7253894256
 20
1.5587904402
 30
0.0
 10
10.6827475504
 20
1.5536458432
 30
0.0
 10
10.63990221
 20
1.5505558274
 30
0.0
 10
10.6112678706
 20
1.5498675434
 30
0.0
 10
10.5969541616
 20
1.5498675434
 30
0.0
  0
SPLINE
  5
27E
100
AcDbEntity
  8
0
100
AcDbSpline
 62
7
  6
CONTINUOUS
 70
0
 71
3
 72
30
 73
26
 74
0
 42
0.0000001
 43
0.0000001
 44
0.0000000001
 40
0.0
 40
0.0
 40
0.0
 40
0.0
 40
0.1932185439
 40
0.2875676873
 40
0.3792181518
 40
0.4673292189
 40
0.5510591609
 40
0.6296097259
 40
0.7022233815
 40
0.768202195
 40
0.8268948858
 40
0.8777254514
 40
0.9000271504
 40
0.9201794165
 40
0.9381296354
 40
0.9538296736
 40
0.9672479628
 40
0.9783597324
 40
0.9871468379
 40
0.9906683527
 40
0.9936117542
 40
0.9959840866
 40
0.997801103
 40
0.9991018384
 40
1.0
 40
1.0
 40
1.0
 40
1.0
 10
11.260750064
 20
12.8544742412
 30
0.0
 10
11.2617949708
 20
12.8506865457
 30
0.0
 10
11.2633288521
 20
12.8450434323
 30
0.0
 10
11.2653216937
 20
12.8375938128
 30
0.0
 10
11.2667470269
 20
12.8322049581
 30
0.0
 10
11.2681010196
 20
12.8270206306
 30
0.0
 10
11.2693675454
 20
12.8220888247
 30
0.0
 10
11.2705346957
 20
12.8174569224
 30
0.0
 10
11.2715940731
 20
12.8131701701
 30
0.0
 10
11.2725336872
 20
12.8092698415
 30
0.0
 10
11.2733415744
 20
12.8057935318
 30
0.0
 10
11.2739223654
 20
12.8031764138
 30
0.0
 10
11.2743137389
 20
12.8013202277
 30
0.0
 10
11.274557345
 20
12.8001162649
 30
0.0
 10
11.274763657
 20
12.7990417717
 30
0.0
 10
11.2749323216
 20
12.7980995617
 30
0.0
 10
11.2750624546
 20
12.7972918089
 30
0.0
 10
11.2751532141
 20
12.7966203327
 30
0.0
 10
11.2751987849
 20
12.7961459813
 30
0.0
 10
11.2752118967
 20
12.7958360231
 30
0.0
 10
11.2752110464
 20
12.7956562242
 30
0.0
 10
11.2752009897
 20
12.7955113964
 30
0.0
 10
11.2751812309
 20
12.7954011013
 30
0.0
 10
11.2751539283
 20
12.7953238078
 30
0.0
 10
11.275121811
 20
12.7952884332
 30
0.0
 10
11.275105042
 20
12.7952811951
 30
0.0
  0
LINE
  5
27F
100
AcDbEntity
  8
0
100
AcDbLine
 62
7
  6
CONTINUOUS
 10
11.2619541616
 20
15.8751198211
 11
11.2778823054
 21
15.93363985
  0
SPLINE
  5
280
100
AcDbEntity
  8
0
100
AcDbSpline
 62
7
  6
CONTINUOUS
 70
0
 71
3
 72
37
 73
33
 74
0
 42
0.0000001
 43
0.0000001
 44
0.0000000001
 40
0.0
 40
0.0
 40
0.0
 40
0.0
 40
0.0309026092
 40
0.0618095555
 40
0.0927241081
 40
0.1236494051
 40
0.1545885369
 40
0.1855444047
 40
0.2165197976
 40
0.2475172705
 40
0.2785392023
 40
0.3095877069
 40
0.3406646613
 40
0.3717716605
 40
0.4029100098
 40
0.4340807277
 40
0.4652845015
 40
0.4965217376
 40
0.5277924843
 40
0.5590965223
 40
0.5904332669
 40
0.6218018823
 40
0.6532011725
 40
0.6846297245
 40
0.7160858032
 40
0.7475674397
 40
0.8105802553
 40
0.8736663898
 40
0.9052377353
 40
0.93682008
 40
0.9684118328
 40
1.0
 40
1.0
 40
1.0
 40
1.0
 10
9.5170880685
 20
2.2726853636
 30
0.0
 10
9.5173635688
 20
2.2555765937
 30
0.0
 10
9.51876482
 20
2.2213642496
 30
0.0
 10
9.5234124211
 20
2.1702128961
 30
0.0
 10
9.5305950918
 20
2.1193415508
 30
0.0
 10
9.5402957305
 20
2.068872006
 30
0.0
 10
9.5524912329
 20
2.0189229678
 30
0.0
 10
9.5671532975
 20
1.9696126563
 30
0.0
 10
9.5842464246
 20
1.9210572231
 30
0.0
 10
9.603731377
 20
1.8733717589
 30
0.0
 10
9.6255606942
 20
1.8266682714
 30
0.0
 10
9.6496844329
 20
1.7810578171
 30
0.0
 10
9.6760437998
 20
1.7366471258
 30
0.0
 10
9.7045784187
 20
1.693542189
 30
0.0
 10
9.7352189428
 20
1.6518434807
 30
0.0
 10
9.7678949028
 20
1.6116508512
 30
0.0
 10
9.8025272908
 20
1.5730576918
 30
0.0
 10
9.8390359906
 20
1.5361566116
 30
0.0
 10
9.8773332755
 20
1.5010332251
 30
0.0
 10
9.9173299869
 20
1.4677718284
 30
0.0
 10
9.958930625
 20
1.4364496571
 30
0.0
 10
10.0020377458
 20
1.4071417129
 30
0.0
 10
10.0465490736
 20
1.3799162761
 30
0.0
 10
10.092359523
 20
1.3548382771
 30
0.0
 10
10.1393621336
 20
1.3319662093
 30
0.0
 10
10.2034808383
 20
1.3044794713
 30
0.0
 10
10.2860681344
 20
1.2758922092
 30
0.0
 10
10.3710513553
 20
1.255293668
 30
0.0
 10
10.4400070548
 20
1.2437107929
 30
0.0
 10
10.4921188966
 20
1.2374873309
 30
0.0
 10
10.5444746939
 20
1.2337491671
 30
0.0
 10
10.5794635755
 20
1.2329167383
 30
0.0
 10
10.5969541616
 20
1.2329167383
 30
0.0
  0
SPLINE
  5
281
100
AcDbEntity
  8
0
100
AcDbSpline
 62
7
  6
CONTINUOUS
 70
0
 71
3
 72
45
 73
41
 74
0
 42
0.0000001
 43
0.0000001
 44
0.0000000001
 40
0.0
 40
0.0
 40
0.0
 40
0.0
 40
0.0048506377
 40
0.0097652918
 40
0.0148053236
 40
0.0200274609
 40
0.0254824483
 40
0.0312141102
 40
0.037259627
 40
0.0436501809
 40
0.0504115399
 40
0.0575643035
 40
0.0651250267
 40
0.0731070465
 40
0.0815208834
 40
0.090374155
 40
0.0996724576
 40
0.1094198721
 40
0.1196190502
 40
0.1302708636
 40
0.1529295109
 40
0.1773860569
 40
0.2036145674
 40
0.2315798606
 40
0.2612363854
 40
0.2925322281
 40
0.3254073901
 40
0.3597971284
 40
0.3956300839
 40
0.4328311743
 40
0.4713197781
 40
0.5110122839
 40
0.5518204748
 40
0.5936536992
 40
0.6364174047
 40
0.724346459
 40
0.8148086748
 40
0.8607306464
 40
0.9069765276
 40
1.0
 40
1.0
 40
1.0
 40
1.0
 10
11.4719541616
 20
4.4220474896
 30
0.0
 10
11.4719541616
 20
4.4235382841
 30
0.0
 10
11.4717755745
 20
4.4265424912
 30
0.0
 10
11.4709749131
 20
4.4310314578
 30
0.0
 10
11.469643011
 20
4.4355115257
 30
0.0
 10
11.4677823856
 20
4.4399782952
 30
0.0
 10
11.4653956132
 20
4.4444290749
 30
0.0
 10
11.4624859984
 20
4.4488618192
 30
0.0
 10
11.4590563307
 20
4.4532747533
 30
0.0
 10
11.4551090261
 20
4.4576660361
 30
0.0
 10
11.4506464202
 20
4.4620335817
 30
0.0
 10
11.4456715051
 20
4.4663756234
 30
0.0
 10
11.4401872491
 20
4.4706900762
 30
0.0
 10
11.4341966573
 20
4.4749746611
 30
0.0
 10
11.4277029814
 20
4.479226865
 30
0.0
 10
11.4207101578
 20
4.4834445351
 30
0.0
 10
11.4132223166
 20
4.4876252945
 30
0.0
 10
11.4052437092
 20
4.4917666453
 30
0.0
 10
11.3967788793
 20
4.4958660524
 30
0.0
 10
11.3845982936
 20
4.5013871425
 30
0.0
 10
11.368171561
 20
4.5081391989
 30
0.0
 10
11.34699539
 20
4.5158787948
 30
0.0
 10
11.3240172152
 20
4.5233961425
 30
0.0
 10
11.2992915855
 20
4.5306720089
 30
0.0
 10
11.2728770577
 20
4.5376895201
 30
0.0
 10
11.244836613
 20
4.5444306506
 30
0.0
 10
11.2152372833
 20
4.5508797449
 30
0.0
 10
11.1841500143
 20
4.5570202685
 30
0.0
 10
11.1516493648
 20
4.5628379855
 30
0.0
 10
11.1178134466
 20
4.5683180001
 30
0.0
 10
11.0827235411
 20
4.5734476539
 30
0.0
 10
11.0464640861
 20
4.5782138119
 30
0.0
 10
11.0091222589
 20
4.5826055001
 30
0.0
 10
10.9707879559
 20
4.586611516
 30
0.0
 10
10.9179858606
 20
4.5914710776
 30
0.0
 10
10.8501950399
 20
4.5964877545
 30
0.0
 10
10.7813415142
 20
4.6000564816
 30
0.0
 10
10.7252475042
 20
4.6020779352
 30
0.0
 10
10.6683487428
 20
4.6035351551
 30
0.0
 10
10.6255439855
 20
4.6039702191
 30
0.0
 10
10.5969541616
 20
4.6039702191
 30
0.0
  0
SPLINE
  5
282
100
AcDbEntity
  8
0
100
AcDbSpline
 62
7
  6
CONTINUOUS
 70
0
 71
3
 72
33
 73
29
 74
0
 42
0.0000001
 43
0.0000001
 44
0.0000000001
 40
0.0
 40
0.0
 40
0.0
 40
0.0
 40
0.0138753333
 40
0.027977989
 40
0.0425237881
 40
0.0577088075
 40
0.0737038183
 40
0.0906522527
 40
0.1086726234
 40
0.1278613229
 40
0.148294051
 40
0.1700299934
 40
0.1931156375
 40
0.2175861123
 40
0.2434658933
 40
0.2707723849
 40
0.2995173492
 40
0.3297058878
 40
0.3613379215
 40
0.3944102978
 40
0.4289165746
 40
0.4648456418
 40
0.5409140015
 40
0.6224855065
 40
0.7093901753
 40
0.8014302062
 40
0.8983822973
 40
1.0
 40
1.0
 40
1.0
 40
1.0
 10
11.4719541616
 20
11.8070618752
 30
0.0
 10
11.4719541616
 20
11.8087257248
 30
0.0
 10
11.4717310447
 20
11.8120847517
 30
0.0
 10
11.4707317335
 20
11.8170984816
 30
0.0
 10
11.4690705485
 20
11.8220987609
 30
0.0
 10
11.4667515798
 20
11.8270794891
 30
0.0
 10
11.4637794701
 20
11.8320375493
 30
0.0
 10
11.4601589692
 20
11.8369706234
 30
0.0
 10
11.4558937814
 20
11.8418765228
 30
0.0
 10
11.4509872064
 20
11.8467526334
 30
0.0
 10
11.445443284
 20
11.851596674
 30
0.0
 10
11.439266111
 20
11.8564059907
 30
0.0
 10
11.4324598131
 20
11.8611774332
 30
0.0
 10
11.4250290771
 20
11.8659077025
 30
0.0
 10
11.4169794321
 20
11.8705938453
 30
0.0
 10
11.4083166164
 20
11.8752325215
 30
0.0
 10
11.3990466908
 20
11.8798201247
 30
0.0
 10
11.3891764882
 20
11.8843534106
 30
0.0
 10
11.3787133748
 20
11.8888291779
 30
0.0
 10
11.3676649556
 20
11.8932439798
 30
0.0
 10
11.3560392816
 20
11.8975943915
 30
0.0
 10
11.3394630155
 20
11.903416168
 30
0.0
 10
11.3173467978
 20
11.9104801309
 30
0.0
 10
11.289135463
 20
11.9184979195
 30
0.0
 10
11.2588527993
 20
11.9261859553
 30
0.0
 10
11.2265889804
 20
11.9335207147
 30
0.0
 10
11.1924400204
 20
11.9404796908
 30
0.0
 10
11.1690143649
 20
11.9447578459
 30
0.0
 10
11.1570077264
 20
11.9468374546
 30
0.0
  0
LINE
  5
283
100
AcDbEntity
  8
0
100
AcDbLine
 62
7
  6
CONTINUOUS
 10
9.9160260179
 20
15.93363985
 11
9.9319541616
 21
15.8751198211
  0
SPLINE
  5
284
100
AcDbEntity
  8
0
100
AcDbSpline
 62
7
  6
CONTINUOUS
 70
0
 71
3
 72
30
 73
26
 74
0
 42
0.0000001
 43
0.0000001
 44
0.0000000001
 40
0.0
 40
0.0
 40
0.0
 40
0.0
 40
0.0008969666
 40
0.0021977602
 40
0.0040153312
 40
0.0063883455
 40
0.0093323618
 40
0.0128543022
 40
0.0216413859
 40
0.0327524037
 40
0.0461700881
 40
0.061870327
 40
0.0798217578
 40
0.0999754365
 40
0.1222779112
 40
0.1731060978
 40
0.2317954021
 40
0.2977748536
 40
0.3703899879
 40
0.4489402243
 40
0.5326699246
 40
0.6207814349
 40
0.712432068
 40
0.8067811951
 40
1.0
 40
1.0
 40
1.0
 40
1.0
 10
9.9188032813
 20
12.7952811951
 30
0.0
 10
9.918786535
 20
12.7952884246
 30
0.0
 10
9.9187544675
 20
12.7953238145
 30
0.0
 10
9.9187271603
 20
12.7954010797
 30
0.0
 10
9.9187073376
 20
12.7955113939
 30
0.0
 10
9.9186971914
 20
12.7956562517
 30
0.0
 10
9.9186962491
 20
12.7958360864
 30
0.0
 10
9.9187092559
 20
12.7961460706
 30
0.0
 10
9.9187548637
 20
12.7966204161
 30
0.0
 10
9.9188458334
 20
12.7972918353
 30
0.0
 10
9.9189761144
 20
12.7980995396
 30
0.0
 10
9.9191446788
 20
12.7990417828
 30
0.0
 10
9.9193504576
 20
12.8001164363
 30
0.0
 10
9.9195934666
 20
12.8013205913
 30
0.0
 10
9.9199843079
 20
12.8031768887
 30
0.0
 10
9.9205664615
 20
12.8057936105
 30
0.0
 10
9.921376354
 20
12.8092693401
 30
0.0
 10
9.9223147546
 20
12.8131699309
 30
0.0
 10
9.9233730021
 20
12.8174570061
 30
0.0
 10
9.9245411743
 20
12.8220886733
 30
0.0
 10
9.9258077784
 20
12.8270204558
 30
0.0
 10
9.92716041
 20
12.832205149
 30
0.0
 10
9.9285859047
 20
12.8375939786
 30
0.0
 10
9.9305804275
 20
12.8450431591
 30
0.0
 10
9.9321132413
 20
12.850686569
 30
0.0
 10
9.9331582593
 20
12.8544742412
 30
0.0
  0
SPLINE
  5
285
100
AcDbEntity
  8
0
100
AcDbSpline
 62
7
  6
CONTINUOUS
 70
0
 71
3
 72
15
 73
11
 74
0
 42
0.0000001
 43
0.0000001
 44
0.0000000001
 40
0.0
 40
0.0
 40
0.0
 40
0.0
 40
0.1189691783
 40
0.2400564209
 40
0.3632252231
 40
0.4882875141
 40
0.6149396276
 40
0.7427757586
 40
0.8713000322
 40
1.0
 40
1.0
 40
1.0
 40
1.0
 10
10.0082974282
 20
12.938344721
 30
0.0
 10
10.0098958096
 20
12.9387481157
 30
0.0
 10
10.0130673538
 20
12.9397915732
 30
0.0
 10
10.0176060816
 20
12.9419988411
 30
0.0
 10
10.0218902102
 20
12.9448238072
 30
0.0
 10
10.0258436882
 20
12.9482137528
 30
0.0
 10
10.0293968413
 20
12.9521086586
 30
0.0
 10
10.0324862374
 20
12.9564395229
 30
0.0
 10
10.0350588325
 20
12.9611272854
 30
0.0
 10
10.0363995268
 20
12.9644402027
 30
0.0
 10
10.0369704776
 20
12.9661296691
 30
0.0
  0
SPLINE
  5
286
100
AcDbEntity
  8
0
100
AcDbSpline
 62
7
  6
CONTINUOUS
 70
0
 71
3
 72
23
 73
19
 74
0
 42
0.0000001
 43
0.0000001
 44
0.0000000001
 40
0.0
 40
0.0
 40
0.0
 40
0.0
 40
0.0608625059
 40
0.1218519892
 40
0.1829720841
 40
0.2443206045
 40
0.3059543365
 40
0.3679034524
 40
0.4301855626
 40
0.4927992353
 40
0.5557218681
 40
0.6189125619
 40
0.6823177205
 40
0.7458709347
 40
0.8094902187
 40
0.873100232
 40
0.9366537644
 40
1.0
 40
1.0
 40
1.0
 40
1.0
 10
11.2524634698
 20
12.7856925242
 30
0.0
 10
11.2510296629
 20
12.7850974298
 30
0.0
 10
11.2480795182
 20
12.7840883432
 30
0.0
 10
11.2434963366
 20
12.7831465822
 30
0.0
 10
11.2388177366
 20
12.782791335
 30
0.0
 10
11.2341155807
 20
12.7830274172
 30
0.0
 10
11.2294585112
 20
12.7838498171
 30
0.0
 10
11.2249159289
 20
12.7852475873
 30
0.0
 10
11.2205551329
 20
12.7871990443
 30
0.0
 10
11.2164402678
 20
12.78967472
 30
0.0
 10
11.2126326972
 20
12.7926386598
 30
0.0
 10
11.2091879609
 20
12.7960459797
 30
0.0
 10
11.2061570309
 20
12.7998466269
 30
0.0
 10
11.2035852102
 20
12.8039845797
 30
0.0
 10
11.2015091753
 20
12.8083978457
 30
0.0
 10
11.1999602355
 20
12.8130227999
 30
0.0
 10
11.1989624294
 20
12.8177892517
 30
0.0
 10
11.198672199
 20
12.8210218328
 30
0.0
 10
11.1986231063
 20
12.8226368365
 30
0.0
  0
SPLINE
  5
287
100
AcDbEntity
  8
0
100
AcDbSpline
 62
7
  6
CONTINUOUS
 70
0
 71
3
 72
23
 73
19
 74
0
 42
0.0000001
 43
0.0000001
 44
0.0000000001
 40
0.0
 40
0.0
 40
0.0
 40
0.0
 40
0.0623014761
 40
0.1246589284
 40
0.1870032348
 40
0.2493739049
 40
0.3117807948
 40
0.3742214638
 40
0.4366985301
 40
0.4992131688
 40
0.5617620672
 40
0.6243397801
 40
0.6869414121
 40
0.7495598487
 40
0.8121797483
 40
0.874795896
 40
0.9374314277
 40
1.0
 40
1.0
 40
1.0
 40
1.0
 10
11.275105042
 20
12.7952811951
 30
0.0
 10
11.273601507
 20
12.7946316626
 30
0.0
 10
11.2705087366
 20
12.7935182414
 30
0.0
 10
11.2657012642
 20
12.7924344683
 30
0.0
 10
11.2607938959
 20
12.7919546849
 30
0.0
 10
11.2558638764
 20
12.792085926
 30
0.0
 10
11.2509851523
 20
12.7928247831
 30
0.0
 10
11.2462324242
 20
12.7941615902
 30
0.0
 10
11.241678214
 20
12.7960752
 30
0.0
 10
11.2373915849
 20
12.7985360496
 30
0.0
 10
11.2334385012
 20
12.8015075903
 30
0.0
 10
11.2298785384
 20
12.8049435318
 30
0.0
 10
11.2267661294
 20
12.808791958
 30
0.0
 10
11.2241493904
 20
12.8129944354
 30
0.0
 10
11.2220668224
 20
12.8174859891
 30
0.0
 10
11.2205509335
 20
12.8221998487
 30
0.0
 10
11.2196260237
 20
12.8270620938
 30
0.0
 10
11.2194107938
 20
12.8303563626
 30
0.0
 10
11.2194050092
 20
12.832001211
 30
0.0
  0
SPLINE
  5
288
100
AcDbEntity
  8
0
100
AcDbSpline
 62
7
  6
CONTINUOUS
 70
0
 71
3
 72
23
 73
19
 74
0
 42
0.0000001
 43
0.0000001
 44
0.0000000001
 40
0.0
 40
0.0
 40
0.0
 40
0.0
 40
0.0623015348
 40
0.1246590421
 40
0.1870033954
 40
0.249374101
 40
0.3117810129
 40
0.3742216893
 40
0.4366987484
 40
0.4992133672
 40
0.5617622358
 40
0.6243399122
 40
0.6869415046
 40
0.7495599025
 40
0.8121797696
 40
0.8747958958
 40
0.9374314211
 40
1.0
 40
1.0
 40
1.0
 40
1.0
 10
9.9188032813
 20
12.7952811951
 30
0.0
 10
9.9203068184
 20
12.7946316617
 30
0.0
 10
9.923399593
 20
12.7935182386
 30
0.0
 10
9.9282070716
 20
12.7924344627
 30
0.0
 10
9.9331144456
 20
12.7919546768
 30
0.0
 10
9.9380444704
 20
12.7920859155
 30
0.0
 10
9.942923199
 20
12.7928247706
 30
0.0
 10
9.9476759306
 20
12.7941615761
 30
0.0
 10
9.9522301434
 20
12.7960751848
 30
0.0
 10
9.9565167739
 20
12.7985360339
 30
0.0
 10
9.9604698579
 20
12.8015075746
 30
0.0
 10
9.9640298197
 20
12.8049435166
 30
0.0
 10
9.9671422264
 20
12.808791944
 30
0.0
 10
9.9697589615
 20
12.8129944233
 30
0.0
 10
9.9718415241
 20
12.8174859796
 30
0.0
 10
9.9733574063
 20
12.8221998423
 30
0.0
 10
9.9742823076
 20
12.8270620909
 30
0.0
 10
9.9744975319
 20
12.8303563616
 30
0.0
 10
9.9745033141
 20
12.832001211
 30
0.0
  0
SPLINE
  5
289
100
AcDbEntity
  8
0
100
AcDbSpline
 62
7
  6
CONTINUOUS
 70
0
 71
3
 72
37
 73
33
 74
0
 42
0.0000001
 43
0.0000001
 44
0.0000000001
 40
0.0
 40
0.0
 40
0.0
 40
0.0
 40
0.0309053947
 40
0.0618141436
 40
0.0927295804
 40
0.1236549472
 40
0.1545934234
 40
0.185548013
 40
0.2165216124
 40
0.2475168735
 40
0.278536292
 40
0.3095820689
 40
0.3406561985
 40
0.3717603513
 40
0.4028959413
 40
0.4340640491
 40
0.4652654546
 40
0.4965006118
 40
0.5277696397
 40
0.5590723518
 40
0.5904082081
 40
0.6217763911
 40
0.653175723
 40
0.6846047907
 40
0.7160618536
 40
0.7475449331
 40
0.8105614997
 40
0.8736528236
 40
0.9052273525
 40
0.9368129822
 40
0.9684082168
 40
1.0
 40
1.0
 40
1.0
 40
1.0
 10
9.5169541616
 20
2.0023980138
 30
0.0
 10
9.5169541616
 20
1.9851142203
 30
0.0
 10
9.5178222892
 20
1.9505384938
 30
0.0
 10
9.5217232973
 20
1.8988057947
 30
0.0
 10
9.528215988
 20
1.8473215006
 30
0.0
 10
9.5372826522
 20
1.7962111417
 30
0.0
 10
9.5489031981
 20
1.7455977281
 30
0.0
 10
9.5630481724
 20
1.695603033
 30
0.0
 10
9.5796845129
 20
1.646347773
 30
0.0
 10
9.5987714713
 20
1.5979504435
 30
0.0
 10
9.6202632426
 20
1.5505277189
 30
0.0
 10
9.6441082057
 20
1.5041939648
 30
0.0
 10
9.670248296
 20
1.45906049
 30
0.0
 10
9.6986214212
 20
1.4152365791
 30
0.0
 10
9.7291579743
 20
1.3728269951
 30
0.0
 10
9.7617857909
 20
1.3319349493
 30
0.0
 10
9.7964246385
 20
1.2926576473
 30
0.0
 10
9.8329927054
 20
1.255091175
 30
0.0
 10
9.8714002019
 20
1.2193243747
 30
0.0
 10
9.911556159
 20
1.1854450858
 30
0.0
 10
9.9533623879
 20
1.1535331873
 30
0.0
 10
9.9967193728
 20
1.1236671488
 30
0.0
 10
10.0415217369
 20
1.095917389
 30
0.0
 10
10.0876619488
 20
1.0703520545
 30
0.0
 10
10.1350297336
 20
1.0470313585
 30
0.0
 10
10.1996789062
 20
1.0190016065
 30
0.0
 10
10.2830027839
 20
0.9898431519
 30
0.0
 10
10.3687955668
 20
0.9688293828
 30
0.0
 10
10.4384284235
 20
0.9570119805
 30
0.0
 10
10.4910601541
 20
0.950662163
 30
0.0
 10
10.5439433658
 20
0.9468479628
 30
0.0
 10
10.5792865065
 20
0.945998605
 30
0.0
 10
10.5969541616
 20
0.945998605
 30
0.0
  0
SPLINE
  5
28A
100
AcDbEntity
  8
0
100
AcDbSpline
 62
7
  6
CONTINUOUS
 70
0
 71
3
 72
37
 73
33
 74
0
 42
0.0000001
 43
0.0000001
 44
0.0000000001
 40
0.0
 40
0.0
 40
0.0
 40
0.0
 40
0.0309026092
 40
0.0618095555
 40
0.0927241081
 40
0.1236494051
 40
0.1545885369
 40
0.1855444047
 40
0.2165197976
 40
0.2475172705
 40
0.2785392023
 40
0.3095877069
 40
0.3406646613
 40
0.3717716605
 40
0.4029100098
 40
0.4340807277
 40
0.4652845015
 40
0.4965217376
 40
0.5277924843
 40
0.5590965223
 40
0.5904332669
 40
0.6218018823
 40
0.6532011725
 40
0.6846297245
 40
0.7160858032
 40
0.7475674397
 40
0.8105802553
 40
0.8736663898
 40
0.9052377353
 40
0.93682008
 40
0.9684118328
 40
1.0
 40
1.0
 40
1.0
 40
1.0
 10
9.5170880685
 20
2.0024001655
 30
0.0
 10
9.5173635688
 20
1.9852913956
 30
0.0
 10
9.51876482
 20
1.9510790516
 30
0.0
 10
9.5234124211
 20
1.899927698
 30
0.0
 10
9.5305950918
 20
1.8490563528
 30
0.0
 10
9.5402957305
 20
1.7985868079
 30
0.0
 10
9.5524912329
 20
1.7486377698
 30
0.0
 10
9.5671532975
 20
1.6993274582
 30
0.0
 10
9.5842464246
 20
1.650772025
 30
0.0
 10
9.603731377
 20
1.6030865608
 30
0.0
 10
9.6255606942
 20
1.5563830733
 30
0.0
 10
9.6496844329
 20
1.510772619
 30
0.0
 10
9.6760437998
 20
1.4663619277
 30
0.0
 10
9.7045784187
 20
1.4232569909
 30
0.0
 10
9.7352189428
 20
1.3815582826
 30
0.0
 10
9.7678949028
 20
1.3413656531
 30
0.0
 10
9.8025272908
 20
1.3027724938
 30
0.0
 10
9.8390359906
 20
1.2658714135
 30
0.0
 10
9.8773332755
 20
1.230748027
 30
0.0
 10
9.9173299869
 20
1.1974866304
 30
0.0
 10
9.958930625
 20
1.166164459
 30
0.0
 10
10.0020377458
 20
1.1368565148
 30
0.0
 10
10.0465490736
 20
1.1096310781
 30
0.0
 10
10.092359523
 20
1.084553079
 30
0.0
 10
10.1393621336
 20
1.0616810112
 30
0.0
 10
10.2034808383
 20
1.0341942732
 30
0.0
 10
10.2860681344
 20
1.0056070111
 30
0.0
 10
10.3710513553
 20
0.9850084699
 30
0.0
 10
10.4400070548
 20
0.9734255948
 30
0.0
 10
10.4921188966
 20
0.9672021329
 30
0.0
 10
10.5444746939
 20
0.9634639691
 30
0.0
 10
10.5794635755
 20
0.9626315403
 30
0.0
 10
10.5969541616
 20
0.9626315403
 30
0.0
  0
SPLINE
  5
28B
100
AcDbEntity
  8
0
100
AcDbSpline
 62
7
  6
CONTINUOUS
 70
0
 71
3
 72
23
 73
19
 74
0
 42
0.0000001
 43
0.0000001
 44
0.0000000001
 40
0.0
 40
0.0
 40
0.0
 40
0.0
 40
0.0492974947
 40
0.096589396
 40
0.1425795118
 40
0.1882071776
 40
0.2345860686
 40
0.2828594995
 40
0.3341034519
 40
0.3891951436
 40
0.4487758651
 40
0.5132357234
 40
0.5827265623
 40
0.6572207468
 40
0.7365159801
 40
0.8203209676
 40
0.9082817579
 40
1.0
 40
1.0
 40
1.0
 40
1.0
 10
10.0369559268
 20
12.9774696077
 30
0.0
 10
10.0361190402
 20
12.977759793
 30
0.0
 10
10.0344449685
 20
12.9782367468
 30
0.0
 10
10.0319011383
 20
12.9786047134
 30
0.0
 10
10.0293947492
 20
12.978584358
 30
0.0
 10
10.0269405851
 20
12.978155454
 30
0.0
 10
10.0245567106
 20
12.9773002325
 30
0.0
 10
10.0222590925
 20
12.9760149723
 30
0.0
 10
10.0200632363
 20
12.9742976019
 30
0.0
 10
10.0179775925
 20
12.9721566685
 30
0.0
 10
10.01600976
 20
12.9696019926
 30
0.0
 10
10.0141646394
 20
12.9666491021
 30
0.0
 10
10.0124454414
 20
12.9633177248
 30
0.0
 10
10.0108555524
 20
12.9596314439
 30
0.0
 10
10.0093938412
 20
12.9556182884
 30
0.0
 10
10.0080608999
 20
12.9513070522
 30
0.0
 10
10.0068541007
 20
12.9467280063
 30
0.0
 10
10.0061459666
 20
12.9435774341
 30
0.0
 10
10.0058097804
 20
12.9419641116
 30
0.0
  0
SPLINE
  5
28C
100
AcDbEntity
  8
0
100
AcDbSpline
 62
7
  6
CONTINUOUS
 70
0
 71
3
 72
12
 73
8
 74
0
 42
0.0000001
 43
0.0000001
 44
0.0000000001
 40
0.0
 40
0.0
 40
0.0
 40
0.0
 40
0.1152052146
 40
0.2343756283
 40
0.4820987128
 40
0.7386101826
 40
1.0
 40
1.0
 40
1.0
 40
1.0
 10
10.0058097804
 20
12.9419641116
 30
0.0
 10
10.005409972
 20
12.9400454731
 30
0.0
 10
10.0046690829
 20
12.9361267988
 30
0.0
 10
10.0033995954
 20
12.9280232602
 30
0.0
 10
10.0021953278
 20
12.9174816201
 30
0.0
 10
10.0012867643
 20
12.904485559
 30
0.0
 10
10.0010029655
 20
12.8956774364
 30
0.0
 10
10.0009354453
 20
12.8912312285
 30
0.0
  0
LINE
  5
28D
100
AcDbEntity
  8
0
100
AcDbLine
 62
7
  6
CONTINUOUS
 10
10.0008901488
 20
12.8418169835
 11
10.0005923539
 21
12.8351620675
  0
SPLINE
  5
28E
100
AcDbEntity
  8
0
100
AcDbSpline
 62
7
  6
CONTINUOUS
 70
0
 71
3
 72
20
 73
16
 74
0
 42
0.0000001
 43
0.0000001
 44
0.0000000001
 40
0.0
 40
0.0
 40
0.0
 40
0.0
 40
0.1938305715
 40
0.3747141047
 40
0.5375741829
 40
0.610734152
 40
0.6776427773
 40
0.7378864859
 40
0.7912673132
 40
0.837761973
 40
0.8777422927
 40
0.9121150968
 40
0.9423966174
 40
0.9708444832
 40
1.0
 40
1.0
 40
1.0
 40
1.0
 10
10.0005923539
 20
12.8351620675
 30
0.0
 10
10.0005037457
 20
12.8342147007
 30
0.0
 10
10.0002906174
 20
12.8323866763
 30
0.0
 10
9.999840995
 20
12.8297849717
 30
0.0
 10
9.9993574001
 20
12.8277938443
 30
0.0
 10
9.9989059004
 20
12.8263763819
 30
0.0
 10
9.9985566794
 20
12.8254565233
 30
0.0
 10
9.998187018
 20
12.824650191
 30
0.0
 10
9.9978008954
 20
12.8239642579
 30
0.0
 10
9.9974008213
 20
12.8234041836
 30
0.0
 10
9.9969885907
 20
12.8229739188
 30
0.0
 10
9.9965655877
 20
12.8226751448
 30
0.0
 10
9.9961307867
 20
12.8225141722
 30
0.0
 10
9.995692226
 20
12.8224980889
 30
0.0
 10
9.9954161638
 20
12.8225790699
 30
0.0
 10
9.995285217
 20
12.8226368365
 30
0.0
  0
SPLINE
  5
28F
100
AcDbEntity
  8
0
100
AcDbSpline
 62
7
  6
CONTINUOUS
 70
0
 71
3
 72
22
 73
18
 74
0
 42
0.0000001
 43
0.0000001
 44
0.0000000001
 40
0.0
 40
0.0
 40
0.0
 40
0.0
 40
0.0051140218
 40
0.0121794229
 40
0.0215055976
 40
0.0331839536
 40
0.0635571433
 40
0.1029010804
 40
0.1505609307
 40
0.2057208488
 40
0.2675307515
 40
0.3351810692
 40
0.4078748126
 40
0.4848643314
 40
0.6489118349
 40
0.822245874
 40
1.0
 40
1.0
 40
1.0
 40
1.0
 10
9.9745033141
 20
12.832001211
 30
0.0
 10
9.9744682905
 20
12.8320173784
 30
0.0
 10
9.9743982037
 20
12.8320818305
 30
0.0
 10
9.9743135947
 20
12.832220567
 30
0.0
 10
9.9742300426
 20
12.8324158421
 30
0.0
 10
9.9741115753
 20
12.8327850862
 30
0.0
 10
9.9739796374
 20
12.8333857867
 30
0.0
 10
9.9738405433
 20
12.8342602544
 30
0.0
 10
9.9737134469
 20
12.8353252965
 30
0.0
 10
9.9735982858
 20
12.8365618153
 30
0.0
 10
9.973495773
 20
12.8379507006
 30
0.0
 10
9.973405672
 20
12.8394729222
 30
0.0
 10
9.9733276592
 20
12.841110443
 30
0.0
 10
9.9732373462
 20
12.8434752171
 30
0.0
 10
9.9731551346
 20
12.8465998477
 30
0.0
 10
9.9730983258
 20
12.8504851632
 30
0.0
 10
9.9730858394
 20
12.8531334416
 30
0.0
 10
9.9730858323
 20
12.8544742412
 30
0.0
  0
LINE
  5
290
100
AcDbEntity
  8
0
100
AcDbLine
 62
7
  6
CONTINUOUS
 10
9.9732354748
 20
14.2000622842
 11
9.9730858323
 21
14.201282414
  0
SPLINE
  5
291
100
AcDbEntity
  8
0
100
AcDbSpline
 62
7
  6
CONTINUOUS
 70
0
 71
3
 72
11
 73
7
 74
0
 42
0.0000001
 43
0.0000001
 44
0.0000000001
 40
0.0
 40
0.0
 40
0.0
 40
0.0
 40
0.2269692562
 40
0.4695530586
 40
0.727289367
 40
1.0
 40
1.0
 40
1.0
 40
1.0
 10
11.4622770076
 20
12.8901695287
 30
0.0
 10
11.4411014273
 20
12.8728223157
 30
0.0
 10
11.3963027952
 20
12.8381249559
 30
0.0
 10
11.3239480992
 20
12.7884478202
 30
0.0
 10
11.2438973824
 20
12.740534055
 30
0.0
 10
11.1868557867
 20
12.7114285095
 30
0.0
 10
11.1570466053
 20
12.6975286992
 30
0.0
  0
SPLINE
  5
292
100
AcDbEntity
  8
0
100
AcDbSpline
 62
7
  6
CONTINUOUS
 70
0
 71
3
 72
34
 73
30
 74
0
 42
0.0000001
 43
0.0000001
 44
0.0000000001
 40
0.0
 40
0.0
 40
0.0
 40
0.0
 40
0.0124284086
 40
0.0251403405
 40
0.0384001639
 40
0.0524386825
 40
0.067448445
 40
0.08358374
 40
0.1009636853
 40
0.1196798313
 40
0.1398008606
 40
0.161375369
 40
0.1844381133
 40
0.2090125744
 40
0.2351107967
 40
0.2627376606
 40
0.291892348
 40
0.3225666695
 40
0.3547480747
 40
0.3884209542
 40
0.4235644525
 40
0.4601544783
 40
0.4981652055
 40
0.5375668992
 40
0.6204099654
 40
0.7084040857
 40
0.8012338245
 40
0.8985550295
 40
1.0
 40
1.0
 40
1.0
 40
1.0
 10
11.6969538587
 20
11.9635654913
 30
0.0
 10
11.6969538587
 20
11.9660420888
 30
0.0
 10
11.6965587988
 20
11.9710601883
 30
0.0
 10
11.6947909473
 20
11.978532845
 30
0.0
 10
11.6918562774
 20
11.9859729225
 30
0.0
 10
11.68776837
 20
11.9933697018
 30
0.0
 10
11.6825376243
 20
12.0007187884
 30
0.0
 10
11.676173112
 20
12.0080162357
 30
0.0
 10
11.668683672
 20
12.0152591562
 30
0.0
 10
11.6600766837
 20
12.0224427799
 30
0.0
 10
11.6503602247
 20
12.0295613779
 30
0.0
 10
11.6395441401
 20
12.0366096538
 30
0.0
 10
11.6276386823
 20
12.0435809706
 30
0.0
 10
11.6146552715
 20
12.0504680976
 30
0.0
 10
11.6006072183
 20
12.0572647596
 30
0.0
 10
11.5855086465
 20
12.0639639582
 30
0.0
 10
11.5693747081
 20
12.0705582472
 30
0.0
 10
11.5522221927
 20
12.077041221
 30
0.0
 10
11.5340688235
 20
12.0834061377
 30
0.0
 10
11.5149332185
 20
12.0896458161
 30
0.0
 10
11.4948353895
 20
12.0957540139
 30
0.0
 10
11.4737963351
 20
12.1017244212
 30
0.0
 10
11.4518378359
 20
12.1075503908
 30
0.0
 10
11.4208440113
 20
12.1152466755
 30
0.0
 10
11.3799610501
 20
12.1244231681
 30
0.0
 10
11.3284087916
 20
12.1345923826
 30
0.0
 10
11.2737914683
 20
12.1440511895
 30
0.0
 10
11.2163379191
 20
12.1527596604
 30
0.0
 10
11.1770673959
 20
12.1579391555
 30
0.0
 10
11.1570037316
 20
12.1604068192
 30
0.0
  0
LINE
  5
293
100
AcDbEntity
  8
0
100
AcDbLine
 62
7
  6
CONTINUOUS
 10
11.2208224909
 20
14.201282414
 11
11.2206728485
 21
14.2000622833
  0
SPLINE
  5
294
100
AcDbEntity
  8
0
100
AcDbSpline
 62
7
  6
CONTINUOUS
 70
0
 71
3
 72
84
 73
80
 74
0
 42
0.0000001
 43
0.0000001
 44
0.0000000001
 40
0.0
 40
0.0
 40
0.0
 40
0.0
 40
0.0000098343
 40
0.0000392147
 40
0.0000881301
 40
0.0001565692
 40
0.0003519733
 40
0.0006253373
 40
0.0009765713
 40
0.0014055856
 40
0.0019122906
 40
0.0024965968
 40
0.0038975948
 40
0.0056071772
 40
0.007623572
 40
0.0099450032
 40
0.0125696855
 40
0.015495348
 40
0.0222377875
 40
0.0301483662
 40
0.0392002586
 40
0.0493638684
 40
0.0606077781
 40
0.0728976604
 40
0.0861983955
 40
0.1156827999
 40
0.1487534664
 40
0.1850876777
 40
0.2243480301
 40
0.2661802514
 40
0.3102098152
 40
0.3560390222
 40
0.4032459352
 40
0.4513861453
 40
0.4999977945
 40
0.5486094602
 40
0.5967497187
 40
0.6439567093
 40
0.6897860236
 40
0.7338157246
 40
0.7756480985
 40
0.8149086507
 40
0.8512430905
 40
0.8682072155
 40
0.8843143745
 40
0.8995248336
 40
0.9137993632
 40
0.9271002718
 40
0.9393903135
 40
0.9506344278
 40
0.9607983313
 40
0.9698505249
 40
0.9739503649
 40
0.9777611707
 40
0.9812798919
 40
0.9845036018
 40
0.9874293675
 40
0.9900543006
 40
0.9923761165
 40
0.9943929293
 40
0.9952863717
 40
0.9961028577
 40
0.9968421518
 40
0.997504025
 40
0.9980883356
 40
0.9985950025
 40
0.9990239454
 40
0.9993750845
 40
0.9995214526
 40
0.9996483396
 40
0.9997557357
 40
0.9998436306
 40
0.9999120146
 40
0.9999388868
 40
0.9999608775
 40
0.9999779854
 40
0.9999902093
 40
0.9999975479
 40
1.0
 40
1.0
 40
1.0
 40
1.0
 10
11.1569552939
 20
16.0464889073
 30
0.0
 10
11.1569518039
 20
16.0464901934
 30
0.0
 10
11.156937372
 20
16.0464937595
 30
0.0
 10
11.1569055568
 20
16.0465036467
 30
0.0
 10
11.1568521631
 20
16.0465188282
 30
0.0
 10
11.1567386345
 20
16.046552023
 30
0.0
 10
11.1565434432
 20
16.0466084511
 30
0.0
 10
11.1562455386
 20
16.0466946768
 30
0.0
 10
11.1558626512
 20
16.0468050931
 30
0.0
 10
11.1553948901
 20
16.0469396913
 30
0.0
 10
11.1548423035
 20
16.0470982778
 30
0.0
 10
11.1539361909
 20
16.0473576672
 30
0.0
 10
11.1525922876
 20
16.0477408086
 30
0.0
 10
11.1507268399
 20
16.0482701098
 30
0.0
 10
11.1485257537
 20
16.0488918241
 30
0.0
 10
11.1459907687
 20
16.0496046774
 30
0.0
 10
11.143123842
 20
16.0504074697
 30
0.0
 10
11.1386451961
 20
16.0516555001
 30
0.0
 10
11.1322360462
 20
16.0534233378
 30
0.0
 10
11.1235832265
 20
16.0557705305
 30
0.0
 10
11.1136685119
 20
16.0584077812
 30
0.0
 10
11.1025195164
 20
16.0613085864
 30
0.0
 10
11.090166414
 20
16.0644442333
 30
0.0
 10
11.0766407594
 20
16.0677819573
 30
0.0
 10
11.0563818331
 20
16.0726269208
 30
0.0
 10
11.0283992547
 20
16.0789633544
 30
0.0
 10
10.9917800619
 20
16.0865816851
 30
0.0
 10
10.9513849598
 20
16.0941685324
 30
0.0
 10
10.9075686493
 20
16.1014416063
 30
0.0
 10
10.8607167685
 20
16.1081312653
 30
0.0
 10
10.8112501797
 20
16.1139887085
 30
0.0
 10
10.7596277858
 20
16.1187941669
 30
0.0
 10
10.7063465408
 20
16.1223652876
 30
0.0
 10
10.651937484
 20
16.1245649497
 30
0.0
 10
10.5969575163
 20
16.1253078463
 30
0.0
 10
10.5419775299
 20
16.1245649904
 30
0.0
 10
10.487568417
 20
16.1223653755
 30
0.0
 10
10.4342870828
 20
16.1187942585
 30
0.0
 10
10.3826645859
 20
16.1139885303
 30
0.0
 10
10.3331979032
 20
16.10813071
 30
0.0
 10
10.2863457213
 20
16.1014417145
 30
0.0
 10
10.2425292852
 20
16.0941684357
 30
0.0
 10
10.2081212581
 20
16.0877061282
 30
0.0
 10
10.1823971698
 20
16.0824758148
 30
0.0
 10
10.1645368726
 20
16.0786712706
 30
0.0
 10
10.1477038057
 20
16.0749304364
 30
0.0
 10
10.131936519
 20
16.0712889296
 30
0.0
 10
10.1172722833
 20
16.0677819332
 30
0.0
 10
10.1037463976
 20
16.0644443269
 30
0.0
 10
10.0913930366
 20
16.0613086761
 30
0.0
 10
10.0802438907
 20
16.058407249
 30
0.0
 10
10.0717219394
 20
16.0561399032
 30
0.0
 10
10.0655282579
 20
16.0544672613
 30
0.0
 10
10.0613575036
 20
16.0533311188
 30
0.0
 10
10.0575086514
 20
16.0522740694
 30
0.0
 10
10.0539844622
 20
16.0512988442
 30
0.0
 10
10.050787642
 20
16.0504081186
 30
0.0
 10
10.0479206274
 20
16.0496046032
 30
0.0
 10
10.0453856074
 20
16.0488904027
 30
0.0
 10
10.0434816072
 20
16.0483513567
 30
0.0
 10
10.042125746
 20
16.0479662203
 30
0.0
 10
10.0412347976
 20
16.0477126624
 30
0.0
 10
10.0404281861
 20
16.0474827291
 30
0.0
 10
10.0397060881
 20
16.0472766369
 30
0.0
 10
10.0390686442
 20
16.0470945165
 30
0.0
 10
10.0385159526
 20
16.0469364415
 30
0.0
 10
10.0380480868
 20
16.0468024866
 30
0.0
 10
10.0377112533
 20
16.046705948
 30
0.0
 10
10.0374842536
 20
16.0466408346
 30
0.0
 10
10.0373458724
 20
16.0466011227
 30
0.0
 10
10.0372287531
 20
16.0465674901
 30
0.0
 10
10.0371329035
 20
16.0465399684
 30
0.0
 10
10.0370663301
 20
16.0465208074
 30
0.0
 10
10.0370237092
 20
16.0465085982
 30
0.0
 10
10.0369997355
 20
16.0465016143
 30
0.0
 10
10.0369810657
 20
16.0464964807
 30
0.0
 10
10.0369677704
 20
16.0464921262
 30
0.0
 10
10.0369597088
 20
16.0464907419
 30
0.0
 10
10.0369562112
 20
16.0464887707
 30
0.0
 10
10.0369552939
 20
16.0464889073
 30
0.0
  0
SPLINE
  5
295
100
AcDbEntity
  8
0
100
AcDbSpline
 62
7
  6
CONTINUOUS
 70
0
 71
3
 72
22
 73
18
 74
0
 42
0.0000001
 43
0.0000001
 44
0.0000000001
 40
0.0
 40
0.0
 40
0.0
 40
0.0
 40
0.1777505512
 40
0.3510834382
 40
0.5151274753
 40
0.5921127661
 40
0.6648068392
 40
0.7324620137
 40
0.7942765496
 40
0.8494375289
 40
0.897098721
 40
0.9364488646
 40
0.9668266198
 40
0.9785036105
 40
0.9878266087
 40
0.9948884255
 40
1.0
 40
1.0
 40
1.0
 40
1.0
 10
11.2208224909
 20
12.8544742412
 30
0.0
 10
11.2208224786
 20
12.8531334653
 30
0.0
 10
11.2208099723
 20
12.8504852162
 30
0.0
 10
11.2207531828
 20
12.8465999528
 30
0.0
 10
11.2206709834
 20
12.8434753809
 30
0.0
 10
11.2205806503
 20
12.8411106573
 30
0.0
 10
11.2205026332
 20
12.8394731255
 30
0.0
 10
11.2204125447
 20
12.8379508253
 30
0.0
 10
11.2203100438
 20
12.8365618558
 30
0.0
 10
11.2201948824
 20
12.8353252807
 30
0.0
 10
11.2200677768
 20
12.8342601714
 30
0.0
 10
11.2199286889
 20
12.8333856093
 30
0.0
 10
11.2197967782
 20
12.8327848274
 30
0.0
 10
11.2196782975
 20
12.8324155853
 30
0.0
 10
11.2195947405
 20
12.8322203781
 30
0.0
 10
11.2195101233
 20
12.8320817238
 30
0.0
 10
11.2194400274
 20
12.8320173463
 30
0.0
 10
11.2194050092
 20
12.832001211
 30
0.0
  0
SPLINE
  5
296
100
AcDbEntity
  8
0
100
AcDbSpline
 62
7
  6
CONTINUOUS
 70
0
 71
3
 72
32
 73
28
 74
0
 42
0.0000001
 43
0.0000001
 44
0.0000000001
 40
0.0
 40
0.0
 40
0.0
 40
0.0
 40
0.0308927595
 40
0.0617962999
 40
0.0927132345
 40
0.1236460329
 40
0.1545970673
 40
0.1855685207
 40
0.2165624469
 40
0.2475806705
 40
0.2786248609
 40
0.3096964252
 40
0.3407965963
 40
0.3719263187
 40
0.4342612727
 40
0.496720119
 40
0.5593017111
 40
0.6220009498
 40
0.6533998311
 40
0.6848245015
 40
0.7162733373
 40
0.7477444245
 40
0.810730061
 40
0.873778676
 40
0.9053273132
 40
0.9368862241
 40
1.0
 40
1.0
 40
1.0
 40
1.0
 10
9.5856391486
 20
1.9015865407
 30
0.0
 10
9.5876319179
 20
1.8867453107
 30
0.0
 10
9.5923010752
 20
1.8571447541
 30
0.0
 10
9.6013391386
 20
1.8131074234
 30
0.0
 10
9.6123929786
 20
1.7695113543
 30
0.0
 10
9.6254416612
 20
1.7264464921
 30
0.0
 10
9.6404573216
 20
1.6839993143
 30
0.0
 10
9.6574108142
 20
1.6422563289
 30
0.0
 10
9.6762666509
 20
1.6013016182
 30
0.0
 10
9.6969875744
 20
1.5612185781
 30
0.0
 10
9.7195308486
 20
1.522087936
 30
0.0
 10
9.7438512084
 20
1.48398951
 30
0.0
 10
9.7698997388
 20
1.4469993314
 30
0.0
 10
9.8068745291
 20
1.3992438764
 30
0.0
 10
9.8571648241
 20
1.3426743614
 30
0.0
 10
9.9234612191
 20
1.2804181558
 30
0.0
 10
9.9952073513
 20
1.2242435719
 30
0.0
 10
10.0590384615
 20
1.182890312
 30
0.0
 10
10.1122102823
 20
1.1532808796
 30
0.0
 10
10.1530955919
 20
1.1328373544
 30
0.0
 10
10.1948799764
 20
1.1142147866
 30
0.0
 10
10.2516845507
 20
1.091857417
 30
0.0
 10
10.3245266363
 20
1.0686400088
 30
0.0
 10
10.3991681139
 20
1.0519311937
 30
0.0
 10
10.4596119412
 20
1.0425411478
 30
0.0
 10
10.5204378851
 20
1.0358178956
 30
0.0
 10
10.5663614866
 20
1.0337950978
 30
0.0
 10
10.5969541616
 20
1.0337950978
 30
0.0
  0
SPLINE
  5
297
100
AcDbEntity
  8
0
100
AcDbSpline
 62
7
  6
CONTINUOUS
 70
0
 71
3
 72
20
 73
16
 74
0
 42
0.0000001
 43
0.0000001
 44
0.0000000001
 40
0.0
 40
0.0
 40
0.0
 40
0.0
 40
0.0292062932
 40
0.057699869
 40
0.0880114831
 40
0.1223889365
 40
0.1623523751
 40
0.2088198354
 40
0.2621635616
 40
0.3223622615
 40
0.389219477
 40
0.4623282224
 40
0.6251365834
 40
0.8060568807
 40
1.0
 40
1.0
 40
1.0
 40
1.0
 10
11.1986231063
 20
12.8226368365
 30
0.0
 10
11.198492526
 20
12.8225792711
 30
0.0
 10
11.1982173197
 20
12.8224985207
 30
0.0
 10
11.1977801959
 20
12.8225140564
 30
0.0
 10
11.1973467425
 20
12.8226735123
 30
0.0
 10
11.1969248603
 20
12.822969844
 30
0.0
 10
11.1965136457
 20
12.8233970005
 30
0.0
 10
11.1961145537
 20
12.8239533678
 30
0.0
 10
11.1957292478
 20
12.8246349539
 30
0.0
 10
11.1953602368
 20
12.8254363361
 30
0.0
 10
11.1950114245
 20
12.8263506898
 30
0.0
 10
11.1945600973
 20
12.827760167
 30
0.0
 10
11.1940763528
 20
12.8297411494
 30
0.0
 10
11.1936258873
 20
12.8323307477
 30
0.0
 10
11.1934116013
 20
12.8341507658
 30
0.0
 10
11.1933222934
 20
12.835094181
 30
0.0
  0
LINE
  5
298
100
AcDbEntity
  8
0
100
AcDbLine
 62
7
  6
CONTINUOUS
 10
11.1933222934
 20
12.835094181
 11
11.1930181744
 21
12.8418169835
  0
SPLINE
  5
299
100
AcDbEntity
  8
0
100
AcDbSpline
 62
7
  6
CONTINUOUS
 70
0
 71
3
 72
12
 73
8
 74
0
 42
0.0000001
 43
0.0000001
 44
0.0000000001
 40
0.0
 40
0.0
 40
0.0
 40
0.0
 40
0.2613965136
 40
0.5179169685
 40
0.765653369
 40
0.8848141239
 40
1.0
 40
1.0
 40
1.0
 40
1.0
 10
11.1929730353
 20
12.8912160747
 30
0.0
 10
11.1929055738
 20
12.895665005
 30
0.0
 10
11.1926216859
 20
12.9044785655
 30
0.0
 10
11.1917127073
 20
12.917482737
 30
0.0
 10
11.190508314
 20
12.9280308544
 30
0.0
 10
11.1892374281
 20
12.9361387831
 30
0.0
 10
11.1884954393
 20
12.9400591284
 30
0.0
 10
11.188095136
 20
12.9419785012
 30
0.0
  0
SPLINE
  5
29A
100
AcDbEntity
  8
0
100
AcDbSpline
 62
7
  6
CONTINUOUS
 70
0
 71
3
 72
23
 73
19
 74
0
 42
0.0000001
 43
0.0000001
 44
0.0000000001
 40
0.0
 40
0.0
 40
0.0
 40
0.0
 40
0.0917151057
 40
0.1796863044
 40
0.2634991517
 40
0.3427860438
 40
0.4172658386
 40
0.4867517593
 40
0.55121424
 40
0.6107956674
 40
0.6658845055
 40
0.7171295035
 40
0.7654069655
 40
0.8117898917
 40
0.8574201743
 40
0.9034124413
 40
0.950704438
 40
1.0
 40
1.0
 40
1.0
 40
1.0
 10
11.188095136
 20
12.9419785012
 30
0.0
 10
11.1877587967
 20
12.9435911793
 30
0.0
 10
11.18705044
 20
12.9467407381
 30
0.0
 10
11.1858440694
 20
12.9513185556
 30
0.0
 10
11.1845116867
 20
12.9556286014
 30
0.0
 10
11.1830499106
 20
12.9596399686
 30
0.0
 10
11.1814596494
 20
12.9633241058
 30
0.0
 10
11.1797405983
 20
12.9666538124
 30
0.0
 10
11.1778960145
 20
12.9696056389
 30
0.0
 10
11.1759286784
 20
12.972159392
 30
0.0
 10
11.1738431761
 20
12.9742990717
 30
0.0
 10
11.1716477565
 20
12.9760155383
 30
0.0
 10
11.1693507475
 20
12.9773004101
 30
0.0
 10
11.1669675015
 20
12.9781555101
 30
0.0
 10
11.1645139177
 20
12.978584017
 30
0.0
 10
11.1620082833
 20
12.9786039746
 30
0.0
 10
11.1594652771
 20
12.9782364057
 30
0.0
 10
11.1577916769
 20
12.9777600286
 30
0.0
 10
11.1569550251
 20
12.9774701636
 30
0.0
  0
SPLINE
  5
29B
100
AcDbEntity
  8
0
100
AcDbSpline
 62
7
  6
CONTINUOUS
 70
0
 71
3
 72
43
 73
39
 74
0
 42
0.0000001
 43
0.0000001
 44
0.0000000001
 40
0.0
 40
0.0
 40
0.0
 40
0.0
 40
0.0580436573
 40
0.114334897
 40
0.168790036
 40
0.2213312739
 40
0.2718849819
 40
0.3203813672
 40
0.3667583822
 40
0.4109577215
 40
0.4529290809
 40
0.4926301345
 40
0.5300252451
 40
0.5650916291
 40
0.5978164037
 40
0.6282017987
 40
0.6562694358
 40
0.6820615317
 40
0.705652794
 40
0.7271559791
 40
0.7467358345
 40
0.7646268023
 40
0.7811460245
 40
0.7890246054
 40
0.7967229656
 40
0.8043057516
 40
0.8118408113
 40
0.8193974613
 40
0.827044334
 40
0.8348474632
 40
0.8428688149
 40
0.8597750037
 40
0.878161478
 40
0.898317869
 40
0.920455729
 40
0.9447213221
 40
0.9712148775
 40
1.0
 40
1.0
 40
1.0
 40
1.0
 10
10.0368816428
 20
11.9640205639
 30
0.0
 10
10.0267576395
 20
11.9624589434
 30
0.0
 10
10.0068344715
 20
11.9592566302
 30
0.0
 10
9.9774894306
 20
11.9541296225
 30
0.0
 10
9.9491757852
 20
11.948758348
 30
0.0
 10
9.9219406585
 20
11.9431521059
 30
0.0
 10
9.8958292511
 20
11.9373205101
 30
0.0
 10
9.8708849415
 20
11.9312727726
 30
0.0
 10
9.8471490092
 20
11.9250198122
 30
0.0
 10
9.8246607461
 20
11.9185716236
 30
0.0
 10
9.8034572752
 20
11.9119391154
 30
0.0
 10
9.7835733624
 20
11.9051339369
 30
0.0
 10
9.7650417133
 20
11.8981666164
 30
0.0
 10
9.7478922329
 20
11.8910496228
 30
0.0
 10
9.7321525045
 20
11.8837942933
 30
0.0
 10
9.7178475621
 20
11.8764120597
 30
0.0
 10
9.7049991002
 20
11.8689153246
 30
0.0
 10
9.6936268976
 20
11.8613138609
 30
0.0
 10
9.683747041
 20
11.8536182491
 30
0.0
 10
9.6753736632
 20
11.8458364429
 30
0.0
 10
9.6685207729
 20
11.837972029
 30
0.0
 10
9.6632026603
 20
11.8300308625
 30
0.0
 10
9.6600192591
 20
11.8232393455
 30
0.0
 10
9.6583166378
 20
11.8178296003
 30
0.0
 10
9.6574522968
 20
11.8138284102
 30
0.0
 10
9.6569823483
 20
11.8098228913
 30
0.0
 10
9.6569075751
 20
11.8058154311
 30
0.0
 10
9.6572282935
 20
11.8018088429
 30
0.0
 10
9.6579436152
 20
11.7978058146
 30
0.0
 10
9.6590526373
 20
11.793808592
 30
0.0
 10
9.6610894195
 20
11.788396119
 30
0.0
 10
9.6646913205
 20
11.7816141807
 30
0.0
 10
9.6704884513
 20
11.773697349
 30
0.0
 10
9.6778156677
 20
11.7658579416
 30
0.0
 10
9.6866591425
 20
11.7581025269
 30
0.0
 10
9.6970047256
 20
11.7504350447
 30
0.0
 10
9.7088377563
 20
11.742865219
 30
0.0
 10
9.7173511168
 20
11.7380900075
 30
0.0
 10
9.7218394136
 20
11.7357103996
 30
0.0
  0
SPLINE
  5
29C
100
AcDbEntity
  8
0
100
AcDbSpline
 62
7
  6
CONTINUOUS
 70
0
 71
3
 72
43
 73
39
 74
0
 42
0.0000001
 43
0.0000001
 44
0.0000000001
 40
0.0
 40
0.0
 40
0.0
 40
0.0
 40
0.028785184
 40
0.0552788013
 40
0.0795444566
 40
0.1016823785
 40
0.1218388303
 40
0.140225363
 40
0.157131606
 40
0.1651529823
 40
0.1729561341
 40
0.1806030272
 40
0.1881596949
 40
0.1956947694
 40
0.2032775671
 40
0.210975936
 40
0.2188545226
 40
0.2353737471
 40
0.2532647068
 40
0.2728445455
 40
0.294347707
 40
0.3179389405
 40
0.3437310035
 40
0.3717986049
 40
0.4021839624
 40
0.4349086983
 40
0.4699750432
 40
0.5073701151
 40
0.5470711309
 40
0.5890424538
 40
0.6332417587
 40
0.6796187418
 40
0.7281150984
 40
0.7786687811
 40
0.8312099979
 40
0.8856651203
 40
0.9419563486
 40
1.0
 40
1.0
 40
1.0
 40
1.0
 10
11.4720689094
 20
11.7357103995
 30
0.0
 10
11.4765571963
 20
11.7380900021
 30
0.0
 10
11.485070539
 20
11.742865203
 30
0.0
 10
11.4969035474
 20
11.750435011
 30
0.0
 10
11.5072491151
 20
11.7581024751
 30
0.0
 10
11.5160925813
 20
11.7658578712
 30
0.0
 10
11.5234197963
 20
11.7736972596
 30
0.0
 10
11.5292169329
 20
11.7816140719
 30
0.0
 10
11.5328188452
 20
11.7883959936
 30
0.0
 10
11.5348556405
 20
11.7938084539
 30
0.0
 10
11.5359646741
 20
11.7978056669
 30
0.0
 10
11.5366800092
 20
11.8018086857
 30
0.0
 10
11.5370007428
 20
11.8058152645
 30
0.0
 10
11.5369259866
 20
11.8098227154
 30
0.0
 10
11.536456057
 20
11.8138282251
 30
0.0
 10
11.5355917367
 20
11.8178294062
 30
0.0
 10
11.5338891461
 20
11.8232391383
 30
0.0
 10
11.5307057886
 20
11.8300306398
 30
0.0
 10
11.5253877332
 20
11.8379717901
 30
0.0
 10
11.5185349067
 20
11.8458361882
 30
0.0
 10
11.5101615993
 20
11.8536179793
 30
0.0
 10
11.5002818194
 20
11.8613135766
 30
0.0
 10
11.4889096998
 20
11.8689150267
 30
0.0
 10
11.4760613269
 20
11.876411749
 30
0.0
 10
11.4617564794
 20
11.8837939708
 30
0.0
 10
11.4460168514
 20
11.8910492897
 30
0.0
 10
11.4288674768
 20
11.8981662737
 30
0.0
 10
11.4103359383
 20
11.905133586
 30
0.0
 10
11.3904521408
 20
11.9119387575
 30
0.0
 10
11.3692487895
 20
11.9185712602
 30
0.0
 10
11.3467606499
 20
11.9250194447
 30
0.0
 10
11.3230248447
 20
11.9312724025
 30
0.0
 10
11.2980806653
 20
11.937320139
 30
0.0
 10
11.2719693908
 20
11.9431517354
 30
0.0
 10
11.2447343994
 20
11.9487579798
 30
0.0
 10
11.2164208912
 20
11.9541292583
 30
0.0
 10
11.1870759888
 20
11.9592562717
 30
0.0
 10
11.1671529136
 20
11.9624585896
 30
0.0
 10
11.1570289568
 20
11.9640202128
 30
0.0
  0
SPLINE
  5
29D
100
AcDbEntity
  8
0
100
AcDbSpline
 62
7
  6
CONTINUOUS
 70
0
 71
3
 72
27
 73
23
 74
0
 42
0.0000001
 43
0.0000001
 44
0.0000000001
 40
0.0
 40
0.0
 40
0.0
 40
0.0
 40
0.0618634659
 40
0.0928309352
 40
0.1238201015
 40
0.1858564042
 40
0.2479866948
 40
0.2790928284
 40
0.3102232421
 40
0.372547159
 40
0.434966849
 40
0.4974790994
 40
0.560078846
 40
0.6227593153
 40
0.6541319803
 40
0.6855215052
 40
0.7169267248
 40
0.7483464008
 40
0.8112136455
 40
0.8741184522
 40
0.9370559159
 40
1.0
 40
1.0
 40
1.0
 40
1.0
 10
11.4655745211
 20
1.6441361526
 30
0.0
 10
11.4559390692
 20
1.6241092607
 30
0.0
 10
11.4403949821
 20
1.5945617146
 30
0.0
 10
11.4176018019
 20
1.5563554905
 30
0.0
 10
11.3934252964
 20
1.5189329429
 30
0.0
 10
11.3606895266
 20
1.4737577379
 30
0.0
 10
11.3248007051
 20
1.4309897529
 30
0.0
 10
11.2942979894
 20
1.3983327974
 30
0.0
 10
11.2626110962
 20
1.3667251704
 30
0.0
 10
11.2208878494
 20
1.3293014741
 30
0.0
 10
11.1677307081
 20
1.2879856483
 30
0.0
 10
11.1117224605
 20
1.2504442207
 30
0.0
 10
11.053146156
 20
1.2168670246
 30
0.0
 10
11.0024431546
 20
1.192332965
 30
0.0
 10
10.9609018838
 20
1.1748446591
 30
0.0
 10
10.9292784215
 20
1.162808814
 30
0.0
 10
10.8972399781
 20
1.1518733749
 30
0.0
 10
10.8540186332
 20
1.1387766927
 30
0.0
 10
10.799148013
 20
1.1252226799
 30
0.0
 10
10.7323128458
 20
1.1135494886
 30
0.0
 10
10.664804715
 20
1.1065233104
 30
0.0
 10
10.6195666441
 20
1.1049586553
 30
0.0
 10
10.5969541616
 20
1.1049586553
 30
0.0
  0
SPLINE
  5
29E
100
AcDbEntity
  8
0
100
AcDbSpline
 62
7
  6
CONTINUOUS
 70
0
 71
3
 72
23
 73
19
 74
0
 42
0.0000001
 43
0.0000001
 44
0.0000000001
 40
0.0
 40
0.0
 40
0.0
 40
0.0
 40
0.0608620615
 40
0.121851135
 40
0.1829708835
 40
0.2443191427
 40
0.3059527136
 40
0.3679017746
 40
0.4301839335
 40
0.4927977462
 40
0.5557205905
 40
0.6189115435
 40
0.6823169848
 40
0.745870478
 40
0.8094900023
 40
0.8731001845
 40
0.9366537864
 40
1.0
 40
1.0
 40
1.0
 40
1.0
 10
9.9414448535
 20
12.7856925242
 30
0.0
 10
9.9428786451
 20
12.7850974362
 30
0.0
 10
9.94582876
 20
12.784088362
 30
0.0
 10
9.9504118981
 20
12.7831466196
 30
0.0
 10
9.9550904576
 20
12.7827913899
 30
0.0
 10
9.9597925772
 20
12.7830274879
 30
0.0
 10
9.9644496156
 20
12.7838499013
 30
0.0
 10
9.9689921732
 20
12.785247682
 30
0.0
 10
9.9733529518
 20
12.7871991462
 30
0.0
 10
9.9774678075
 20
12.7896748254
 30
0.0
 10
9.981275377
 20
12.7926387649
 30
0.0
 10
9.9847201207
 20
12.7960460809
 30
0.0
 10
9.987751067
 20
12.7998467203
 30
0.0
 10
9.990322915
 20
12.8039846602
 30
0.0
 10
9.9923989875
 20
12.8083979093
 30
0.0
 10
9.9939479737
 20
12.8130228431
 30
0.0
 10
9.9949458372
 20
12.8177892714
 30
0.0
 10
9.9952361072
 20
12.8210218394
 30
0.0
 10
9.995285217
 20
12.8226368365
 30
0.0
  0
SPLINE
  5
29F
100
AcDbEntity
  8
0
100
AcDbSpline
 62
7
  6
CONTINUOUS
 70
0
 71
3
 72
33
 73
29
 74
0
 42
0.0000001
 43
0.0000001
 44
0.0000000001
 40
0.0
 40
0.0
 40
0.0
 40
0.0
 40
0.1016177145
 40
0.1985698262
 40
0.2906098839
 40
0.3775145837
 40
0.4590861211
 40
0.5351545125
 40
0.5710835947
 40
0.6055898853
 40
0.6386622744
 40
0.6702943192
 40
0.7004828671
 40
0.7292278387
 40
0.7565343353
 40
0.7824141187
 40
0.806884593
 40
0.8299702337
 40
0.8517061693
 40
0.872138887
 40
0.8913275725
 40
0.9093479252
 40
0.9262963378
 40
0.9422913231
 40
0.9574763135
 40
0.9720220806
 40
0.986124702
 40
1.0
 40
1.0
 40
1.0
 40
1.0
 10
10.0369028789
 20
11.9468378498
 30
0.0
 10
10.0248961593
 20
11.9447582415
 30
0.0
 10
10.0014703441
 20
11.9404800856
 30
0.0
 10
9.967321149
 20
11.9335211045
 30
0.0
 10
9.9350571041
 20
11.9261863359
 30
0.0
 10
9.9047742251
 20
11.9184982871
 30
0.0
 10
9.8765626869
 20
11.9104804819
 30
0.0
 10
9.8544463078
 20
11.903416502
 30
0.0
 10
9.8378699196
 20
11.89759471
 30
0.0
 10
9.8262441594
 20
11.8932442863
 30
0.0
 10
9.815195658
 20
11.8888294715
 30
0.0
 10
9.8047324664
 20
11.8843536908
 30
0.0
 10
9.7948621897
 20
11.8798203906
 30
0.0
 10
9.7855921942
 20
11.8752327727
 30
0.0
 10
9.776929313
 20
11.8705940812
 30
0.0
 10
9.7688796069
 20
11.8659079224
 30
0.0
 10
9.7614488144
 20
11.8611776368
 30
0.0
 10
9.7546424645
 20
11.8564061775
 30
0.0
 10
9.7484652442
 20
11.8515968435
 30
0.0
 10
9.7429212793
 20
11.8467527852
 30
0.0
 10
9.7380146666
 20
11.8418766566
 30
0.0
 10
9.7337494458
 20
11.836970739
 30
0.0
 10
9.730128917
 20
11.8320376462
 30
0.0
 10
9.7271567842
 20
11.8270795671
 30
0.0
 10
9.7248377974
 20
11.8220988198
 30
0.0
 10
9.7231765994
 20
11.817098521
 30
0.0
 10
9.7221772803
 20
11.8120847715
 30
0.0
 10
9.7219541616
 20
11.8087257313
 30
0.0
 10
9.7219541616
 20
11.8070618752
 30
0.0
  0
SPLINE
  5
2A0
100
AcDbEntity
  8
0
100
AcDbSpline
 62
7
  6
CONTINUOUS
 70
0
 71
3
 72
34
 73
30
 74
0
 42
0.0000001
 43
0.0000001
 44
0.0000000001
 40
0.0
 40
0.0
 40
0.0
 40
0.0
 40
0.101444958
 40
0.1987661604
 40
0.2915959044
 40
0.379590036
 40
0.4624331176
 40
0.50183482
 40
0.5398455563
 40
0.5764355914
 40
0.6115790989
 40
0.6452519874
 40
0.677433401
 40
0.7081077303
 40
0.7372624247
 40
0.7648892945
 40
0.7909875215
 40
0.8155619858
 40
0.8386247317
 40
0.8601992398
 40
0.8803202668
 40
0.8990364084
 40
0.9164163469
 40
0.9325516327
 40
0.9475613836
 40
0.9615998882
 40
0.9748596956
 40
0.9875716098
 40
1.0
 40
1.0
 40
1.0
 40
1.0
 10
10.0369068424
 20
12.160407096
 30
0.0
 10
10.0168431028
 20
12.1579394364
 30
0.0
 10
9.9775724302
 20
12.152759948
 30
0.0
 10
9.9201186592
 20
12.1440514829
 30
0.0
 10
9.8655011196
 20
12.1345926771
 30
0.0
 10
9.8139486521
 20
12.1244234592
 30
0.0
 10
9.7730655222
 20
12.1152469603
 30
0.0
 10
9.7420715678
 20
12.1075506684
 30
0.0
 10
9.7201129755
 20
12.1017246924
 30
0.0
 10
9.6990738314
 20
12.0957542777
 30
0.0
 10
9.6789759159
 20
12.0896460717
 30
0.0
 10
9.659840228
 20
12.0834063842
 30
0.0
 10
9.6416867796
 20
12.0770414576
 30
0.0
 10
9.6245341889
 20
12.070558473
 30
0.0
 10
9.6084001793
 20
12.0639641725
 30
0.0
 10
9.5933015406
 20
12.0572649617
 30
0.0
 10
9.5792534248
 20
12.0504682869
 30
0.0
 10
9.5662699559
 20
12.0435811465
 30
0.0
 10
9.5543644447
 20
12.0366098157
 30
0.0
 10
9.5435483113
 20
12.0295615253
 30
0.0
 10
9.5338318084
 20
12.0224429124
 30
0.0
 10
9.525224781
 20
12.0152592733
 30
0.0
 10
9.5177353069
 20
12.0080163371
 30
0.0
 10
9.5113707656
 20
12.0007188736
 30
0.0
 10
9.5061399959
 20
11.9933697706
 30
0.0
 10
9.5020520696
 20
11.9859729745
 30
0.0
 10
9.4991173861
 20
11.9785328799
 30
0.0
 10
9.4973495263
 20
11.9710602058
 30
0.0
 10
9.4969544646
 20
11.9660420945
 30
0.0
 10
9.4969544646
 20
11.9635654913
 30
0.0
  0
SPLINE
  5
2A1
100
AcDbEntity
  8
0
100
AcDbSpline
 62
7
  6
CONTINUOUS
 70
0
 71
3
 72
11
 73
7
 74
0
 42
0.0000001
 43
0.0000001
 44
0.0000000001
 40
0.0
 40
0.0
 40
0.0
 40
0.0
 40
0.2727167012
 40
0.5304550158
 40
0.773037031
 40
1.0
 40
1.0
 40
1.0
 40
1.0
 10
10.0368555097
 20
12.6975313025
 30
0.0
 10
10.0070400175
 20
12.7114342205
 30
0.0
 10
9.9499870867
 20
12.7405467405
 30
0.0
 10
9.8699214534
 20
12.7884718944
 30
0.0
 10
9.7975553969
 20
12.8381609497
 30
0.0
 10
9.7527507428
 20
12.8728666844
 30
0.0
 10
9.7315726223
 20
12.8902178749
 30
0.0
  0
SPLINE
  5
2A2
100
AcDbEntity
  8
0
100
AcDbSpline
 62
7
  6
CONTINUOUS
 70
0
 71
3
 72
32
 73
28
 74
0
 42
0.0000001
 43
0.0000001
 44
0.0000000001
 40
0.0
 40
0.0
 40
0.0
 40
0.0
 40
0.0631137756
 40
0.0946726864
 40
0.1262213235
 40
0.1892699383
 40
0.2522555746
 40
0.2837266616
 40
0.3151754974
 40
0.3466001678
 40
0.3779990491
 40
0.4406982878
 40
0.50327988
 40
0.5657387263
 40
0.6280736805
 40
0.6592034031
 40
0.6903035742
 40
0.7213751386
 40
0.7524193291
 40
0.7834375528
 40
0.8144314791
 40
0.8454029326
 40
0.876353967
 40
0.9072867655
 40
0.9382037001
 40
0.9691072406
 40
1.0
 40
1.0
 40
1.0
 40
1.0
 10
10.5969541616
 20
1.0337950978
 30
0.0
 10
10.6275468251
 20
1.0337950978
 30
0.0
 10
10.673470409
 20
1.035817894
 30
0.0
 10
10.73429633
 20
1.0425411412
 30
0.0
 10
10.7947401349
 20
1.0519311799
 30
0.0
 10
10.8693815855
 20
1.0686399824
 30
0.0
 10
10.942223646
 20
1.0918573732
 30
0.0
 10
10.9990282021
 20
1.1142147262
 30
0.0
 10
11.0408125737
 20
1.1328372802
 30
0.0
 10
11.0816978715
 20
1.1532807904
 30
0.0
 10
11.134869678
 20
1.1828902012
 30
0.0
 10
11.1987007732
 20
1.2242434314
 30
0.0
 10
11.2704468928
 20
1.2804179759
 30
0.0
 10
11.336743281
 20
1.3426741387
 30
0.0
 10
11.3870335757
 20
1.3992436161
 30
0.0
 10
11.4240083691
 20
1.4469990402
 30
0.0
 10
11.4500569034
 20
1.4839891952
 30
0.0
 10
11.474377269
 20
1.5220875976
 30
0.0
 10
11.4969205507
 20
1.5612182158
 30
0.0
 10
11.5176414835
 20
1.6013012321
 30
0.0
 10
11.5364973313
 20
1.6422559191
 30
0.0
 10
11.5534508369
 20
1.683998881
 30
0.0
 10
11.568466512
 20
1.7264460357
 30
0.0
 10
11.5815152112
 20
1.7695108753
 30
0.0
 10
11.5925690695
 20
1.8131069223
 30
0.0
 10
11.6016071531
 20
1.8571442316
 30
0.0
 10
11.6062763249
 20
1.8867447744
 30
0.0
 10
11.6082691017
 20
1.9015859977
 30
0.0
  0
SPLINE
  5
2A3
100
AcDbEntity
  8
0
100
AcDbSpline
 62
7
  6
CONTINUOUS
 70
0
 71
3
 72
27
 73
23
 74
0
 42
0.0000001
 43
0.0000001
 44
0.0000000001
 40
0.0
 40
0.0
 40
0.0
 40
0.0
 40
0.0629440842
 40
0.1258815481
 40
0.1887863549
 40
0.2516535997
 40
0.2830732758
 40
0.3144784955
 40
0.3458680203
 40
0.3772406854
 40
0.4399211547
 40
0.5025209013
 40
0.5650331517
 40
0.6274528416
 40
0.6897767585
 40
0.7209071722
 40
0.7520133057
 40
0.8141435961
 40
0.8761798988
 40
0.907169065
 40
0.9381365342
 40
1.0
 40
1.0
 40
1.0
 40
1.0
 10
10.5969541616
 20
1.1049586553
 30
0.0
 10
10.5743416741
 20
1.1049586553
 30
0.0
 10
10.5291035932
 20
1.1065233111
 30
0.0
 10
10.4615954476
 20
1.1135494925
 30
0.0
 10
10.394760266
 20
1.1252226889
 30
0.0
 10
10.3398896343
 20
1.1387767076
 30
0.0
 10
10.2966682807
 20
1.1518733955
 30
0.0
 10
10.264629831
 20
1.1628088395
 30
0.0
 10
10.2330063627
 20
1.1748446898
 30
0.0
 10
10.1914650843
 20
1.1923330032
 30
0.0
 10
10.1407620742
 20
1.2168670733
 30
0.0
 10
10.0821857607
 20
1.2504442836
 30
0.0
 10
10.0261775058
 20
1.2879857269
 30
0.0
 10
9.973020359
 20
1.3293015696
 30
0.0
 10
9.9312971092
 20
1.366725281
 30
0.0
 10
9.8996102147
 20
1.3983329205
 30
0.0
 10
9.8691074983
 20
1.4309898887
 30
0.0
 10
9.8332186774
 20
1.4737578901
 30
0.0
 10
9.8004829101
 20
1.5189331119
 30
0.0
 10
9.7763064078
 20
1.5563556731
 30
0.0
 10
9.7535132317
 20
1.5945619109
 30
0.0
 10
9.7379691484
 20
1.6241094673
 30
0.0
 10
9.7283336995
 20
1.644136366
 30
0.0
  0
SPLINE
  5
2A4
100
AcDbEntity
  8
0
100
AcDbSpline
 62
7
  6
CONTINUOUS
 70
0
 71
3
 72
37
 73
33
 74
0
 42
0.0000001
 43
0.0000001
 44
0.0000000001
 40
0.0
 40
0.0
 40
0.0
 40
0.0
 40
0.0315917832
 40
0.0631870178
 40
0.0947726475
 40
0.1263471764
 40
0.1894385003
 40
0.2524550669
 40
0.2839381464
 40
0.3153952093
 40
0.346824277
 40
0.3782236089
 40
0.4095917919
 40
0.4409276482
 40
0.4722303603
 40
0.5034993882
 40
0.5347345454
 40
0.5659359509
 40
0.5971040587
 40
0.6282396487
 40
0.6593438015
 40
0.6904179311
 40
0.721463708
 40
0.7524831265
 40
0.7834783876
 40
0.814451987
 40
0.8454065766
 40
0.8763450528
 40
0.9072704196
 40
0.9381858564
 40
0.9690946053
 40
1.0
 40
1.0
 40
1.0
 40
1.0
 10
10.5969541616
 20
0.945998605
 30
0.0
 10
10.6146218168
 20
0.945998605
 30
0.0
 10
10.6499649575
 20
0.9468479628
 30
0.0
 10
10.7028481692
 20
0.950662163
 30
0.0
 10
10.7554798998
 20
0.9570119805
 30
0.0
 10
10.8251127564
 20
0.9688293828
 30
0.0
 10
10.9109055393
 20
0.9898431519
 30
0.0
 10
10.9942294171
 20
1.0190016065
 30
0.0
 10
11.0588785897
 20
1.0470313585
 30
0.0
 10
11.1062463745
 20
1.0703520545
 30
0.0
 10
11.1523865863
 20
1.095917389
 30
0.0
 10
11.1971889505
 20
1.1236671488
 30
0.0
 10
11.2405459353
 20
1.1535331873
 30
0.0
 10
11.2823521643
 20
1.1854450858
 30
0.0
 10
11.3225081214
 20
1.2193243747
 30
0.0
 10
11.3609156179
 20
1.255091175
 30
0.0
 10
11.3974836848
 20
1.2926576473
 30
0.0
 10
11.4321225323
 20
1.3319349493
 30
0.0
 10
11.464750349
 20
1.3728269951
 30
0.0
 10
11.4952869021
 20
1.4152365791
 30
0.0
 10
11.5236600272
 20
1.45906049
 30
0.0
 10
11.5498001176
 20
1.5041939648
 30
0.0
 10
11.5736450807
 20
1.5505277189
 30
0.0
 10
11.5951368519
 20
1.5979504435
 30
0.0
 10
11.6142238104
 20
1.646347773
 30
0.0
 10
11.6308601509
 20
1.695603033
 30
0.0
 10
11.6450051252
 20
1.7455977281
 30
0.0
 10
11.6566256711
 20
1.7962111417
 30
0.0
 10
11.6656923353
 20
1.8473215006
 30
0.0
 10
11.672185026
 20
1.8988057947
 30
0.0
 10
11.676086034
 20
1.9505384938
 30
0.0
 10
11.6769541616
 20
1.9851142203
 30
0.0
 10
11.6769541616
 20
2.0023980138
 30
0.0
  0
SPLINE
  5
2A5
100
AcDbEntity
  8
0
100
AcDbSpline
 62
7
  6
CONTINUOUS
 70
0
 71
3
 72
41
 73
37
 74
0
 42
0.0000001
 43
0.0000001
 44
0.0000000001
 40
0.0
 40
0.0
 40
0.0
 40
0.0
 40
0.0311394722
 40
0.0466971772
 40
0.0622460255
 40
0.0933147813
 40
0.1243545036
 40
0.1398671806
 40
0.1553744868
 40
0.1863713124
 40
0.2173550635
 40
0.2483316676
 40
0.2793071625
 40
0.3102876222
 40
0.3412790422
 40
0.372287202
 40
0.403317577
 40
0.4343752673
 40
0.4654648815
 40
0.496590439
 40
0.5277553368
 40
0.5589622905
 40
0.5902132573
 40
0.6215094157
 40
0.6528511783
 40
0.684238162
 40
0.7156691829
 40
0.7471423081
 40
0.7786549035
 40
0.8102036337
 40
0.8417844766
 40
0.8733931723
 40
0.9050246134
 40
0.9366725432
 40
0.9683351732
 40
1.0
 40
1.0
 40
1.0
 40
1.0
 10
9.7218499068
 20
2.8143555216
 30
0.0
 10
9.7103401835
 20
2.7955540964
 30
0.0
 10
9.6940118383
 20
2.7667724053
 30
0.0
 10
9.6742130002
 20
2.7273980963
 30
0.0
 10
9.6557613675
 20
2.6874280733
 30
0.0
 10
9.6352361561
 20
2.6363801724
 30
0.0
 10
9.6181872876
 20
2.5840950264
 30
0.0
 10
9.6066879093
 20
2.5416849922
 30
0.0
 10
9.5966267691
 20
2.4989423074
 30
0.0
 10
9.5867595374
 20
2.4449349717
 30
0.0
 10
9.5793109579
 20
2.3795014152
 30
0.0
 10
9.5762873854
 20
2.3137283227
 30
0.0
 10
9.5777024454
 20
2.2479037009
 30
0.0
 10
9.5835492912
 20
2.1823133965
 30
0.0
 10
9.5938026329
 20
2.1172428187
 30
0.0
 10
9.6084184224
 20
2.0529751216
 30
0.0
 10
9.6273324294
 20
1.9897897709
 30
0.0
 10
9.6504621122
 20
1.9279614651
 30
0.0
 10
9.6777072644
 20
1.8677592621
 30
0.0
 10
9.7089492854
 20
1.8094450109
 30
0.0
 10
9.7440516792
 20
1.7532719774
 30
0.0
 10
9.7828618343
 20
1.6994843895
 30
0.0
 10
9.825211337
 20
1.6483164276
 30
0.0
 10
9.8709154412
 20
1.599990117
 30
0.0
 10
9.9197752238
 20
1.554715282
 30
0.0
 10
9.971578541
 20
1.5126890143
 30
0.0
 10
10.0261000703
 20
1.4740939244
 30
0.0
 10
10.0831024188
 20
1.4390971853
 30
0.0
 10
10.1423378989
 20
1.4078509064
 30
0.0
 10
10.2035492259
 20
1.3804913808
 30
0.0
 10
10.2664700649
 20
1.3571366739
 30
0.0
 10
10.3308271097
 20
1.3378882671
 30
0.0
 10
10.3963399352
 20
1.3228303862
 30
0.0
 10
10.4627265835
 20
1.3120270127
 30
0.0
 10
10.5296925406
 20
1.3055274523
 30
0.0
 10
10.5745375791
 20
1.3040802958
 30
0.0
 10
10.5969541616
 20
1.3040802958
 30
0.0
  0
SPLINE
  5
2A6
100
AcDbEntity
  8
0
100
AcDbSpline
 62
7
  6
CONTINUOUS
 70
0
 71
3
 72
41
 73
37
 74
0
 42
0.0000001
 43
0.0000001
 44
0.0000000001
 40
0.0
 40
0.0
 40
0.0
 40
0.0
 40
0.0316648268
 40
0.0633274568
 40
0.0949753866
 40
0.1266068277
 40
0.1582155234
 40
0.1897963663
 40
0.2213450965
 40
0.2528576919
 40
0.2843308171
 40
0.315761838
 40
0.3471488217
 40
0.3784905843
 40
0.4097867427
 40
0.4410377095
 40
0.4722446632
 40
0.503409561
 40
0.5345351185
 40
0.5656247327
 40
0.596682423
 40
0.627712798
 40
0.6587209578
 40
0.6897123778
 40
0.7206928375
 40
0.7516683324
 40
0.7826449365
 40
0.8136286876
 40
0.8446255132
 40
0.8601328194
 40
0.8756454964
 40
0.9066852187
 40
0.9377539745
 40
0.9533028228
 40
0.9688605278
 40
1.0
 40
1.0
 40
1.0
 40
1.0
 10
10.5969541616
 20
1.3040802958
 30
0.0
 10
10.6193707442
 20
1.3040802958
 30
0.0
 10
10.6642157827
 20
1.3055274523
 30
0.0
 10
10.7311817397
 20
1.3120270127
 30
0.0
 10
10.797568388
 20
1.3228303862
 30
0.0
 10
10.8630812136
 20
1.3378882671
 30
0.0
 10
10.9274382584
 20
1.3571366739
 30
0.0
 10
10.9903590973
 20
1.3804913808
 30
0.0
 10
11.0515704243
 20
1.4078509064
 30
0.0
 10
11.1108059044
 20
1.4390971853
 30
0.0
 10
11.167808253
 20
1.4740939244
 30
0.0
 10
11.2223297822
 20
1.5126890143
 30
0.0
 10
11.2741330994
 20
1.554715282
 30
0.0
 10
11.3229928821
 20
1.599990117
 30
0.0
 10
11.3686969862
 20
1.6483164276
 30
0.0
 10
11.411046489
 20
1.6994843895
 30
0.0
 10
11.4498566441
 20
1.7532719774
 30
0.0
 10
11.4849590379
 20
1.8094450109
 30
0.0
 10
11.5162010589
 20
1.8677592621
 30
0.0
 10
11.5434462111
 20
1.9279614651
 30
0.0
 10
11.5665758939
 20
1.9897897709
 30
0.0
 10
11.5854899009
 20
2.0529751216
 30
0.0
 10
11.6001056904
 20
2.1172428187
 30
0.0
 10
11.6103590321
 20
2.1823133965
 30
0.0
 10
11.6162058779
 20
2.2479037009
 30
0.0
 10
11.6176209379
 20
2.3137283227
 30
0.0
 10
11.6145973653
 20
2.3795014152
 30
0.0
 10
11.6071487859
 20
2.4449349717
 30
0.0
 10
11.5972815542
 20
2.4989423074
 30
0.0
 10
11.587220414
 20
2.5416849922
 30
0.0
 10
11.5757210357
 20
2.5840950264
 30
0.0
 10
11.5586721672
 20
2.6363801724
 30
0.0
 10
11.5381469557
 20
2.6874280733
 30
0.0
 10
11.519695323
 20
2.7273980963
 30
0.0
 10
11.499896485
 20
2.7667724053
 30
0.0
 10
11.4835681398
 20
2.7955540964
 30
0.0
 10
11.4720584165
 20
2.8143555216
 30
0.0
  0
SPLINE
  5
2A7
100
AcDbEntity
  8
0
100
AcDbSpline
 62
7
  6
CONTINUOUS
 70
0
 71
3
 72
37
 73
33
 74
0
 42
0.0000001
 43
0.0000001
 44
0.0000000001
 40
0.0
 40
0.0
 40
0.0
 40
0.0
 40
0.0315881672
 40
0.06317992
 40
0.0947622647
 40
0.1263336102
 40
0.1894197447
 40
0.2524325603
 40
0.2839141968
 40
0.3153702755
 40
0.3467988275
 40
0.3781981177
 40
0.4095667331
 40
0.4409034777
 40
0.4722075157
 40
0.5034782624
 40
0.5347154985
 40
0.5659192723
 40
0.5970899902
 40
0.6282283395
 40
0.6593353387
 40
0.6904122931
 40
0.7214607977
 40
0.7524827295
 40
0.7834802024
 40
0.8144555953
 40
0.8454114631
 40
0.8763505949
 40
0.9072758919
 40
0.9381904445
 40
0.9690973908
 40
1.0
 40
1.0
 40
1.0
 40
1.0
 10
10.5969541616
 20
0.9626315403
 30
0.0
 10
10.6144447478
 20
0.9626315403
 30
0.0
 10
10.6494336294
 20
0.9634639691
 30
0.0
 10
10.7017894267
 20
0.9672021329
 30
0.0
 10
10.7539012685
 20
0.9734255948
 30
0.0
 10
10.822856968
 20
0.9850084699
 30
0.0
 10
10.9078401889
 20
1.0056070111
 30
0.0
 10
10.990427485
 20
1.0341942732
 30
0.0
 10
11.0545461896
 20
1.0616810112
 30
0.0
 10
11.1015488003
 20
1.084553079
 30
0.0
 10
11.1473592497
 20
1.1096310781
 30
0.0
 10
11.1918705774
 20
1.1368565148
 30
0.0
 10
11.2349776983
 20
1.166164459
 30
0.0
 10
11.2765783364
 20
1.1974866304
 30
0.0
 10
11.3165750478
 20
1.230748027
 30
0.0
 10
11.3548723327
 20
1.2658714135
 30
0.0
 10
11.3913810324
 20
1.3027724938
 30
0.0
 10
11.4260134205
 20
1.3413656531
 30
0.0
 10
11.4586893805
 20
1.3815582826
 30
0.0
 10
11.4893299046
 20
1.4232569909
 30
0.0
 10
11.5178645234
 20
1.4663619277
 30
0.0
 10
11.5442238904
 20
1.510772619
 30
0.0
 10
11.5683476291
 20
1.5563830733
 30
0.0
 10
11.5901769463
 20
1.6030865608
 30
0.0
 10
11.6096618987
 20
1.650772025
 30
0.0
 10
11.6267550258
 20
1.6993274582
 30
0.0
 10
11.6414170903
 20
1.7486377698
 30
0.0
 10
11.6536125928
 20
1.7985868079
 30
0.0
 10
11.6633132315
 20
1.8490563528
 30
0.0
 10
11.6704959022
 20
1.899927698
 30
0.0
 10
11.6751435033
 20
1.9510790516
 30
0.0
 10
11.6765447544
 20
1.9852913956
 30
0.0
 10
11.6768202548
 20
2.0024001655
 30
0.0
  0
SPLINE
  5
2A8
100
AcDbEntity
  8
0
100
AcDbSpline
 62
7
  6
CONTINUOUS
 70
0
 71
3
 72
37
 73
33
 74
0
 42
0.0000001
 43
0.0000001
 44
0.0000000001
 40
0.0
 40
0.0
 40
0.0
 40
0.0
 40
0.0315881672
 40
0.06317992
 40
0.0947622647
 40
0.1263336102
 40
0.1894197447
 40
0.2524325603
 40
0.2839141968
 40
0.3153702755
 40
0.3467988275
 40
0.3781981177
 40
0.4095667331
 40
0.4409034777
 40
0.4722075157
 40
0.5034782624
 40
0.5347154985
 40
0.5659192723
 40
0.5970899902
 40
0.6282283395
 40
0.6593353387
 40
0.6904122931
 40
0.7214607977
 40
0.7524827295
 40
0.7834802024
 40
0.8144555953
 40
0.8454114631
 40
0.8763505949
 40
0.9072758919
 40
0.9381904445
 40
0.9690973908
 40
1.0
 40
1.0
 40
1.0
 40
1.0
 10
10.5969541616
 20
1.2329167383
 30
0.0
 10
10.6144447478
 20
1.2329167383
 30
0.0
 10
10.6494336294
 20
1.2337491671
 30
0.0
 10
10.7017894267
 20
1.2374873309
 30
0.0
 10
10.7539012685
 20
1.2437107929
 30
0.0
 10
10.822856968
 20
1.255293668
 30
0.0
 10
10.9078401889
 20
1.2758922092
 30
0.0
 10
10.990427485
 20
1.3044794713
 30
0.0
 10
11.0545461896
 20
1.3319662093
 30
0.0
 10
11.1015488003
 20
1.3548382771
 30
0.0
 10
11.1473592497
 20
1.3799162761
 30
0.0
 10
11.1918705774
 20
1.4071417129
 30
0.0
 10
11.2349776983
 20
1.4364496571
 30
0.0
 10
11.2765783364
 20
1.4677718284
 30
0.0
 10
11.3165750478
 20
1.5010332251
 30
0.0
 10
11.3548723327
 20
1.5361566116
 30
0.0
 10
11.3913810324
 20
1.5730576918
 30
0.0
 10
11.4260134205
 20
1.6116508512
 30
0.0
 10
11.4586893805
 20
1.6518434807
 30
0.0
 10
11.4893299046
 20
1.693542189
 30
0.0
 10
11.5178645234
 20
1.7366471258
 30
0.0
 10
11.5442238904
 20
1.7810578171
 30
0.0
 10
11.5683476291
 20
1.8266682714
 30
0.0
 10
11.5901769463
 20
1.8733717589
 30
0.0
 10
11.6096618987
 20
1.9210572231
 30
0.0
 10
11.6267550258
 20
1.9696126563
 30
0.0
 10
11.6414170903
 20
2.0189229678
 30
0.0
 10
11.6536125928
 20
2.068872006
 30
0.0
 10
11.6633132315
 20
2.1193415508
 30
0.0
 10
11.6704959022
 20
2.1702128961
 30
0.0
 10
11.6751435033
 20
2.2213642496
 30
0.0
 10
11.6765447544
 20
2.2555765937
 30
0.0
 10
11.6768202548
 20
2.2726853636
 30
0.0
  0
SPLINE
  5
2A9
100
AcDbEntity
  8
0
100
AcDbSpline
 62
7
  6
CONTINUOUS
 70
0
 71
3
 72
37
 73
33
 74
0
 42
0.0000001
 43
0.0000001
 44
0.0000000001
 40
0.0
 40
0.0
 40
0.0
 40
0.0
 40
0.0315917832
 40
0.0631870178
 40
0.0947726475
 40
0.1263471764
 40
0.1894385003
 40
0.2524550669
 40
0.2839381464
 40
0.3153952093
 40
0.346824277
 40
0.3782236089
 40
0.4095917919
 40
0.4409276482
 40
0.4722303603
 40
0.5034993882
 40
0.5347345454
 40
0.5659359509
 40
0.5971040587
 40
0.6282396487
 40
0.6593438015
 40
0.6904179311
 40
0.721463708
 40
0.7524831265
 40
0.7834783876
 40
0.814451987
 40
0.8454065766
 40
0.8763450528
 40
0.9072704196
 40
0.9381858564
 40
0.9690946053
 40
1.0
 40
1.0
 40
1.0
 40
1.0
 10
10.5969541616
 20
1.2162838031
 30
0.0
 10
10.6146218168
 20
1.2162838031
 30
0.0
 10
10.6499649575
 20
1.2171331608
 30
0.0
 10
10.7028481692
 20
1.220947361
 30
0.0
 10
10.7554798998
 20
1.2272971785
 30
0.0
 10
10.8251127564
 20
1.2391145809
 30
0.0
 10
10.9109055393
 20
1.2601283499
 30
0.0
 10
10.9942294171
 20
1.2892868046
 30
0.0
 10
11.0588785897
 20
1.3173165565
 30
0.0
 10
11.1062463745
 20
1.3406372526
 30
0.0
 10
11.1523865863
 20
1.3662025871
 30
0.0
 10
11.1971889505
 20
1.3939523469
 30
0.0
 10
11.2405459353
 20
1.4238183854
 30
0.0
 10
11.2823521643
 20
1.4557302839
 30
0.0
 10
11.3225081214
 20
1.4896095727
 30
0.0
 10
11.3609156179
 20
1.5253763731
 30
0.0
 10
11.3974836848
 20
1.5629428453
 30
0.0
 10
11.4321225323
 20
1.6022201473
 30
0.0
 10
11.464750349
 20
1.6431121931
 30
0.0
 10
11.4952869021
 20
1.6855217772
 30
0.0
 10
11.5236600272
 20
1.7293456881
 30
0.0
 10
11.5498001176
 20
1.7744791629
 30
0.0
 10
11.5736450807
 20
1.820812917
 30
0.0
 10
11.5951368519
 20
1.8682356416
 30
0.0
 10
11.6142238104
 20
1.916632971
 30
0.0
 10
11.6308601509
 20
1.965888231
 30
0.0
 10
11.6450051252
 20
2.0158829262
 30
0.0
 10
11.6566256711
 20
2.0664963397
 30
0.0
 10
11.6656923353
 20
2.1176066987
 30
0.0
 10
11.672185026
 20
2.1690909928
 30
0.0
 10
11.676086034
 20
2.2208236918
 30
0.0
 10
11.6769541616
 20
2.2553994184
 30
0.0
 10
11.6769541616
 20
2.2726832119
 30
0.0
  0
ENDSEC
  0
SECTION
  2
OBJECTS
  0
DICTIONARY
  5
C
100
AcDbDictionary
280
0
281
1
  3
ACAD_GROUP
350
D
  3
ACAD_MLINESTYLE
350
17
  3
ACAD_LAYOUT
350
1A
  3
ACAD_PLOTSETTINGS
350
19
  3
ACAD_PLOTSTYLENAME
350
E
  0
DICTIONARY
  5
D
102
{ACAD_REACTORS
330
C
102
}
100
AcDbDictionary
280
0
281
1
  0
ACDBDICTIONARYWDFLT
  5
E
102
{ACAD_REACTORS
330
C
102
}
100
AcDbDictionary
281
1
  3
Normal
350
F
100
AcDbDictionaryWithDefault
340
F
  0
DICTIONARY
  5
17
102
{ACAD_REACTORS
330
C
102
}
100
AcDbDictionary
280
0
281
1
  3
Standard
350
18
  0
DICTIONARY
  5
19
102
{ACAD_REACTORS
330
C
102
}
100
AcDbDictionary
281
1
  0
DICTIONARY
  5
1A
102
{ACAD_REACTORS
330
C
102
}
100
AcDbDictionary
281
1
  3
Model
350
2AA
  3
Layout1
350
2AB
  0
ACDBPLACEHOLDER
  5
F
102
{ACAD_REACTORS
330
E
102
}
  0
MLINESTYLE
  5
18
102
{ACAD_REACTORS
330
17
102
}
100
AcDbMlineStyle
  2
STANDARD
 70
0
  3

 62
256
 51
90.0
 52
90.0
 71
2
 49
0.5
 62
256
  6
BYLAYER
 49
-0.5
 62
256
  6
BYLAYER
  0
LAYOUT
  5
2AA
102
{ACAD_REACTORS
330
1A
102
}
100
AcDbPlotSettings
  1

  2
none_device
  4
ANSI_C_(22.00_x_17.00_Inches)
  6

 40
0.0
 41
0.0
 42
0.0
 43
0.0
 44
558.8
 45
431.8
 46
0.0
 47
0.0
 48
0.0
 49
0.0
140
0.0
141
0.0
142
1.0
143
1.0
 70
1024
 72
0
 73
0
 74
0
  7

 75
0
147
1.0
148
0.0
149
0.0
100
AcDbLayout
  1
Model
 70
0
 71
0
 10
0.0
 20
0.0
 11
22.0
 21
17.0
 12
0.0
 22
0.0
 32
0.0
 14
0.0
 24
0.0
 34
0.0
 15
0.0
 25
0.0
 35
0.0
146
0.0
 13
0.0
 23
0.0
 33
0.0
 16
1.0
 26
0.0
 36
0.0
 17
0.0
 27
1.0
 37
0.0
 76
0
330
202
345
0
346
0
  0
LAYOUT
  5
2AB
102
{ACAD_REACTORS
330
1A
102
}
100
AcDbPlotSettings
  1

  2
none_device
  4
ANSI_C_(22.00_x_17.00_Inches)
  6

 40
0.0
 41
0.0
 42
0.0
 43
0.0
 44
558.8
 45
431.8
 46
0.0
 47
0.0
 48
0.0
 49
0.0
140
0.0
141
0.0
142
1.0
143
1.0
 70
0
 72
0
 73
0
 74
0
  7

 75
0
147
1.0
148
0.0
149
0.0
100
AcDbLayout
  1
Layout1
 70
0
 71
1
 10
0.0
 20
0.0
 11
22.0
 21
17.0
 12
0.0
 22
0.0
 32
0.0
 14
0.0
 24
0.0
 34
0.0
 15
0.0
 25
0.0
 35
0.0
146
0.0
 13
0.0
 23
0.0
 33
0.0
 16
1.0
 26
0.0
 36
0.0
 17
0.0
 27
1.0
 37
0.0
 76
0
330
203
345
0
346
0
  0
ENDSEC
  0
EOF
