999
DXF file: 3390_front.dxf
999
Pro/ENGINEER 2019352 by Parametric Technology Corporation
  0
SECTION
  2
HEADER
  9
$ACADVER
  1
AC1032
  9
$DWGCODEPAGE
  3
ANSI_1252
  9
$EXTMAX
 10
11.0
 20
8.5
 30
0.0
  9
$EXTMIN
 10
0.0
 20
0.0
 30
0.0
  9
$LIMMIN
 10
0.0
 20
0.0
  9
$LIMMAX
 10
11.0
 20
8.5
  9
$VIEWCTR
 10
5.5
 20
4.25
  9
$VIEWSIZE
 40
8.5
  9
$CLAYER
  8
0
  9
$LTSCALE
 40
0.605
  9
$CELTYPE
  6
BYLAYER
  9
$DIMSCALE
 40
1.0
  9
$DIMASZ
 40
0.1
  9
$DIMEXO
 40
0.0625
  9
$DIMDLI
 40
0.418
  9
$DIMEXE
 40
0.125
  9
$DIMCEN
 40
0.099
  9
$DIMLFAC
 40
1.0
  9
$DIMBLK
  1
_FILLED
  9
$DIMALT
 70
1
  9
$DIMALTD
 70
2
  9
$DIMALTTD
 70
2
  9
$DIMALTF
 40
25.4
  9
$DIMTXT
 40
0.08
  9
$DIMTOL
 70
1
  9
$DIMLIM
 70
0
  9
$DIMTFAC
 40
1.0
  9
$DIMTP
 40
0.001
  9
$DIMTM
 40
0.001
  9
$DIMGAP
 40
0.09
  9
$DIMDSEP
 70
46
  9
$AUNITS
 70
0
  9
$PDMODE
 70
3
  9
$PDSIZE
 40
0.3125
  9
$HANDSEED
  5
2A4
  9
$TILEMODE
 70
1
  9
$MEASUREMENT
 70
0
  9
$INSUNITS
 70
1
  0
ENDSEC
  0
SECTION
  2
CLASSES
  0
CLASS
  1
ACDBDICTIONARYWDFLT
  2
AcDbDictionaryWithDefault
  3
AutoCAD 2000
 90
0
 91
1
280
0
281
0
  0
CLASS
  1
ACDBPLACEHOLDER
  2
AcDbPlaceHolder
  3
AutoCAD 2000
 90
0
 91
1
280
0
281
0
  0
CLASS
  1
LAYOUT
  2
AcDbLayout
  3
AutoCAD 2000
 90
0
 91
0
280
0
281
0
  0
ENDSEC
  0
SECTION
  2
TABLES
  0
TABLE
  2
VPORT
  5
8
100
AcDbSymbolTable
 70
2
  0
VPORT
  5
1F4
100
AcDbSymbolTableRecord
100
AcDbViewportTableRecord
  2
*ACTIVE
 70
0
 10
0.0
 20
0.0
 11
1.0
 21
1.0
 12
5.5
 22
4.25
 13
0.0
 23
0.0
 14
1.0
 24
1.0
 15
0.0
 25
0.0
 16
0.0
 26
0.0
 36
1.0
 17
0.0
 27
0.0
 37
0.0
 40
8.5
 41
1.2941176471
 42
50.0
 43
0.0
 44
0.0
 50
0.0
 51
0.0
 71
0
 72
100
 73
1
 74
1
 75
0
 76
0
 77
0
 78
0
  0
ENDTAB
  0
TABLE
  2
LTYPE
  5
5
100
AcDbSymbolTable
 70
6
  0
LTYPE
  5
14
100
AcDbSymbolTableRecord
100
AcDbLinetypeTableRecord
  2
BYBLOCK
 70
0
  3

 72
65
 73
0
 40
0.0
  0
LTYPE
  5
15
100
AcDbSymbolTableRecord
100
AcDbLinetypeTableRecord
  2
BYLAYER
 70
0
  3

 72
65
 73
0
 40
0.0
  0
LTYPE
  5
16
100
AcDbSymbolTableRecord
100
AcDbLinetypeTableRecord
  2
CONTINUOUS
 70
64
  3
Solid line
 72
65
 73
0
 40
0.0
  0
LTYPE
  5
1F5
100
AcDbSymbolTableRecord
100
AcDbLinetypeTableRecord
  2
CENTER
 70
64
  3
____ _ ____ _ ____ _ ____ _ ____ _ ____ _ ____
 72
65
 73
4
 40
0.6
 49
0.375
 74
0
 49
-0.075
 74
0
 49
0.075
 74
0
 49
-0.075
 74
0
  0
LTYPE
  5
1F6
100
AcDbSymbolTableRecord
100
AcDbLinetypeTableRecord
  2
HIDDEN
 70
64
  3
- - - - - - - - - - - - - - - - - - - -
 72
65
 73
2
 40
0.2
 49
0.1
 74
0
 49
-0.1
 74
0
  0
LTYPE
  5
1F7
100
AcDbSymbolTableRecord
100
AcDbLinetypeTableRecord
  2
PHANTOM
 70
64
  3
_____ _ _ _____ _ _ _____ _ _ _____
 72
65
 73
6
 40
0.8
 49
0.45
 74
0
 49
-0.05
 74
0
 49
0.1
 74
0
 49
-0.05
 74
0
 49
0.1
 74
0
 49
-0.05
 74
0
  0
LTYPE
  5
1F8
100
AcDbSymbolTableRecord
100
AcDbLinetypeTableRecord
  2
DOT
 70
64
  3
. . . . . . . . . . . . . . . . . . . .
 72
65
 73
2
 40
0.2
 49
0.1
 74
0
 49
-0.1
 74
0
  0
LTYPE
  5
1F9
100
AcDbSymbolTableRecord
100
AcDbLinetypeTableRecord
  2
DASHED
 70
64
  3
- - - - - - - - - - - - - - - - - - - -
 72
65
 73
2
 40
0.2
 49
0.1
 74
0
 49
-0.1
 74
0
  0
ENDTAB
  0
TABLE
  2
LAYER
  5
2
100
AcDbSymbolTable
 70
36
  0
LAYER
  5
10
100
AcDbSymbolTableRecord
100
AcDbLayerTableRecord
  2
0
 70
0
 62
7
  6
CONTINUOUS
370
-3
390
F
  0
LAYER
  5
1FA
100
AcDbSymbolTableRecord
100
AcDbLayerTableRecord
  2
DEFAULT_1
 70
0
 62
7
  6
CENTER
370
-3
390
F
  0
LAYER
  5
1FB
100
AcDbSymbolTableRecord
100
AcDbLayerTableRecord
  2
DEFAULT_2
 70
0
 62
8
  6
HIDDEN
370
-3
390
F
  0
LAYER
  5
1FC
100
AcDbSymbolTableRecord
100
AcDbLayerTableRecord
  2
DEFAULT_3
 70
0
 62
7
  6
PHANTOM
370
-3
390
F
  0
LAYER
  5
1FD
100
AcDbSymbolTableRecord
100
AcDbLayerTableRecord
  2
DEFAULT_COORDINATE_SYSTEM
 70
0
 62
7
  6
CONTINUOUS
370
-3
390
F
  0
LAYER
  5
1FE
100
AcDbSymbolTableRecord
100
AcDbLayerTableRecord
  2
DEFAULT_DATUM_AXES
 70
0
 62
7
  6
CONTINUOUS
370
-3
390
F
  0
LAYER
  5
1FF
100
AcDbSymbolTableRecord
100
AcDbLayerTableRecord
  2
DEFAULT_DATUM_PLANES
 70
0
 62
7
  6
CONTINUOUS
370
-3
390
F
  0
ENDTAB
  0
TABLE
  2
STYLE
  5
3
100
AcDbSymbolTable
 70
1
  0
STYLE
  5
11
100
AcDbSymbolTableRecord
100
AcDbTextStyleTableRecord
  2
STANDARD
 70
0
 40
0.0
 41
0.8
 50
0.0
 71
0
 42
0.2
  3
txt
  4

  0
STYLE
  5
200
100
AcDbSymbolTableRecord
100
AcDbTextStyleTableRecord
  2
TEXTSTYLE_1
 70
0
 40
0.0
 41
0.8
 50
0.0
 71
0
 42
0.2
  3
gdt
  4

  0
ENDTAB
  0
TABLE
  2
VIEW
  5
6
100
AcDbSymbolTable
 70
0
  0
ENDTAB
  0
TABLE
  2
UCS
  5
7
100
AcDbSymbolTable
 70
0
  0
ENDTAB
  0
TABLE
  2
APPID
  5
9
100
AcDbSymbolTable
 70
1
  0
APPID
  5
201
100
AcDbSymbolTableRecord
100
AcDbRegAppTableRecord
  2
ACAD
 70
0
  0
ENDTAB
  0
TABLE
  2
BLOCK_RECORD
  5
1
100
AcDbSymbolTable
 70
0
  0
BLOCK_RECORD
  5
202
100
AcDbSymbolTableRecord
100
AcDbBlockTableRecord
  2
*Model_Space
  0
BLOCK_RECORD
  5
203
100
AcDbSymbolTableRecord
100
AcDbBlockTableRecord
  2
*Paper_Space
  0
BLOCK_RECORD
  5
204
100
AcDbSymbolTableRecord
100
AcDbBlockTableRecord
  2
_FILLED
  0
ENDTAB
  0
TABLE
  2
DIMSTYLE
  5
A
100
AcDbSymbolTable
 70
1
100
AcDbDimStyleTable
 71
0
  0
DIMSTYLE
105
205
100
AcDbSymbolTableRecord
100
AcDbDimStyleTableRecord
  2
STANDARD
 70
0
  3

  4

 40
1.0
 41
0.1
 42
0.0625
 43
0.38
 44
0.125
 45
0.0
 46
0.0
 47
0.001
 48
0.001
140
0.08
141
0.09
142
0.0
143
25.4
144
1.0
145
0.0
146
1.0
147
0.09
 71
1.0
 72
0.0
 73
1
 74
1
 75
0
 76
0
 77
0
 78
4
 79
1
170
1
171
2
172
0
173
0
174
0
175
0
176
0
177
0
178
0
270
2
179
3
271
3
272
3
273
2
274
2
275
0
280
0
281
0
282
0
283
1
284
4
285
0
286
0
287
3
288
0
340
11
278
46
341
204
342
204
343
204
344
204
  0
ENDTAB
  0
ENDSEC
  0
SECTION
  2
BLOCKS
  0
BLOCK
  5
20
100
AcDbEntity
  8
0
100
AcDbBlockBegin
  2
*Model_Space
 70
0
 10
0.0
 20
0.0
 30
0.0
  3
*Model_Space
  1

  0
ENDBLK
  5
21
100
AcDbEntity
  8
0
100
AcDbBlockEnd
  0
BLOCK
  5
1C
100
AcDbEntity
  8
0
100
AcDbBlockBegin
  2
*Paper_Space
 70
0
 10
0.0
 20
0.0
 30
0.0
  3
*Paper_Space
  1

  0
ENDBLK
  5
1D
100
AcDbEntity
  8
0
100
AcDbBlockEnd
  0
BLOCK
  5
206
100
AcDbEntity
  8
0
100
AcDbBlockBegin
  2
_FILLED
 70
64
 10
0.0
 20
0.0
  3
_FILLED
  1

  0
SOLID
  5
207
100
AcDbEntity
  8
0
  6
BYBLOCK
 62
0
100
AcDbTrace
 10
0.0
 20
0.0
 11
-1.0
 21
0.2
 12
-1.0
 22
-0.2
 13
-1.0
 23
-0.2
  0
ENDBLK
  5
208
100
AcDbEntity
  8
0
  6
BYBLOCK
 62
0
100
AcDbBlockEnd
  0
ENDSEC
  0
SECTION
  2
ENTITIES
  0
MTEXT
  5
209
100
AcDbEntity
  8
0
100
AcDbMText
 62
2
  6
CONTINUOUS
  7
STANDARD
 71
3
 72
1
 10
6.1816482247
 20
2.5272266995
 30
0.0
 11
1.0
 21
0.0
 31
0.0
 73
2
 44
0.9
  1
SCALE 0.500
 40
0.08
 41
0.704
  0
LINE
  5
20A
100
AcDbEntity
  8
0
100
AcDbLine
 62
7
  6
CONTINUOUS
 10
0.0
 20
0.0
 11
0.0
 21
8.5
  0
LINE
  5
20B
100
AcDbEntity
  8
0
100
AcDbLine
 62
7
  6
CONTINUOUS
 10
0.0
 20
0.0
 11
11.0
 21
0.0
  0
LINE
  5
20C
100
AcDbEntity
  8
0
100
AcDbLine
 62
7
  6
CONTINUOUS
 10
0.0
 20
8.5
 11
11.0
 21
8.5
  0
LINE
  5
20D
100
AcDbEntity
  8
0
100
AcDbLine
 62
7
  6
CONTINUOUS
 10
11.0
 20
0.0
 11
11.0
 21
8.5
  0
LINE
  5
20E
100
AcDbEntity
  8
0
100
AcDbLine
 62
7
  6
CONTINUOUS
 10
3.0795660442
 20
4.1445518454
 11
3.0795660442
 21
3.9555518454
  0
LINE
  5
20F
100
AcDbEntity
  8
0
100
AcDbLine
 62
7
  6
CONTINUOUS
 10
3.1170660442
 20
3.9405518454
 11
3.1170660442
 21
4.1595518454
  0
LINE
  5
210
100
AcDbEntity
  8
0
100
AcDbLine
 62
7
  6
CONTINUOUS
 10
3.3345660442
 20
2.8840518454
 11
3.3345660442
 21
2.9690518454
  0
LINE
  5
211
100
AcDbEntity
  8
0
100
AcDbLine
 62
7
  6
CONTINUOUS
 10
3.6420660442
 20
2.9890518454
 11
3.6420660442
 21
3.7790518454
  0
LINE
  5
212
100
AcDbEntity
  8
0
100
AcDbLine
 62
7
  6
CONTINUOUS
 10
3.6470660442
 20
2.9890518454
 11
3.6470660442
 21
2.9840518454
  0
LINE
  5
213
100
AcDbEntity
  8
0
100
AcDbLine
 62
7
  6
CONTINUOUS
 10
3.6830638578
 20
3.9555518454
 11
3.6830638578
 21
4.1595518454
  0
LINE
  5
214
100
AcDbEntity
  8
0
100
AcDbLine
 62
7
  6
CONTINUOUS
 10
3.6889410442
 20
3.8045518454
 11
3.6889410442
 21
3.9255518454
  0
LINE
  5
215
100
AcDbEntity
  8
0
100
AcDbLine
 62
7
  6
CONTINUOUS
 10
3.6971845505
 20
4.1445518454
 11
3.6971845505
 21
3.9555518454
  0
LINE
  5
216
100
AcDbEntity
  8
0
100
AcDbLine
 62
7
  6
CONTINUOUS
 10
3.7020660442
 20
3.7940518454
 11
3.7020660442
 21
3.8045518454
  0
LINE
  5
217
100
AcDbEntity
  8
0
100
AcDbLine
 62
7
  6
CONTINUOUS
 10
3.7821262852
 20
3.9555518454
 11
3.7821262852
 21
4.1445518454
  0
LINE
  5
218
100
AcDbEntity
  8
0
100
AcDbLine
 62
7
  6
CONTINUOUS
 10
3.7920660442
 20
4.1445518454
 11
3.7920660442
 21
3.9555518454
  0
LINE
  5
219
100
AcDbEntity
  8
0
100
AcDbLine
 62
7
  6
CONTINUOUS
 10
3.8670660442
 20
4.1445518454
 11
3.8670660442
 21
3.9555518454
  0
LINE
  5
21A
100
AcDbEntity
  8
0
100
AcDbLine
 62
7
  6
CONTINUOUS
 10
3.8770058032
 20
4.1445518454
 11
3.8770058032
 21
3.9555518454
  0
LINE
  5
21B
100
AcDbEntity
  8
0
100
AcDbLine
 62
7
  6
CONTINUOUS
 10
3.9570660442
 20
3.7940518454
 11
3.9570660442
 21
3.8045518454
  0
LINE
  5
21C
100
AcDbEntity
  8
0
100
AcDbLine
 62
7
  6
CONTINUOUS
 10
3.961947538
 20
3.9555518454
 11
3.961947538
 21
4.1445518454
  0
LINE
  5
21D
100
AcDbEntity
  8
0
100
AcDbLine
 62
7
  6
CONTINUOUS
 10
3.9701910442
 20
3.8045518454
 11
3.9701910442
 21
3.9255518454
  0
LINE
  5
21E
100
AcDbEntity
  8
0
100
AcDbLine
 62
7
  6
CONTINUOUS
 10
3.9760682306
 20
3.9555518454
 11
3.9760682306
 21
4.1595518454
  0
LINE
  5
21F
100
AcDbEntity
  8
0
100
AcDbLine
 62
7
  6
CONTINUOUS
 10
4.0120660442
 20
2.9890518454
 11
4.0120660442
 21
2.9840518454
  0
LINE
  5
220
100
AcDbEntity
  8
0
100
AcDbLine
 62
7
  6
CONTINUOUS
 10
4.0170660442
 20
2.9890518454
 11
4.0170660442
 21
3.7790518454
  0
LINE
  5
221
100
AcDbEntity
  8
0
100
AcDbLine
 62
7
  6
CONTINUOUS
 10
8.3245660442
 20
2.8840518454
 11
7.3345660442
 21
2.8840518454
  0
LINE
  5
222
100
AcDbEntity
  8
0
100
AcDbLine
 62
7
  6
CONTINUOUS
 10
6.2920649759
 20
2.8840518454
 11
5.3670671125
 21
2.8840518454
  0
LINE
  5
223
100
AcDbEntity
  8
0
100
AcDbLine
 62
7
  6
CONTINUOUS
 10
3.3345660442
 20
2.8840518454
 11
4.3245660442
 21
2.8840518454
  0
LINE
  5
224
100
AcDbEntity
  8
0
100
AcDbLine
 62
7
  6
CONTINUOUS
 10
4.3245660442
 20
2.8840518454
 11
4.3245660442
 21
2.9690518454
  0
LINE
  5
225
100
AcDbEntity
  8
0
100
AcDbLine
 62
7
  6
CONTINUOUS
 10
3.3345660442
 20
2.9690518454
 11
4.3245660442
 21
2.9690518454
  0
LINE
  5
226
100
AcDbEntity
  8
0
100
AcDbLine
 62
7
  6
CONTINUOUS
 10
7.3345660442
 20
2.9690518454
 11
8.3245660442
 21
2.9690518454
  0
LINE
  5
227
100
AcDbEntity
  8
0
100
AcDbLine
 62
7
  6
CONTINUOUS
 10
3.3495660442
 20
2.9840518454
 11
4.3095660442
 21
2.9840518454
  0
LINE
  5
228
100
AcDbEntity
  8
0
100
AcDbLine
 62
7
  6
CONTINUOUS
 10
7.3495660442
 20
2.9840518454
 11
8.3095660442
 21
2.9840518454
  0
LINE
  5
229
100
AcDbEntity
  8
0
100
AcDbLine
 62
7
  6
CONTINUOUS
 10
3.6420660442
 20
2.9890518454
 11
4.0170660442
 21
2.9890518454
  0
LINE
  5
22A
100
AcDbEntity
  8
0
100
AcDbLine
 62
7
  6
CONTINUOUS
 10
7.6420660442
 20
2.9890518454
 11
8.0170660442
 21
2.9890518454
  0
LINE
  5
22B
100
AcDbEntity
  8
0
100
AcDbLine
 62
7
  6
CONTINUOUS
 10
5.3670660442
 20
2.9990518454
 11
6.2920660442
 21
2.9990518454
  0
LINE
  5
22C
100
AcDbEntity
  8
0
100
AcDbLine
 62
7
  6
CONTINUOUS
 10
5.3770667322
 20
3.0090518454
 11
6.2820653562
 21
3.0090518454
  0
LINE
  5
22D
100
AcDbEntity
  8
0
100
AcDbLine
 62
7
  6
CONTINUOUS
 10
4.5420660442
 20
3.9405518454
 11
4.5420660442
 21
4.1595518454
  0
LINE
  5
22E
100
AcDbEntity
  8
0
100
AcDbLine
 62
7
  6
CONTINUOUS
 10
4.5795660442
 20
4.1445518454
 11
4.5795660442
 21
3.9555518454
  0
LINE
  5
22F
100
AcDbEntity
  8
0
100
AcDbLine
 62
7
  6
CONTINUOUS
 10
3.6420660442
 20
3.7790518454
 11
4.0170660442
 21
3.7790518454
  0
LINE
  5
230
100
AcDbEntity
  8
0
100
AcDbLine
 62
7
  6
CONTINUOUS
 10
7.6420660442
 20
3.7790518454
 11
8.0170660442
 21
3.7790518454
  0
LINE
  5
231
100
AcDbEntity
  8
0
100
AcDbLine
 62
7
  6
CONTINUOUS
 10
3.6570660442
 20
3.7940518454
 11
4.0020660442
 21
3.7940518454
  0
LINE
  5
232
100
AcDbEntity
  8
0
100
AcDbLine
 62
7
  6
CONTINUOUS
 10
7.6570660442
 20
3.7940518454
 11
8.0020660442
 21
3.7940518454
  0
LINE
  5
233
100
AcDbEntity
  8
0
100
AcDbLine
 62
7
  6
CONTINUOUS
 10
3.6889410442
 20
3.8045518454
 11
3.9701910442
 21
3.8045518454
  0
LINE
  5
234
100
AcDbEntity
  8
0
100
AcDbLine
 62
7
  6
CONTINUOUS
 10
7.6889410442
 20
3.8045518454
 11
7.9701910442
 21
3.8045518454
  0
LINE
  5
235
100
AcDbEntity
  8
0
100
AcDbLine
 62
7
  6
CONTINUOUS
 10
7.9701910442
 20
3.9255518454
 11
7.9687135481
 21
3.9255518454
  0
LINE
  5
236
100
AcDbEntity
  8
0
100
AcDbLine
 62
7
  6
CONTINUOUS
 10
7.8498973695
 20
3.9255518454
 11
7.8092347189
 21
3.9255518454
  0
LINE
  5
237
100
AcDbEntity
  8
0
100
AcDbLine
 62
7
  6
CONTINUOUS
 10
7.6904185403
 20
3.9255518454
 11
7.6889410442
 21
3.9255518454
  0
LINE
  5
238
100
AcDbEntity
  8
0
100
AcDbLine
 62
7
  6
CONTINUOUS
 10
3.9701910442
 20
3.9255518454
 11
3.9687135481
 21
3.9255518454
  0
LINE
  5
239
100
AcDbEntity
  8
0
100
AcDbLine
 62
7
  6
CONTINUOUS
 10
3.8498973695
 20
3.9255518454
 11
3.8092347189
 21
3.9255518454
  0
LINE
  5
23A
100
AcDbEntity
  8
0
100
AcDbLine
 62
7
  6
CONTINUOUS
 10
3.6904185403
 20
3.9255518454
 11
3.6889410442
 21
3.9255518454
  0
LINE
  5
23B
100
AcDbEntity
  8
0
100
AcDbLine
 62
7
  6
CONTINUOUS
 10
8.5645660442
 20
3.9405518454
 11
7.9835559485
 21
3.9405518454
  0
LINE
  5
23C
100
AcDbEntity
  8
0
100
AcDbLine
 62
7
  6
CONTINUOUS
 10
7.8520660442
 20
3.9405518454
 11
7.8070660442
 21
3.9405518454
  0
LINE
  5
23D
100
AcDbEntity
  8
0
100
AcDbLine
 62
7
  6
CONTINUOUS
 10
7.67557614
 20
3.9405518454
 11
7.0945660442
 21
3.9405518454
  0
LINE
  5
23E
100
AcDbEntity
  8
0
100
AcDbLine
 62
7
  6
CONTINUOUS
 10
4.5645659232
 20
3.9405518454
 11
3.9835559485
 21
3.9405518454
  0
LINE
  5
23F
100
AcDbEntity
  8
0
100
AcDbLine
 62
7
  6
CONTINUOUS
 10
3.8520660442
 20
3.9405518454
 11
3.8070660442
 21
3.9405518454
  0
LINE
  5
240
100
AcDbEntity
  8
0
100
AcDbLine
 62
7
  6
CONTINUOUS
 10
3.67557614
 20
3.9405518454
 11
3.0945661652
 21
3.9405518454
  0
LINE
  5
241
100
AcDbEntity
  8
0
100
AcDbLine
 62
7
  6
CONTINUOUS
 10
3.0795660442
 20
3.9555518454
 11
3.6971845505
 21
3.9555518454
  0
LINE
  5
242
100
AcDbEntity
  8
0
100
AcDbLine
 62
7
  6
CONTINUOUS
 10
3.7821262852
 20
3.9555518454
 11
3.8770058032
 21
3.9555518454
  0
LINE
  5
243
100
AcDbEntity
  8
0
100
AcDbLine
 62
7
  6
CONTINUOUS
 10
3.961947538
 20
3.9555518454
 11
4.5795660442
 21
3.9555518454
  0
LINE
  5
244
100
AcDbEntity
  8
0
100
AcDbLine
 62
7
  6
CONTINUOUS
 10
7.0795660442
 20
3.9555518454
 11
7.6971845505
 21
3.9555518454
  0
LINE
  5
245
100
AcDbEntity
  8
0
100
AcDbLine
 62
7
  6
CONTINUOUS
 10
7.7821262852
 20
3.9555518454
 11
7.8770058032
 21
3.9555518454
  0
LINE
  5
246
100
AcDbEntity
  8
0
100
AcDbLine
 62
7
  6
CONTINUOUS
 10
7.961947538
 20
3.9555518454
 11
8.5795660442
 21
3.9555518454
  0
LINE
  5
247
100
AcDbEntity
  8
0
100
AcDbLine
 62
7
  6
CONTINUOUS
 10
5.3670660442
 20
2.8840518454
 11
5.3670660442
 21
2.9990518454
  0
LINE
  5
248
100
AcDbEntity
  8
0
100
AcDbLine
 62
7
  6
CONTINUOUS
 10
3.0795660442
 20
4.1445518454
 11
4.5795660442
 21
4.1445518454
  0
LINE
  5
249
100
AcDbEntity
  8
0
100
AcDbLine
 62
7
  6
CONTINUOUS
 10
7.0795660442
 20
4.1445518454
 11
8.5795660442
 21
4.1445518454
  0
LINE
  5
24A
100
AcDbEntity
  8
0
100
AcDbLine
 62
7
  6
CONTINUOUS
 10
3.0945660442
 20
4.1595518454
 11
4.5645659232
 21
4.1595518454
  0
LINE
  5
24B
100
AcDbEntity
  8
0
100
AcDbLine
 62
7
  6
CONTINUOUS
 10
7.0945660442
 20
4.1595518454
 11
8.5645660442
 21
4.1595518454
  0
LINE
  5
24C
100
AcDbEntity
  8
0
100
AcDbLine
 62
7
  6
CONTINUOUS
 10
5.6108160442
 20
3.0090518454
 11
5.6108160442
 21
6.2090518455
  0
LINE
  5
24D
100
AcDbEntity
  8
0
100
AcDbLine
 62
7
  6
CONTINUOUS
 10
6.0483160442
 20
3.0090518454
 11
6.0483160442
 21
6.2090518455
  0
LINE
  5
24E
100
AcDbEntity
  8
0
100
AcDbLine
 62
7
  6
CONTINUOUS
 10
6.2920660442
 20
2.8840518454
 11
6.2920660442
 21
2.9990518454
  0
LINE
  5
24F
100
AcDbEntity
  8
0
100
AcDbLine
 62
7
  6
CONTINUOUS
 10
7.0795660442
 20
4.1445518454
 11
7.0795660442
 21
3.9555518454
  0
LINE
  5
250
100
AcDbEntity
  8
0
100
AcDbLine
 62
7
  6
CONTINUOUS
 10
7.1170660442
 20
3.9405518454
 11
7.1170660442
 21
4.1595518454
  0
LINE
  5
251
100
AcDbEntity
  8
0
100
AcDbLine
 62
7
  6
CONTINUOUS
 10
5.6108160442
 20
5.8840518455
 11
6.0483160442
 21
5.8840518455
  0
LINE
  5
252
100
AcDbEntity
  8
0
100
AcDbLine
 62
7
  6
CONTINUOUS
 10
7.3345660442
 20
2.8840518454
 11
7.3345660442
 21
2.9690518454
  0
LINE
  5
253
100
AcDbEntity
  8
0
100
AcDbLine
 62
7
  6
CONTINUOUS
 10
7.6420660442
 20
2.9890518454
 11
7.6420660442
 21
3.7790518454
  0
LINE
  5
254
100
AcDbEntity
  8
0
100
AcDbLine
 62
7
  6
CONTINUOUS
 10
7.6470660442
 20
2.9890518454
 11
7.6470660442
 21
2.9840518454
  0
LINE
  5
255
100
AcDbEntity
  8
0
100
AcDbLine
 62
7
  6
CONTINUOUS
 10
7.6830638578
 20
3.9555518454
 11
7.6830638578
 21
4.1595518454
  0
LINE
  5
256
100
AcDbEntity
  8
0
100
AcDbLine
 62
7
  6
CONTINUOUS
 10
7.6889410442
 20
3.8045518454
 11
7.6889410442
 21
3.9255518454
  0
LINE
  5
257
100
AcDbEntity
  8
0
100
AcDbLine
 62
7
  6
CONTINUOUS
 10
7.6971845505
 20
4.1445518454
 11
7.6971845505
 21
3.9555518454
  0
LINE
  5
258
100
AcDbEntity
  8
0
100
AcDbLine
 62
7
  6
CONTINUOUS
 10
7.7020660442
 20
3.7940518454
 11
7.7020660442
 21
3.8045518454
  0
LINE
  5
259
100
AcDbEntity
  8
0
100
AcDbLine
 62
7
  6
CONTINUOUS
 10
7.7821262852
 20
3.9555518454
 11
7.7821262852
 21
4.1445518454
  0
LINE
  5
25A
100
AcDbEntity
  8
0
100
AcDbLine
 62
7
  6
CONTINUOUS
 10
7.7920660442
 20
3.9555518454
 11
7.7920660442
 21
4.1445518454
  0
LINE
  5
25B
100
AcDbEntity
  8
0
100
AcDbLine
 62
7
  6
CONTINUOUS
 10
7.8670660442
 20
3.9555518454
 11
7.8670660442
 21
4.1445518454
  0
LINE
  5
25C
100
AcDbEntity
  8
0
100
AcDbLine
 62
7
  6
CONTINUOUS
 10
7.8770058032
 20
4.1445518454
 11
7.8770058032
 21
3.9555518454
  0
LINE
  5
25D
100
AcDbEntity
  8
0
100
AcDbLine
 62
7
  6
CONTINUOUS
 10
7.9570660442
 20
3.7940518454
 11
7.9570660442
 21
3.8045518454
  0
LINE
  5
25E
100
AcDbEntity
  8
0
100
AcDbLine
 62
7
  6
CONTINUOUS
 10
7.961947538
 20
3.9555518454
 11
7.961947538
 21
4.1445518454
  0
LINE
  5
25F
100
AcDbEntity
  8
0
100
AcDbLine
 62
7
  6
CONTINUOUS
 10
7.9701910442
 20
3.8045518454
 11
7.9701910442
 21
3.9255518454
  0
LINE
  5
260
100
AcDbEntity
  8
0
100
AcDbLine
 62
7
  6
CONTINUOUS
 10
7.9760682306
 20
4.1595518454
 11
7.9760682306
 21
3.9555518454
  0
LINE
  5
261
100
AcDbEntity
  8
0
100
AcDbLine
 62
7
  6
CONTINUOUS
 10
8.0120660442
 20
2.9890518454
 11
8.0120660442
 21
2.9840518454
  0
LINE
  5
262
100
AcDbEntity
  8
0
100
AcDbLine
 62
7
  6
CONTINUOUS
 10
8.0170660442
 20
2.9890518454
 11
8.0170660442
 21
3.7790518454
  0
LINE
  5
263
100
AcDbEntity
  8
0
100
AcDbLine
 62
7
  6
CONTINUOUS
 10
8.3245660442
 20
2.8840518454
 11
8.3245660442
 21
2.9690518454
  0
LINE
  5
264
100
AcDbEntity
  8
0
100
AcDbLine
 62
7
  6
CONTINUOUS
 10
8.5420660442
 20
3.9405518454
 11
8.5420660442
 21
4.1595518454
  0
LINE
  5
265
100
AcDbEntity
  8
0
100
AcDbLine
 62
7
  6
CONTINUOUS
 10
8.5795660442
 20
4.1445518454
 11
8.5795660442
 21
3.9555518454
  0
ARC
  5
266
100
AcDbEntity
  8
0
100
AcDbCircle
 62
7
  6
CONTINUOUS
 10
5.8295660442
 20
6.2097589523
 40
0.21875
100
AcDbArc
 50
359.9071686411
 51
180.0928313589
  0
ARC
  5
267
100
AcDbEntity
  8
0
100
AcDbCircle
 62
7
  6
CONTINUOUS
 10
7.0945660442
 20
3.9555518454
 40
0.015
100
AcDbArc
 50
180.0
 51
270.0
  0
ARC
  5
268
100
AcDbEntity
  8
0
100
AcDbCircle
 62
7
  6
CONTINUOUS
 10
7.9851910442
 20
3.9255518454
 40
0.015
100
AcDbArc
 50
92.5
 51
180.0
  0
ARC
  5
269
100
AcDbEntity
  8
0
100
AcDbCircle
 62
7
  6
CONTINUOUS
 10
7.6739410443
 20
3.9255518454
 40
0.015
100
AcDbArc
 50
0.0
 51
87.5
  0
ARC
  5
26A
100
AcDbEntity
  8
0
100
AcDbCircle
 62
7
  6
CONTINUOUS
 10
7.0945660442
 20
4.1445518454
 40
0.015
100
AcDbArc
 50
90.0
 51
180.0
  0
ARC
  5
26B
100
AcDbEntity
  8
0
100
AcDbCircle
 62
7
  6
CONTINUOUS
 10
8.5645660442
 20
4.1445518454
 40
0.015
100
AcDbArc
 50
0.0
 51
90.0
  0
ARC
  5
26C
100
AcDbEntity
  8
0
100
AcDbCircle
 62
7
  6
CONTINUOUS
 10
8.5645660442
 20
3.9555518454
 40
0.015
100
AcDbArc
 50
270.0
 51
360.0
  0
ARC
  5
26D
100
AcDbEntity
  8
0
100
AcDbCircle
 62
7
  6
CONTINUOUS
 10
4.5645660442
 20
3.9555518454
 40
0.015
100
AcDbArc
 50
270.0
 51
360.0
  0
ARC
  5
26E
100
AcDbEntity
  8
0
100
AcDbCircle
 62
7
  6
CONTINUOUS
 10
4.3095660442
 20
2.9690518454
 40
0.015
100
AcDbArc
 50
0.0
 51
90.0
  0
ARC
  5
26F
100
AcDbEntity
  8
0
100
AcDbCircle
 62
7
  6
CONTINUOUS
 10
3.3495660442
 20
2.9690518454
 40
0.015
100
AcDbArc
 50
90.0
 51
180.0
  0
ARC
  5
270
100
AcDbEntity
  8
0
100
AcDbCircle
 62
7
  6
CONTINUOUS
 10
3.6739410443
 20
3.9255518454
 40
0.015
100
AcDbArc
 50
0.0
 51
87.5
  0
ARC
  5
271
100
AcDbEntity
  8
0
100
AcDbCircle
 62
7
  6
CONTINUOUS
 10
3.6570660442
 20
3.7790518454
 40
0.015
100
AcDbArc
 50
90.0
 51
180.0
  0
ARC
  5
272
100
AcDbEntity
  8
0
100
AcDbCircle
 62
7
  6
CONTINUOUS
 10
4.0020660442
 20
3.7790518454
 40
0.015
100
AcDbArc
 50
0.0
 51
90.0
  0
ARC
  5
273
100
AcDbEntity
  8
0
100
AcDbCircle
 62
7
  6
CONTINUOUS
 10
3.9851910442
 20
3.9255518454
 40
0.015
100
AcDbArc
 50
92.5
 51
180.0
  0
ARC
  5
274
100
AcDbEntity
  8
0
100
AcDbCircle
 62
7
  6
CONTINUOUS
 10
4.5645660442
 20
4.1445518454
 40
0.015
100
AcDbArc
 50
0.0
 51
90.0
  0
ARC
  5
275
100
AcDbEntity
  8
0
100
AcDbCircle
 62
7
  6
CONTINUOUS
 10
3.0945660442
 20
4.1445518454
 40
0.015
100
AcDbArc
 50
90.0
 51
180.0
  0
ARC
  5
276
100
AcDbEntity
  8
0
100
AcDbCircle
 62
7
  6
CONTINUOUS
 10
3.0945660442
 20
3.9555518454
 40
0.015
100
AcDbArc
 50
180.0
 51
270.0
  0
ARC
  5
277
100
AcDbEntity
  8
0
100
AcDbCircle
 62
7
  6
CONTINUOUS
 10
3.8520660442
 20
4.1445518454
 40
0.015
100
AcDbArc
 50
0.0
 51
90.0
  0
ARC
  5
278
100
AcDbEntity
  8
0
100
AcDbCircle
 62
7
  6
CONTINUOUS
 10
3.8070660442
 20
4.1445518454
 40
0.015
100
AcDbArc
 50
90.0
 51
180.0
  0
ARC
  5
279
100
AcDbEntity
  8
0
100
AcDbCircle
 62
7
  6
CONTINUOUS
 10
3.8520660442
 20
3.9555518454
 40
0.015
100
AcDbArc
 50
270.0
 51
360.0
  0
ARC
  5
27A
100
AcDbEntity
  8
0
100
AcDbCircle
 62
7
  6
CONTINUOUS
 10
3.8070660442
 20
3.9555518454
 40
0.015
100
AcDbArc
 50
180.0
 51
270.0
  0
ARC
  5
27B
100
AcDbEntity
  8
0
100
AcDbCircle
 62
7
  6
CONTINUOUS
 10
7.3495660442
 20
2.9690518454
 40
0.015
100
AcDbArc
 50
90.0
 51
180.0
  0
ARC
  5
27C
100
AcDbEntity
  8
0
100
AcDbCircle
 62
7
  6
CONTINUOUS
 10
8.3095660442
 20
2.9690518454
 40
0.015
100
AcDbArc
 50
0.0
 51
90.0
  0
ARC
  5
27D
100
AcDbEntity
  8
0
100
AcDbCircle
 62
7
  6
CONTINUOUS
 10
8.0020660442
 20
3.7790518454
 40
0.015
100
AcDbArc
 50
0.0
 51
90.0
  0
ARC
  5
27E
100
AcDbEntity
  8
0
100
AcDbCircle
 62
7
  6
CONTINUOUS
 10
7.6570660442
 20
3.7790518454
 40
0.015
100
AcDbArc
 50
90.0
 51
180.0
  0
ARC
  5
27F
100
AcDbEntity
  8
0
100
AcDbCircle
 62
7
  6
CONTINUOUS
 10
7.8070660442
 20
3.9555518454
 40
0.015
100
AcDbArc
 50
180.0
 51
270.0
  0
ARC
  5
280
100
AcDbEntity
  8
0
100
AcDbCircle
 62
7
  6
CONTINUOUS
 10
7.8520660442
 20
3.9555518454
 40
0.015
100
AcDbArc
 50
270.0
 51
360.0
  0
ARC
  5
281
100
AcDbEntity
  8
0
100
AcDbCircle
 62
7
  6
CONTINUOUS
 10
7.8070660442
 20
4.1445518454
 40
0.015
100
AcDbArc
 50
90.0
 51
180.0
  0
ARC
  5
282
100
AcDbEntity
  8
0
100
AcDbCircle
 62
7
  6
CONTINUOUS
 10
7.8520660442
 20
4.1445518454
 40
0.015
100
AcDbArc
 50
0.0
 51
90.0
  0
ARC
  5
283
100
AcDbEntity
  8
0
100
AcDbCircle
 62
7
  6
CONTINUOUS
 10
5.3770660442
 20
2.9990518454
 40
0.01
100
AcDbArc
 50
90.0
 51
180.0
  0
ARC
  5
284
100
AcDbEntity
  8
0
100
AcDbCircle
 62
7
  6
CONTINUOUS
 10
6.2820660442
 20
2.9990518454
 40
0.01
100
AcDbArc
 50
0.0
 51
90.0
  0
SPLINE
  5
285
100
AcDbEntity
  8
0
100
AcDbSpline
 62
7
  6
CONTINUOUS
 70
0
 71
3
 72
29
 73
25
 74
0
 42
0.0000001
 43
0.0000001
 44
0.0000000001
 40
0.0
 40
0.0
 40
0.0
 40
0.0
 40
0.0068765129
 40
0.0107645606
 40
0.0150406229
 40
0.0249390137
 40
0.0368284653
 40
0.0508045091
 40
0.0668908456
 40
0.0850746116
 40
0.1053170732
 40
0.1275562213
 40
0.1517209251
 40
0.2055062993
 40
0.2660118241
 40
0.3325408197
 40
0.4043981336
 40
0.480896941
 40
0.5613607618
 40
0.6451238535
 40
0.7315281629
 40
0.8199145208
 40
0.9096352348
 40
1.0
 40
1.0
 40
1.0
 40
1.0
 10
3.9687135481
 20
3.9255518454
 30
0.0
 10
3.968641568
 20
3.9255523417
 30
0.0
 10
3.9685285941
 20
3.9255765746
 30
0.0
 10
3.9683852606
 20
3.9256420371
 30
0.0
 10
3.9682238496
 20
3.9257414674
 30
0.0
 10
3.9680164113
 20
3.9259209879
 30
0.0
 10
3.9677684799
 20
3.9262023348
 30
0.0
 10
3.9675103445
 20
3.9265582328
 30
0.0
 10
3.9672430981
 20
3.9269871133
 30
0.0
 10
3.9669682004
 20
3.9274874216
 30
0.0
 10
3.9666871844
 20
3.9280570756
 30
0.0
 10
3.9664015016
 20
3.9286936836
 30
0.0
 10
3.9660020759
 20
3.92966355
 30
0.0
 10
3.9655063413
 20
3.931026147
 30
0.0
 10
3.9649368702
 20
3.9328317226
 30
0.0
 10
3.9643862829
 20
3.9348400363
 30
0.0
 10
3.9638668812
 20
3.9370290456
 30
0.0
 10
3.9633902215
 20
3.9393767937
 30
0.0
 10
3.9629669098
 20
3.941861262
 30
0.0
 10
3.9626064762
 20
3.9444603552
 30
0.0
 10
3.9623169176
 20
3.9471517316
 30
0.0
 10
3.9621056408
 20
3.9499129502
 30
0.0
 10
3.9619768604
 20
3.9527207103
 30
0.0
 10
3.9619475451
 20
3.9546059271
 30
0.0
 10
3.961947538
 20
3.9555518454
 30
0.0
  0
SPLINE
  5
286
100
AcDbEntity
  8
0
100
AcDbSpline
 62
7
  6
CONTINUOUS
 70
0
 71
3
 72
23
 73
19
 74
0
 42
0.0000001
 43
0.0000001
 44
0.0000000001
 40
0.0
 40
0.0
 40
0.0
 40
0.0
 40
0.0128350384
 40
0.0265714565
 40
0.0415247401
 40
0.0578669319
 40
0.0756428415
 40
0.0948629006
 40
0.1376023182
 40
0.1859712248
 40
0.2397241493
 40
0.2985597982
 40
0.3621623122
 40
0.4302272156
 40
0.5024532474
 40
0.6579988213
 40
0.8255463085
 40
1.0
 40
1.0
 40
1.0
 40
1.0
 10
3.9835561276
 20
3.9405518454
 30
0.0
 10
3.9834804767
 20
3.9405518462
 30
0.0
 10
3.9833236611
 20
3.9405654271
 30
0.0
 10
3.9830849299
 20
3.9406223751
 30
0.0
 10
3.9828355869
 20
3.9407149026
 30
0.0
 10
3.9825752866
 20
3.940841861
 30
0.0
 10
3.9823047976
 20
3.9410026846
 30
0.0
 10
3.9819185216
 20
3.9412709333
 30
0.0
 10
3.9814202512
 20
3.9416909845
 30
0.0
 10
3.980820765
 20
3.9423002305
 30
0.0
 10
3.9802090839
 20
3.9430265091
 30
0.0
 10
3.9795952678
 20
3.9438650806
 30
0.0
 10
3.9789904942
 20
3.9448119908
 30
0.0
 10
3.9784066579
 20
3.9458633086
 30
0.0
 10
3.9776543961
 20
3.9474373562
 30
0.0
 10
3.9768515853
 20
3.9496323206
 30
0.0
 10
3.9762181832
 20
3.9525046625
 30
0.0
 10
3.9760682752
 20
3.9545235985
 30
0.0
 10
3.9760682306
 20
3.9555518454
 30
0.0
  0
SPLINE
  5
287
100
AcDbEntity
  8
0
100
AcDbSpline
 62
7
  6
CONTINUOUS
 70
0
 71
3
 72
30
 73
26
 74
0
 42
0.0000001
 43
0.0000001
 44
0.0000000001
 40
0.0
 40
0.0
 40
0.0
 40
0.0
 40
0.0903617594
 40
0.1800792376
 40
0.2684662193
 40
0.3548723581
 40
0.4386312177
 40
0.5190931086
 40
0.5955905967
 40
0.6674451972
 40
0.7339725456
 40
0.7944774549
 40
0.8482615425
 40
0.8724256815
 40
0.894664975
 40
0.9149090933
 40
0.9330962152
 40
0.9491820219
 40
0.9631462874
 40
0.9750197396
 40
0.9849159961
 40
0.9891959202
 40
0.9930874221
 40
0.9966583791
 40
1.0
 40
1.0
 40
1.0
 40
1.0
 10
3.6971845505
 20
3.9555518454
 30
0.0
 10
3.6971845316
 20
3.9546059414
 30
0.0
 10
3.6971550476
 20
3.9527207573
 30
0.0
 10
3.6970261468
 20
3.9499130137
 30
0.0
 10
3.6968150292
 20
3.9471517437
 30
0.0
 10
3.6965257064
 20
3.9444603086
 30
0.0
 10
3.6961651132
 20
3.941861234
 30
0.0
 10
3.6957418231
 20
3.9393767974
 30
0.0
 10
3.6952652113
 20
3.9370290581
 30
0.0
 10
3.694745771
 20
3.934840077
 30
0.0
 10
3.6941951911
 20
3.932831777
 30
0.0
 10
3.6936257441
 20
3.9310261968
 30
0.0
 10
3.6931300126
 20
3.929663598
 30
0.0
 10
3.6927305838
 20
3.9286937317
 30
0.0
 10
3.6924448962
 20
3.9280570979
 30
0.0
 10
3.6921638795
 20
3.9274873722
 30
0.0
 10
3.6918890474
 20
3.9269869637
 30
0.0
 10
3.6916219114
 20
3.9265581116
 30
0.0
 10
3.6913636817
 20
3.9262026146
 30
0.0
 10
3.6911154285
 20
3.9259219652
 30
0.0
 10
3.6909080081
 20
3.9257426745
 30
0.0
 10
3.6907470827
 20
3.9256425809
 30
0.0
 10
3.6906351061
 20
3.9255909414
 30
0.0
 10
3.6905260155
 20
3.9255593565
 30
0.0
 10
3.6904535203
 20
3.9255518695
 30
0.0
 10
3.6904185403
 20
3.9255518454
 30
0.0
  0
SPLINE
  5
288
100
AcDbEntity
  8
0
100
AcDbSpline
 62
7
  6
CONTINUOUS
 70
0
 71
3
 72
23
 73
19
 74
0
 42
0.0000001
 43
0.0000001
 44
0.0000000001
 40
0.0
 40
0.0
 40
0.0
 40
0.0
 40
0.1743968455
 40
0.2594284827
 40
0.3419918601
 40
0.4215209272
 40
0.497565104
 40
0.5697693793
 40
0.6378099464
 40
0.7013838483
 40
0.7602038015
 40
0.8139383968
 40
0.8622874087
 40
0.9049968933
 40
0.9241695238
 40
0.9418955551
 40
0.9733381595
 40
1.0
 40
1.0
 40
1.0
 40
1.0
 10
3.6830638578
 20
3.9555518454
 30
0.0
 10
3.6830637629
 20
3.9545235474
 30
0.0
 10
3.6829490116
 20
3.9529909056
 30
0.0
 10
3.6825836354
 20
3.9510067128
 30
0.0
 10
3.6822197107
 20
3.9495944449
 30
0.0
 10
3.6817782492
 20
3.9482605097
 30
0.0
 10
3.6812759567
 20
3.9470139474
 30
0.0
 10
3.6807249609
 20
3.9458629016
 30
0.0
 10
3.6801411245
 20
3.9448116496
 30
0.0
 10
3.6795368787
 20
3.943864356
 30
0.0
 10
3.6789225916
 20
3.9430260883
 30
0.0
 10
3.6783107875
 20
3.9422998895
 30
0.0
 10
3.67771141
 20
3.9416906186
 30
0.0
 10
3.6772133619
 20
3.9412708917
 30
0.0
 10
3.6768279528
 20
3.9410023552
 30
0.0
 10
3.6764816869
 20
3.9407957174
 30
0.0
 10
3.676070418
 20
3.9406139277
 30
0.0
 10
3.6757277283
 20
3.9405518809
 30
0.0
 10
3.6755705218
 20
3.9405518454
 30
0.0
  0
SPLINE
  5
289
100
AcDbEntity
  8
0
100
AcDbSpline
 62
7
  6
CONTINUOUS
 70
0
 71
3
 72
23
 73
19
 74
0
 42
0.0000001
 43
0.0000001
 44
0.0000000001
 40
0.0
 40
0.0
 40
0.0
 40
0.0
 40
0.0633044646
 40
0.126562067
 40
0.1896988472
 40
0.2526851677
 40
0.3154858153
 40
0.3780892258
 40
0.4404984966
 40
0.5027341051
 40
0.5648313575
 40
0.6268379896
 40
0.6888092881
 40
0.7508040129
 40
0.8128798664
 40
0.8750821268
 40
0.9374517175
 40
1.0
 40
1.0
 40
1.0
 40
1.0
 10
3.8770058032
 20
3.9555518454
 30
0.0
 10
3.8770057341
 20
3.9546051691
 30
0.0
 10
3.8769229871
 20
3.9527115788
 30
0.0
 10
3.8765594145
 20
3.9498948976
 30
0.0
 10
3.8759566958
 20
3.9471240224
 30
0.0
 10
3.8751159358
 20
3.9444229741
 30
0.0
 10
3.8740427554
 20
3.9418141089
 30
0.0
 10
3.872744186
 20
3.9393193775
 30
0.0
 10
3.8712270584
 20
3.9369610155
 30
0.0
 10
3.869499721
 20
3.9347613472
 30
0.0
 10
3.8675726228
 20
3.9327424137
 30
0.0
 10
3.8654579367
 20
3.9309265634
 30
0.0
 10
3.8631701712
 20
3.9293364917
 30
0.0
 10
3.8607272111
 20
3.9279942964
 30
0.0
 10
3.8581505983
 20
3.9269212894
 30
0.0
 10
3.8554654647
 20
3.9261377216
 30
0.0
 10
3.8527024712
 20
3.9256604801
 30
0.0
 10
3.8508327376
 20
3.9255519495
 30
0.0
 10
3.8498973695
 20
3.9255518454
 30
0.0
  0
SPLINE
  5
28A
100
AcDbEntity
  8
0
100
AcDbSpline
 62
7
  6
CONTINUOUS
 70
0
 71
3
 72
23
 73
19
 74
0
 42
0.0000001
 43
0.0000001
 44
0.0000000001
 40
0.0
 40
0.0
 40
0.0
 40
0.0
 40
0.0625488959
 40
0.1249174713
 40
0.1871208075
 40
0.2491958662
 40
0.3111907508
 40
0.3731622413
 40
0.435168862
 40
0.4972661002
 40
0.5595016662
 40
0.6219111178
 40
0.6845144491
 40
0.7473152769
 40
0.810301252
 40
0.8734376784
 40
0.9366952165
 40
1.0
 40
1.0
 40
1.0
 40
1.0
 10
3.8092347189
 20
3.9255518454
 30
0.0
 10
3.8082993353
 20
3.9255529126
 30
0.0
 10
3.8064295005
 20
3.925658537
 30
0.0
 10
3.8036665691
 20
3.9261374686
 30
0.0
 10
3.8009817078
 20
3.9269216172
 30
0.0
 10
3.798404893
 20
3.9279942215
 30
0.0
 10
3.7959618834
 20
3.9293363863
 30
0.0
 10
3.7936741486
 20
3.9309265385
 30
0.0
 10
3.7915593654
 20
3.9327423106
 30
0.0
 10
3.7896323003
 20
3.9347613108
 30
0.0
 10
3.7879049907
 20
3.9369610236
 30
0.0
 10
3.7863877565
 20
3.9393193389
 30
0.0
 10
3.7850891877
 20
3.9418141176
 30
0.0
 10
3.7840164146
 20
3.9444231556
 30
0.0
 10
3.7831750329
 20
3.9471239972
 30
0.0
 10
3.7825716484
 20
3.9498947554
 30
0.0
 10
3.782208354
 20
3.9527115298
 30
0.0
 10
3.7821263154
 20
3.9546051573
 30
0.0
 10
3.7821262852
 20
3.9555518454
 30
0.0
  0
SPLINE
  5
28B
100
AcDbEntity
  8
0
100
AcDbSpline
 62
7
  6
CONTINUOUS
 70
0
 71
3
 72
23
 73
19
 74
0
 42
0.0000001
 43
0.0000001
 44
0.0000000001
 40
0.0
 40
0.0
 40
0.0
 40
0.0
 40
0.0128358595
 40
0.0265729086
 40
0.0415260737
 40
0.0578678249
 40
0.0756433442
 40
0.0948632611
 40
0.1376028202
 40
0.1859718153
 40
0.2397247009
 40
0.2985603026
 40
0.3621627877
 40
0.4302276363
 40
0.5024536107
 40
0.6579990895
 40
0.8255464511
 40
1.0
 40
1.0
 40
1.0
 40
1.0
 10
7.9835561368
 20
3.9405518454
 30
0.0
 10
7.9834804809
 20
3.9405518463
 30
0.0
 10
7.9833236567
 20
3.940565427
 30
0.0
 10
7.9830849167
 20
3.9406223727
 30
0.0
 10
7.9828355733
 20
3.9407149013
 30
0.0
 10
7.98257528
 20
3.9408418618
 30
0.0
 10
7.9823047986
 20
3.9410026872
 30
0.0
 10
7.981918526
 20
3.9412709371
 30
0.0
 10
7.9814202523
 20
3.9416909854
 30
0.0
 10
7.9808207629
 20
3.9423002307
 30
0.0
 10
7.9802090824
 20
3.9430265107
 30
0.0
 10
7.9795952669
 20
3.9438650824
 30
0.0
 10
7.9789904929
 20
3.944811992
 30
0.0
 10
7.9784066574
 20
3.9458633103
 30
0.0
 10
7.977654398
 20
3.9474373586
 30
0.0
 10
7.9768515817
 20
3.9496323207
 30
0.0
 10
7.9762181867
 20
3.9525046638
 30
0.0
 10
7.9760682753
 20
3.9545235988
 30
0.0
 10
7.9760682306
 20
3.9555518454
 30
0.0
  0
SPLINE
  5
28C
100
AcDbEntity
  8
0
100
AcDbSpline
 62
7
  6
CONTINUOUS
 70
0
 71
3
 72
29
 73
25
 74
0
 42
0.0000001
 43
0.0000001
 44
0.0000000001
 40
0.0
 40
0.0
 40
0.0
 40
0.0
 40
0.0068772159
 40
0.0107652538
 40
0.0150416278
 40
0.0249420905
 40
0.0368321046
 40
0.0508050748
 40
0.0668881617
 40
0.0850735327
 40
0.105317585
 40
0.1275568862
 40
0.1517201751
 40
0.205505099
 40
0.2660109256
 40
0.3325396757
 40
0.4043969236
 40
0.4808964642
 40
0.5613592326
 40
0.6451220666
 40
0.7315276379
 40
0.8199149827
 40
0.9096324518
 40
1.0
 40
1.0
 40
1.0
 40
1.0
 10
7.9687135481
 20
3.9255518454
 30
0.0
 10
7.9686415606
 20
3.9255523429
 30
0.0
 10
7.9685285708
 20
3.925576499
 30
0.0
 10
7.9683851997
 20
3.9256419191
 30
0.0
 10
7.9682237952
 20
3.9257414152
 30
0.0
 10
7.9680164746
 20
3.9259211193
 30
0.0
 10
7.967768567
 20
3.9262024636
 30
0.0
 10
7.9675103303
 20
3.9265582149
 30
0.0
 10
7.9672430442
 20
3.9269870171
 30
0.0
 10
7.966968209
 20
3.9274873608
 30
0.0
 10
7.9666872192
 20
3.9280570662
 30
0.0
 10
7.9664015276
 20
3.9286936743
 30
0.0
 10
7.9660020645
 20
3.929663507
 30
0.0
 10
7.9655063513
 20
3.9310260969
 30
0.0
 10
7.9649368932
 20
3.9328316733
 30
0.0
 10
7.9643862998
 20
3.9348399869
 30
0.0
 10
7.9638668802
 20
3.9370289989
 30
0.0
 10
7.9633902586
 20
3.9393767524
 30
0.0
 10
7.9629668881
 20
3.9418612062
 30
0.0
 10
7.9626064569
 20
3.9444603031
 30
0.0
 10
7.9623169905
 20
3.9471517114
 30
0.0
 10
7.9621055895
 20
3.9499129123
 30
0.0
 10
7.9619768821
 20
3.9527206847
 30
0.0
 10
7.961947545
 20
3.9546058971
 30
0.0
 10
7.961947538
 20
3.9555518454
 30
0.0
  0
SPLINE
  5
28D
100
AcDbEntity
  8
0
100
AcDbSpline
 62
7
  6
CONTINUOUS
 70
0
 71
3
 72
21
 73
17
 74
0
 42
0.0000001
 43
0.0000001
 44
0.0000000001
 40
0.0
 40
0.0
 40
0.0
 40
0.0
 40
0.0606172235
 40
0.1213279132
 40
0.182169459
 40
0.2432252993
 40
0.3045490159
 40
0.3661846231
 40
0.4281662493
 40
0.4905126331
 40
0.5532287774
 40
0.6163056414
 40
0.6797199838
 40
0.7434376507
 40
0.8714411322
 40
1.0
 40
1.0
 40
1.0
 40
1.0
 10
3.7113052431
 20
4.1595518454
 30
0.0
 10
3.7108433193
 20
4.1595518454
 30
0.0
 10
3.7099180408
 20
4.1595034926
 30
0.0
 10
3.7085444224
 20
4.1592869772
 30
0.0
 10
3.7071972992
 20
4.1589282867
 30
0.0
 10
3.705889998
 20
4.1584310819
 30
0.0
 10
3.7046349746
 20
4.1578001544
 30
0.0
 10
3.7034443546
 20
4.1570416471
 30
0.0
 10
3.7023296131
 20
4.1561628889
 30
0.0
 10
3.7013014602
 20
4.1551723936
 30
0.0
 10
3.7003697272
 20
4.1540797575
 30
0.0
 10
3.6995433884
 20
4.1528955279
 30
0.0
 10
3.6988303297
 20
4.1516309864
 30
0.0
 10
3.6980388208
 20
4.1498524622
 30
0.0
 10
3.6973655075
 20
4.1474911243
 30
0.0
 10
3.6971845505
 20
4.1455315076
 30
0.0
 10
3.6971845505
 20
4.1445518454
 30
0.0
  0
SPLINE
  5
28E
100
AcDbEntity
  8
0
100
AcDbSpline
 62
7
  6
CONTINUOUS
 70
0
 71
3
 72
23
 73
19
 74
0
 42
0.0000001
 43
0.0000001
 44
0.0000000001
 40
0.0
 40
0.0
 40
0.0
 40
0.0
 40
0.0625493108
 40
0.1249167657
 40
0.1871201753
 40
0.2491949917
 40
0.3111896802
 40
0.3731607938
 40
0.4351672083
 40
0.4972646407
 40
0.5595003759
 40
0.6219099175
 40
0.6845134228
 40
0.7473141716
 40
0.8103003846
 40
0.8734379416
 40
0.9366932577
 40
1.0
 40
1.0
 40
1.0
 40
1.0
 10
7.8092347189
 20
3.9255518454
 30
0.0
 10
7.808299329
 20
3.9255529118
 30
0.0
 10
7.8064294674
 20
3.925658202
 30
0.0
 10
7.803666666
 20
3.9261378222
 30
0.0
 10
7.8009817026
 20
3.9269214731
 30
0.0
 10
7.798404912
 20
3.9279941836
 30
0.0
 10
7.7959619537
 20
3.9293363946
 30
0.0
 10
7.7936741953
 20
3.9309264957
 30
0.0
 10
7.7915594391
 20
3.9327422904
 30
0.0
 10
7.7896323334
 20
3.9347612534
 30
0.0
 10
7.7879050279
 20
3.9369609824
 30
0.0
 10
7.7863878117
 20
3.9393193119
 30
0.0
 10
7.7850891182
 20
3.9418140292
 30
0.0
 10
7.7840164245
 20
3.9444231157
 30
0.0
 10
7.7831751817
 20
3.9471240075
 30
0.0
 10
7.7825714765
 20
3.9498946875
 30
0.0
 10
7.7822084467
 20
3.9527115145
 30
0.0
 10
7.7821263153
 20
3.954605128
 30
0.0
 10
7.7821262852
 20
3.9555518454
 30
0.0
  0
SPLINE
  5
28F
100
AcDbEntity
  8
0
100
AcDbSpline
 62
7
  6
CONTINUOUS
 70
0
 71
3
 72
23
 73
19
 74
0
 42
0.0000001
 43
0.0000001
 44
0.0000000001
 40
0.0
 40
0.0
 40
0.0
 40
0.0
 40
0.0633065853
 40
0.1265614758
 40
0.1897001725
 40
0.2526859686
 40
0.3154869978
 40
0.3780904778
 40
0.4404996845
 40
0.5027358011
 40
0.5648328977
 40
0.6268396043
 40
0.6888103688
 40
0.7508051374
 40
0.812880159
 40
0.8750834667
 40
0.9374509003
 40
1.0
 40
1.0
 40
1.0
 40
1.0
 10
7.8770058032
 20
3.9555518454
 30
0.0
 10
7.8770057341
 20
3.9546051373
 30
0.0
 10
7.8769230211
 20
3.9527115523
 30
0.0
 10
7.8765593283
 20
3.9498948642
 30
0.0
 10
7.8759566489
 20
3.9471240113
 30
0.0
 10
7.8751160616
 20
3.9444228662
 30
0.0
 10
7.8740425378
 20
3.9418141543
 30
0.0
 10
7.8727443821
 20
3.9393191987
 30
0.0
 10
7.8712268921
 20
3.9369610503
 30
0.0
 10
7.8694997344
 20
3.9347612526
 30
0.0
 10
7.8675725761
 20
3.9327423477
 30
0.0
 10
7.8654578419
 20
3.9309265861
 30
0.0
 10
7.8631701924
 20
3.9293363436
 30
0.0
 10
7.8607271272
 20
3.9279943865
 30
0.0
 10
7.8581506064
 20
3.9269211493
 30
0.0
 10
7.8554654263
 20
3.9261378269
 30
0.0
 10
7.8527024725
 20
3.9256604297
 30
0.0
 10
7.8508327499
 20
3.9255519495
 30
0.0
 10
7.8498973695
 20
3.9255518454
 30
0.0
  0
SPLINE
  5
290
100
AcDbEntity
  8
0
100
AcDbSpline
 62
7
  6
CONTINUOUS
 70
0
 71
3
 72
23
 73
19
 74
0
 42
0.0000001
 43
0.0000001
 44
0.0000000001
 40
0.0
 40
0.0
 40
0.0
 40
0.0
 40
0.1743968632
 40
0.2594285091
 40
0.3419918951
 40
0.4215209706
 40
0.4975651557
 40
0.5697694389
 40
0.6378100139
 40
0.7013839232
 40
0.7602038834
 40
0.813938487
 40
0.8622875038
 40
0.9049969913
 40
0.9241696327
 40
0.9418956774
 40
0.9733382444
 40
1.0
 40
1.0
 40
1.0
 40
1.0
 10
7.6830638578
 20
3.9555518454
 30
0.0
 10
7.6830637629
 20
3.9545235474
 30
0.0
 10
7.6829490116
 20
3.9529909056
 30
0.0
 10
7.6825836354
 20
3.9510067129
 30
0.0
 10
7.6822197107
 20
3.949594445
 30
0.0
 10
7.6817782493
 20
3.9482605099
 30
0.0
 10
7.6812759568
 20
3.9470139476
 30
0.0
 10
7.680724961
 20
3.9458629018
 30
0.0
 10
7.6801411247
 20
3.9448116499
 30
0.0
 10
7.6795368789
 20
3.9438643563
 30
0.0
 10
7.6789225917
 20
3.9430260885
 30
0.0
 10
7.6783107877
 20
3.9422998897
 30
0.0
 10
7.6777114102
 20
3.9416906189
 30
0.0
 10
7.6772133622
 20
3.9412708917
 30
0.0
 10
7.6768279529
 20
3.9410023553
 30
0.0
 10
7.676481687
 20
3.9407957178
 30
0.0
 10
7.676070419
 20
3.9406139279
 30
0.0
 10
7.6757277301
 20
3.9405518809
 30
0.0
 10
7.6755705241
 20
3.9405518454
 30
0.0
  0
SPLINE
  5
291
100
AcDbEntity
  8
0
100
AcDbSpline
 62
7
  6
CONTINUOUS
 70
0
 71
3
 72
30
 73
26
 74
0
 42
0.0000001
 43
0.0000001
 44
0.0000000001
 40
0.0
 40
0.0
 40
0.0
 40
0.0
 40
0.0903647999
 40
0.1800782093
 40
0.2684681029
 40
0.3548741378
 40
0.4386320012
 40
0.5190963203
 40
0.5955912551
 40
0.6674476206
 40
0.733974361
 40
0.7944784299
 40
0.8482639115
 40
0.8724260567
 40
0.8946650015
 40
0.9149102639
 40
0.933097862
 40
0.9491812629
 40
0.9631458239
 40
0.9750200636
 40
0.9849159896
 40
0.9891957487
 40
0.9930871841
 40
0.9966581879
 40
1.0
 40
1.0
 40
1.0
 40
1.0
 10
7.6971845505
 20
3.9555518454
 30
0.0
 10
7.6971845316
 20
3.9546059096
 30
0.0
 10
7.6971550605
 20
3.9527207359
 30
0.0
 10
7.6970261255
 20
3.9499129737
 30
0.0
 10
7.6968150056
 20
3.9471517185
 30
0.0
 10
7.6965257548
 20
3.9444602548
 30
0.0
 10
7.6961650254
 20
3.9418611866
 30
0.0
 10
7.6957419145
 20
3.9393767309
 30
0.0
 10
7.6952651439
 20
3.9370290053
 30
0.0
 10
7.6947457761
 20
3.934840024
 30
0.0
 10
7.6941951909
 20
3.9328317197
 30
0.0
 10
7.6936256911
 20
3.9310261592
 30
0.0
 10
7.6931300499
 20
3.9296635423
 30
0.0
 10
7.6927305615
 20
3.9286937106
 30
0.0
 10
7.6924448614
 20
3.9280570969
 30
0.0
 10
7.6921638756
 20
3.9274873419
 30
0.0
 10
7.6918890725
 20
3.9269869251
 30
0.0
 10
7.6916218845
 20
3.9265581247
 30
0.0
 10
7.691363655
 20
3.9262026479
 30
0.0
 10
7.6911154323
 20
3.9259219613
 30
0.0
 10
7.6909080118
 20
3.9257426631
 30
0.0
 10
7.6907470879
 20
3.9256425784
 30
0.0
 10
7.6906351126
 20
3.9255909408
 30
0.0
 10
7.69052602
 20
3.9255593563
 30
0.0
 10
7.6904535223
 20
3.9255518695
 30
0.0
 10
7.6904185403
 20
3.9255518454
 30
0.0
  0
SPLINE
  5
292
100
AcDbEntity
  8
0
100
AcDbSpline
 62
7
  6
CONTINUOUS
 70
0
 71
3
 72
21
 73
17
 74
0
 42
0.0000001
 43
0.0000001
 44
0.0000000001
 40
0.0
 40
0.0
 40
0.0
 40
0.0
 40
0.0606172205
 40
0.1213279095
 40
0.1821694558
 40
0.2432252963
 40
0.3045490131
 40
0.3661846206
 40
0.428166247
 40
0.490512631
 40
0.5532287756
 40
0.6163056398
 40
0.6797199825
 40
0.7434376496
 40
0.8714411315
 40
1.0
 40
1.0
 40
1.0
 40
1.0
 10
3.9478268454
 20
4.1595518454
 30
0.0
 10
3.9482887692
 20
4.1595518454
 30
0.0
 10
3.9492140477
 20
4.1595034926
 30
0.0
 10
3.950587666
 20
4.1592869772
 30
0.0
 10
3.9519347892
 20
4.1589282867
 30
0.0
 10
3.9532420905
 20
4.1584310819
 30
0.0
 10
3.9544971139
 20
4.1578001544
 30
0.0
 10
3.9556877339
 20
4.1570416471
 30
0.0
 10
3.9568024753
 20
4.1561628889
 30
0.0
 10
3.9578306282
 20
4.1551723936
 30
0.0
 10
3.9587623612
 20
4.1540797575
 30
0.0
 10
3.9595887
 20
4.1528955279
 30
0.0
 10
3.9603017587
 20
4.1516309864
 30
0.0
 10
3.9610932676
 20
4.1498524622
 30
0.0
 10
3.9617665809
 20
4.1474911243
 30
0.0
 10
3.961947538
 20
4.1455315076
 30
0.0
 10
3.961947538
 20
4.1445518454
 30
0.0
  0
SPLINE
  5
293
100
AcDbEntity
  8
0
100
AcDbSpline
 62
7
  6
CONTINUOUS
 70
0
 71
3
 72
22
 73
18
 74
0
 42
0.0000001
 43
0.0000001
 44
0.0000000001
 40
0.0
 40
0.0
 40
0.0
 40
0.0
 40
0.0148727312
 40
0.0300285867
 40
0.0621044671
 40
0.0979609407
 40
0.138696247
 40
0.1848999542
 40
0.2368008089
 40
0.2943761833
 40
0.3574185913
 40
0.4255844163
 40
0.4984269196
 40
0.575414975
 40
0.6559526119
 40
0.8250014407
 40
1.0
 40
1.0
 40
1.0
 40
1.0
 10
3.8719455623
 20
4.1595518454
 30
0.0
 10
3.8720285117
 20
4.1595518454
 30
0.0
 10
3.8721962419
 20
4.159539483
 30
0.0
 10
3.872535485
 20
4.1594647161
 30
0.0
 10
3.8729624769
 20
4.1592710329
 30
0.0
 10
3.8734473408
 20
4.1589012366
 30
0.0
 10
3.8739140286
 20
4.1583963876
 30
0.0
 10
3.874360093
 20
4.1577612696
 30
0.0
 10
3.874782662
 20
4.1570013236
 30
0.0
 10
3.875178166
 20
4.1561231673
 30
0.0
 10
3.8755430303
 20
4.1551347517
 30
0.0
 10
3.8758738157
 20
4.1540452467
 30
0.0
 10
3.8761673072
 20
4.1528648977
 30
0.0
 10
3.8764206794
 20
4.1516048885
 30
0.0
 10
3.8767062325
 20
4.149805582
 30
0.0
 10
3.876943077
 20
4.1474472676
 30
0.0
 10
3.8770058033
 20
4.1455278618
 30
0.0
 10
3.8770058033
 20
4.1445518454
 30
0.0
  0
SPLINE
  5
294
100
AcDbEntity
  8
0
100
AcDbSpline
 62
7
  6
CONTINUOUS
 70
0
 71
3
 72
22
 73
18
 74
0
 42
0.0000001
 43
0.0000001
 44
0.0000000001
 40
0.0
 40
0.0
 40
0.0
 40
0.0
 40
0.0148727381
 40
0.0300285984
 40
0.0621044818
 40
0.097960954
 40
0.1386962598
 40
0.1848999666
 40
0.2368008205
 40
0.2943761941
 40
0.3574186012
 40
0.4255844252
 40
0.4984269275
 40
0.5754149818
 40
0.6559526174
 40
0.8250014438
 40
1.0
 40
1.0
 40
1.0
 40
1.0
 10
3.7871865264
 20
4.1595518454
 30
0.0
 10
3.7871035769
 20
4.1595518454
 30
0.0
 10
3.7869358466
 20
4.159539483
 30
0.0
 10
3.7865966034
 20
4.1594647161
 30
0.0
 10
3.7861696115
 20
4.159271033
 30
0.0
 10
3.7856847476
 20
4.1589012366
 30
0.0
 10
3.7852180599
 20
4.1583963876
 30
0.0
 10
3.7847719954
 20
4.1577612695
 30
0.0
 10
3.7843494264
 20
4.1570013236
 30
0.0
 10
3.7839539224
 20
4.1561231673
 30
0.0
 10
3.7835890581
 20
4.1551347516
 30
0.0
 10
3.7832582727
 20
4.1540452466
 30
0.0
 10
3.7829647812
 20
4.1528648976
 30
0.0
 10
3.782711409
 20
4.1516048885
 30
0.0
 10
3.782425856
 20
4.1498055819
 30
0.0
 10
3.7821890113
 20
4.1474472676
 30
0.0
 10
3.7821262853
 20
4.1455278618
 30
0.0
 10
3.7821262853
 20
4.1445518454
 30
0.0
  0
SPLINE
  5
295
100
AcDbEntity
  8
0
100
AcDbSpline
 62
7
  6
CONTINUOUS
 70
0
 71
3
 72
25
 73
21
 74
0
 42
0.0000001
 43
0.0000001
 44
0.0000000001
 40
0.0
 40
0.0
 40
0.0
 40
0.0
 40
0.0069866055
 40
0.0147045707
 40
0.0236975369
 40
0.034307721
 40
0.0467307235
 40
0.0610761738
 40
0.0774010962
 40
0.0957243373
 40
0.1383413398
 40
0.1887509783
 40
0.2466027759
 40
0.3114262713
 40
0.3826579607
 40
0.4596595014
 40
0.5417255519
 40
0.6280969165
 40
0.8104797213
 40
1.0
 40
1.0
 40
1.0
 40
1.0
 10
3.8520660442
 20
3.9405518454
 30
0.0
 10
3.8520300799
 20
3.9405518454
 30
0.0
 10
3.8519539442
 20
3.9405381463
 30
0.0
 10
3.8518451379
 20
3.9404799227
 30
0.0
 10
3.8517389587
 20
3.9403863505
 30
0.0
 10
3.8516345891
 20
3.940258068
 30
0.0
 10
3.85153151
 20
3.9400952123
 30
0.0
 10
3.8514297315
 20
3.939897871
 30
0.0
 10
3.8513294009
 20
3.9396663261
 30
0.0
 10
3.8511907794
 20
3.9392933804
 30
0.0
 10
3.8510267088
 20
3.9387435958
 30
0.0
 10
3.8508472711
 20
3.9379876869
 30
0.0
 10
3.8506788278
 20
3.9371125483
 30
0.0
 10
3.8505231015
 20
3.936126467
 30
0.0
 10
3.8503817551
 20
3.935038762
 30
0.0
 10
3.8502562473
 20
3.9338598416
 30
0.0
 10
3.8501478421
 20
3.9326009978
 30
0.0
 10
3.8500253774
 20
3.9307991863
 30
0.0
 10
3.8499241492
 20
3.9284419379
 30
0.0
 10
3.8498973695
 20
3.9265274229
 30
0.0
 10
3.8498973695
 20
3.9255518454
 30
0.0
  0
SPLINE
  5
296
100
AcDbEntity
  8
0
100
AcDbSpline
 62
7
  6
CONTINUOUS
 70
0
 71
3
 72
25
 73
21
 74
0
 42
0.0000001
 43
0.0000001
 44
0.0000000001
 40
0.0
 40
0.0
 40
0.0
 40
0.0
 40
0.006939097
 40
0.0146199915
 40
0.0235864862
 40
0.0341788698
 40
0.046590505
 40
0.0609292599
 40
0.0772509516
 40
0.0955735765
 40
0.1381949287
 40
0.1886137341
 40
0.2464775671
 40
0.3113146938
 40
0.3825608051
 40
0.4595770036
 40
0.5416575753
 40
0.6280432446
 40
0.8104531556
 40
1.0
 40
1.0
 40
1.0
 40
1.0
 10
3.8070660442
 20
3.9405518454
 30
0.0
 10
3.807101759
 20
3.9405518454
 30
0.0
 10
3.8071774453
 20
3.940538107
 30
0.0
 10
3.8072855622
 20
3.940479849
 30
0.0
 10
3.8073911493
 20
3.9403862802
 30
0.0
 10
3.8074950378
 20
3.9402580126
 30
0.0
 10
3.8075977365
 20
3.9400951715
 30
0.0
 10
3.8076992237
 20
3.9398978413
 30
0.0
 10
3.8077993422
 20
3.9396663042
 30
0.0
 10
3.8079377757
 20
3.9392933473
 30
0.0
 10
3.8081017936
 20
3.9387435679
 30
0.0
 10
3.8082813828
 20
3.9379876741
 30
0.0
 10
3.8084501517
 20
3.9371125446
 30
0.0
 10
3.8086063298
 20
3.9361264683
 30
0.0
 10
3.8087482072
 20
3.9350387662
 30
0.0
 10
3.8088742793
 20
3.9338598474
 30
0.0
 10
3.8089832154
 20
3.9326010026
 30
0.0
 10
3.8091063847
 20
3.9307992041
 30
0.0
 10
3.8092080281
 20
3.9284419477
 30
0.0
 10
3.8092347632
 20
3.9265274226
 30
0.0
 10
3.8092347188
 20
3.9255518454
 30
0.0
  0
SPLINE
  5
297
100
AcDbEntity
  8
0
100
AcDbSpline
 62
7
  6
CONTINUOUS
 70
0
 71
3
 72
15
 73
11
 74
0
 42
0.0000001
 43
0.0000001
 44
0.0000000001
 40
0.0
 40
0.0
 40
0.0
 40
0.0
 40
0.1243677786
 40
0.2488192296
 40
0.3734518953
 40
0.4983196812
 40
0.6234444667
 40
0.7488081718
 40
0.874350848
 40
1.0
 40
1.0
 40
1.0
 40
1.0
 10
3.9835559485
 20
3.9405518454
 30
0.0
 10
3.9825858434
 20
3.9405518454
 30
0.0
 10
3.9806394912
 20
3.9403583005
 30
0.0
 10
3.9778371447
 20
3.9394985584
 30
0.0
 10
3.9752539466
 20
3.9381027482
 30
0.0
 10
3.9729906593
 20
3.936224613
 30
0.0
 10
3.9711336244
 20
3.9339367913
 30
0.0
 10
3.9697541425
 20
3.9313268896
 30
0.0
 10
3.9689047442
 20
3.9284966361
 30
0.0
 10
3.9687135688
 20
3.9265319456
 30
0.0
 10
3.968713548
 20
3.9255518454
 30
0.0
  0
SPLINE
  5
298
100
AcDbEntity
  8
0
100
AcDbSpline
 62
7
  6
CONTINUOUS
 70
0
 71
3
 72
15
 73
11
 74
0
 42
0.0000001
 43
0.0000001
 44
0.0000000001
 40
0.0
 40
0.0
 40
0.0
 40
0.0
 40
0.1243668336
 40
0.2488196582
 40
0.3734519415
 40
0.4983197001
 40
0.6234444789
 40
0.7488077774
 40
0.874351831
 40
1.0
 40
1.0
 40
1.0
 40
1.0
 10
7.9835559485
 20
3.9405518454
 30
0.0
 10
7.9825858506
 20
3.9405518454
 30
0.0
 10
7.9806394984
 20
3.9403582909
 30
0.0
 10
7.9778371346
 20
3.939498588
 30
0.0
 10
7.9752539602
 20
3.9381027221
 30
0.0
 10
7.9729906315
 20
3.9362246397
 30
0.0
 10
7.9711336502
 20
3.9339367772
 30
0.0
 10
7.969754113
 20
3.9313268985
 30
0.0
 10
7.9689047536
 20
3.9284966284
 30
0.0
 10
7.9687135693
 20
3.9265319381
 30
0.0
 10
7.968713548
 20
3.9255518454
 30
0.0
  0
SPLINE
  5
299
100
AcDbEntity
  8
0
100
AcDbSpline
 62
7
  6
CONTINUOUS
 70
0
 71
3
 72
25
 73
21
 74
0
 42
0.0000001
 43
0.0000001
 44
0.0000000001
 40
0.0
 40
0.0
 40
0.0
 40
0.0
 40
0.006939644
 40
0.0146205405
 40
0.0235870385
 40
0.0341789725
 40
0.0465902725
 40
0.0609298823
 40
0.0772510581
 40
0.0955734305
 40
0.1381947941
 40
0.1886145131
 40
0.2464778381
 40
0.3113142711
 40
0.3825610619
 40
0.4595774917
 40
0.5416576653
 40
0.6280424555
 40
0.810454696
 40
1.0
 40
1.0
 40
1.0
 40
1.0
 10
7.8070660442
 20
3.9405518454
 30
0.0
 10
7.8071017618
 20
3.9405518454
 30
0.0
 10
7.8071774514
 20
3.9405381122
 30
0.0
 10
7.807285575
 20
3.9404798571
 30
0.0
 10
7.8073911493
 20
3.9403862768
 30
0.0
 10
7.8074950368
 20
3.9402580151
 30
0.0
 10
7.8075977399
 20
3.9400951754
 30
0.0
 10
7.8076992181
 20
3.9398978407
 30
0.0
 10
7.8077993491
 20
3.9396663086
 30
0.0
 10
7.8079377797
 20
3.9392933543
 30
0.0
 10
7.8081017987
 20
3.9387435715
 30
0.0
 10
7.808281381
 20
3.9379876734
 30
0.0
 10
7.8084501534
 20
3.9371125459
 30
0.0
 10
7.8086063368
 20
3.9361264726
 30
0.0
 10
7.8087482067
 20
3.9350387679
 30
0.0
 10
7.8088742774
 20
3.933859846
 30
0.0
 10
7.808983224
 20
3.9326010068
 30
0.0
 10
7.8091063667
 20
3.9307992004
 30
0.0
 10
7.8092080723
 20
3.9284419462
 30
0.0
 10
7.809234757
 20
3.9265274151
 30
0.0
 10
7.8092347188
 20
3.9255518454
 30
0.0
  0
SPLINE
  5
29A
100
AcDbEntity
  8
0
100
AcDbSpline
 62
7
  6
CONTINUOUS
 70
0
 71
3
 72
25
 73
21
 74
0
 42
0.0000001
 43
0.0000001
 44
0.0000000001
 40
0.0
 40
0.0
 40
0.0
 40
0.0
 40
0.0069872064
 40
0.0147051583
 40
0.0236980614
 40
0.034307749
 40
0.0467304121
 40
0.0610767286
 40
0.0774011389
 40
0.0957241401
 40
0.1383411448
 40
0.1887517115
 40
0.2466030222
 40
0.3114258211
 40
0.3826582041
 40
0.4596599843
 40
0.5417256331
 40
0.6280961638
 40
0.8104812349
 40
1.0
 40
1.0
 40
1.0
 40
1.0
 10
7.8520660442
 20
3.9405518454
 30
0.0
 10
7.8520300767
 20
3.9405518454
 30
0.0
 10
7.8519539376
 20
3.9405381518
 30
0.0
 10
7.8518451247
 20
3.9404799309
 30
0.0
 10
7.8517389597
 20
3.9403863467
 30
0.0
 10
7.8516345921
 20
3.94025807
 30
0.0
 10
7.851531509
 20
3.9400952159
 30
0.0
 10
7.8514297392
 20
3.9398978701
 30
0.0
 10
7.8513293959
 20
3.9396663302
 30
0.0
 10
7.8511907775
 20
3.9392933869
 30
0.0
 10
7.8510267063
 20
3.9387435988
 30
0.0
 10
7.8508472752
 20
3.9379876857
 30
0.0
 10
7.8506788278
 20
3.9371125491
 30
0.0
 10
7.850523097
 20
3.9361264707
 30
0.0
 10
7.8503817559
 20
3.9350387633
 30
0.0
 10
7.8502562496
 20
3.9338598397
 30
0.0
 10
7.8501478404
 20
3.9326010011
 30
0.0
 10
7.8500253746
 20
3.9307991837
 30
0.0
 10
7.8499241505
 20
3.9284419348
 30
0.0
 10
7.8498973695
 20
3.9265274154
 30
0.0
 10
7.8498973695
 20
3.9255518454
 30
0.0
  0
SPLINE
  5
29B
100
AcDbEntity
  8
0
100
AcDbSpline
 62
7
  6
CONTINUOUS
 70
0
 71
3
 72
15
 73
11
 74
0
 42
0.0000001
 43
0.0000001
 44
0.0000000001
 40
0.0
 40
0.0
 40
0.0
 40
0.0
 40
0.124354014
 40
0.2488023444
 40
0.3734359
 40
0.4983079766
 40
0.6234376293
 40
0.748804681
 40
0.8743508123
 40
1.0
 40
1.0
 40
1.0
 40
1.0
 10
7.67557614
 20
3.9405518454
 30
0.0
 10
7.67654613
 20
3.9405518454
 30
0.0
 10
7.6784923297
 20
3.940358271
 30
0.0
 10
7.6812945328
 20
3.9394985625
 30
0.0
 10
7.6838776891
 20
3.9381027036
 30
0.0
 10
7.6861411014
 20
3.9362246374
 30
0.0
 10
7.6879982223
 20
3.933936791
 30
0.0
 10
7.6893779025
 20
3.931326919
 30
0.0
 10
7.6902273596
 20
3.9284966427
 30
0.0
 10
7.6904185404
 20
3.9265319381
 30
0.0
 10
7.6904185404
 20
3.9255518454
 30
0.0
  0
SPLINE
  5
29C
100
AcDbEntity
  8
0
100
AcDbSpline
 62
7
  6
CONTINUOUS
 70
0
 71
3
 72
15
 73
11
 74
0
 42
0.0000001
 43
0.0000001
 44
0.0000000001
 40
0.0
 40
0.0
 40
0.0
 40
0.0
 40
0.1243549478
 40
0.2488019096
 40
0.3734358457
 40
0.4983079495
 40
0.6234376059
 40
0.7488050651
 40
0.8743498237
 40
1.0
 40
1.0
 40
1.0
 40
1.0
 10
3.67557614
 20
3.9405518454
 30
0.0
 10
3.6765461371
 20
3.9405518454
 30
0.0
 10
3.6784923368
 20
3.9403582806
 30
0.0
 10
3.6812945228
 20
3.9394985335
 30
0.0
 10
3.6838777027
 20
3.9381027301
 30
0.0
 10
3.6861410738
 20
3.9362246113
 30
0.0
 10
3.6879982483
 20
3.9339368056
 30
0.0
 10
3.6893778728
 20
3.9313269105
 30
0.0
 10
3.6902273692
 20
3.9284966507
 30
0.0
 10
3.6904185404
 20
3.9265319456
 30
0.0
 10
3.6904185404
 20
3.9255518454
 30
0.0
  0
SPLINE
  5
29D
100
AcDbEntity
  8
0
100
AcDbSpline
 62
7
  6
CONTINUOUS
 70
0
 71
3
 72
19
 73
15
 74
0
 42
0.0000001
 43
0.0000001
 44
0.0000000001
 40
0.0
 40
0.0
 40
0.0
 40
0.0
 40
0.0606379205
 40
0.1213622622
 40
0.1822220484
 40
0.2432963045
 40
0.3046373819
 40
0.366291027
 40
0.4282905681
 40
0.4906550618
 40
0.6163371122
 40
0.7433627168
 40
0.8714047996
 40
1.0
 40
1.0
 40
1.0
 40
1.0
 10
7.7113052431
 20
4.1595518454
 30
0.0
 10
7.7108432957
 20
4.1595518454
 30
0.0
 10
7.7099180221
 20
4.1595035139
 30
0.0
 10
7.7085444094
 20
4.1592869686
 30
0.0
 10
7.7071973104
 20
4.1589282737
 30
0.0
 10
7.7058899906
 20
4.1584311033
 30
0.0
 10
7.7046349649
 20
4.1578001564
 30
0.0
 10
7.7034443745
 20
4.1570416543
 30
0.0
 10
7.7023295733
 20
4.1561628183
 30
0.0
 10
7.700955747
 20
4.1548395457
 30
0.0
 10
7.6994801664
 20
4.1529256331
 30
0.0
 10
7.6981713074
 20
4.150317921
 30
0.0
 10
7.6973656603
 20
4.1474914144
 30
0.0
 10
7.6971845505
 20
4.1455315001
 30
0.0
 10
7.6971845505
 20
4.1445518454
 30
0.0
  0
SPLINE
  5
29E
100
AcDbEntity
  8
0
100
AcDbSpline
 62
7
  6
CONTINUOUS
 70
0
 71
3
 72
22
 73
18
 74
0
 42
0.0000001
 43
0.0000001
 44
0.0000000001
 40
0.0
 40
0.0
 40
0.0
 40
0.0
 40
0.0148741085
 40
0.0300300679
 40
0.0621042032
 40
0.0979611507
 40
0.1386961638
 40
0.1848997583
 40
0.2368013271
 40
0.2943763028
 40
0.3574181761
 40
0.4255845739
 40
0.4984272607
 40
0.5754150098
 40
0.6559518985
 40
0.8250028176
 40
1.0
 40
1.0
 40
1.0
 40
1.0
 10
7.7871865264
 20
4.1595518454
 30
0.0
 10
7.7871035692
 20
4.1595518454
 30
0.0
 10
7.7869358305
 20
4.1595394883
 30
0.0
 10
7.7865965865
 20
4.1594647276
 30
0.0
 10
7.78616961
 20
4.1592710239
 30
0.0
 10
7.7856847579
 20
4.1589012315
 30
0.0
 10
7.7852180493
 20
4.1583964003
 30
0.0
 10
7.7847719926
 20
4.1577612727
 30
0.0
 10
7.7843494338
 20
4.1570013204
 30
0.0
 10
7.7839539231
 20
4.1561231685
 30
0.0
 10
7.7835890485
 20
4.1551347582
 30
0.0
 10
7.7832582747
 20
4.1540452478
 30
0.0
 10
7.7829647865
 20
4.1528648955
 30
0.0
 10
7.7827114053
 20
4.1516048927
 30
0.0
 10
7.7824258495
 20
4.1498055801
 30
0.0
 10
7.7821890143
 20
4.1474472644
 30
0.0
 10
7.7821262853
 20
4.1455278544
 30
0.0
 10
7.7821262853
 20
4.1445518454
 30
0.0
  0
SPLINE
  5
29F
100
AcDbEntity
  8
0
100
AcDbSpline
 62
7
  6
CONTINUOUS
 70
0
 71
3
 72
22
 73
18
 74
0
 42
0.0000001
 43
0.0000001
 44
0.0000000001
 40
0.0
 40
0.0
 40
0.0
 40
0.0
 40
0.0148741011
 40
0.0300300556
 40
0.0621041886
 40
0.0979611374
 40
0.1386961508
 40
0.1848997459
 40
0.2368013155
 40
0.294376292
 40
0.3574181661
 40
0.4255845649
 40
0.4984272528
 40
0.575415003
 40
0.655951893
 40
0.8250028145
 40
1.0
 40
1.0
 40
1.0
 40
1.0
 10
7.8719455623
 20
4.1595518454
 30
0.0
 10
7.8720285194
 20
4.1595518454
 30
0.0
 10
7.872196258
 20
4.1595394883
 30
0.0
 10
7.872535502
 20
4.1594647276
 30
0.0
 10
7.8729624785
 20
4.1592710239
 30
0.0
 10
7.8734473305
 20
4.1589012315
 30
0.0
 10
7.8739140391
 20
4.1583964003
 30
0.0
 10
7.8743600958
 20
4.1577612727
 30
0.0
 10
7.8747826546
 20
4.1570013204
 30
0.0
 10
7.8751781653
 20
4.1561231685
 30
0.0
 10
7.8755430399
 20
4.1551347582
 30
0.0
 10
7.8758738138
 20
4.1540452478
 30
0.0
 10
7.8761673019
 20
4.1528648955
 30
0.0
 10
7.8764206831
 20
4.1516048927
 30
0.0
 10
7.8767062389
 20
4.1498055801
 30
0.0
 10
7.876943074
 20
4.1474472644
 30
0.0
 10
7.8770058033
 20
4.1455278544
 30
0.0
 10
7.8770058033
 20
4.1445518454
 30
0.0
  0
SPLINE
  5
2A0
100
AcDbEntity
  8
0
100
AcDbSpline
 62
7
  6
CONTINUOUS
 70
0
 71
3
 72
19
 73
15
 74
0
 42
0.0000001
 43
0.0000001
 44
0.0000000001
 40
0.0
 40
0.0
 40
0.0
 40
0.0
 40
0.0606379174
 40
0.1213622585
 40
0.1822220452
 40
0.2432963015
 40
0.3046373791
 40
0.3662910244
 40
0.4282905658
 40
0.4906550597
 40
0.6163371107
 40
0.7433627157
 40
0.8714047989
 40
1.0
 40
1.0
 40
1.0
 40
1.0
 10
7.9478268454
 20
4.1595518454
 30
0.0
 10
7.9482887928
 20
4.1595518454
 30
0.0
 10
7.9492140664
 20
4.1595035139
 30
0.0
 10
7.950587679
 20
4.1592869686
 30
0.0
 10
7.951934778
 20
4.1589282737
 30
0.0
 10
7.9532420978
 20
4.1584311033
 30
0.0
 10
7.9544971236
 20
4.1578001564
 30
0.0
 10
7.955687714
 20
4.1570416543
 30
0.0
 10
7.9568025151
 20
4.1561628183
 30
0.0
 10
7.9581763414
 20
4.1548395457
 30
0.0
 10
7.959651922
 20
4.1529256331
 30
0.0
 10
7.960960781
 20
4.150317921
 30
0.0
 10
7.961766428
 20
4.1474914144
 30
0.0
 10
7.961947538
 20
4.1455315001
 30
0.0
 10
7.961947538
 20
4.1445518454
 30
0.0
  0
ELLIPSE
  5
2A1
100
AcDbEntity
  8
0
100
AcDbEllipse
 62
7
  6
CONTINUOUS
 10
5.8295660442
 20
6.2090518455
 30
0.0
 11
0.0
 21
0.21875
 31
0.0
 40
1.0
 41
-1.5707963268
 42
1.5707963268
  0
ENDSEC
  0
SECTION
  2
OBJECTS
  0
DICTIONARY
  5
C
100
AcDbDictionary
280
0
281
1
  3
ACAD_GROUP
350
D
  3
ACAD_MLINESTYLE
350
17
  3
ACAD_LAYOUT
350
1A
  3
ACAD_PLOTSETTINGS
350
19
  3
ACAD_PLOTSTYLENAME
350
E
  0
DICTIONARY
  5
D
102
{ACAD_REACTORS
330
C
102
}
100
AcDbDictionary
280
0
281
1
  0
ACDBDICTIONARYWDFLT
  5
E
102
{ACAD_REACTORS
330
C
102
}
100
AcDbDictionary
281
1
  3
Normal
350
F
100
AcDbDictionaryWithDefault
340
F
  0
DICTIONARY
  5
17
102
{ACAD_REACTORS
330
C
102
}
100
AcDbDictionary
280
0
281
1
  3
Standard
350
18
  0
DICTIONARY
  5
19
102
{ACAD_REACTORS
330
C
102
}
100
AcDbDictionary
281
1
  0
DICTIONARY
  5
1A
102
{ACAD_REACTORS
330
C
102
}
100
AcDbDictionary
281
1
  3
Model
350
2A2
  3
Layout1
350
2A3
  0
ACDBPLACEHOLDER
  5
F
102
{ACAD_REACTORS
330
E
102
}
  0
MLINESTYLE
  5
18
102
{ACAD_REACTORS
330
17
102
}
100
AcDbMlineStyle
  2
STANDARD
 70
0
  3

 62
256
 51
90.0
 52
90.0
 71
2
 49
0.5
 62
256
  6
BYLAYER
 49
-0.5
 62
256
  6
BYLAYER
  0
LAYOUT
  5
2A2
102
{ACAD_REACTORS
330
1A
102
}
100
AcDbPlotSettings
  1

  2
none_device
  4
ANSI_A_(11.00_x_8.50_Inches)
  6

 40
0.0
 41
0.0
 42
0.0
 43
0.0
 44
279.4
 45
215.9
 46
0.0
 47
0.0
 48
0.0
 49
0.0
140
0.0
141
0.0
142
1.0
143
1.0
 70
1024
 72
0
 73
0
 74
0
  7

 75
0
147
1.0
148
0.0
149
0.0
100
AcDbLayout
  1
Model
 70
0
 71
0
 10
0.0
 20
0.0
 11
11.0
 21
8.5
 12
0.0
 22
0.0
 32
0.0
 14
0.0
 24
0.0
 34
0.0
 15
0.0
 25
0.0
 35
0.0
146
0.0
 13
0.0
 23
0.0
 33
0.0
 16
1.0
 26
0.0
 36
0.0
 17
0.0
 27
1.0
 37
0.0
 76
0
330
202
345
0
346
0
  0
LAYOUT
  5
2A3
102
{ACAD_REACTORS
330
1A
102
}
100
AcDbPlotSettings
  1

  2
none_device
  4
ANSI_A_(11.00_x_8.50_Inches)
  6

 40
0.0
 41
0.0
 42
0.0
 43
0.0
 44
279.4
 45
215.9
 46
0.0
 47
0.0
 48
0.0
 49
0.0
140
0.0
141
0.0
142
1.0
143
1.0
 70
0
 72
0
 73
0
 74
0
  7

 75
0
147
1.0
148
0.0
149
0.0
100
AcDbLayout
  1
Layout1
 70
0
 71
1
 10
0.0
 20
0.0
 11
11.0
 21
8.5
 12
0.0
 22
0.0
 32
0.0
 14
0.0
 24
0.0
 34
0.0
 15
0.0
 25
0.0
 35
0.0
146
0.0
 13
0.0
 23
0.0
 33
0.0
 16
1.0
 26
0.0
 36
0.0
 17
0.0
 27
1.0
 37
0.0
 76
0
330
203
345
0
346
0
  0
ENDSEC
  0
EOF
