999
DXF file: 3400_front.dxf
999
Pro/ENGINEER 2019352 by Parametric Technology Corporation
  0
SECTION
  2
HEADER
  9
$ACADVER
  1
AC1032
  9
$DWGCODEPAGE
  3
ANSI_1252
  9
$EXTMAX
 10
11.0
 20
8.5
 30
0.0
  9
$EXTMIN
 10
0.0
 20
0.0
 30
0.0
  9
$LIMMIN
 10
0.0
 20
0.0
  9
$LIMMAX
 10
11.0
 20
8.5
  9
$VIEWCTR
 10
5.5
 20
4.25
  9
$VIEWSIZE
 40
8.5
  9
$CLAYER
  8
0
  9
$LTSCALE
 40
0.605
  9
$CELTYPE
  6
BYLAYER
  9
$DIMSCALE
 40
1.0
  9
$DIMASZ
 40
0.1
  9
$DIMEXO
 40
0.0625
  9
$DIMDLI
 40
0.418
  9
$DIMEXE
 40
0.125
  9
$DIMCEN
 40
0.099
  9
$DIMLFAC
 40
1.0
  9
$DIMBLK
  1
_FILLED
  9
$DIMALT
 70
1
  9
$DIMALTD
 70
2
  9
$DIMALTTD
 70
2
  9
$DIMALTF
 40
25.4
  9
$DIMTXT
 40
0.08
  9
$DIMTOL
 70
1
  9
$DIMLIM
 70
0
  9
$DIMTFAC
 40
1.0
  9
$DIMTP
 40
0.001
  9
$DIMTM
 40
0.001
  9
$DIMGAP
 40
0.09
  9
$DIMDSEP
 70
46
  9
$AUNITS
 70
0
  9
$PDMODE
 70
3
  9
$PDSIZE
 40
0.3125
  9
$HANDSEED
  5
291
  9
$TILEMODE
 70
1
  9
$MEASUREMENT
 70
0
  9
$INSUNITS
 70
1
  0
ENDSEC
  0
SECTION
  2
CLASSES
  0
CLASS
  1
ACDBDICTIONARYWDFLT
  2
AcDbDictionaryWithDefault
  3
AutoCAD 2000
 90
0
 91
1
280
0
281
0
  0
CLASS
  1
ACDBPLACEHOLDER
  2
AcDbPlaceHolder
  3
AutoCAD 2000
 90
0
 91
1
280
0
281
0
  0
CLASS
  1
LAYOUT
  2
AcDbLayout
  3
AutoCAD 2000
 90
0
 91
0
280
0
281
0
  0
ENDSEC
  0
SECTION
  2
TABLES
  0
TABLE
  2
VPORT
  5
8
100
AcDbSymbolTable
 70
2
  0
VPORT
  5
1F4
100
AcDbSymbolTableRecord
100
AcDbViewportTableRecord
  2
*ACTIVE
 70
0
 10
0.0
 20
0.0
 11
1.0
 21
1.0
 12
5.5
 22
4.25
 13
0.0
 23
0.0
 14
1.0
 24
1.0
 15
0.0
 25
0.0
 16
0.0
 26
0.0
 36
1.0
 17
0.0
 27
0.0
 37
0.0
 40
8.5
 41
1.2941176471
 42
50.0
 43
0.0
 44
0.0
 50
0.0
 51
0.0
 71
0
 72
100
 73
1
 74
1
 75
0
 76
0
 77
0
 78
0
  0
ENDTAB
  0
TABLE
  2
LTYPE
  5
5
100
AcDbSymbolTable
 70
6
  0
LTYPE
  5
14
100
AcDbSymbolTableRecord
100
AcDbLinetypeTableRecord
  2
BYBLOCK
 70
0
  3

 72
65
 73
0
 40
0.0
  0
LTYPE
  5
15
100
AcDbSymbolTableRecord
100
AcDbLinetypeTableRecord
  2
BYLAYER
 70
0
  3

 72
65
 73
0
 40
0.0
  0
LTYPE
  5
16
100
AcDbSymbolTableRecord
100
AcDbLinetypeTableRecord
  2
CONTINUOUS
 70
64
  3
Solid line
 72
65
 73
0
 40
0.0
  0
LTYPE
  5
1F5
100
AcDbSymbolTableRecord
100
AcDbLinetypeTableRecord
  2
CENTER
 70
64
  3
____ _ ____ _ ____ _ ____ _ ____ _ ____ _ ____
 72
65
 73
4
 40
0.6
 49
0.375
 74
0
 49
-0.075
 74
0
 49
0.075
 74
0
 49
-0.075
 74
0
  0
LTYPE
  5
1F6
100
AcDbSymbolTableRecord
100
AcDbLinetypeTableRecord
  2
HIDDEN
 70
64
  3
- - - - - - - - - - - - - - - - - - - -
 72
65
 73
2
 40
0.2
 49
0.1
 74
0
 49
-0.1
 74
0
  0
LTYPE
  5
1F7
100
AcDbSymbolTableRecord
100
AcDbLinetypeTableRecord
  2
PHANTOM
 70
64
  3
_____ _ _ _____ _ _ _____ _ _ _____
 72
65
 73
6
 40
0.8
 49
0.45
 74
0
 49
-0.05
 74
0
 49
0.1
 74
0
 49
-0.05
 74
0
 49
0.1
 74
0
 49
-0.05
 74
0
  0
LTYPE
  5
1F8
100
AcDbSymbolTableRecord
100
AcDbLinetypeTableRecord
  2
DOT
 70
64
  3
. . . . . . . . . . . . . . . . . . . .
 72
65
 73
2
 40
0.2
 49
0.1
 74
0
 49
-0.1
 74
0
  0
LTYPE
  5
1F9
100
AcDbSymbolTableRecord
100
AcDbLinetypeTableRecord
  2
DASHED
 70
64
  3
- - - - - - - - - - - - - - - - - - - -
 72
65
 73
2
 40
0.2
 49
0.1
 74
0
 49
-0.1
 74
0
  0
ENDTAB
  0
TABLE
  2
LAYER
  5
2
100
AcDbSymbolTable
 70
36
  0
LAYER
  5
10
100
AcDbSymbolTableRecord
100
AcDbLayerTableRecord
  2
0
 70
0
 62
7
  6
CONTINUOUS
370
-3
390
F
  0
LAYER
  5
1FA
100
AcDbSymbolTableRecord
100
AcDbLayerTableRecord
  2
DEFAULT_1
 70
0
 62
7
  6
CENTER
370
-3
390
F
  0
LAYER
  5
1FB
100
AcDbSymbolTableRecord
100
AcDbLayerTableRecord
  2
DEFAULT_2
 70
0
 62
8
  6
HIDDEN
370
-3
390
F
  0
LAYER
  5
1FC
100
AcDbSymbolTableRecord
100
AcDbLayerTableRecord
  2
DEFAULT_3
 70
0
 62
7
  6
PHANTOM
370
-3
390
F
  0
LAYER
  5
1FD
100
AcDbSymbolTableRecord
100
AcDbLayerTableRecord
  2
DEFAULT_COORDINATE_SYSTEM
 70
0
 62
7
  6
CONTINUOUS
370
-3
390
F
  0
LAYER
  5
1FE
100
AcDbSymbolTableRecord
100
AcDbLayerTableRecord
  2
DEFAULT_DATUM_AXES
 70
0
 62
7
  6
CONTINUOUS
370
-3
390
F
  0
LAYER
  5
1FF
100
AcDbSymbolTableRecord
100
AcDbLayerTableRecord
  2
DEFAULT_DATUM_PLANES
 70
0
 62
7
  6
CONTINUOUS
370
-3
390
F
  0
ENDTAB
  0
TABLE
  2
STYLE
  5
3
100
AcDbSymbolTable
 70
1
  0
STYLE
  5
11
100
AcDbSymbolTableRecord
100
AcDbTextStyleTableRecord
  2
STANDARD
 70
0
 40
0.0
 41
0.8
 50
0.0
 71
0
 42
0.2
  3
txt
  4

  0
STYLE
  5
200
100
AcDbSymbolTableRecord
100
AcDbTextStyleTableRecord
  2
TEXTSTYLE_1
 70
0
 40
0.0
 41
0.8
 50
0.0
 71
0
 42
0.2
  3
gdt
  4

  0
ENDTAB
  0
TABLE
  2
VIEW
  5
6
100
AcDbSymbolTable
 70
0
  0
ENDTAB
  0
TABLE
  2
UCS
  5
7
100
AcDbSymbolTable
 70
0
  0
ENDTAB
  0
TABLE
  2
APPID
  5
9
100
AcDbSymbolTable
 70
1
  0
APPID
  5
201
100
AcDbSymbolTableRecord
100
AcDbRegAppTableRecord
  2
ACAD
 70
0
  0
ENDTAB
  0
TABLE
  2
BLOCK_RECORD
  5
1
100
AcDbSymbolTable
 70
0
  0
BLOCK_RECORD
  5
202
100
AcDbSymbolTableRecord
100
AcDbBlockTableRecord
  2
*Model_Space
  0
BLOCK_RECORD
  5
203
100
AcDbSymbolTableRecord
100
AcDbBlockTableRecord
  2
*Paper_Space
  0
BLOCK_RECORD
  5
204
100
AcDbSymbolTableRecord
100
AcDbBlockTableRecord
  2
_FILLED
  0
ENDTAB
  0
TABLE
  2
DIMSTYLE
  5
A
100
AcDbSymbolTable
 70
1
100
AcDbDimStyleTable
 71
0
  0
DIMSTYLE
105
205
100
AcDbSymbolTableRecord
100
AcDbDimStyleTableRecord
  2
STANDARD
 70
0
  3

  4

 40
1.0
 41
0.1
 42
0.0625
 43
0.38
 44
0.125
 45
0.0
 46
0.0
 47
0.001
 48
0.001
140
0.08
141
0.09
142
0.0
143
25.4
144
1.0
145
0.0
146
1.0
147
0.09
 71
1.0
 72
0.0
 73
1
 74
1
 75
0
 76
0
 77
0
 78
4
 79
1
170
1
171
2
172
0
173
0
174
0
175
0
176
0
177
0
178
0
270
2
179
3
271
3
272
3
273
2
274
2
275
0
280
0
281
0
282
0
283
1
284
4
285
0
286
0
287
3
288
0
340
11
278
46
341
204
342
204
343
204
344
204
  0
ENDTAB
  0
ENDSEC
  0
SECTION
  2
BLOCKS
  0
BLOCK
  5
20
100
AcDbEntity
  8
0
100
AcDbBlockBegin
  2
*Model_Space
 70
0
 10
0.0
 20
0.0
 30
0.0
  3
*Model_Space
  1

  0
ENDBLK
  5
21
100
AcDbEntity
  8
0
100
AcDbBlockEnd
  0
BLOCK
  5
1C
100
AcDbEntity
  8
0
100
AcDbBlockBegin
  2
*Paper_Space
 70
0
 10
0.0
 20
0.0
 30
0.0
  3
*Paper_Space
  1

  0
ENDBLK
  5
1D
100
AcDbEntity
  8
0
100
AcDbBlockEnd
  0
BLOCK
  5
206
100
AcDbEntity
  8
0
100
AcDbBlockBegin
  2
_FILLED
 70
64
 10
0.0
 20
0.0
  3
_FILLED
  1

  0
SOLID
  5
207
100
AcDbEntity
  8
0
  6
BYBLOCK
 62
0
100
AcDbTrace
 10
0.0
 20
0.0
 11
-1.0
 21
0.2
 12
-1.0
 22
-0.2
 13
-1.0
 23
-0.2
  0
ENDBLK
  5
208
100
AcDbEntity
  8
0
  6
BYBLOCK
 62
0
100
AcDbBlockEnd
  0
ENDSEC
  0
SECTION
  2
ENTITIES
  0
MTEXT
  5
209
100
AcDbEntity
  8
0
100
AcDbMText
 62
2
  6
CONTINUOUS
  7
STANDARD
 71
3
 72
1
 10
5.5973380122
 20
1.8207901223
 30
0.0
 11
1.0
 21
0.0
 31
0.0
 73
2
 44
0.9
  1
SCALE 0.500
 40
0.08
 41
0.704
  0
LINE
  5
20A
100
AcDbEntity
  8
0
100
AcDbLine
 62
7
  6
CONTINUOUS
 10
0.0
 20
0.0
 11
0.0
 21
8.5
  0
LINE
  5
20B
100
AcDbEntity
  8
0
100
AcDbLine
 62
7
  6
CONTINUOUS
 10
0.0
 20
0.0
 11
11.0
 21
0.0
  0
LINE
  5
20C
100
AcDbEntity
  8
0
100
AcDbLine
 62
7
  6
CONTINUOUS
 10
0.0
 20
8.5
 11
11.0
 21
8.5
  0
LINE
  5
20D
100
AcDbEntity
  8
0
100
AcDbLine
 62
7
  6
CONTINUOUS
 10
11.0
 20
0.0
 11
11.0
 21
8.5
  0
LINE
  5
20E
100
AcDbEntity
  8
0
100
AcDbLine
 62
7
  6
CONTINUOUS
 10
2.0132577414
 20
3.5492290815
 11
2.0132577414
 21
3.3602290815
  0
LINE
  5
20F
100
AcDbEntity
  8
0
100
AcDbLine
 62
7
  6
CONTINUOUS
 10
2.0507577414
 20
3.3452290815
 11
2.0507577414
 21
3.5642290815
  0
LINE
  5
210
100
AcDbEntity
  8
0
100
AcDbLine
 62
7
  6
CONTINUOUS
 10
2.7682577414
 20
2.2137290815
 11
2.7682577414
 21
2.2987290815
  0
LINE
  5
211
100
AcDbEntity
  8
0
100
AcDbLine
 62
7
  6
CONTINUOUS
 10
3.0757577414
 20
2.3187290815
 11
3.0757577414
 21
3.1087290815
  0
LINE
  5
212
100
AcDbEntity
  8
0
100
AcDbLine
 62
7
  6
CONTINUOUS
 10
3.0807577414
 20
2.3187290815
 11
3.0807577414
 21
2.3137290815
  0
LINE
  5
213
100
AcDbEntity
  8
0
100
AcDbLine
 62
7
  6
CONTINUOUS
 10
3.1167555549
 20
3.3602290815
 11
3.1167555549
 21
3.4742290814
  0
LINE
  5
214
100
AcDbEntity
  8
0
100
AcDbLine
 62
7
  6
CONTINUOUS
 10
3.1226327414
 20
3.1342290815
 11
3.1226327414
 21
3.3302290815
  0
LINE
  5
215
100
AcDbEntity
  8
0
100
AcDbLine
 62
7
  6
CONTINUOUS
 10
3.1308762476
 20
3.3602290815
 11
3.1308762476
 21
3.4742290815
  0
LINE
  5
216
100
AcDbEntity
  8
0
100
AcDbLine
 62
7
  6
CONTINUOUS
 10
3.1357577414
 20
3.1237290815
 11
3.1357577414
 21
3.1342290815
  0
LINE
  5
217
100
AcDbEntity
  8
0
100
AcDbLine
 62
7
  6
CONTINUOUS
 10
3.1491289079
 20
3.4892290815
 11
3.1491289079
 21
3.5042290815
  0
LINE
  5
218
100
AcDbEntity
  8
0
100
AcDbLine
 62
7
  6
CONTINUOUS
 10
7.7582577414
 20
2.2137290815
 11
6.7682577414
 21
2.2137290815
  0
LINE
  5
219
100
AcDbEntity
  8
0
100
AcDbLine
 62
7
  6
CONTINUOUS
 10
5.725756673
 20
2.2137290815
 11
4.8007588097
 21
2.2137290815
  0
LINE
  5
21A
100
AcDbEntity
  8
0
100
AcDbLine
 62
7
  6
CONTINUOUS
 10
2.7682577414
 20
2.2137290815
 11
3.7582577414
 21
2.2137290815
  0
LINE
  5
21B
100
AcDbEntity
  8
0
100
AcDbLine
 62
7
  6
CONTINUOUS
 10
2.7682577414
 20
2.2987290815
 11
3.7582577414
 21
2.2987290815
  0
LINE
  5
21C
100
AcDbEntity
  8
0
100
AcDbLine
 62
7
  6
CONTINUOUS
 10
6.7682577414
 20
2.2987290815
 11
7.7582577414
 21
2.2987290815
  0
LINE
  5
21D
100
AcDbEntity
  8
0
100
AcDbLine
 62
7
  6
CONTINUOUS
 10
2.7832577414
 20
2.3137290815
 11
3.7432577414
 21
2.3137290815
  0
LINE
  5
21E
100
AcDbEntity
  8
0
100
AcDbLine
 62
7
  6
CONTINUOUS
 10
6.7832577414
 20
2.3137290815
 11
7.7432577414
 21
2.3137290815
  0
LINE
  5
21F
100
AcDbEntity
  8
0
100
AcDbLine
 62
7
  6
CONTINUOUS
 10
3.0757577414
 20
2.3187290815
 11
3.4507577414
 21
2.3187290815
  0
LINE
  5
220
100
AcDbEntity
  8
0
100
AcDbLine
 62
7
  6
CONTINUOUS
 10
7.0757577414
 20
2.3187290815
 11
7.4507577414
 21
2.3187290815
  0
LINE
  5
221
100
AcDbEntity
  8
0
100
AcDbLine
 62
7
  6
CONTINUOUS
 10
4.8007577414
 20
2.3287290815
 11
5.7257577414
 21
2.3287290815
  0
LINE
  5
222
100
AcDbEntity
  8
0
100
AcDbLine
 62
7
  6
CONTINUOUS
 10
4.8107584293
 20
2.3387290815
 11
5.7157577414
 21
2.3387290815
  0
LINE
  5
223
100
AcDbEntity
  8
0
100
AcDbLine
 62
7
  6
CONTINUOUS
 10
5.0445081816
 20
2.3437747902
 11
5.4820073011
 21
2.3437747902
  0
LINE
  5
224
100
AcDbEntity
  8
0
100
AcDbLine
 62
7
  6
CONTINUOUS
 10
3.2332577414
 20
3.5492290815
 11
3.2332577414
 21
3.5642290815
  0
LINE
  5
225
100
AcDbEntity
  8
0
100
AcDbLine
 62
7
  6
CONTINUOUS
 10
3.2482577414
 20
3.5042290815
 11
3.2482577414
 21
3.5342290815
  0
LINE
  5
226
100
AcDbEntity
  8
0
100
AcDbLine
 62
7
  6
CONTINUOUS
 10
3.2632577414
 20
3.5042290815
 11
3.2632577414
 21
3.5342290815
  0
LINE
  5
227
100
AcDbEntity
  8
0
100
AcDbLine
 62
7
  6
CONTINUOUS
 10
3.3907577414
 20
3.1237290815
 11
3.3907577414
 21
3.1342290815
  0
LINE
  5
228
100
AcDbEntity
  8
0
100
AcDbLine
 62
7
  6
CONTINUOUS
 10
3.4038827414
 20
3.1342290815
 11
3.4038827414
 21
3.4742290815
  0
LINE
  5
229
100
AcDbEntity
  8
0
100
AcDbLine
 62
7
  6
CONTINUOUS
 10
3.4457577414
 20
2.3187290815
 11
3.4457577414
 21
2.3137290815
  0
LINE
  5
22A
100
AcDbEntity
  8
0
100
AcDbLine
 62
7
  6
CONTINUOUS
 10
3.4507577414
 20
2.3187290815
 11
3.4507577414
 21
3.1087290815
  0
LINE
  5
22B
100
AcDbEntity
  8
0
100
AcDbLine
 62
7
  6
CONTINUOUS
 10
3.7582577414
 20
2.2137290815
 11
3.7582577414
 21
2.2987290815
  0
LINE
  5
22C
100
AcDbEntity
  8
0
100
AcDbLine
 62
7
  6
CONTINUOUS
 10
3.0757577414
 20
3.1087290815
 11
3.4507577414
 21
3.1087290815
  0
LINE
  5
22D
100
AcDbEntity
  8
0
100
AcDbLine
 62
7
  6
CONTINUOUS
 10
7.0757577414
 20
3.1087290815
 11
7.4507577414
 21
3.1087290815
  0
LINE
  5
22E
100
AcDbEntity
  8
0
100
AcDbLine
 62
7
  6
CONTINUOUS
 10
3.0907577414
 20
3.1237290815
 11
3.4357577414
 21
3.1237290815
  0
LINE
  5
22F
100
AcDbEntity
  8
0
100
AcDbLine
 62
7
  6
CONTINUOUS
 10
7.0907577414
 20
3.1237290815
 11
7.4357577414
 21
3.1237290815
  0
LINE
  5
230
100
AcDbEntity
  8
0
100
AcDbLine
 62
7
  6
CONTINUOUS
 10
3.1226327414
 20
3.1342290815
 11
3.4038827414
 21
3.1342290815
  0
LINE
  5
231
100
AcDbEntity
  8
0
100
AcDbLine
 62
7
  6
CONTINUOUS
 10
7.1226327414
 20
3.1342290815
 11
7.4038827414
 21
3.1342290815
  0
LINE
  5
232
100
AcDbEntity
  8
0
100
AcDbLine
 62
7
  6
CONTINUOUS
 10
7.4038827414
 20
3.3302290815
 11
7.4024052452
 21
3.3302290815
  0
LINE
  5
233
100
AcDbEntity
  8
0
100
AcDbLine
 62
7
  6
CONTINUOUS
 10
3.1241102375
 20
3.3302290815
 11
3.1226327414
 21
3.3302290815
  0
LINE
  5
234
100
AcDbEntity
  8
0
100
AcDbLine
 62
7
  6
CONTINUOUS
 10
2.0282577414
 20
3.3452290815
 11
3.1092678371
 21
3.3452290815
  0
LINE
  5
235
100
AcDbEntity
  8
0
100
AcDbLine
 62
7
  6
CONTINUOUS
 10
7.4172476456
 20
3.3452290815
 11
8.4982577414
 21
3.3452290815
  0
LINE
  5
236
100
AcDbEntity
  8
0
100
AcDbLine
 62
7
  6
CONTINUOUS
 10
2.0132577414
 20
3.3602290815
 11
3.1308762476
 21
3.3602290815
  0
LINE
  5
237
100
AcDbEntity
  8
0
100
AcDbLine
 62
7
  6
CONTINUOUS
 10
7.3956392351
 20
3.3602290815
 11
8.5132577414
 21
3.3602290815
  0
LINE
  5
238
100
AcDbEntity
  8
0
100
AcDbLine
 62
7
  6
CONTINUOUS
 10
3.4038827414
 20
3.4742290815
 11
3.1167555549
 21
3.4742290815
  0
LINE
  5
239
100
AcDbEntity
  8
0
100
AcDbLine
 62
7
  6
CONTINUOUS
 10
7.1226327414
 20
3.4742290815
 11
7.4097599278
 21
3.4742290815
  0
LINE
  5
23A
100
AcDbEntity
  8
0
100
AcDbLine
 62
7
  6
CONTINUOUS
 10
3.1491289079
 20
3.4892290815
 11
3.3888826158
 21
3.4892290815
  0
LINE
  5
23B
100
AcDbEntity
  8
0
100
AcDbLine
 62
7
  6
CONTINUOUS
 10
7.1376328409
 20
3.4892290815
 11
7.3773865748
 21
3.4892290815
  0
LINE
  5
23C
100
AcDbEntity
  8
0
100
AcDbLine
 62
7
  6
CONTINUOUS
 10
3.1491289079
 20
3.5042290815
 11
3.2632577414
 21
3.5042290815
  0
LINE
  5
23D
100
AcDbEntity
  8
0
100
AcDbLine
 62
7
  6
CONTINUOUS
 10
7.2632577414
 20
3.5042290815
 11
7.3773865748
 21
3.5042290815
  0
LINE
  5
23E
100
AcDbEntity
  8
0
100
AcDbLine
 62
7
  6
CONTINUOUS
 10
7.2782577414
 20
3.5342290815
 11
7.2632577414
 21
3.5342290815
  0
LINE
  5
23F
100
AcDbEntity
  8
0
100
AcDbLine
 62
7
  6
CONTINUOUS
 10
3.2482577414
 20
3.5342290815
 11
3.2632577414
 21
3.5342290815
  0
LINE
  5
240
100
AcDbEntity
  8
0
100
AcDbLine
 62
7
  6
CONTINUOUS
 10
8.5132577414
 20
3.5492290815
 11
7.2932577414
 21
3.5492290815
  0
LINE
  5
241
100
AcDbEntity
  8
0
100
AcDbLine
 62
7
  6
CONTINUOUS
 10
3.2332577414
 20
3.5492290815
 11
2.0132577414
 21
3.5492290815
  0
LINE
  5
242
100
AcDbEntity
  8
0
100
AcDbLine
 62
7
  6
CONTINUOUS
 10
8.4982576354
 20
3.5642290815
 11
7.2932577414
 21
3.5642290815
  0
LINE
  5
243
100
AcDbEntity
  8
0
100
AcDbLine
 62
7
  6
CONTINUOUS
 10
3.2332577414
 20
3.5642290815
 11
2.0282577414
 21
3.5642290815
  0
LINE
  5
244
100
AcDbEntity
  8
0
100
AcDbLine
 62
7
  6
CONTINUOUS
 10
4.8007577414
 20
2.2137290815
 11
4.8007577414
 21
2.3287290815
  0
LINE
  5
245
100
AcDbEntity
  8
0
100
AcDbLine
 62
7
  6
CONTINUOUS
 10
5.0445077414
 20
2.3437747902
 11
5.0445077414
 21
6.7170052783
  0
LINE
  5
246
100
AcDbEntity
  8
0
100
AcDbLine
 62
7
  6
CONTINUOUS
 10
5.2007577414
 20
2.3437747902
 11
5.2007577414
 21
2.3387290815
  0
LINE
  5
247
100
AcDbEntity
  8
0
100
AcDbLine
 62
7
  6
CONTINUOUS
 10
5.2129005985
 20
2.3437747902
 11
5.2129005985
 21
2.3387290815
  0
LINE
  5
248
100
AcDbEntity
  8
0
100
AcDbLine
 62
7
  6
CONTINUOUS
 10
5.3136148842
 20
2.3437747902
 11
5.3136148842
 21
2.3387290815
  0
LINE
  5
249
100
AcDbEntity
  8
0
100
AcDbLine
 62
7
  6
CONTINUOUS
 10
5.3257577414
 20
2.3437747902
 11
5.3257577414
 21
2.3387290815
  0
LINE
  5
24A
100
AcDbEntity
  8
0
100
AcDbLine
 62
7
  6
CONTINUOUS
 10
5.4820077414
 20
2.3437747902
 11
5.4820077414
 21
6.7170052783
  0
LINE
  5
24B
100
AcDbEntity
  8
0
100
AcDbLine
 62
7
  6
CONTINUOUS
 10
5.7257577414
 20
2.2137290815
 11
5.7257577414
 21
2.3287290815
  0
LINE
  5
24C
100
AcDbEntity
  8
0
100
AcDbLine
 62
7
  6
CONTINUOUS
 10
6.7682577414
 20
2.2137290815
 11
6.7682577414
 21
2.2987290815
  0
LINE
  5
24D
100
AcDbEntity
  8
0
100
AcDbLine
 62
7
  6
CONTINUOUS
 10
7.0757577414
 20
2.3187290815
 11
7.0757577414
 21
3.1087290815
  0
LINE
  5
24E
100
AcDbEntity
  8
0
100
AcDbLine
 62
7
  6
CONTINUOUS
 10
7.0807577414
 20
2.3187290815
 11
7.0807577414
 21
2.3137290815
  0
LINE
  5
24F
100
AcDbEntity
  8
0
100
AcDbLine
 62
7
  6
CONTINUOUS
 10
7.1226327414
 20
3.1342290815
 11
7.1226327414
 21
3.4742290815
  0
LINE
  5
250
100
AcDbEntity
  8
0
100
AcDbLine
 62
7
  6
CONTINUOUS
 10
7.1357577414
 20
3.1237290815
 11
7.1357577414
 21
3.1342290815
  0
LINE
  5
251
100
AcDbEntity
  8
0
100
AcDbLine
 62
7
  6
CONTINUOUS
 10
7.2632577414
 20
3.5342290815
 11
7.2632577414
 21
3.5042290815
  0
LINE
  5
252
100
AcDbEntity
  8
0
100
AcDbLine
 62
7
  6
CONTINUOUS
 10
7.2782577414
 20
3.5342290815
 11
7.2782577414
 21
3.5042290815
  0
LINE
  5
253
100
AcDbEntity
  8
0
100
AcDbLine
 62
7
  6
CONTINUOUS
 10
7.2932577414
 20
3.5492290815
 11
7.2932577414
 21
3.5642290815
  0
LINE
  5
254
100
AcDbEntity
  8
0
100
AcDbLine
 62
7
  6
CONTINUOUS
 10
7.3773865748
 20
3.4892290815
 11
7.3773865748
 21
3.5042290815
  0
LINE
  5
255
100
AcDbEntity
  8
0
100
AcDbLine
 62
7
  6
CONTINUOUS
 10
7.3907577414
 20
3.1237290815
 11
7.3907577414
 21
3.1342290815
  0
LINE
  5
256
100
AcDbEntity
  8
0
100
AcDbLine
 62
7
  6
CONTINUOUS
 10
7.3956392351
 20
3.4742290815
 11
7.3956392351
 21
3.3602290815
  0
LINE
  5
257
100
AcDbEntity
  8
0
100
AcDbLine
 62
7
  6
CONTINUOUS
 10
7.4038827414
 20
3.1342290815
 11
7.4038827414
 21
3.3302290815
  0
LINE
  5
258
100
AcDbEntity
  8
0
100
AcDbLine
 62
7
  6
CONTINUOUS
 10
7.4097599278
 20
3.4742290814
 11
7.4097599278
 21
3.3602290815
  0
LINE
  5
259
100
AcDbEntity
  8
0
100
AcDbLine
 62
7
  6
CONTINUOUS
 10
7.4457577414
 20
2.3187290815
 11
7.4457577414
 21
2.3137290815
  0
LINE
  5
25A
100
AcDbEntity
  8
0
100
AcDbLine
 62
7
  6
CONTINUOUS
 10
7.4507577414
 20
2.3187290815
 11
7.4507577414
 21
3.1087290815
  0
LINE
  5
25B
100
AcDbEntity
  8
0
100
AcDbLine
 62
7
  6
CONTINUOUS
 10
7.7582577414
 20
2.2137290815
 11
7.7582577414
 21
2.2987290815
  0
LINE
  5
25C
100
AcDbEntity
  8
0
100
AcDbLine
 62
7
  6
CONTINUOUS
 10
8.4757577414
 20
3.3452290815
 11
8.4757577414
 21
3.5642290815
  0
LINE
  5
25D
100
AcDbEntity
  8
0
100
AcDbLine
 62
7
  6
CONTINUOUS
 10
8.5132577414
 20
3.5492290815
 11
8.5132577414
 21
3.3602290815
  0
ARC
  5
25E
100
AcDbEntity
  8
0
100
AcDbCircle
 62
7
  6
CONTINUOUS
 10
5.2632577414
 20
6.7170052783
 40
0.21875
100
AcDbArc
 50
0.0
 51
180.0
  0
ARC
  5
25F
100
AcDbEntity
  8
0
100
AcDbCircle
 62
7
  6
CONTINUOUS
 10
3.2332577414
 20
3.5342290815
 40
0.03
100
AcDbArc
 50
0.0
 51
90.0
  0
ARC
  5
260
100
AcDbEntity
  8
0
100
AcDbCircle
 62
7
  6
CONTINUOUS
 10
7.2932577414
 20
3.5342290815
 40
0.03
100
AcDbArc
 50
90.0
 51
180.0
  0
ARC
  5
261
100
AcDbEntity
  8
0
100
AcDbCircle
 62
7
  6
CONTINUOUS
 10
7.1376327414
 20
3.4742290815
 40
0.015
100
AcDbArc
 50
90.0
 51
180.0
  0
ARC
  5
262
100
AcDbEntity
  8
0
100
AcDbCircle
 62
7
  6
CONTINUOUS
 10
7.4188827413
 20
3.3302290815
 40
0.015
100
AcDbArc
 50
92.5
 51
180.0
  0
ARC
  5
263
100
AcDbEntity
  8
0
100
AcDbCircle
 62
7
  6
CONTINUOUS
 10
8.4982577414
 20
3.3602290815
 40
0.015
100
AcDbArc
 50
270.0
 51
360.0
  0
ARC
  5
264
100
AcDbEntity
  8
0
100
AcDbCircle
 62
7
  6
CONTINUOUS
 10
8.4982577414
 20
3.5492290815
 40
0.015
100
AcDbArc
 50
0.0
 51
90.0
  0
ARC
  5
265
100
AcDbEntity
  8
0
100
AcDbCircle
 62
7
  6
CONTINUOUS
 10
3.3888827414
 20
3.4742290815
 40
0.015
100
AcDbArc
 50
0.0
 51
90.0
  0
ARC
  5
266
100
AcDbEntity
  8
0
100
AcDbCircle
 62
7
  6
CONTINUOUS
 10
3.7432577414
 20
2.2987290815
 40
0.015
100
AcDbArc
 50
0.0
 51
90.0
  0
ARC
  5
267
100
AcDbEntity
  8
0
100
AcDbCircle
 62
7
  6
CONTINUOUS
 10
2.7832577414
 20
2.2987290815
 40
0.015
100
AcDbArc
 50
90.0
 51
180.0
  0
ARC
  5
268
100
AcDbEntity
  8
0
100
AcDbCircle
 62
7
  6
CONTINUOUS
 10
3.1076327414
 20
3.3302290815
 40
0.015
100
AcDbArc
 50
0.0
 51
87.5
  0
ARC
  5
269
100
AcDbEntity
  8
0
100
AcDbCircle
 62
7
  6
CONTINUOUS
 10
3.0907577414
 20
3.1087290815
 40
0.015
100
AcDbArc
 50
90.0
 51
180.0
  0
ARC
  5
26A
100
AcDbEntity
  8
0
100
AcDbCircle
 62
7
  6
CONTINUOUS
 10
3.4357577414
 20
3.1087290815
 40
0.015
100
AcDbArc
 50
0.0
 51
90.0
  0
ARC
  5
26B
100
AcDbEntity
  8
0
100
AcDbCircle
 62
7
  6
CONTINUOUS
 10
2.0282577414
 20
3.3602290815
 40
0.015
100
AcDbArc
 50
180.0
 51
270.0
  0
ARC
  5
26C
100
AcDbEntity
  8
0
100
AcDbCircle
 62
7
  6
CONTINUOUS
 10
2.0282577414
 20
3.5492290815
 40
0.015
100
AcDbArc
 50
90.0
 51
180.0
  0
ARC
  5
26D
100
AcDbEntity
  8
0
100
AcDbCircle
 62
7
  6
CONTINUOUS
 10
3.2782577409
 20
3.5042290815
 40
0.015
100
AcDbArc
 50
180.0
 51
270.0000015671
  0
ARC
  5
26E
100
AcDbEntity
  8
0
100
AcDbCircle
 62
7
  6
CONTINUOUS
 10
6.7832577414
 20
2.2987290815
 40
0.015
100
AcDbArc
 50
90.0
 51
180.0
  0
ARC
  5
26F
100
AcDbEntity
  8
0
100
AcDbCircle
 62
7
  6
CONTINUOUS
 10
7.7432577414
 20
2.2987290815
 40
0.015
100
AcDbArc
 50
0.0
 51
90.0
  0
ARC
  5
270
100
AcDbEntity
  8
0
100
AcDbCircle
 62
7
  6
CONTINUOUS
 10
7.4357577414
 20
3.1087290815
 40
0.015
100
AcDbArc
 50
0.0
 51
90.0
  0
ARC
  5
271
100
AcDbEntity
  8
0
100
AcDbCircle
 62
7
  6
CONTINUOUS
 10
7.0907577414
 20
3.1087290815
 40
0.015
100
AcDbArc
 50
90.0
 51
180.0
  0
ARC
  5
272
100
AcDbEntity
  8
0
100
AcDbCircle
 62
7
  6
CONTINUOUS
 10
7.2482577414
 20
3.5042290815
 40
0.015
100
AcDbArc
 50
270.0
 51
360.0
  0
ARC
  5
273
100
AcDbEntity
  8
0
100
AcDbCircle
 62
7
  6
CONTINUOUS
 10
3.2332577414
 20
3.5342290815
 40
0.015
100
AcDbArc
 50
0.0
 51
90.0
  0
ARC
  5
274
100
AcDbEntity
  8
0
100
AcDbCircle
 62
7
  6
CONTINUOUS
 10
7.2932577414
 20
3.5342290815
 40
0.015
100
AcDbArc
 50
90.0
 51
180.0
  0
ARC
  5
275
100
AcDbEntity
  8
0
100
AcDbCircle
 62
7
  6
CONTINUOUS
 10
4.8107577414
 20
2.3287290815
 40
0.01
100
AcDbArc
 50
90.0
 51
180.0
  0
ARC
  5
276
100
AcDbEntity
  8
0
100
AcDbCircle
 62
7
  6
CONTINUOUS
 10
5.7157577414
 20
2.3287290815
 40
0.01
100
AcDbArc
 50
0.0
 51
90.0
  0
SPLINE
  5
277
100
AcDbEntity
  8
0
100
AcDbSpline
 62
7
  6
CONTINUOUS
 70
0
 71
3
 72
42
 73
38
 74
0
 42
0.0000001
 43
0.0000001
 44
0.0000000001
 40
0.0
 40
0.0
 40
0.0
 40
0.0
 40
0.0953680732
 40
0.1898341282
 40
0.2825092095
 40
0.3725194027
 40
0.4590192092
 40
0.5411997326
 40
0.5804301575
 40
0.6182985994
 40
0.6547183635
 40
0.6896066596
 40
0.7228852351
 40
0.7544805785
 40
0.784324142
 40
0.8123532549
 40
0.8385115668
 40
0.8508735952
 40
0.8627501081
 40
0.8850266101
 40
0.9053101573
 40
0.9146983893
 40
0.9235823606
 40
0.9319620418
 40
0.9398388218
 40
0.9472158919
 40
0.9540981833
 40
0.9604932166
 40
0.966411856
 40
0.9718688245
 40
0.9768843038
 40
0.9814856366
 40
0.9857091055
 40
0.9896027332
 40
0.9932286365
 40
0.9966640392
 40
1.0
 40
1.0
 40
1.0
 40
1.0
 10
5.2632577414
 20
5.2553571591
 30
0.0
 10
5.2704050436
 20
5.2553571591
 30
0.0
 10
5.2846322411
 20
5.255453973
 30
0.0
 10
5.3058009048
 20
5.2558888978
 30
0.0
 10
5.3265600843
 20
5.2566089762
 30
0.0
 10
5.3467100872
 20
5.2576070807
 30
0.0
 10
5.3660569391
 20
5.2588733456
 30
0.0
 10
5.3815864208
 20
5.2601604437
 30
0.0
 10
5.3934669702
 20
5.2613228274
 30
0.0
 10
5.4019251669
 20
5.2622397836
 30
0.0
 10
5.4100494197
 20
5.2632131298
 30
0.0
 10
5.4178201913
 20
5.2642405202
 30
0.0
 10
5.4252188034
 20
5.265319418
 30
0.0
 10
5.4322274797
 20
5.2664471594
 30
0.0
 10
5.4388294118
 20
5.2676209632
 30
0.0
 10
5.4450087533
 20
5.2688379305
 30
0.0
 10
5.4498813583
 20
5.2699045763
 30
0.0
 10
5.4535553543
 20
5.270780902
 30
0.0
 10
5.456935336
 20
5.2716345961
 30
0.0
 10
5.4608696082
 20
5.2727166367
 30
0.0
 10
5.4645872559
 20
5.2738761447
 30
0.0
 10
5.4673170429
 20
5.2748242716
 30
0.0
 10
5.469188313
 20
5.2755234173
 30
0.0
 10
5.4709357457
 20
5.2762286394
 30
0.0
 10
5.4725583302
 20
5.276939546
 30
0.0
 10
5.4740551669
 20
5.2776556815
 30
0.0
 10
5.4754254263
 20
5.2783766591
 30
0.0
 10
5.4766683773
 20
5.2791021002
 30
0.0
 10
5.4777834179
 20
5.279831616
 30
0.0
 10
5.4787700088
 20
5.2805649395
 30
0.0
 10
5.4796276921
 20
5.2813018852
 30
0.0
 10
5.4803560924
 20
5.2820423564
 30
0.0
 10
5.4809547065
 20
5.2827865149
 30
0.0
 10
5.4814227898
 20
5.283534601
 30
0.0
 10
5.4817592135
 20
5.2842868746
 30
0.0
 10
5.4819622355
 20
5.2850427145
 30
0.0
 10
5.4820077249
 20
5.2855512634
 30
0.0
 10
5.4820077249
 20
5.285801275
 30
0.0
  0
SPLINE
  5
278
100
AcDbEntity
  8
0
100
AcDbSpline
 62
7
  6
CONTINUOUS
 70
0
 71
3
 72
41
 73
37
 74
0
 42
0.0000001
 43
0.0000001
 44
0.0000000001
 40
0.0
 40
0.0
 40
0.0
 40
0.0
 40
0.0953682606
 40
0.1898342906
 40
0.28250958
 40
0.372519885
 40
0.4590197722
 40
0.541200377
 40
0.5804308685
 40
0.6182994219
 40
0.6547191382
 40
0.6896075089
 40
0.7228861819
 40
0.7544814677
 40
0.7843251303
 40
0.8123542981
 40
0.8385125546
 40
0.8508746856
 40
0.8627512076
 40
0.8850277355
 40
0.9053112354
 40
0.923582296
 40
0.9319619175
 40
0.9398387553
 40
0.9472158561
 40
0.9540980956
 40
0.9604931689
 40
0.9664118384
 40
0.9718687712
 40
0.9768842727
 40
0.9814856277
 40
0.9857090812
 40
0.9896027171
 40
0.9932286314
 40
0.9966640354
 40
1.0
 40
1.0
 40
1.0
 40
1.0
 10
5.2632577414
 20
5.3111888291
 30
0.0
 10
5.2572975535
 20
5.3111888291
 30
0.0
 10
5.2454334019
 20
5.3111080962
 30
0.0
 10
5.2277807091
 20
5.3107454068
 30
0.0
 10
5.2104694922
 20
5.3101449296
 30
0.0
 10
5.1936662643
 20
5.3093126068
 30
0.0
 10
5.177532797
 20
5.3082566559
 30
0.0
 10
5.1645826592
 20
5.3071833361
 30
0.0
 10
5.154675385
 20
5.306214016
 30
0.0
 10
5.1476220375
 20
5.3054493671
 30
0.0
 10
5.1408471692
 20
5.3046376773
 30
0.0
 10
5.1343670702
 20
5.3037809336
 30
0.0
 10
5.1281973173
 20
5.3028812393
 30
0.0
 10
5.1223527352
 20
5.3019407968
 30
0.0
 10
5.1168473395
 20
5.3009619606
 30
0.0
 10
5.1116943434
 20
5.2999471287
 30
0.0
 10
5.1076310488
 20
5.2990576305
 30
0.0
 10
5.1045672734
 20
5.2983268699
 30
0.0
 10
5.1017486906
 20
5.2976149589
 30
0.0
 10
5.0984678042
 20
5.2967126781
 30
0.0
 10
5.0948378025
 20
5.2955802819
 30
0.0
 10
5.0920749504
 20
5.2945915714
 30
0.0
 10
5.0900736508
 20
5.293783966
 30
0.0
 10
5.0887205664
 20
5.2931911287
 30
0.0
 10
5.0874723405
 20
5.2925939465
 30
0.0
 10
5.0863296785
 20
5.2919927063
 30
0.0
 10
5.0852931705
 20
5.2913877622
 30
0.0
 10
5.0843633261
 20
5.290779419
 30
0.0
 10
5.0835406087
 20
5.2901678859
 30
0.0
 10
5.0828253786
 20
5.2895533462
 30
0.0
 10
5.082217955
 20
5.2889358661
 30
0.0
 10
5.0817187742
 20
5.2883153013
 30
0.0
 10
5.081328435
 20
5.2876914695
 30
0.0
 10
5.0810478841
 20
5.2870641447
 30
0.0
 10
5.0808785865
 20
5.2864338433
 30
0.0
 10
5.0808406535
 20
5.2860097613
 30
0.0
 10
5.0808406535
 20
5.285801275
 30
0.0
  0
SPLINE
  5
279
100
AcDbEntity
  8
0
100
AcDbSpline
 62
7
  6
CONTINUOUS
 70
0
 71
3
 72
41
 73
37
 74
0
 42
0.0000001
 43
0.0000001
 44
0.0000000001
 40
0.0
 40
0.0
 40
0.0
 40
0.0
 40
0.0033359646
 40
0.0067713686
 40
0.0103972829
 40
0.0142909188
 40
0.0185143723
 40
0.0231157273
 40
0.0281312288
 40
0.0335881616
 40
0.0395068311
 40
0.0459019044
 40
0.0527841439
 40
0.0601612447
 40
0.0680380825
 40
0.076417704
 40
0.0946887646
 40
0.1149722645
 40
0.1372487924
 40
0.1491253144
 40
0.1614874454
 40
0.1876457019
 40
0.2156748697
 40
0.2455185323
 40
0.2771138181
 40
0.3103924911
 40
0.3452808618
 40
0.3817005781
 40
0.4195691315
 40
0.458799623
 40
0.5409802278
 40
0.627480115
 40
0.71749042
 40
0.8101657094
 40
0.9046317394
 40
1.0
 40
1.0
 40
1.0
 40
1.0
 10
5.4456748292
 20
5.285801275
 30
0.0
 10
5.4456748292
 20
5.2860097613
 30
0.0
 10
5.4456368962
 20
5.2864338433
 30
0.0
 10
5.4454675986
 20
5.2870641447
 30
0.0
 10
5.4451870477
 20
5.2876914695
 30
0.0
 10
5.4447967085
 20
5.2883153013
 30
0.0
 10
5.4442975277
 20
5.2889358661
 30
0.0
 10
5.4436901041
 20
5.2895533462
 30
0.0
 10
5.442974874
 20
5.2901678859
 30
0.0
 10
5.4421521566
 20
5.290779419
 30
0.0
 10
5.4412223122
 20
5.2913877622
 30
0.0
 10
5.4401858042
 20
5.2919927063
 30
0.0
 10
5.4390431422
 20
5.2925939465
 30
0.0
 10
5.4377949163
 20
5.2931911287
 30
0.0
 10
5.436441832
 20
5.293783966
 30
0.0
 10
5.4344405323
 20
5.2945915714
 30
0.0
 10
5.4316776802
 20
5.2955802819
 30
0.0
 10
5.4280476785
 20
5.2967126781
 30
0.0
 10
5.4247667921
 20
5.2976149589
 30
0.0
 10
5.4219482094
 20
5.2983268699
 30
0.0
 10
5.4188844339
 20
5.2990576305
 30
0.0
 10
5.4148211393
 20
5.2999471287
 30
0.0
 10
5.4096681432
 20
5.3009619606
 30
0.0
 10
5.4041627476
 20
5.3019407968
 30
0.0
 10
5.3983181654
 20
5.3028812393
 30
0.0
 10
5.3921484125
 20
5.3037809336
 30
0.0
 10
5.3856683135
 20
5.3046376773
 30
0.0
 10
5.3788934452
 20
5.3054493671
 30
0.0
 10
5.3718400977
 20
5.306214016
 30
0.0
 10
5.3619328235
 20
5.3071833361
 30
0.0
 10
5.3489826857
 20
5.3082566559
 30
0.0
 10
5.3328492184
 20
5.3093126068
 30
0.0
 10
5.3160459905
 20
5.3101449296
 30
0.0
 10
5.2987347736
 20
5.3107454068
 30
0.0
 10
5.2810820808
 20
5.3111080962
 30
0.0
 10
5.2692179293
 20
5.3111888291
 30
0.0
 10
5.2632577414
 20
5.3111888291
 30
0.0
  0
SPLINE
  5
27A
100
AcDbEntity
  8
0
100
AcDbSpline
 62
7
  6
CONTINUOUS
 70
0
 71
3
 72
42
 73
38
 74
0
 42
0.0000001
 43
0.0000001
 44
0.0000000001
 40
0.0
 40
0.0
 40
0.0
 40
0.0
 40
0.0033359608
 40
0.0067713635
 40
0.0103972668
 40
0.0142908945
 40
0.0185143634
 40
0.0231156962
 40
0.0281311755
 40
0.033588144
 40
0.0395067834
 40
0.0459018167
 40
0.0527841081
 40
0.0601611782
 40
0.0680379582
 40
0.0764176394
 40
0.0853016107
 40
0.0946898427
 40
0.1149733899
 40
0.1372498919
 40
0.1491264048
 40
0.1614884332
 40
0.1876467451
 40
0.215675858
 40
0.2455194215
 40
0.2771147649
 40
0.3103933404
 40
0.3452816365
 40
0.3817014006
 40
0.4195698425
 40
0.4588002674
 40
0.5409807908
 40
0.6274805973
 40
0.7174907905
 40
0.8101658718
 40
0.9046319268
 40
1.0
 40
1.0
 40
1.0
 40
1.0
 10
5.0445077578
 20
5.285801275
 30
0.0
 10
5.0445077578
 20
5.2855512634
 30
0.0
 10
5.0445532472
 20
5.2850427145
 30
0.0
 10
5.0447562692
 20
5.2842868746
 30
0.0
 10
5.0450926929
 20
5.283534601
 30
0.0
 10
5.0455607762
 20
5.2827865149
 30
0.0
 10
5.0461593903
 20
5.2820423564
 30
0.0
 10
5.0468877906
 20
5.2813018852
 30
0.0
 10
5.0477454739
 20
5.2805649395
 30
0.0
 10
5.0487320648
 20
5.279831616
 30
0.0
 10
5.0498471054
 20
5.2791021002
 30
0.0
 10
5.0510900564
 20
5.2783766591
 30
0.0
 10
5.0524603158
 20
5.2776556815
 30
0.0
 10
5.0539571525
 20
5.276939546
 30
0.0
 10
5.055579737
 20
5.2762286394
 30
0.0
 10
5.0573271697
 20
5.2755234173
 30
0.0
 10
5.0591984398
 20
5.2748242716
 30
0.0
 10
5.0619282268
 20
5.2738761447
 30
0.0
 10
5.0656458745
 20
5.2727166367
 30
0.0
 10
5.0695801467
 20
5.2716345961
 30
0.0
 10
5.0729601284
 20
5.270780902
 30
0.0
 10
5.0766341244
 20
5.2699045763
 30
0.0
 10
5.0815067294
 20
5.2688379305
 30
0.0
 10
5.087686071
 20
5.2676209632
 30
0.0
 10
5.094288003
 20
5.2664471594
 30
0.0
 10
5.1012966794
 20
5.265319418
 30
0.0
 10
5.1086952914
 20
5.2642405202
 30
0.0
 10
5.116466063
 20
5.2632131298
 30
0.0
 10
5.1245903158
 20
5.2622397836
 30
0.0
 10
5.1330485125
 20
5.2613228274
 30
0.0
 10
5.1449290619
 20
5.2601604437
 30
0.0
 10
5.1604585436
 20
5.2588733456
 30
0.0
 10
5.1798053955
 20
5.2576070807
 30
0.0
 10
5.1999553985
 20
5.2566089762
 30
0.0
 10
5.2207145779
 20
5.2558888978
 30
0.0
 10
5.2418832416
 20
5.255453973
 30
0.0
 10
5.2561104391
 20
5.2553571591
 30
0.0
 10
5.2632577414
 20
5.2553571591
 30
0.0
  0
SPLINE
  5
27B
100
AcDbEntity
  8
0
100
AcDbSpline
 62
7
  6
CONTINUOUS
 70
0
 71
3
 72
30
 73
26
 74
0
 42
0.0000001
 43
0.0000001
 44
0.0000000001
 40
0.0
 40
0.0
 40
0.0
 40
0.0
 40
0.0033417623
 40
0.0069127537
 40
0.0108041578
 40
0.0150838329
 40
0.0249794527
 40
0.0368535405
 40
0.0508183605
 40
0.0669021322
 40
0.0850898736
 40
0.1053350343
 40
0.1275739297
 40
0.1517361783
 40
0.2055220819
 40
0.2660263016
 40
0.3325527826
 40
0.404409164
 40
0.4809046905
 40
0.5613701723
 40
0.6451284716
 40
0.7315333096
 40
0.8199223247
 40
0.9096354324
 40
1.0
 40
1.0
 40
1.0
 40
1.0
 10
3.1241102375
 20
3.3302290815
 30
0.0
 10
3.1241452189
 20
3.3302291079
 30
0.0
 10
3.1242177154
 20
3.3302365977
 30
0.0
 10
3.1243268069
 20
3.3302681818
 30
0.0
 10
3.1244387823
 20
3.3303198155
 30
0.0
 10
3.1245997069
 20
3.3304198907
 30
0.0
 10
3.1248071307
 20
3.3305991769
 30
0.0
 10
3.125055354
 20
3.330879861
 30
0.0
 10
3.1253135787
 20
3.3312353476
 30
0.0
 10
3.1255807631
 20
3.3316641598
 30
0.0
 10
3.1258555671
 20
3.3321645809
 30
0.0
 10
3.1261365563
 20
3.3327343341
 30
0.0
 10
3.1264222585
 20
3.3333709465
 30
0.0
 10
3.1268217487
 20
3.3343407829
 30
0.0
 10
3.1273173877
 20
3.3357034084
 30
0.0
 10
3.127886888
 20
3.3375089721
 30
0.0
 10
3.1284374825
 20
3.3395172731
 30
0.0
 10
3.1289568556
 20
3.3417062571
 30
0.0
 10
3.1294336269
 20
3.3440540019
 30
0.0
 10
3.1298567098
 20
3.3465384861
 30
0.0
 10
3.1302174134
 20
3.3491375618
 30
0.0
 10
3.1305067216
 20
3.3518290017
 30
0.0
 10
3.1307178832
 20
3.3545902297
 30
0.0
 10
3.1308467786
 20
3.3573979799
 30
0.0
 10
3.1308762258
 20
3.359283148
 30
0.0
 10
3.1308762476
 20
3.3602290815
 30
0.0
  0
SPLINE
  5
27C
100
AcDbEntity
  8
0
100
AcDbSpline
 62
7
  6
CONTINUOUS
 70
0
 71
3
 72
25
 73
21
 74
0
 42
0.0000001
 43
0.0000001
 44
0.0000000001
 40
0.0
 40
0.0
 40
0.0
 40
0.0
 40
0.0624982072
 40
0.1249986889
 40
0.1874983095
 40
0.2499992248
 40
0.3125007526
 40
0.3437617569
 40
0.3750227603
 40
0.4375263315
 40
0.4687874674
 40
0.5000482208
 40
0.5313099269
 40
0.5625715924
 40
0.6250758689
 40
0.6875811765
 40
0.7500868385
 40
0.8125939212
 40
0.8750985724
 40
1.0
 40
1.0
 40
1.0
 40
1.0
 10
3.1167555549
 20
3.4742290814
 30
0.0
 10
3.1167556589
 20
3.4752508188
 30
0.0
 10
3.1168687452
 20
3.4772959311
 30
0.0
 10
3.1173646192
 20
3.4803265019
 30
0.0
 10
3.1181857325
 20
3.4832861409
 30
0.0
 10
3.1193188088
 20
3.4861404307
 30
0.0
 10
3.1205088137
 20
3.4884067416
 30
0.0
 10
3.1215985247
 20
3.4901369036
 30
0.0
 10
3.1227768532
 20
3.4918079177
 30
0.0
 10
3.1240819545
 20
3.4933863895
 30
0.0
 10
3.1254999864
 20
3.4948593312
 30
0.0
 10
3.1266181908
 20
3.4959092877
 30
0.0
 10
3.1277871297
 20
3.4969023919
 30
0.0
 10
3.1294081253
 20
3.498148577
 30
0.0
 10
3.1315445152
 20
3.4995573165
 30
0.0
 10
3.1342563724
 20
3.5009962869
 30
0.0
 10
3.1370899772
 20
3.5021772515
 30
0.0
 10
3.1400191895
 20
3.5030963867
 30
0.0
 10
3.1440143878
 20
3.5039687906
 30
0.0
 10
3.1470869859
 20
3.5042288681
 30
0.0
 10
3.1491289079
 20
3.5042290815
 30
0.0
  0
SPLINE
  5
27D
100
AcDbEntity
  8
0
100
AcDbSpline
 62
7
  6
CONTINUOUS
 70
0
 71
3
 72
19
 73
15
 74
0
 42
0.0000001
 43
0.0000001
 44
0.0000000001
 40
0.0
 40
0.0
 40
0.0
 40
0.0
 40
0.0639204292
 40
0.1277855148
 40
0.1915382849
 40
0.255131823
 40
0.3185324093
 40
0.3817067445
 40
0.4446426204
 40
0.5073337286
 40
0.6318129157
 40
0.7553631242
 40
0.8780601509
 40
1.0
 40
1.0
 40
1.0
 40
1.0
 10
3.1308762476
 20
3.4742290815
 30
0.0
 10
3.1308762968
 20
3.4747885423
 30
0.0
 10
3.1309491883
 20
3.4759083273
 30
0.0
 10
3.1312737166
 20
3.4775575126
 30
0.0
 10
3.1318036267
 20
3.4791496895
 30
0.0
 10
3.1325245291
 20
3.4806600932
 30
0.0
 10
3.1334172974
 20
3.4820693579
 30
0.0
 10
3.1344614772
 20
3.4833625636
 30
0.0
 10
3.1356358141
 20
3.4845296832
 30
0.0
 10
3.137341452
 20
3.4859069427
 30
0.0
 10
3.1396992722
 20
3.487296408
 30
0.0
 10
3.1427510174
 20
3.4884397167
 30
0.0
 10
3.1459183145
 20
3.4890924695
 30
0.0
 10
3.1480624604
 20
3.4892290094
 30
0.0
 10
3.1491297338
 20
3.4892290815
 30
0.0
  0
SPLINE
  5
27E
100
AcDbEntity
  8
0
100
AcDbSpline
 62
7
  6
CONTINUOUS
 70
0
 71
3
 72
42
 73
38
 74
0
 42
0.0000001
 43
0.0000001
 44
0.0000000001
 40
0.0
 40
0.0
 40
0.0
 40
0.0
 40
0.0953680867
 40
0.1898341051
 40
0.2825092336
 40
0.3725193872
 40
0.4590192161
 40
0.541199739
 40
0.5804301429
 40
0.618298586
 40
0.6547183697
 40
0.6896066747
 40
0.7228852402
 40
0.754480567
 40
0.7843241299
 40
0.812353257
 40
0.8385115802
 40
0.8508736052
 40
0.8627501109
 40
0.8850266011
 40
0.9053101489
 40
0.9146983869
 40
0.9235823651
 40
0.9319620506
 40
0.9398388299
 40
0.9472158963
 40
0.9540981838
 40
0.9604932138
 40
0.9664118511
 40
0.9718688193
 40
0.9768843008
 40
0.9814856369
 40
0.9857091081
 40
0.9896027364
 40
0.9932286393
 40
0.996664041
 40
1.0
 40
1.0
 40
1.0
 40
1.0
 10
5.2632577414
 20
5.563812408
 30
0.0
 10
5.2561104381
 20
5.563812408
 30
0.0
 10
5.2418832424
 20
5.5637155942
 30
0.0
 10
5.2207145768
 20
5.5632806693
 30
0.0
 10
5.1999553996
 20
5.562560591
 30
0.0
 10
5.1798053944
 20
5.5615624864
 30
0.0
 10
5.1604585438
 20
5.5602962215
 30
0.0
 10
5.144929062
 20
5.5590091234
 30
0.0
 10
5.1330485141
 20
5.5578467399
 30
0.0
 10
5.1245903174
 20
5.5569297837
 30
0.0
 10
5.1164660624
 20
5.5559564373
 30
0.0
 10
5.1086952894
 20
5.5549290466
 30
0.0
 10
5.1012966787
 20
5.5538501491
 30
0.0
 10
5.0942880043
 20
5.5527224079
 30
0.0
 10
5.0876860725
 20
5.5515486043
 30
0.0
 10
5.0815067292
 20
5.5503316364
 30
0.0
 10
5.0766341225
 20
5.5492649904
 30
0.0
 10
5.0729601265
 20
5.5483886647
 30
0.0
 10
5.0695801465
 20
5.5475349709
 30
0.0
 10
5.0656458756
 20
5.5464529308
 30
0.0
 10
5.0619282282
 20
5.5452934229
 30
0.0
 10
5.0591984403
 20
5.5443452956
 30
0.0
 10
5.0573271689
 20
5.5436461495
 30
0.0
 10
5.0555797355
 20
5.5429409271
 30
0.0
 10
5.053957151
 20
5.5422300205
 30
0.0
 10
5.0524603149
 20
5.5415138852
 30
0.0
 10
5.0510900562
 20
5.5407929079
 30
0.0
 10
5.0498471058
 20
5.5400674672
 30
0.0
 10
5.0487320655
 20
5.5393379518
 30
0.0
 10
5.0477454747
 20
5.5386046282
 30
0.0
 10
5.0468877911
 20
5.5378676822
 30
0.0
 10
5.0461593903
 20
5.5371272107
 30
0.0
 10
5.0455607759
 20
5.5363830519
 30
0.0
 10
5.0450926926
 20
5.5356349656
 30
0.0
 10
5.0447562691
 20
5.5348826919
 30
0.0
 10
5.044553247
 20
5.5341268523
 30
0.0
 10
5.0445077576
 20
5.5336183036
 30
0.0
 10
5.0445077576
 20
5.5333682922
 30
0.0
  0
SPLINE
  5
27F
100
AcDbEntity
  8
0
100
AcDbSpline
 62
7
  6
CONTINUOUS
 70
0
 71
3
 72
41
 73
37
 74
0
 42
0.0000001
 43
0.0000001
 44
0.0000000001
 40
0.0
 40
0.0
 40
0.0
 40
0.0
 40
0.0033359646
 40
0.0067713686
 40
0.0103972829
 40
0.0142909188
 40
0.0185143723
 40
0.0231157273
 40
0.0281312288
 40
0.0335881616
 40
0.0395068311
 40
0.0459019044
 40
0.0527841439
 40
0.0601612447
 40
0.0680380825
 40
0.076417704
 40
0.0946887646
 40
0.1149722645
 40
0.1372487924
 40
0.1491253144
 40
0.1614874454
 40
0.1876457019
 40
0.2156748697
 40
0.2455185323
 40
0.2771138181
 40
0.3103924911
 40
0.3452808618
 40
0.3817005781
 40
0.4195691315
 40
0.458799623
 40
0.5409802278
 40
0.627480115
 40
0.71749042
 40
0.8101657094
 40
0.9046317394
 40
1.0
 40
1.0
 40
1.0
 40
1.0
 10
5.0808406535
 20
5.285801275
 30
0.0
 10
5.0808406535
 20
5.2855927887
 30
0.0
 10
5.0808785865
 20
5.2851687066
 30
0.0
 10
5.0810478841
 20
5.2845384052
 30
0.0
 10
5.081328435
 20
5.2839110804
 30
0.0
 10
5.0817187742
 20
5.2832872486
 30
0.0
 10
5.082217955
 20
5.2826666838
 30
0.0
 10
5.0828253786
 20
5.2820492038
 30
0.0
 10
5.0835406087
 20
5.281434664
 30
0.0
 10
5.0843633261
 20
5.2808231309
 30
0.0
 10
5.0852931705
 20
5.2802147877
 30
0.0
 10
5.0863296785
 20
5.2796098436
 30
0.0
 10
5.0874723405
 20
5.2790086034
 30
0.0
 10
5.0887205664
 20
5.2784114213
 30
0.0
 10
5.0900736508
 20
5.2778185839
 30
0.0
 10
5.0920749504
 20
5.2770109785
 30
0.0
 10
5.0948378025
 20
5.276022268
 30
0.0
 10
5.0984678042
 20
5.2748898718
 30
0.0
 10
5.1017486906
 20
5.273987591
 30
0.0
 10
5.1045672734
 20
5.27327568
 30
0.0
 10
5.1076310488
 20
5.2725449195
 30
0.0
 10
5.1116943434
 20
5.2716554212
 30
0.0
 10
5.1168473395
 20
5.2706405893
 30
0.0
 10
5.1223527352
 20
5.2696617531
 30
0.0
 10
5.1281973173
 20
5.2687213106
 30
0.0
 10
5.1343670702
 20
5.2678216163
 30
0.0
 10
5.1408471692
 20
5.2669648726
 30
0.0
 10
5.1476220375
 20
5.2661531829
 30
0.0
 10
5.154675385
 20
5.265388534
 30
0.0
 10
5.1645826592
 20
5.2644192139
 30
0.0
 10
5.177532797
 20
5.263345894
 30
0.0
 10
5.1936662643
 20
5.2622899431
 30
0.0
 10
5.2104694922
 20
5.2614576204
 30
0.0
 10
5.2277807091
 20
5.2608571431
 30
0.0
 10
5.2454334019
 20
5.2604944537
 30
0.0
 10
5.2572975535
 20
5.2604137209
 30
0.0
 10
5.2632577414
 20
5.2604137209
 30
0.0
  0
SPLINE
  5
280
100
AcDbEntity
  8
0
100
AcDbSpline
 62
7
  6
CONTINUOUS
 70
0
 71
3
 72
11
 73
7
 74
0
 42
0.0000001
 43
0.0000001
 44
0.0000000001
 40
0.0
 40
0.0
 40
0.0
 40
0.0
 40
0.2408097642
 40
0.48946741
 40
0.7434037666
 40
1.0
 40
1.0
 40
1.0
 40
1.0
 10
5.1903552632
 20
5.3090718912
 30
0.0
 10
5.196199677
 20
5.3087172712
 30
0.0
 10
5.2080853627
 20
5.3080987808
 30
0.0
 10
5.2261495499
 20
5.3074417989
 30
0.0
 10
5.2446052247
 20
5.3070447239
 30
0.0
 10
5.2570187391
 20
5.3069563201
 30
0.0
 10
5.2632577414
 20
5.3069563201
 30
0.0
  0
SPLINE
  5
281
100
AcDbEntity
  8
0
100
AcDbSpline
 62
7
  6
CONTINUOUS
 70
0
 71
3
 72
11
 73
7
 74
0
 42
0.0000001
 43
0.0000001
 44
0.0000000001
 40
0.0
 40
0.0
 40
0.0
 40
0.0
 40
0.2565962334
 40
0.51053259
 40
0.7591902358
 40
1.0
 40
1.0
 40
1.0
 40
1.0
 10
5.2632577414
 20
5.3069563201
 30
0.0
 10
5.2694967436
 20
5.3069563201
 30
0.0
 10
5.281910258
 20
5.3070447239
 30
0.0
 10
5.3003659328
 20
5.3074417989
 30
0.0
 10
5.31843012
 20
5.3080987808
 30
0.0
 10
5.3303158057
 20
5.3087172712
 30
0.0
 10
5.3361602195
 20
5.3090718912
 30
0.0
  0
SPLINE
  5
282
100
AcDbEntity
  8
0
100
AcDbSpline
 62
7
  6
CONTINUOUS
 70
0
 71
3
 72
42
 73
38
 74
0
 42
0.0000001
 43
0.0000001
 44
0.0000000001
 40
0.0
 40
0.0
 40
0.0
 40
0.0
 40
0.0033359608
 40
0.0067713635
 40
0.0103972668
 40
0.0142908945
 40
0.0185143634
 40
0.0231156962
 40
0.0281311755
 40
0.033588144
 40
0.0395067834
 40
0.0459018167
 40
0.0527841081
 40
0.0601611782
 40
0.0680379582
 40
0.0764176394
 40
0.0853016107
 40
0.0946898427
 40
0.1149733899
 40
0.1372498919
 40
0.1491264048
 40
0.1614884332
 40
0.1876467451
 40
0.215675858
 40
0.2455194215
 40
0.2771147649
 40
0.3103933404
 40
0.3452816365
 40
0.3817014006
 40
0.4195698425
 40
0.4588002674
 40
0.5409807908
 40
0.6274805973
 40
0.7174907905
 40
0.8101658718
 40
0.9046319268
 40
1.0
 40
1.0
 40
1.0
 40
1.0
 10
5.4820077249
 20
5.285801275
 30
0.0
 10
5.4820077249
 20
5.2860512865
 30
0.0
 10
5.4819622355
 20
5.2865598354
 30
0.0
 10
5.4817592135
 20
5.2873156753
 30
0.0
 10
5.4814227898
 20
5.288067949
 30
0.0
 10
5.4809547065
 20
5.2888160351
 30
0.0
 10
5.4803560924
 20
5.2895601935
 30
0.0
 10
5.4796276921
 20
5.2903006647
 30
0.0
 10
5.4787700088
 20
5.2910376104
 30
0.0
 10
5.4777834179
 20
5.2917709339
 30
0.0
 10
5.4766683773
 20
5.2925004497
 30
0.0
 10
5.4754254263
 20
5.2932258908
 30
0.0
 10
5.4740551669
 20
5.2939468685
 30
0.0
 10
5.4725583302
 20
5.2946630039
 30
0.0
 10
5.4709357457
 20
5.2953739105
 30
0.0
 10
5.469188313
 20
5.2960791327
 30
0.0
 10
5.4673170429
 20
5.2967782783
 30
0.0
 10
5.4645872559
 20
5.2977264052
 30
0.0
 10
5.4608696082
 20
5.2988859133
 30
0.0
 10
5.456935336
 20
5.2999679538
 30
0.0
 10
5.4535553543
 20
5.3008216479
 30
0.0
 10
5.4498813583
 20
5.3016979736
 30
0.0
 10
5.4450087533
 20
5.3027646194
 30
0.0
 10
5.4388294118
 20
5.3039815867
 30
0.0
 10
5.4322274797
 20
5.3051553905
 30
0.0
 10
5.4252188034
 20
5.306283132
 30
0.0
 10
5.4178201913
 20
5.3073620298
 30
0.0
 10
5.4100494197
 20
5.3083894201
 30
0.0
 10
5.4019251669
 20
5.3093627664
 30
0.0
 10
5.3934669702
 20
5.3102797225
 30
0.0
 10
5.3815864208
 20
5.3114421062
 30
0.0
 10
5.3660569391
 20
5.3127292044
 30
0.0
 10
5.3467100872
 20
5.3139954693
 30
0.0
 10
5.3265600843
 20
5.3149935738
 30
0.0
 10
5.3058009048
 20
5.3157136521
 30
0.0
 10
5.2846322411
 20
5.316148577
 30
0.0
 10
5.2704050436
 20
5.3162453908
 30
0.0
 10
5.2632577414
 20
5.3162453908
 30
0.0
  0
SPLINE
  5
283
100
AcDbEntity
  8
0
100
AcDbSpline
 62
7
  6
CONTINUOUS
 70
0
 71
3
 72
30
 73
26
 74
0
 42
0.0000001
 43
0.0000001
 44
0.0000000001
 40
0.0
 40
0.0
 40
0.0
 40
0.0
 40
0.0903666694
 40
0.1800770148
 40
0.2684690736
 40
0.3548721195
 40
0.4386318354
 40
0.519096183
 40
0.59559256
 40
0.6674482974
 40
0.7339748952
 40
0.7944785358
 40
0.8482653366
 40
0.8724276558
 40
0.8946652044
 40
0.914910275
 40
0.9330994871
 40
0.9491824521
 40
0.9631456526
 40
0.975020413
 40
0.9849161472
 40
0.989195738
 40
0.9930870856
 40
0.9966580949
 40
1.0
 40
1.0
 40
1.0
 40
1.0
 10
7.3956392351
 20
3.3602290815
 30
0.0
 10
7.3956392585
 20
3.359283126
 30
0.0
 10
7.3956686811
 20
3.3573979634
 30
0.0
 10
7.3957976566
 20
3.3545901931
 30
0.0
 10
7.3960086854
 20
3.35182897
 30
0.0
 10
7.3962981209
 20
3.3491375151
 30
0.0
 10
7.3966587478
 20
3.3465384454
 30
0.0
 10
7.3970818894
 20
3.3440539583
 30
0.0
 10
7.3975586278
 20
3.3417062173
 30
0.0
 10
7.3980780079
 20
3.3395172308
 30
0.0
 10
7.3986286064
 20
3.3375089431
 30
0.0
 10
7.3991981117
 20
3.3357033757
 30
0.0
 10
7.3996937531
 20
3.3343407477
 30
0.0
 10
7.4000932139
 20
3.3333709029
 30
0.0
 10
7.4003789458
 20
3.3327343191
 30
0.0
 10
7.4006599432
 20
3.3321645706
 30
0.0
 10
7.4009347031
 20
3.3316641188
 30
0.0
 10
7.4012018905
 20
3.3312353173
 30
0.0
 10
7.401460163
 20
3.3308798893
 30
0.0
 10
7.4017083577
 20
3.3305991953
 30
0.0
 10
7.4019157706
 20
3.3304198829
 30
0.0
 10
7.4020766959
 20
3.3303198087
 30
0.0
 10
7.4021886704
 20
3.330268176
 30
0.0
 10
7.4022977639
 20
3.3302365941
 30
0.0
 10
7.4023702623
 20
3.3302291068
 30
0.0
 10
7.4024052452
 20
3.3302290815
 30
0.0
  0
SPLINE
  5
284
100
AcDbEntity
  8
0
100
AcDbSpline
 62
7
  6
CONTINUOUS
 70
0
 71
3
 72
42
 73
38
 74
0
 42
0.0000001
 43
0.0000001
 44
0.0000000001
 40
0.0
 40
0.0
 40
0.0
 40
0.0
 40
0.003335959
 40
0.0067713607
 40
0.0103972636
 40
0.0142908919
 40
0.0185143631
 40
0.0231156992
 40
0.0281311807
 40
0.0335881489
 40
0.0395067862
 40
0.0459018162
 40
0.0527841037
 40
0.0601611701
 40
0.0680379494
 40
0.0764176349
 40
0.0853016131
 40
0.0946898511
 40
0.1149733989
 40
0.1372498891
 40
0.1491263948
 40
0.1614884198
 40
0.187646743
 40
0.2156758701
 40
0.245519433
 40
0.2771147598
 40
0.3103933253
 40
0.3452816303
 40
0.381701414
 40
0.4195698571
 40
0.458800261
 40
0.5409807839
 40
0.6274806128
 40
0.7174907664
 40
0.8101658949
 40
0.9046319133
 40
1.0
 40
1.0
 40
1.0
 40
1.0
 10
5.4820077251
 20
5.5333682922
 30
0.0
 10
5.4820077251
 20
5.5336183036
 30
0.0
 10
5.4819622357
 20
5.5341268523
 30
0.0
 10
5.4817592136
 20
5.5348826919
 30
0.0
 10
5.4814227901
 20
5.5356349656
 30
0.0
 10
5.4809547068
 20
5.5363830519
 30
0.0
 10
5.4803560924
 20
5.5371272107
 30
0.0
 10
5.4796276916
 20
5.5378676822
 30
0.0
 10
5.478770008
 20
5.5386046282
 30
0.0
 10
5.4777834172
 20
5.5393379518
 30
0.0
 10
5.4766683769
 20
5.5400674672
 30
0.0
 10
5.4754254265
 20
5.5407929079
 30
0.0
 10
5.4740551678
 20
5.5415138852
 30
0.0
 10
5.4725583317
 20
5.5422300205
 30
0.0
 10
5.4709357472
 20
5.5429409271
 30
0.0
 10
5.4691883138
 20
5.5436461495
 30
0.0
 10
5.4673170424
 20
5.5443452956
 30
0.0
 10
5.4645872545
 20
5.5452934229
 30
0.0
 10
5.4608696071
 20
5.5464529308
 30
0.0
 10
5.4569353362
 20
5.5475349709
 30
0.0
 10
5.4535553562
 20
5.5483886647
 30
0.0
 10
5.4498813602
 20
5.5492649904
 30
0.0
 10
5.4450087536
 20
5.5503316364
 30
0.0
 10
5.4388294102
 20
5.5515486043
 30
0.0
 10
5.4322274784
 20
5.5527224079
 30
0.0
 10
5.425218804
 20
5.5538501491
 30
0.0
 10
5.4178201933
 20
5.5549290466
 30
0.0
 10
5.4100494203
 20
5.5559564373
 30
0.0
 10
5.4019251653
 20
5.5569297837
 30
0.0
 10
5.3934669686
 20
5.5578467399
 30
0.0
 10
5.3815864207
 20
5.5590091234
 30
0.0
 10
5.3660569389
 20
5.5602962215
 30
0.0
 10
5.3467100883
 20
5.5615624864
 30
0.0
 10
5.3265600832
 20
5.562560591
 30
0.0
 10
5.3058009059
 20
5.5632806693
 30
0.0
 10
5.2846322404
 20
5.5637155942
 30
0.0
 10
5.2704050446
 20
5.563812408
 30
0.0
 10
5.2632577414
 20
5.563812408
 30
0.0
  0
SPLINE
  5
285
100
AcDbEntity
  8
0
100
AcDbSpline
 62
7
  6
CONTINUOUS
 70
0
 71
3
 72
15
 73
11
 74
0
 42
0.0000001
 43
0.0000001
 44
0.0000000001
 40
0.0
 40
0.0
 40
0.0
 40
0.0
 40
0.1243542281
 40
0.248802594
 40
0.373436122
 40
0.4983081542
 40
0.6234377629
 40
0.7488047697
 40
0.8743508597
 40
1.0
 40
1.0
 40
1.0
 40
1.0
 10
3.1092678371
 20
3.3452290815
 30
0.0
 10
3.1102378288
 20
3.3452290815
 30
0.0
 10
3.1121840305
 20
3.3450355066
 30
0.0
 10
3.1149862349
 20
3.3441757964
 30
0.0
 10
3.1175693904
 20
3.3427799368
 30
0.0
 10
3.1198328014
 20
3.3409018704
 30
0.0
 10
3.1216899212
 20
3.3386140244
 30
0.0
 10
3.1230696004
 20
3.3360041531
 30
0.0
 10
3.1239190568
 20
3.3331738777
 30
0.0
 10
3.1241102375
 20
3.3312091738
 30
0.0
 10
3.1241102375
 20
3.3302290815
 30
0.0
  0
SPLINE
  5
286
100
AcDbEntity
  8
0
100
AcDbSpline
 62
7
  6
CONTINUOUS
 70
0
 71
3
 72
23
 73
19
 74
0
 42
0.0000001
 43
0.0000001
 44
0.0000000001
 40
0.0
 40
0.0
 40
0.0
 40
0.0
 40
0.1744430982
 40
0.2594976933
 40
0.3420839103
 40
0.4216352758
 40
0.4977011497
 40
0.5699263174
 40
0.6379872358
 40
0.760355536
 40
0.8141102821
 40
0.8624726252
 40
0.9051944134
 40
0.9243932621
 40
0.9421488555
 40
0.958503508
 40
0.97353342
 40
1.0
 40
1.0
 40
1.0
 40
1.0
 10
3.1167555549
 20
3.3602290815
 30
0.0
 10
3.1167554578
 20
3.3592008543
 30
0.0
 10
3.116640829
 20
3.3576683074
 30
0.0
 10
3.1162754266
 20
3.3556842477
 30
0.0
 10
3.1159114643
 20
3.3542720817
 30
0.0
 10
3.1154700653
 20
3.3529381989
 30
0.0
 10
3.1149678716
 20
3.3516916971
 30
0.0
 10
3.114416917
 20
3.35054059
 30
0.0
 10
3.1136649763
 20
3.3491866903
 30
0.0
 10
3.1128560905
 20
3.3479903987
 30
0.0
 10
3.1120029124
 20
3.3469776702
 30
0.0
 10
3.1114036043
 20
3.3463683487
 30
0.0
 10
3.1109056772
 20
3.3459483038
 30
0.0
 10
3.1105198915
 20
3.345679902
 30
0.0
 10
3.1102497142
 20
3.3455189473
 30
0.0
 10
3.1099888347
 20
3.3453918333
 30
0.0
 10
3.1096688204
 20
3.3452739242
 30
0.0
 10
3.1094238401
 20
3.3452291073
 30
0.0
 10
3.1092678371
 20
3.3452290815
 30
0.0
  0
LINE
  5
287
100
AcDbEntity
  8
0
100
AcDbLine
 62
7
  6
CONTINUOUS
 10
3.2482612496
 20
3.4892290815
 11
3.2482577414
 21
3.5042290815
  0
SPLINE
  5
288
100
AcDbEntity
  8
0
100
AcDbSpline
 62
7
  6
CONTINUOUS
 70
0
 71
3
 72
20
 73
16
 74
0
 42
0.0000001
 43
0.0000001
 44
0.0000000001
 40
0.0
 40
0.0
 40
0.0
 40
0.0
 40
0.1219294209
 40
0.244613182
 40
0.3063189375
 40
0.3682562435
 40
0.4927271079
 40
0.5554062852
 40
0.6183384202
 40
0.6815039301
 40
0.7448985436
 40
0.8084844152
 40
0.8722305945
 40
0.9360862446
 40
1.0
 40
1.0
 40
1.0
 40
1.0
 10
7.377385716
 20
3.4892290815
 30
0.0
 10
7.3784530122
 20
3.4892290064
 30
0.0
 10
7.380596959
 20
3.4890925537
 30
0.0
 10
7.383233156
 20
3.4885491303
 30
0.0
 10
7.3852823324
 20
3.4878710797
 30
0.0
 10
7.3872829622
 20
3.4870213443
 30
0.0
 10
7.3891741275
 20
3.4859066662
 30
0.0
 10
7.3908798952
 20
3.4845297908
 30
0.0
 10
7.3920539186
 20
3.4833623668
 30
0.0
 10
7.3930984204
 20
3.4820694173
 30
0.0
 10
7.3939908872
 20
3.4806599712
 30
0.0
 10
7.3947119827
 20
3.4791496688
 30
0.0
 10
7.3952417129
 20
3.4775574537
 30
0.0
 10
7.395566332
 20
3.4759083141
 30
0.0
 10
7.3956391838
 20
3.4747885437
 30
0.0
 10
7.3956392351
 20
3.4742290815
 30
0.0
  0
SPLINE
  5
289
100
AcDbEntity
  8
0
100
AcDbSpline
 62
7
  6
CONTINUOUS
 70
0
 71
3
 72
22
 73
18
 74
0
 42
0.0000001
 43
0.0000001
 44
0.0000000001
 40
0.0
 40
0.0
 40
0.0
 40
0.0
 40
0.1249087455
 40
0.18741837
 40
0.2499288919
 40
0.3124387928
 40
0.3749473486
 40
0.4374559206
 40
0.4999633028
 40
0.5624702081
 40
0.6249763329
 40
0.687481719
 40
0.7499864137
 40
0.8124907822
 40
0.8749946267
 40
0.9374974259
 40
1.0
 40
1.0
 40
1.0
 40
1.0
 10
7.3773865748
 20
3.5042290815
 30
0.0
 10
7.3794284949
 20
3.5042288588
 30
0.0
 10
7.3825010872
 20
3.5039685904
 30
0.0
 10
7.3864963368
 20
3.5030964001
 30
0.0
 10
7.3894255999
 20
3.5021772901
 30
0.0
 10
7.3922591352
 20
3.5009962661
 30
0.0
 10
7.3949711646
 20
3.4995573277
 30
0.0
 10
7.397534159
 20
3.4978670137
 30
0.0
 10
7.3999227024
 20
3.4959377338
 30
0.0
 10
7.402108007
 20
3.493780594
 30
0.0
 10
7.4040643341
 20
3.4914137941
 30
0.0
 10
7.4057694408
 20
3.4888597581
 30
0.0
 10
7.4071963326
 20
3.4861403344
 30
0.0
 10
7.4083300467
 20
3.4832861938
 30
0.0
 10
7.4091506718
 20
3.4803264533
 30
0.0
 10
7.4096468369
 20
3.4772959438
 30
0.0
 10
7.409759819
 20
3.4752508294
 30
0.0
 10
7.4097599278
 20
3.4742290814
 30
0.0
  0
SPLINE
  5
28A
100
AcDbEntity
  8
0
100
AcDbSpline
 62
7
  6
CONTINUOUS
 70
0
 71
3
 72
42
 73
38
 74
0
 42
0.0000001
 43
0.0000001
 44
0.0000000001
 40
0.0
 40
0.0
 40
0.0
 40
0.0
 40
0.0953680732
 40
0.1898341282
 40
0.2825092095
 40
0.3725194027
 40
0.4590192092
 40
0.5411997326
 40
0.5804301575
 40
0.6182985994
 40
0.6547183635
 40
0.6896066596
 40
0.7228852351
 40
0.7544805785
 40
0.784324142
 40
0.8123532549
 40
0.8385115668
 40
0.8508735952
 40
0.8627501081
 40
0.8850266101
 40
0.9053101573
 40
0.9146983893
 40
0.9235823606
 40
0.9319620418
 40
0.9398388218
 40
0.9472158919
 40
0.9540981833
 40
0.9604932166
 40
0.966411856
 40
0.9718688245
 40
0.9768843038
 40
0.9814856366
 40
0.9857091055
 40
0.9896027332
 40
0.9932286365
 40
0.9966640392
 40
1.0
 40
1.0
 40
1.0
 40
1.0
 10
5.2632577414
 20
5.3162453908
 30
0.0
 10
5.2561104391
 20
5.3162453908
 30
0.0
 10
5.2418832416
 20
5.316148577
 30
0.0
 10
5.2207145779
 20
5.3157136521
 30
0.0
 10
5.1999553985
 20
5.3149935738
 30
0.0
 10
5.1798053955
 20
5.3139954693
 30
0.0
 10
5.1604585436
 20
5.3127292044
 30
0.0
 10
5.1449290619
 20
5.3114421062
 30
0.0
 10
5.1330485125
 20
5.3102797225
 30
0.0
 10
5.1245903158
 20
5.3093627664
 30
0.0
 10
5.116466063
 20
5.3083894201
 30
0.0
 10
5.1086952914
 20
5.3073620298
 30
0.0
 10
5.1012966794
 20
5.306283132
 30
0.0
 10
5.094288003
 20
5.3051553905
 30
0.0
 10
5.087686071
 20
5.3039815867
 30
0.0
 10
5.0815067294
 20
5.3027646194
 30
0.0
 10
5.0766341244
 20
5.3016979736
 30
0.0
 10
5.0729601284
 20
5.3008216479
 30
0.0
 10
5.0695801467
 20
5.2999679538
 30
0.0
 10
5.0656458745
 20
5.2988859133
 30
0.0
 10
5.0619282268
 20
5.2977264052
 30
0.0
 10
5.0591984398
 20
5.2967782783
 30
0.0
 10
5.0573271697
 20
5.2960791327
 30
0.0
 10
5.055579737
 20
5.2953739105
 30
0.0
 10
5.0539571525
 20
5.2946630039
 30
0.0
 10
5.0524603158
 20
5.2939468685
 30
0.0
 10
5.0510900564
 20
5.2932258908
 30
0.0
 10
5.0498471054
 20
5.2925004497
 30
0.0
 10
5.0487320648
 20
5.2917709339
 30
0.0
 10
5.0477454739
 20
5.2910376104
 30
0.0
 10
5.0468877906
 20
5.2903006647
 30
0.0
 10
5.0461593903
 20
5.2895601935
 30
0.0
 10
5.0455607762
 20
5.2888160351
 30
0.0
 10
5.0450926929
 20
5.288067949
 30
0.0
 10
5.0447562692
 20
5.2873156753
 30
0.0
 10
5.0445532472
 20
5.2865598354
 30
0.0
 10
5.0445077578
 20
5.2860512865
 30
0.0
 10
5.0445077578
 20
5.285801275
 30
0.0
  0
SPLINE
  5
28B
100
AcDbEntity
  8
0
100
AcDbSpline
 62
7
  6
CONTINUOUS
 70
0
 71
3
 72
25
 73
21
 74
0
 42
0.0000001
 43
0.0000001
 44
0.0000000001
 40
0.0
 40
0.0
 40
0.0
 40
0.0
 40
0.0264594162
 40
0.0414873489
 40
0.0578449307
 40
0.0756024927
 40
0.0947962422
 40
0.1374985768
 40
0.185859256
 40
0.2396059181
 40
0.2984289485
 40
0.3620153217
 40
0.4300628882
 40
0.5022757657
 40
0.5783286618
 40
0.657863471
 40
0.7404338269
 40
0.8254740876
 40
0.9122773733
 40
1.0
 40
1.0
 40
1.0
 40
1.0
 10
7.4172476457
 20
3.3452290815
 30
0.0
 10
7.4170916563
 20
3.3452291062
 30
0.0
 10
7.4168466847
 20
3.3452739281
 30
0.0
 10
7.416526652
 20
3.3453918556
 30
0.0
 10
7.4162656753
 20
3.3455189257
 30
0.0
 10
7.415995403
 20
3.3456798355
 30
0.0
 10
7.4156096907
 20
3.3459482694
 30
0.0
 10
7.415112015
 20
3.3463685523
 30
0.0
 10
7.4145124884
 20
3.3469775819
 30
0.0
 10
7.413900592
 20
3.3477037587
 30
0.0
 10
7.4132867711
 20
3.3485423609
 30
0.0
 10
7.4126820909
 20
3.3494893245
 30
0.0
 10
7.4120984955
 20
3.3505407138
 30
0.0
 10
7.4115477568
 20
3.3516918082
 30
0.0
 10
7.4110450525
 20
3.3529381387
 30
0.0
 10
7.4106043087
 20
3.3542722464
 30
0.0
 10
7.4102396988
 20
3.3556841094
 30
0.0
 10
7.4099684153
 20
3.3571605516
 30
0.0
 10
7.4097985692
 20
3.3586826036
 30
0.0
 10
7.4097599787
 20
3.3597119197
 30
0.0
 10
7.4097599278
 20
3.3602290815
 30
0.0
  0
SPLINE
  5
28C
100
AcDbEntity
  8
0
100
AcDbSpline
 62
7
  6
CONTINUOUS
 70
0
 71
3
 72
15
 73
11
 74
0
 42
0.0000001
 43
0.0000001
 44
0.0000000001
 40
0.0
 40
0.0
 40
0.0
 40
0.0
 40
0.1256491403
 40
0.2511952303
 40
0.3765622371
 40
0.5016918458
 40
0.626563878
 40
0.751197406
 40
0.8756457719
 40
1.0
 40
1.0
 40
1.0
 40
1.0
 10
7.4024052452
 20
3.3302290815
 30
0.0
 10
7.4024052452
 20
3.3312091738
 30
0.0
 10
7.4025964259
 20
3.3331738777
 30
0.0
 10
7.4034458823
 20
3.3360041531
 30
0.0
 10
7.4048255615
 20
3.3386140244
 30
0.0
 10
7.4066826813
 20
3.3409018704
 30
0.0
 10
7.4089460923
 20
3.3427799368
 30
0.0
 10
7.4115292478
 20
3.3441757964
 30
0.0
 10
7.4143314522
 20
3.3450355066
 30
0.0
 10
7.4162776539
 20
3.3452290815
 30
0.0
 10
7.4172476456
 20
3.3452290815
 30
0.0
  0
SPLINE
  5
28D
100
AcDbEntity
  8
0
100
AcDbSpline
 62
7
  6
CONTINUOUS
 70
0
 71
3
 72
41
 73
37
 74
0
 42
0.0000001
 43
0.0000001
 44
0.0000000001
 40
0.0
 40
0.0
 40
0.0
 40
0.0
 40
0.0953682606
 40
0.1898342906
 40
0.28250958
 40
0.372519885
 40
0.4590197722
 40
0.541200377
 40
0.5804308685
 40
0.6182994219
 40
0.6547191382
 40
0.6896075089
 40
0.7228861819
 40
0.7544814677
 40
0.7843251303
 40
0.8123542981
 40
0.8385125546
 40
0.8508746856
 40
0.8627512076
 40
0.8850277355
 40
0.9053112354
 40
0.923582296
 40
0.9319619175
 40
0.9398387553
 40
0.9472158561
 40
0.9540980956
 40
0.9604931689
 40
0.9664118384
 40
0.9718687712
 40
0.9768842727
 40
0.9814856277
 40
0.9857090812
 40
0.9896027171
 40
0.9932286314
 40
0.9966640354
 40
1.0
 40
1.0
 40
1.0
 40
1.0
 10
5.2632577414
 20
5.2604137209
 30
0.0
 10
5.2692179293
 20
5.2604137209
 30
0.0
 10
5.2810820808
 20
5.2604944537
 30
0.0
 10
5.2987347736
 20
5.2608571431
 30
0.0
 10
5.3160459905
 20
5.2614576204
 30
0.0
 10
5.3328492184
 20
5.2622899431
 30
0.0
 10
5.3489826857
 20
5.263345894
 30
0.0
 10
5.3619328235
 20
5.2644192139
 30
0.0
 10
5.3718400977
 20
5.265388534
 30
0.0
 10
5.3788934452
 20
5.2661531829
 30
0.0
 10
5.3856683135
 20
5.2669648726
 30
0.0
 10
5.3921484125
 20
5.2678216163
 30
0.0
 10
5.3983181654
 20
5.2687213106
 30
0.0
 10
5.4041627476
 20
5.2696617531
 30
0.0
 10
5.4096681432
 20
5.2706405893
 30
0.0
 10
5.4148211393
 20
5.2716554212
 30
0.0
 10
5.4188844339
 20
5.2725449195
 30
0.0
 10
5.4219482094
 20
5.27327568
 30
0.0
 10
5.4247667921
 20
5.273987591
 30
0.0
 10
5.4280476785
 20
5.2748898718
 30
0.0
 10
5.4316776802
 20
5.276022268
 30
0.0
 10
5.4344405323
 20
5.2770109785
 30
0.0
 10
5.436441832
 20
5.2778185839
 30
0.0
 10
5.4377949163
 20
5.2784114213
 30
0.0
 10
5.4390431422
 20
5.2790086034
 30
0.0
 10
5.4401858042
 20
5.2796098436
 30
0.0
 10
5.4412223122
 20
5.2802147877
 30
0.0
 10
5.4421521566
 20
5.2808231309
 30
0.0
 10
5.442974874
 20
5.281434664
 30
0.0
 10
5.4436901041
 20
5.2820492038
 30
0.0
 10
5.4442975277
 20
5.2826666838
 30
0.0
 10
5.4447967085
 20
5.2832872486
 30
0.0
 10
5.4451870477
 20
5.2839110804
 30
0.0
 10
5.4454675986
 20
5.2845384052
 30
0.0
 10
5.4456368962
 20
5.2851687066
 30
0.0
 10
5.4456748292
 20
5.2855927887
 30
0.0
 10
5.4456748292
 20
5.285801275
 30
0.0
  0
LINE
  5
28E
100
AcDbEntity
  8
0
100
AcDbLine
 62
7
  6
CONTINUOUS
 10
7.2782577414
 20
3.5042290815
 11
7.2782612496
 21
3.4892290815
  0
ENDSEC
  0
SECTION
  2
OBJECTS
  0
DICTIONARY
  5
C
100
AcDbDictionary
280
0
281
1
  3
ACAD_GROUP
350
D
  3
ACAD_MLINESTYLE
350
17
  3
ACAD_LAYOUT
350
1A
  3
ACAD_PLOTSETTINGS
350
19
  3
ACAD_PLOTSTYLENAME
350
E
  0
DICTIONARY
  5
D
102
{ACAD_REACTORS
330
C
102
}
100
AcDbDictionary
280
0
281
1
  0
ACDBDICTIONARYWDFLT
  5
E
102
{ACAD_REACTORS
330
C
102
}
100
AcDbDictionary
281
1
  3
Normal
350
F
100
AcDbDictionaryWithDefault
340
F
  0
DICTIONARY
  5
17
102
{ACAD_REACTORS
330
C
102
}
100
AcDbDictionary
280
0
281
1
  3
Standard
350
18
  0
DICTIONARY
  5
19
102
{ACAD_REACTORS
330
C
102
}
100
AcDbDictionary
281
1
  0
DICTIONARY
  5
1A
102
{ACAD_REACTORS
330
C
102
}
100
AcDbDictionary
281
1
  3
Model
350
28F
  3
Layout1
350
290
  0
ACDBPLACEHOLDER
  5
F
102
{ACAD_REACTORS
330
E
102
}
  0
MLINESTYLE
  5
18
102
{ACAD_REACTORS
330
17
102
}
100
AcDbMlineStyle
  2
STANDARD
 70
0
  3

 62
256
 51
90.0
 52
90.0
 71
2
 49
0.5
 62
256
  6
BYLAYER
 49
-0.5
 62
256
  6
BYLAYER
  0
LAYOUT
  5
28F
102
{ACAD_REACTORS
330
1A
102
}
100
AcDbPlotSettings
  1

  2
none_device
  4
ANSI_A_(11.00_x_8.50_Inches)
  6

 40
0.0
 41
0.0
 42
0.0
 43
0.0
 44
279.4
 45
215.9
 46
0.0
 47
0.0
 48
0.0
 49
0.0
140
0.0
141
0.0
142
1.0
143
1.0
 70
1024
 72
0
 73
0
 74
0
  7

 75
0
147
1.0
148
0.0
149
0.0
100
AcDbLayout
  1
Model
 70
0
 71
0
 10
0.0
 20
0.0
 11
11.0
 21
8.5
 12
0.0
 22
0.0
 32
0.0
 14
0.0
 24
0.0
 34
0.0
 15
0.0
 25
0.0
 35
0.0
146
0.0
 13
0.0
 23
0.0
 33
0.0
 16
1.0
 26
0.0
 36
0.0
 17
0.0
 27
1.0
 37
0.0
 76
0
330
202
345
0
346
0
  0
LAYOUT
  5
290
102
{ACAD_REACTORS
330
1A
102
}
100
AcDbPlotSettings
  1

  2
none_device
  4
ANSI_A_(11.00_x_8.50_Inches)
  6

 40
0.0
 41
0.0
 42
0.0
 43
0.0
 44
279.4
 45
215.9
 46
0.0
 47
0.0
 48
0.0
 49
0.0
140
0.0
141
0.0
142
1.0
143
1.0
 70
0
 72
0
 73
0
 74
0
  7

 75
0
147
1.0
148
0.0
149
0.0
100
AcDbLayout
  1
Layout1
 70
0
 71
1
 10
0.0
 20
0.0
 11
11.0
 21
8.5
 12
0.0
 22
0.0
 32
0.0
 14
0.0
 24
0.0
 34
0.0
 15
0.0
 25
0.0
 35
0.0
146
0.0
 13
0.0
 23
0.0
 33
0.0
 16
1.0
 26
0.0
 36
0.0
 17
0.0
 27
1.0
 37
0.0
 76
0
330
203
345
0
346
0
  0
ENDSEC
  0
EOF
