999
DXF file: 3410_front.dxf
999
Pro/ENGINEER 2019352 by Parametric Technology Corporation
  0
SECTION
  2
HEADER
  9
$ACADVER
  1
AC1032
  9
$DWGCODEPAGE
  3
ANSI_1252
  9
$EXTMAX
 10
11.0
 20
8.5
 30
0.0
  9
$EXTMIN
 10
0.0
 20
0.0
 30
0.0
  9
$LIMMIN
 10
0.0
 20
0.0
  9
$LIMMAX
 10
11.0
 20
8.5
  9
$VIEWCTR
 10
5.5
 20
4.25
  9
$VIEWSIZE
 40
8.5
  9
$CLAYER
  8
0
  9
$LTSCALE
 40
0.605
  9
$CELTYPE
  6
BYLAYER
  9
$DIMSCALE
 40
1.0
  9
$DIMASZ
 40
0.1
  9
$DIMEXO
 40
0.0625
  9
$DIMDLI
 40
0.418
  9
$DIMEXE
 40
0.125
  9
$DIMCEN
 40
0.099
  9
$DIMLFAC
 40
1.0
  9
$DIMBLK
  1
_FILLED
  9
$DIMALT
 70
1
  9
$DIMALTD
 70
2
  9
$DIMALTTD
 70
2
  9
$DIMALTF
 40
25.4
  9
$DIMTXT
 40
0.08
  9
$DIMTOL
 70
1
  9
$DIMLIM
 70
0
  9
$DIMTFAC
 40
1.0
  9
$DIMTP
 40
0.001
  9
$DIMTM
 40
0.001
  9
$DIMGAP
 40
0.09
  9
$DIMDSEP
 70
46
  9
$AUNITS
 70
0
  9
$PDMODE
 70
3
  9
$PDSIZE
 40
0.3125
  9
$HANDSEED
  5
2B3
  9
$TILEMODE
 70
1
  9
$MEASUREMENT
 70
0
  9
$INSUNITS
 70
1
  0
ENDSEC
  0
SECTION
  2
CLASSES
  0
CLASS
  1
ACDBDICTIONARYWDFLT
  2
AcDbDictionaryWithDefault
  3
AutoCAD 2000
 90
0
 91
1
280
0
281
0
  0
CLASS
  1
ACDBPLACEHOLDER
  2
AcDbPlaceHolder
  3
AutoCAD 2000
 90
0
 91
1
280
0
281
0
  0
CLASS
  1
LAYOUT
  2
AcDbLayout
  3
AutoCAD 2000
 90
0
 91
0
280
0
281
0
  0
ENDSEC
  0
SECTION
  2
TABLES
  0
TABLE
  2
VPORT
  5
8
100
AcDbSymbolTable
 70
2
  0
VPORT
  5
1F4
100
AcDbSymbolTableRecord
100
AcDbViewportTableRecord
  2
*ACTIVE
 70
0
 10
0.0
 20
0.0
 11
1.0
 21
1.0
 12
5.5
 22
4.25
 13
0.0
 23
0.0
 14
1.0
 24
1.0
 15
0.0
 25
0.0
 16
0.0
 26
0.0
 36
1.0
 17
0.0
 27
0.0
 37
0.0
 40
8.5
 41
1.2941176471
 42
50.0
 43
0.0
 44
0.0
 50
0.0
 51
0.0
 71
0
 72
100
 73
1
 74
1
 75
0
 76
0
 77
0
 78
0
  0
ENDTAB
  0
TABLE
  2
LTYPE
  5
5
100
AcDbSymbolTable
 70
6
  0
LTYPE
  5
14
100
AcDbSymbolTableRecord
100
AcDbLinetypeTableRecord
  2
BYBLOCK
 70
0
  3

 72
65
 73
0
 40
0.0
  0
LTYPE
  5
15
100
AcDbSymbolTableRecord
100
AcDbLinetypeTableRecord
  2
BYLAYER
 70
0
  3

 72
65
 73
0
 40
0.0
  0
LTYPE
  5
16
100
AcDbSymbolTableRecord
100
AcDbLinetypeTableRecord
  2
CONTINUOUS
 70
64
  3
Solid line
 72
65
 73
0
 40
0.0
  0
LTYPE
  5
1F5
100
AcDbSymbolTableRecord
100
AcDbLinetypeTableRecord
  2
CENTER
 70
64
  3
____ _ ____ _ ____ _ ____ _ ____ _ ____ _ ____
 72
65
 73
4
 40
0.6
 49
0.375
 74
0
 49
-0.075
 74
0
 49
0.075
 74
0
 49
-0.075
 74
0
  0
LTYPE
  5
1F6
100
AcDbSymbolTableRecord
100
AcDbLinetypeTableRecord
  2
HIDDEN
 70
64
  3
- - - - - - - - - - - - - - - - - - - -
 72
65
 73
2
 40
0.2
 49
0.1
 74
0
 49
-0.1
 74
0
  0
LTYPE
  5
1F7
100
AcDbSymbolTableRecord
100
AcDbLinetypeTableRecord
  2
PHANTOM
 70
64
  3
_____ _ _ _____ _ _ _____ _ _ _____
 72
65
 73
6
 40
0.8
 49
0.45
 74
0
 49
-0.05
 74
0
 49
0.1
 74
0
 49
-0.05
 74
0
 49
0.1
 74
0
 49
-0.05
 74
0
  0
LTYPE
  5
1F8
100
AcDbSymbolTableRecord
100
AcDbLinetypeTableRecord
  2
DOT
 70
64
  3
. . . . . . . . . . . . . . . . . . . .
 72
65
 73
2
 40
0.2
 49
0.1
 74
0
 49
-0.1
 74
0
  0
LTYPE
  5
1F9
100
AcDbSymbolTableRecord
100
AcDbLinetypeTableRecord
  2
DASHED
 70
64
  3
- - - - - - - - - - - - - - - - - - - -
 72
65
 73
2
 40
0.2
 49
0.1
 74
0
 49
-0.1
 74
0
  0
ENDTAB
  0
TABLE
  2
LAYER
  5
2
100
AcDbSymbolTable
 70
36
  0
LAYER
  5
10
100
AcDbSymbolTableRecord
100
AcDbLayerTableRecord
  2
0
 70
0
 62
7
  6
CONTINUOUS
370
-3
390
F
  0
LAYER
  5
1FA
100
AcDbSymbolTableRecord
100
AcDbLayerTableRecord
  2
DEFAULT_1
 70
0
 62
7
  6
CENTER
370
-3
390
F
  0
LAYER
  5
1FB
100
AcDbSymbolTableRecord
100
AcDbLayerTableRecord
  2
DEFAULT_2
 70
0
 62
8
  6
HIDDEN
370
-3
390
F
  0
LAYER
  5
1FC
100
AcDbSymbolTableRecord
100
AcDbLayerTableRecord
  2
DEFAULT_3
 70
0
 62
7
  6
PHANTOM
370
-3
390
F
  0
LAYER
  5
1FD
100
AcDbSymbolTableRecord
100
AcDbLayerTableRecord
  2
DEFAULT_COORDINATE_SYSTEM
 70
0
 62
7
  6
CONTINUOUS
370
-3
390
F
  0
LAYER
  5
1FE
100
AcDbSymbolTableRecord
100
AcDbLayerTableRecord
  2
DEFAULT_DATUM_AXES
 70
0
 62
7
  6
CONTINUOUS
370
-3
390
F
  0
LAYER
  5
1FF
100
AcDbSymbolTableRecord
100
AcDbLayerTableRecord
  2
DEFAULT_DATUM_PLANES
 70
0
 62
7
  6
CONTINUOUS
370
-3
390
F
  0
ENDTAB
  0
TABLE
  2
STYLE
  5
3
100
AcDbSymbolTable
 70
1
  0
STYLE
  5
11
100
AcDbSymbolTableRecord
100
AcDbTextStyleTableRecord
  2
STANDARD
 70
0
 40
0.0
 41
0.8
 50
0.0
 71
0
 42
0.2
  3
txt
  4

  0
STYLE
  5
200
100
AcDbSymbolTableRecord
100
AcDbTextStyleTableRecord
  2
TEXTSTYLE_1
 70
0
 40
0.0
 41
0.8
 50
0.0
 71
0
 42
0.2
  3
gdt
  4

  0
ENDTAB
  0
TABLE
  2
VIEW
  5
6
100
AcDbSymbolTable
 70
0
  0
ENDTAB
  0
TABLE
  2
UCS
  5
7
100
AcDbSymbolTable
 70
0
  0
ENDTAB
  0
TABLE
  2
APPID
  5
9
100
AcDbSymbolTable
 70
1
  0
APPID
  5
201
100
AcDbSymbolTableRecord
100
AcDbRegAppTableRecord
  2
ACAD
 70
0
  0
ENDTAB
  0
TABLE
  2
BLOCK_RECORD
  5
1
100
AcDbSymbolTable
 70
0
  0
BLOCK_RECORD
  5
202
100
AcDbSymbolTableRecord
100
AcDbBlockTableRecord
  2
*Model_Space
  0
BLOCK_RECORD
  5
203
100
AcDbSymbolTableRecord
100
AcDbBlockTableRecord
  2
*Paper_Space
  0
BLOCK_RECORD
  5
204
100
AcDbSymbolTableRecord
100
AcDbBlockTableRecord
  2
_FILLED
  0
ENDTAB
  0
TABLE
  2
DIMSTYLE
  5
A
100
AcDbSymbolTable
 70
1
100
AcDbDimStyleTable
 71
0
  0
DIMSTYLE
105
205
100
AcDbSymbolTableRecord
100
AcDbDimStyleTableRecord
  2
STANDARD
 70
0
  3

  4

 40
1.0
 41
0.1
 42
0.0625
 43
0.38
 44
0.125
 45
0.0
 46
0.0
 47
0.001
 48
0.001
140
0.08
141
0.09
142
0.0
143
25.4
144
1.0
145
0.0
146
1.0
147
0.09
 71
1.0
 72
0.0
 73
1
 74
1
 75
0
 76
0
 77
0
 78
4
 79
1
170
1
171
2
172
0
173
0
174
0
175
0
176
0
177
0
178
0
270
2
179
3
271
3
272
3
273
2
274
2
275
0
280
0
281
0
282
0
283
1
284
4
285
0
286
0
287
3
288
0
340
11
278
46
341
204
342
204
343
204
344
204
  0
ENDTAB
  0
ENDSEC
  0
SECTION
  2
BLOCKS
  0
BLOCK
  5
20
100
AcDbEntity
  8
0
100
AcDbBlockBegin
  2
*Model_Space
 70
0
 10
0.0
 20
0.0
 30
0.0
  3
*Model_Space
  1

  0
ENDBLK
  5
21
100
AcDbEntity
  8
0
100
AcDbBlockEnd
  0
BLOCK
  5
1C
100
AcDbEntity
  8
0
100
AcDbBlockBegin
  2
*Paper_Space
 70
0
 10
0.0
 20
0.0
 30
0.0
  3
*Paper_Space
  1

  0
ENDBLK
  5
1D
100
AcDbEntity
  8
0
100
AcDbBlockEnd
  0
BLOCK
  5
206
100
AcDbEntity
  8
0
100
AcDbBlockBegin
  2
_FILLED
 70
64
 10
0.0
 20
0.0
  3
_FILLED
  1

  0
SOLID
  5
207
100
AcDbEntity
  8
0
  6
BYBLOCK
 62
0
100
AcDbTrace
 10
0.0
 20
0.0
 11
-1.0
 21
0.2
 12
-1.0
 22
-0.2
 13
-1.0
 23
-0.2
  0
ENDBLK
  5
208
100
AcDbEntity
  8
0
  6
BYBLOCK
 62
0
100
AcDbBlockEnd
  0
ENDSEC
  0
SECTION
  2
ENTITIES
  0
MTEXT
  5
209
100
AcDbEntity
  8
0
100
AcDbMText
 62
2
  6
CONTINUOUS
  7
STANDARD
 71
3
 72
1
 10
5.7753678259
 20
1.5321617557
 30
0.0
 11
1.0
 21
0.0
 31
0.0
 73
2
 44
0.9
  1
SCALE 0.500
 40
0.08
 41
0.704
  0
LINE
  5
20A
100
AcDbEntity
  8
0
100
AcDbLine
 62
7
  6
CONTINUOUS
 10
0.0
 20
0.0
 11
0.0
 21
8.5
  0
LINE
  5
20B
100
AcDbEntity
  8
0
100
AcDbLine
 62
7
  6
CONTINUOUS
 10
0.0
 20
0.0
 11
11.0
 21
0.0
  0
LINE
  5
20C
100
AcDbEntity
  8
0
100
AcDbLine
 62
7
  6
CONTINUOUS
 10
0.0
 20
8.5
 11
11.0
 21
8.5
  0
LINE
  5
20D
100
AcDbEntity
  8
0
100
AcDbLine
 62
7
  6
CONTINUOUS
 10
11.0
 20
0.0
 11
11.0
 21
8.5
  0
LINE
  5
20E
100
AcDbEntity
  8
0
100
AcDbLine
 62
7
  6
CONTINUOUS
 10
2.6642021951
 20
3.2307429813
 11
2.6642021951
 21
3.0417429813
  0
LINE
  5
20F
100
AcDbEntity
  8
0
100
AcDbLine
 62
7
  6
CONTINUOUS
 10
2.7017021951
 20
3.0267429813
 11
2.7017021951
 21
3.2457429813
  0
LINE
  5
210
100
AcDbEntity
  8
0
100
AcDbLine
 62
7
  6
CONTINUOUS
 10
2.9192021951
 20
1.9702429813
 11
2.9192021951
 21
2.0552429813
  0
LINE
  5
211
100
AcDbEntity
  8
0
100
AcDbLine
 62
7
  6
CONTINUOUS
 10
3.2267021951
 20
2.0752429813
 11
3.2267021951
 21
2.8652429813
  0
LINE
  5
212
100
AcDbEntity
  8
0
100
AcDbLine
 62
7
  6
CONTINUOUS
 10
3.2317021951
 20
2.0752429813
 11
3.2317021951
 21
2.0702429813
  0
LINE
  5
213
100
AcDbEntity
  8
0
100
AcDbLine
 62
7
  6
CONTINUOUS
 10
3.2677000087
 20
3.0417429813
 11
3.2677000087
 21
3.2457429813
  0
LINE
  5
214
100
AcDbEntity
  8
0
100
AcDbLine
 62
7
  6
CONTINUOUS
 10
7.9092021951
 20
1.9702429813
 11
6.9192021951
 21
1.9702429813
  0
LINE
  5
215
100
AcDbEntity
  8
0
100
AcDbLine
 62
7
  6
CONTINUOUS
 10
5.8767011268
 20
1.9702429813
 11
4.9517032634
 21
1.9702429813
  0
LINE
  5
216
100
AcDbEntity
  8
0
100
AcDbLine
 62
7
  6
CONTINUOUS
 10
2.9192021951
 20
1.9702429813
 11
3.9092021951
 21
1.9702429813
  0
LINE
  5
217
100
AcDbEntity
  8
0
100
AcDbLine
 62
7
  6
CONTINUOUS
 10
2.9192021951
 20
2.0552429813
 11
3.9092021951
 21
2.0552429813
  0
LINE
  5
218
100
AcDbEntity
  8
0
100
AcDbLine
 62
7
  6
CONTINUOUS
 10
6.9192021951
 20
2.0552429813
 11
7.9092021951
 21
2.0552429813
  0
LINE
  5
219
100
AcDbEntity
  8
0
100
AcDbLine
 62
7
  6
CONTINUOUS
 10
2.9342021951
 20
2.0702429813
 11
3.8942021951
 21
2.0702429813
  0
LINE
  5
21A
100
AcDbEntity
  8
0
100
AcDbLine
 62
7
  6
CONTINUOUS
 10
6.9342021951
 20
2.0702429813
 11
7.8942021951
 21
2.0702429813
  0
LINE
  5
21B
100
AcDbEntity
  8
0
100
AcDbLine
 62
7
  6
CONTINUOUS
 10
3.2267021951
 20
2.0752429813
 11
3.6017021951
 21
2.0752429813
  0
LINE
  5
21C
100
AcDbEntity
  8
0
100
AcDbLine
 62
7
  6
CONTINUOUS
 10
7.2267021951
 20
2.0752429813
 11
7.6017021951
 21
2.0752429813
  0
LINE
  5
21D
100
AcDbEntity
  8
0
100
AcDbLine
 62
7
  6
CONTINUOUS
 10
4.9517021951
 20
2.0852429813
 11
5.8767021951
 21
2.0852429813
  0
LINE
  5
21E
100
AcDbEntity
  8
0
100
AcDbLine
 62
7
  6
CONTINUOUS
 10
4.9617028831
 20
2.0952429813
 11
5.8667015071
 21
2.0952429813
  0
LINE
  5
21F
100
AcDbEntity
  8
0
100
AcDbLine
 62
7
  6
CONTINUOUS
 10
5.1954526354
 20
2.10028869
 11
5.6329517548
 21
2.10028869
  0
LINE
  5
220
100
AcDbEntity
  8
0
100
AcDbLine
 62
7
  6
CONTINUOUS
 10
3.2735771951
 20
2.8907429813
 11
3.2735771951
 21
3.0117429813
  0
LINE
  5
221
100
AcDbEntity
  8
0
100
AcDbLine
 62
7
  6
CONTINUOUS
 10
3.2818207013
 20
3.2307429813
 11
3.2818207013
 21
3.0417429813
  0
LINE
  5
222
100
AcDbEntity
  8
0
100
AcDbLine
 62
7
  6
CONTINUOUS
 10
3.2867021951
 20
2.8802429813
 11
3.2867021951
 21
2.8907429813
  0
LINE
  5
223
100
AcDbEntity
  8
0
100
AcDbLine
 62
7
  6
CONTINUOUS
 10
3.3667624361
 20
3.0417429813
 11
3.3667624361
 21
3.2307429813
  0
LINE
  5
224
100
AcDbEntity
  8
0
100
AcDbLine
 62
7
  6
CONTINUOUS
 10
3.3767021951
 20
3.2307429813
 11
3.3767021951
 21
3.0417429813
  0
LINE
  5
225
100
AcDbEntity
  8
0
100
AcDbLine
 62
7
  6
CONTINUOUS
 10
3.4517021951
 20
3.2307429813
 11
3.4517021951
 21
3.0417429813
  0
LINE
  5
226
100
AcDbEntity
  8
0
100
AcDbLine
 62
7
  6
CONTINUOUS
 10
3.4616419541
 20
3.2307429813
 11
3.4616419541
 21
3.0417429813
  0
LINE
  5
227
100
AcDbEntity
  8
0
100
AcDbLine
 62
7
  6
CONTINUOUS
 10
3.5417021951
 20
2.8802429813
 11
3.5417021951
 21
2.8907429813
  0
LINE
  5
228
100
AcDbEntity
  8
0
100
AcDbLine
 62
7
  6
CONTINUOUS
 10
3.5465836888
 20
3.0417429813
 11
3.5465836888
 21
3.2307429813
  0
LINE
  5
229
100
AcDbEntity
  8
0
100
AcDbLine
 62
7
  6
CONTINUOUS
 10
3.5548271951
 20
2.8907429813
 11
3.5548271951
 21
3.0117429813
  0
LINE
  5
22A
100
AcDbEntity
  8
0
100
AcDbLine
 62
7
  6
CONTINUOUS
 10
3.5607043815
 20
3.0417429813
 11
3.5607043815
 21
3.2457429813
  0
LINE
  5
22B
100
AcDbEntity
  8
0
100
AcDbLine
 62
7
  6
CONTINUOUS
 10
3.5967021951
 20
2.0752429813
 11
3.5967021951
 21
2.0702429813
  0
LINE
  5
22C
100
AcDbEntity
  8
0
100
AcDbLine
 62
7
  6
CONTINUOUS
 10
3.6017021951
 20
2.0752429813
 11
3.6017021951
 21
2.8652429813
  0
LINE
  5
22D
100
AcDbEntity
  8
0
100
AcDbLine
 62
7
  6
CONTINUOUS
 10
3.9092021951
 20
1.9702429813
 11
3.9092021951
 21
2.0552429813
  0
LINE
  5
22E
100
AcDbEntity
  8
0
100
AcDbLine
 62
7
  6
CONTINUOUS
 10
3.2267021951
 20
2.8652429813
 11
3.6017021951
 21
2.8652429813
  0
LINE
  5
22F
100
AcDbEntity
  8
0
100
AcDbLine
 62
7
  6
CONTINUOUS
 10
7.2267021951
 20
2.8652429813
 11
7.6017021951
 21
2.8652429813
  0
LINE
  5
230
100
AcDbEntity
  8
0
100
AcDbLine
 62
7
  6
CONTINUOUS
 10
3.2417021951
 20
2.8802429813
 11
3.5867021951
 21
2.8802429813
  0
LINE
  5
231
100
AcDbEntity
  8
0
100
AcDbLine
 62
7
  6
CONTINUOUS
 10
7.2417021951
 20
2.8802429813
 11
7.5867021951
 21
2.8802429813
  0
LINE
  5
232
100
AcDbEntity
  8
0
100
AcDbLine
 62
7
  6
CONTINUOUS
 10
3.2735771951
 20
2.8907429813
 11
3.5548271951
 21
2.8907429813
  0
LINE
  5
233
100
AcDbEntity
  8
0
100
AcDbLine
 62
7
  6
CONTINUOUS
 10
7.2735771951
 20
2.8907429813
 11
7.5548271951
 21
2.8907429813
  0
LINE
  5
234
100
AcDbEntity
  8
0
100
AcDbLine
 62
7
  6
CONTINUOUS
 10
4.1267021951
 20
3.0267429813
 11
4.1267021951
 21
3.2457429813
  0
LINE
  5
235
100
AcDbEntity
  8
0
100
AcDbLine
 62
7
  6
CONTINUOUS
 10
4.1642021951
 20
3.2307429813
 11
4.1642021951
 21
3.0417429813
  0
LINE
  5
236
100
AcDbEntity
  8
0
100
AcDbLine
 62
7
  6
CONTINUOUS
 10
7.5548271951
 20
3.0117429813
 11
7.553349699
 21
3.0117429813
  0
LINE
  5
237
100
AcDbEntity
  8
0
100
AcDbLine
 62
7
  6
CONTINUOUS
 10
7.4345335204
 20
3.0117429813
 11
7.3938708698
 21
3.0117429813
  0
LINE
  5
238
100
AcDbEntity
  8
0
100
AcDbLine
 62
7
  6
CONTINUOUS
 10
7.2750546912
 20
3.0117429813
 11
7.2735771951
 21
3.0117429813
  0
LINE
  5
239
100
AcDbEntity
  8
0
100
AcDbLine
 62
7
  6
CONTINUOUS
 10
3.5548271951
 20
3.0117429813
 11
3.553349699
 21
3.0117429813
  0
LINE
  5
23A
100
AcDbEntity
  8
0
100
AcDbLine
 62
7
  6
CONTINUOUS
 10
3.4345335204
 20
3.0117429813
 11
3.3938708698
 21
3.0117429813
  0
LINE
  5
23B
100
AcDbEntity
  8
0
100
AcDbLine
 62
7
  6
CONTINUOUS
 10
3.2750546912
 20
3.0117429813
 11
3.2735771951
 21
3.0117429813
  0
LINE
  5
23C
100
AcDbEntity
  8
0
100
AcDbLine
 62
7
  6
CONTINUOUS
 10
8.1492021064
 20
3.0267429813
 11
7.5681920993
 21
3.0267429813
  0
LINE
  5
23D
100
AcDbEntity
  8
0
100
AcDbLine
 62
7
  6
CONTINUOUS
 10
7.4367021951
 20
3.0267429813
 11
7.3917021951
 21
3.0267429813
  0
LINE
  5
23E
100
AcDbEntity
  8
0
100
AcDbLine
 62
7
  6
CONTINUOUS
 10
7.2602122908
 20
3.0267429813
 11
6.6792022838
 21
3.0267429813
  0
LINE
  5
23F
100
AcDbEntity
  8
0
100
AcDbLine
 62
7
  6
CONTINUOUS
 10
4.1492021951
 20
3.0267429813
 11
3.5681920993
 21
3.0267429813
  0
LINE
  5
240
100
AcDbEntity
  8
0
100
AcDbLine
 62
7
  6
CONTINUOUS
 10
3.4367021951
 20
3.0267429813
 11
3.3917021951
 21
3.0267429813
  0
LINE
  5
241
100
AcDbEntity
  8
0
100
AcDbLine
 62
7
  6
CONTINUOUS
 10
3.2602122908
 20
3.0267429813
 11
2.6792021951
 21
3.0267429813
  0
LINE
  5
242
100
AcDbEntity
  8
0
100
AcDbLine
 62
7
  6
CONTINUOUS
 10
2.6642021951
 20
3.0417429813
 11
3.2818207013
 21
3.0417429813
  0
LINE
  5
243
100
AcDbEntity
  8
0
100
AcDbLine
 62
7
  6
CONTINUOUS
 10
3.3667624361
 20
3.0417429813
 11
3.4616419541
 21
3.0417429813
  0
LINE
  5
244
100
AcDbEntity
  8
0
100
AcDbLine
 62
7
  6
CONTINUOUS
 10
3.5465836888
 20
3.0417429813
 11
4.1642021951
 21
3.0417429813
  0
LINE
  5
245
100
AcDbEntity
  8
0
100
AcDbLine
 62
7
  6
CONTINUOUS
 10
6.6642021951
 20
3.0417429813
 11
7.2818207013
 21
3.0417429813
  0
LINE
  5
246
100
AcDbEntity
  8
0
100
AcDbLine
 62
7
  6
CONTINUOUS
 10
7.3667624361
 20
3.0417429813
 11
7.4616419541
 21
3.0417429813
  0
LINE
  5
247
100
AcDbEntity
  8
0
100
AcDbLine
 62
7
  6
CONTINUOUS
 10
7.5465836888
 20
3.0417429813
 11
8.1642021951
 21
3.0417429813
  0
LINE
  5
248
100
AcDbEntity
  8
0
100
AcDbLine
 62
7
  6
CONTINUOUS
 10
2.6642021951
 20
3.2307429813
 11
4.1642021951
 21
3.2307429813
  0
LINE
  5
249
100
AcDbEntity
  8
0
100
AcDbLine
 62
7
  6
CONTINUOUS
 10
6.6642021951
 20
3.2307429813
 11
8.1642021951
 21
3.2307429813
  0
LINE
  5
24A
100
AcDbEntity
  8
0
100
AcDbLine
 62
7
  6
CONTINUOUS
 10
2.6792021951
 20
3.2457429813
 11
4.1492021951
 21
3.2457429813
  0
LINE
  5
24B
100
AcDbEntity
  8
0
100
AcDbLine
 62
7
  6
CONTINUOUS
 10
6.6792021951
 20
3.2457429813
 11
8.1492021064
 21
3.2457429813
  0
LINE
  5
24C
100
AcDbEntity
  8
0
100
AcDbLine
 62
7
  6
CONTINUOUS
 10
4.9517021951
 20
1.9702429813
 11
4.9517021951
 21
2.0852429813
  0
LINE
  5
24D
100
AcDbEntity
  8
0
100
AcDbLine
 62
7
  6
CONTINUOUS
 10
5.1954521951
 20
2.10028869
 11
5.1954521951
 21
6.4735191782
  0
LINE
  5
24E
100
AcDbEntity
  8
0
100
AcDbLine
 62
7
  6
CONTINUOUS
 10
5.3517021951
 20
2.10028869
 11
5.3517021951
 21
2.0952429813
  0
LINE
  5
24F
100
AcDbEntity
  8
0
100
AcDbLine
 62
7
  6
CONTINUOUS
 10
5.3638450522
 20
2.10028869
 11
5.3638450522
 21
2.0952429813
  0
LINE
  5
250
100
AcDbEntity
  8
0
100
AcDbLine
 62
7
  6
CONTINUOUS
 10
5.4645593379
 20
2.10028869
 11
5.4645593379
 21
2.0952429813
  0
LINE
  5
251
100
AcDbEntity
  8
0
100
AcDbLine
 62
7
  6
CONTINUOUS
 10
5.4767021951
 20
2.10028869
 11
5.4767021951
 21
2.0952429813
  0
LINE
  5
252
100
AcDbEntity
  8
0
100
AcDbLine
 62
7
  6
CONTINUOUS
 10
5.6329521951
 20
2.10028869
 11
5.6329521951
 21
6.4735191782
  0
LINE
  5
253
100
AcDbEntity
  8
0
100
AcDbLine
 62
7
  6
CONTINUOUS
 10
5.8767021951
 20
1.9702429813
 11
5.8767021951
 21
2.0852429813
  0
LINE
  5
254
100
AcDbEntity
  8
0
100
AcDbLine
 62
7
  6
CONTINUOUS
 10
6.6642021951
 20
3.2307429813
 11
6.6642021951
 21
3.0417429813
  0
LINE
  5
255
100
AcDbEntity
  8
0
100
AcDbLine
 62
7
  6
CONTINUOUS
 10
6.7017021951
 20
3.0267429813
 11
6.7017021951
 21
3.2457429813
  0
LINE
  5
256
100
AcDbEntity
  8
0
100
AcDbLine
 62
7
  6
CONTINUOUS
 10
6.9192021951
 20
1.9702429813
 11
6.9192021951
 21
2.0552429813
  0
LINE
  5
257
100
AcDbEntity
  8
0
100
AcDbLine
 62
7
  6
CONTINUOUS
 10
7.2267021951
 20
2.0752429813
 11
7.2267021951
 21
2.8652429813
  0
LINE
  5
258
100
AcDbEntity
  8
0
100
AcDbLine
 62
7
  6
CONTINUOUS
 10
7.2317021951
 20
2.0752429813
 11
7.2317021951
 21
2.0702429813
  0
LINE
  5
259
100
AcDbEntity
  8
0
100
AcDbLine
 62
7
  6
CONTINUOUS
 10
7.2677000087
 20
3.0417429813
 11
7.2677000087
 21
3.2457429813
  0
LINE
  5
25A
100
AcDbEntity
  8
0
100
AcDbLine
 62
7
  6
CONTINUOUS
 10
7.2735771951
 20
2.8907429813
 11
7.2735771951
 21
3.0117429813
  0
LINE
  5
25B
100
AcDbEntity
  8
0
100
AcDbLine
 62
7
  6
CONTINUOUS
 10
7.2818207013
 20
3.2307429813
 11
7.2818207013
 21
3.0417429813
  0
LINE
  5
25C
100
AcDbEntity
  8
0
100
AcDbLine
 62
7
  6
CONTINUOUS
 10
7.2867021951
 20
2.8802429813
 11
7.2867021951
 21
2.8907429813
  0
LINE
  5
25D
100
AcDbEntity
  8
0
100
AcDbLine
 62
7
  6
CONTINUOUS
 10
7.3667624361
 20
3.0417429813
 11
7.3667624361
 21
3.2307429813
  0
LINE
  5
25E
100
AcDbEntity
  8
0
100
AcDbLine
 62
7
  6
CONTINUOUS
 10
7.3767021951
 20
3.0417429813
 11
7.3767021951
 21
3.2307429813
  0
LINE
  5
25F
100
AcDbEntity
  8
0
100
AcDbLine
 62
7
  6
CONTINUOUS
 10
7.4517021951
 20
3.0417429813
 11
7.4517021951
 21
3.2307429813
  0
LINE
  5
260
100
AcDbEntity
  8
0
100
AcDbLine
 62
7
  6
CONTINUOUS
 10
7.4616419541
 20
3.2307429813
 11
7.4616419541
 21
3.0417429813
  0
LINE
  5
261
100
AcDbEntity
  8
0
100
AcDbLine
 62
7
  6
CONTINUOUS
 10
7.5417021951
 20
2.8802429813
 11
7.5417021951
 21
2.8907429813
  0
LINE
  5
262
100
AcDbEntity
  8
0
100
AcDbLine
 62
7
  6
CONTINUOUS
 10
7.5465836888
 20
3.0417429813
 11
7.5465836888
 21
3.2307429813
  0
LINE
  5
263
100
AcDbEntity
  8
0
100
AcDbLine
 62
7
  6
CONTINUOUS
 10
7.5548271951
 20
2.8907429813
 11
7.5548271951
 21
3.0117429813
  0
LINE
  5
264
100
AcDbEntity
  8
0
100
AcDbLine
 62
7
  6
CONTINUOUS
 10
7.5607043815
 20
3.2457429813
 11
7.5607043815
 21
3.0417429813
  0
LINE
  5
265
100
AcDbEntity
  8
0
100
AcDbLine
 62
7
  6
CONTINUOUS
 10
7.5967021951
 20
2.0752429813
 11
7.5967021951
 21
2.0702429813
  0
LINE
  5
266
100
AcDbEntity
  8
0
100
AcDbLine
 62
7
  6
CONTINUOUS
 10
7.6017021951
 20
2.0752429813
 11
7.6017021951
 21
2.8652429813
  0
LINE
  5
267
100
AcDbEntity
  8
0
100
AcDbLine
 62
7
  6
CONTINUOUS
 10
7.9092021951
 20
1.9702429813
 11
7.9092021951
 21
2.0552429813
  0
LINE
  5
268
100
AcDbEntity
  8
0
100
AcDbLine
 62
7
  6
CONTINUOUS
 10
8.1267021951
 20
3.0267429813
 11
8.1267021951
 21
3.2457429813
  0
LINE
  5
269
100
AcDbEntity
  8
0
100
AcDbLine
 62
7
  6
CONTINUOUS
 10
8.1642021951
 20
3.2307429813
 11
8.1642021951
 21
3.0417429813
  0
ARC
  5
26A
100
AcDbEntity
  8
0
100
AcDbCircle
 62
7
  6
CONTINUOUS
 10
5.4142021951
 20
6.4735191782
 40
0.21875
100
AcDbArc
 50
0.0
 51
180.0
  0
ARC
  5
26B
100
AcDbEntity
  8
0
100
AcDbCircle
 62
7
  6
CONTINUOUS
 10
6.6792021951
 20
3.0417429813
 40
0.015
100
AcDbArc
 50
180.0
 51
270.0
  0
ARC
  5
26C
100
AcDbEntity
  8
0
100
AcDbCircle
 62
7
  6
CONTINUOUS
 10
7.569827195
 20
3.0117429813
 40
0.015
100
AcDbArc
 50
92.5
 51
180.0
  0
ARC
  5
26D
100
AcDbEntity
  8
0
100
AcDbCircle
 62
7
  6
CONTINUOUS
 10
7.2585771951
 20
3.0117429813
 40
0.015
100
AcDbArc
 50
0.0
 51
87.5
  0
ARC
  5
26E
100
AcDbEntity
  8
0
100
AcDbCircle
 62
7
  6
CONTINUOUS
 10
6.6792021951
 20
3.2307429813
 40
0.015
100
AcDbArc
 50
90.0
 51
180.0
  0
ARC
  5
26F
100
AcDbEntity
  8
0
100
AcDbCircle
 62
7
  6
CONTINUOUS
 10
8.1492021951
 20
3.2307429813
 40
0.015
100
AcDbArc
 50
0.0
 51
90.0
  0
ARC
  5
270
100
AcDbEntity
  8
0
100
AcDbCircle
 62
7
  6
CONTINUOUS
 10
8.1492021951
 20
3.0417429813
 40
0.015
100
AcDbArc
 50
270.0
 51
360.0
  0
ARC
  5
271
100
AcDbEntity
  8
0
100
AcDbCircle
 62
7
  6
CONTINUOUS
 10
3.8942021951
 20
2.0552429813
 40
0.015
100
AcDbArc
 50
0.0
 51
90.0
  0
ARC
  5
272
100
AcDbEntity
  8
0
100
AcDbCircle
 62
7
  6
CONTINUOUS
 10
2.9342021951
 20
2.0552429813
 40
0.015
100
AcDbArc
 50
90.0
 51
180.0
  0
ARC
  5
273
100
AcDbEntity
  8
0
100
AcDbCircle
 62
7
  6
CONTINUOUS
 10
3.2417021951
 20
2.8652429813
 40
0.015
100
AcDbArc
 50
90.0
 51
180.0
  0
ARC
  5
274
100
AcDbEntity
  8
0
100
AcDbCircle
 62
7
  6
CONTINUOUS
 10
3.5867021951
 20
2.8652429813
 40
0.015
100
AcDbArc
 50
0.0
 51
90.0
  0
ARC
  5
275
100
AcDbEntity
  8
0
100
AcDbCircle
 62
7
  6
CONTINUOUS
 10
4.1492021951
 20
3.0417429813
 40
0.015
100
AcDbArc
 50
270.0
 51
360.0
  0
ARC
  5
276
100
AcDbEntity
  8
0
100
AcDbCircle
 62
7
  6
CONTINUOUS
 10
3.2585771951
 20
3.0117429813
 40
0.015
100
AcDbArc
 50
0.0
 51
87.5
  0
ARC
  5
277
100
AcDbEntity
  8
0
100
AcDbCircle
 62
7
  6
CONTINUOUS
 10
3.569827195
 20
3.0117429813
 40
0.015
100
AcDbArc
 50
92.5
 51
180.0
  0
ARC
  5
278
100
AcDbEntity
  8
0
100
AcDbCircle
 62
7
  6
CONTINUOUS
 10
4.1492021951
 20
3.2307429813
 40
0.015
100
AcDbArc
 50
0.0
 51
90.0
  0
ARC
  5
279
100
AcDbEntity
  8
0
100
AcDbCircle
 62
7
  6
CONTINUOUS
 10
2.6792021951
 20
3.2307429813
 40
0.015
100
AcDbArc
 50
90.0
 51
180.0
  0
ARC
  5
27A
100
AcDbEntity
  8
0
100
AcDbCircle
 62
7
  6
CONTINUOUS
 10
2.6792021951
 20
3.0417429813
 40
0.015
100
AcDbArc
 50
180.0
 51
270.0
  0
ARC
  5
27B
100
AcDbEntity
  8
0
100
AcDbCircle
 62
7
  6
CONTINUOUS
 10
3.4367021951
 20
3.2307429813
 40
0.015
100
AcDbArc
 50
0.0
 51
90.0
  0
ARC
  5
27C
100
AcDbEntity
  8
0
100
AcDbCircle
 62
7
  6
CONTINUOUS
 10
3.3917021951
 20
3.2307429813
 40
0.015
100
AcDbArc
 50
90.0
 51
180.0
  0
ARC
  5
27D
100
AcDbEntity
  8
0
100
AcDbCircle
 62
7
  6
CONTINUOUS
 10
3.4367021951
 20
3.0417429813
 40
0.015
100
AcDbArc
 50
270.0
 51
360.0
  0
ARC
  5
27E
100
AcDbEntity
  8
0
100
AcDbCircle
 62
7
  6
CONTINUOUS
 10
3.3917021951
 20
3.0417429813
 40
0.015
100
AcDbArc
 50
180.0
 51
270.0
  0
ARC
  5
27F
100
AcDbEntity
  8
0
100
AcDbCircle
 62
7
  6
CONTINUOUS
 10
6.9342021951
 20
2.0552429813
 40
0.015
100
AcDbArc
 50
90.0
 51
180.0
  0
ARC
  5
280
100
AcDbEntity
  8
0
100
AcDbCircle
 62
7
  6
CONTINUOUS
 10
7.8942021951
 20
2.0552429813
 40
0.015
100
AcDbArc
 50
0.0
 51
90.0
  0
ARC
  5
281
100
AcDbEntity
  8
0
100
AcDbCircle
 62
7
  6
CONTINUOUS
 10
7.5867021951
 20
2.8652429813
 40
0.015
100
AcDbArc
 50
0.0
 51
90.0
  0
ARC
  5
282
100
AcDbEntity
  8
0
100
AcDbCircle
 62
7
  6
CONTINUOUS
 10
7.2417021951
 20
2.8652429813
 40
0.015
100
AcDbArc
 50
90.0
 51
180.0
  0
ARC
  5
283
100
AcDbEntity
  8
0
100
AcDbCircle
 62
7
  6
CONTINUOUS
 10
7.3917021951
 20
3.0417429813
 40
0.015
100
AcDbArc
 50
180.0
 51
270.0
  0
ARC
  5
284
100
AcDbEntity
  8
0
100
AcDbCircle
 62
7
  6
CONTINUOUS
 10
7.4367021951
 20
3.0417429813
 40
0.015
100
AcDbArc
 50
270.0
 51
360.0
  0
ARC
  5
285
100
AcDbEntity
  8
0
100
AcDbCircle
 62
7
  6
CONTINUOUS
 10
7.4367021951
 20
3.2307429813
 40
0.015
100
AcDbArc
 50
0.0
 51
90.0
  0
ARC
  5
286
100
AcDbEntity
  8
0
100
AcDbCircle
 62
7
  6
CONTINUOUS
 10
7.3917021951
 20
3.2307429813
 40
0.015
100
AcDbArc
 50
90.0
 51
180.0
  0
ARC
  5
287
100
AcDbEntity
  8
0
100
AcDbCircle
 62
7
  6
CONTINUOUS
 10
4.9617021951
 20
2.0852429813
 40
0.01
100
AcDbArc
 50
90.0
 51
180.0
  0
ARC
  5
288
100
AcDbEntity
  8
0
100
AcDbCircle
 62
7
  6
CONTINUOUS
 10
5.8667021951
 20
2.0852429813
 40
0.01
100
AcDbArc
 50
0.0
 51
90.0
  0
SPLINE
  5
289
100
AcDbEntity
  8
0
100
AcDbSpline
 62
7
  6
CONTINUOUS
 70
0
 71
3
 72
42
 73
38
 74
0
 42
0.0000001
 43
0.0000001
 44
0.0000000001
 40
0.0
 40
0.0
 40
0.0
 40
0.0
 40
0.0953680732
 40
0.1898341282
 40
0.2825092095
 40
0.3725194027
 40
0.4590192092
 40
0.5411997326
 40
0.5804301575
 40
0.6182985994
 40
0.6547183635
 40
0.6896066596
 40
0.7228852351
 40
0.7544805785
 40
0.784324142
 40
0.8123532549
 40
0.8385115668
 40
0.8508735952
 40
0.8627501081
 40
0.8850266101
 40
0.9053101573
 40
0.9146983893
 40
0.9235823606
 40
0.9319620418
 40
0.9398388218
 40
0.9472158919
 40
0.9540981833
 40
0.9604932166
 40
0.966411856
 40
0.9718688245
 40
0.9768843038
 40
0.9814856366
 40
0.9857091055
 40
0.9896027332
 40
0.9932286365
 40
0.9966640392
 40
1.0
 40
1.0
 40
1.0
 40
1.0
 10
5.4142021951
 20
5.011871059
 30
0.0
 10
5.4213494973
 20
5.011871059
 30
0.0
 10
5.4355766948
 20
5.0119678728
 30
0.0
 10
5.4567453585
 20
5.0124027977
 30
0.0
 10
5.477504538
 20
5.013122876
 30
0.0
 10
5.4976545409
 20
5.0141209805
 30
0.0
 10
5.5170013928
 20
5.0153872454
 30
0.0
 10
5.5325308746
 20
5.0166743436
 30
0.0
 10
5.544411424
 20
5.0178367273
 30
0.0
 10
5.5528696207
 20
5.0187536834
 30
0.0
 10
5.5609938735
 20
5.0197270297
 30
0.0
 10
5.5687646451
 20
5.02075442
 30
0.0
 10
5.5761632571
 20
5.0218333178
 30
0.0
 10
5.5831719335
 20
5.0229610593
 30
0.0
 10
5.5897738655
 20
5.0241348631
 30
0.0
 10
5.5959532071
 20
5.0253518304
 30
0.0
 10
5.6008258121
 20
5.0264184762
 30
0.0
 10
5.604499808
 20
5.0272948019
 30
0.0
 10
5.6078797897
 20
5.028148496
 30
0.0
 10
5.6118140619
 20
5.0292305366
 30
0.0
 10
5.6155317096
 20
5.0303900446
 30
0.0
 10
5.6182614967
 20
5.0313381715
 30
0.0
 10
5.6201327668
 20
5.0320373171
 30
0.0
 10
5.6218801994
 20
5.0327425393
 30
0.0
 10
5.623502784
 20
5.0334534459
 30
0.0
 10
5.6249996207
 20
5.0341695813
 30
0.0
 10
5.6263698801
 20
5.034890559
 30
0.0
 10
5.627612831
 20
5.0356160001
 30
0.0
 10
5.6287278716
 20
5.0363455159
 30
0.0
 10
5.6297144626
 20
5.0370788394
 30
0.0
 10
5.6305721459
 20
5.0378157851
 30
0.0
 10
5.6313005462
 20
5.0385562563
 30
0.0
 10
5.6318991602
 20
5.0393004147
 30
0.0
 10
5.6323672435
 20
5.0400485008
 30
0.0
 10
5.6327036673
 20
5.0408007745
 30
0.0
 10
5.6329066893
 20
5.0415566144
 30
0.0
 10
5.6329521787
 20
5.0420651633
 30
0.0
 10
5.6329521787
 20
5.0423151748
 30
0.0
  0
SPLINE
  5
28A
100
AcDbEntity
  8
0
100
AcDbSpline
 62
7
  6
CONTINUOUS
 70
0
 71
3
 72
41
 73
37
 74
0
 42
0.0000001
 43
0.0000001
 44
0.0000000001
 40
0.0
 40
0.0
 40
0.0
 40
0.0
 40
0.0953682606
 40
0.1898342906
 40
0.28250958
 40
0.372519885
 40
0.4590197722
 40
0.541200377
 40
0.5804308685
 40
0.6182994219
 40
0.6547191382
 40
0.6896075089
 40
0.7228861819
 40
0.7544814677
 40
0.7843251303
 40
0.8123542981
 40
0.8385125546
 40
0.8508746856
 40
0.8627512076
 40
0.8850277355
 40
0.9053112354
 40
0.923582296
 40
0.9319619175
 40
0.9398387553
 40
0.9472158561
 40
0.9540980956
 40
0.9604931689
 40
0.9664118384
 40
0.9718687712
 40
0.9768842727
 40
0.9814856277
 40
0.9857090812
 40
0.9896027171
 40
0.9932286314
 40
0.9966640354
 40
1.0
 40
1.0
 40
1.0
 40
1.0
 10
5.4142021951
 20
5.0677027289
 30
0.0
 10
5.4082420072
 20
5.0677027289
 30
0.0
 10
5.3963778557
 20
5.0676219961
 30
0.0
 10
5.3787251628
 20
5.0672593067
 30
0.0
 10
5.3614139459
 20
5.0666588294
 30
0.0
 10
5.3446107181
 20
5.0658265067
 30
0.0
 10
5.3284772508
 20
5.0647705558
 30
0.0
 10
5.315527113
 20
5.0636972359
 30
0.0
 10
5.3056198388
 20
5.0627279158
 30
0.0
 10
5.2985664913
 20
5.0619632669
 30
0.0
 10
5.291791623
 20
5.0611515772
 30
0.0
 10
5.2853115239
 20
5.0602948335
 30
0.0
 10
5.2791417711
 20
5.0593951392
 30
0.0
 10
5.2732971889
 20
5.0584546967
 30
0.0
 10
5.2677917932
 20
5.0574758605
 30
0.0
 10
5.2626387972
 20
5.0564610286
 30
0.0
 10
5.2585755025
 20
5.0555715303
 30
0.0
 10
5.2555117271
 20
5.0548407698
 30
0.0
 10
5.2526931443
 20
5.0541288588
 30
0.0
 10
5.2494122579
 20
5.053226578
 30
0.0
 10
5.2457822562
 20
5.0520941818
 30
0.0
 10
5.2430194042
 20
5.0511054713
 30
0.0
 10
5.2410181045
 20
5.0502978659
 30
0.0
 10
5.2396650202
 20
5.0497050286
 30
0.0
 10
5.2384167942
 20
5.0491078464
 30
0.0
 10
5.2372741322
 20
5.0485066062
 30
0.0
 10
5.2362376243
 20
5.0479016621
 30
0.0
 10
5.2353077798
 20
5.0472933189
 30
0.0
 10
5.2344850624
 20
5.0466817858
 30
0.0
 10
5.2337698323
 20
5.046067246
 30
0.0
 10
5.2331624087
 20
5.045449766
 30
0.0
 10
5.2326632279
 20
5.0448292012
 30
0.0
 10
5.2322728888
 20
5.0442053694
 30
0.0
 10
5.2319923379
 20
5.0435780446
 30
0.0
 10
5.2318230403
 20
5.0429477432
 30
0.0
 10
5.2317851072
 20
5.0425236611
 30
0.0
 10
5.2317851072
 20
5.0423151748
 30
0.0
  0
SPLINE
  5
28B
100
AcDbEntity
  8
0
100
AcDbSpline
 62
7
  6
CONTINUOUS
 70
0
 71
3
 72
41
 73
37
 74
0
 42
0.0000001
 43
0.0000001
 44
0.0000000001
 40
0.0
 40
0.0
 40
0.0
 40
0.0
 40
0.0033359646
 40
0.0067713686
 40
0.0103972829
 40
0.0142909188
 40
0.0185143723
 40
0.0231157273
 40
0.0281312288
 40
0.0335881616
 40
0.0395068311
 40
0.0459019044
 40
0.0527841439
 40
0.0601612447
 40
0.0680380825
 40
0.076417704
 40
0.0946887646
 40
0.1149722645
 40
0.1372487924
 40
0.1491253144
 40
0.1614874454
 40
0.1876457019
 40
0.2156748697
 40
0.2455185323
 40
0.2771138181
 40
0.3103924911
 40
0.3452808618
 40
0.3817005781
 40
0.4195691315
 40
0.458799623
 40
0.5409802278
 40
0.627480115
 40
0.71749042
 40
0.8101657094
 40
0.9046317394
 40
1.0
 40
1.0
 40
1.0
 40
1.0
 10
5.596619283
 20
5.0423151748
 30
0.0
 10
5.596619283
 20
5.0425236611
 30
0.0
 10
5.5965813499
 20
5.0429477432
 30
0.0
 10
5.5964120523
 20
5.0435780446
 30
0.0
 10
5.5961315014
 20
5.0442053694
 30
0.0
 10
5.5957411623
 20
5.0448292012
 30
0.0
 10
5.5952419815
 20
5.045449766
 30
0.0
 10
5.5946345578
 20
5.046067246
 30
0.0
 10
5.5939193278
 20
5.0466817858
 30
0.0
 10
5.5930966104
 20
5.0472933189
 30
0.0
 10
5.5921667659
 20
5.0479016621
 30
0.0
 10
5.591130258
 20
5.0485066062
 30
0.0
 10
5.5899875959
 20
5.0491078464
 30
0.0
 10
5.58873937
 20
5.0497050286
 30
0.0
 10
5.5873862857
 20
5.0502978659
 30
0.0
 10
5.585384986
 20
5.0511054713
 30
0.0
 10
5.5826221339
 20
5.0520941818
 30
0.0
 10
5.5789921323
 20
5.053226578
 30
0.0
 10
5.5757112459
 20
5.0541288588
 30
0.0
 10
5.5728926631
 20
5.0548407698
 30
0.0
 10
5.5698288876
 20
5.0555715303
 30
0.0
 10
5.565765593
 20
5.0564610286
 30
0.0
 10
5.560612597
 20
5.0574758605
 30
0.0
 10
5.5551072013
 20
5.0584546967
 30
0.0
 10
5.5492626191
 20
5.0593951392
 30
0.0
 10
5.5430928663
 20
5.0602948335
 30
0.0
 10
5.5366127672
 20
5.0611515772
 30
0.0
 10
5.5298378989
 20
5.0619632669
 30
0.0
 10
5.5227845514
 20
5.0627279158
 30
0.0
 10
5.5128772772
 20
5.0636972359
 30
0.0
 10
5.4999271394
 20
5.0647705558
 30
0.0
 10
5.4837936721
 20
5.0658265067
 30
0.0
 10
5.4669904442
 20
5.0666588294
 30
0.0
 10
5.4496792274
 20
5.0672593067
 30
0.0
 10
5.4320265345
 20
5.0676219961
 30
0.0
 10
5.420162383
 20
5.0677027289
 30
0.0
 10
5.4142021951
 20
5.0677027289
 30
0.0
  0
SPLINE
  5
28C
100
AcDbEntity
  8
0
100
AcDbSpline
 62
7
  6
CONTINUOUS
 70
0
 71
3
 72
42
 73
38
 74
0
 42
0.0000001
 43
0.0000001
 44
0.0000000001
 40
0.0
 40
0.0
 40
0.0
 40
0.0
 40
0.0033359608
 40
0.0067713635
 40
0.0103972668
 40
0.0142908945
 40
0.0185143634
 40
0.0231156962
 40
0.0281311755
 40
0.033588144
 40
0.0395067834
 40
0.0459018167
 40
0.0527841081
 40
0.0601611782
 40
0.0680379582
 40
0.0764176394
 40
0.0853016107
 40
0.0946898427
 40
0.1149733899
 40
0.1372498919
 40
0.1491264048
 40
0.1614884332
 40
0.1876467451
 40
0.215675858
 40
0.2455194215
 40
0.2771147649
 40
0.3103933404
 40
0.3452816365
 40
0.3817014006
 40
0.4195698425
 40
0.4588002674
 40
0.5409807908
 40
0.6274805973
 40
0.7174907905
 40
0.8101658718
 40
0.9046319268
 40
1.0
 40
1.0
 40
1.0
 40
1.0
 10
5.1954522115
 20
5.0423151748
 30
0.0
 10
5.1954522115
 20
5.0420651633
 30
0.0
 10
5.1954977009
 20
5.0415566144
 30
0.0
 10
5.1957007229
 20
5.0408007745
 30
0.0
 10
5.1960371466
 20
5.0400485008
 30
0.0
 10
5.19650523
 20
5.0393004147
 30
0.0
 10
5.197103844
 20
5.0385562563
 30
0.0
 10
5.1978322443
 20
5.0378157851
 30
0.0
 10
5.1986899276
 20
5.0370788394
 30
0.0
 10
5.1996765185
 20
5.0363455159
 30
0.0
 10
5.2007915592
 20
5.0356160001
 30
0.0
 10
5.2020345101
 20
5.034890559
 30
0.0
 10
5.2034047695
 20
5.0341695813
 30
0.0
 10
5.2049016062
 20
5.0334534459
 30
0.0
 10
5.2065241907
 20
5.0327425393
 30
0.0
 10
5.2082716234
 20
5.0320373171
 30
0.0
 10
5.2101428935
 20
5.0313381715
 30
0.0
 10
5.2128726806
 20
5.0303900446
 30
0.0
 10
5.2165903283
 20
5.0292305366
 30
0.0
 10
5.2205246005
 20
5.028148496
 30
0.0
 10
5.2239045822
 20
5.0272948019
 30
0.0
 10
5.2275785781
 20
5.0264184762
 30
0.0
 10
5.2324511831
 20
5.0253518304
 30
0.0
 10
5.2386305247
 20
5.0241348631
 30
0.0
 10
5.2452324567
 20
5.0229610593
 30
0.0
 10
5.2522411331
 20
5.0218333178
 30
0.0
 10
5.2596397451
 20
5.02075442
 30
0.0
 10
5.2674105167
 20
5.0197270297
 30
0.0
 10
5.2755347695
 20
5.0187536834
 30
0.0
 10
5.2839929662
 20
5.0178367273
 30
0.0
 10
5.2958735156
 20
5.0166743436
 30
0.0
 10
5.3114029973
 20
5.0153872454
 30
0.0
 10
5.3307498493
 20
5.0141209805
 30
0.0
 10
5.3508998522
 20
5.013122876
 30
0.0
 10
5.3716590316
 20
5.0124027977
 30
0.0
 10
5.3928276954
 20
5.0119678728
 30
0.0
 10
5.4070548929
 20
5.011871059
 30
0.0
 10
5.4142021951
 20
5.011871059
 30
0.0
  0
SPLINE
  5
28D
100
AcDbEntity
  8
0
100
AcDbSpline
 62
7
  6
CONTINUOUS
 70
0
 71
3
 72
23
 73
19
 74
0
 42
0.0000001
 43
0.0000001
 44
0.0000000001
 40
0.0
 40
0.0
 40
0.0
 40
0.0
 40
0.0633065853
 40
0.1265614758
 40
0.1897001725
 40
0.2526859686
 40
0.3154869978
 40
0.3780904778
 40
0.4404996845
 40
0.5027358011
 40
0.5648328977
 40
0.6268396043
 40
0.6888103688
 40
0.7508051374
 40
0.812880159
 40
0.8750834667
 40
0.9374509003
 40
1.0
 40
1.0
 40
1.0
 40
1.0
 10
3.4616419541
 20
3.0417429813
 30
0.0
 10
3.461641885
 20
3.0407962733
 30
0.0
 10
3.461559172
 20
3.0389026883
 30
0.0
 10
3.4611954792
 20
3.0360860001
 30
0.0
 10
3.4605927997
 20
3.0333151472
 30
0.0
 10
3.4597522125
 20
3.0306140021
 30
0.0
 10
3.4586786887
 20
3.0280052903
 30
0.0
 10
3.4573805329
 20
3.0255103346
 30
0.0
 10
3.455863043
 20
3.0231521862
 30
0.0
 10
3.4541358852
 20
3.0209523886
 30
0.0
 10
3.452208727
 20
3.0189334836
 30
0.0
 10
3.4500939928
 20
3.017117722
 30
0.0
 10
3.4478063433
 20
3.0155274795
 30
0.0
 10
3.4453632781
 20
3.0141855225
 30
0.0
 10
3.4427867573
 20
3.0131122852
 30
0.0
 10
3.4401015771
 20
3.0123289628
 30
0.0
 10
3.4373386234
 20
3.0118515656
 30
0.0
 10
3.4354689008
 20
3.0117430855
 30
0.0
 10
3.4345335204
 20
3.0117429813
 30
0.0
  0
SPLINE
  5
28E
100
AcDbEntity
  8
0
100
AcDbSpline
 62
7
  6
CONTINUOUS
 70
0
 71
3
 72
23
 73
19
 74
0
 42
0.0000001
 43
0.0000001
 44
0.0000000001
 40
0.0
 40
0.0
 40
0.0
 40
0.0
 40
0.0625493103
 40
0.124916765
 40
0.1871201747
 40
0.2491949912
 40
0.3111896796
 40
0.3731607935
 40
0.435167208
 40
0.4972646406
 40
0.5595003758
 40
0.6219099177
 40
0.6845134228
 40
0.7473141716
 40
0.8103003848
 40
0.8734379417
 40
0.9366932579
 40
1.0
 40
1.0
 40
1.0
 40
1.0
 10
3.3938708698
 20
3.0117429813
 30
0.0
 10
3.3929354799
 20
3.0117440485
 30
0.0
 10
3.3910656183
 20
3.0118493375
 30
0.0
 10
3.3883028168
 20
3.0123289578
 30
0.0
 10
3.3856178536
 20
3.0131126092
 30
0.0
 10
3.3830410629
 20
3.0141853194
 30
0.0
 10
3.3805981046
 20
3.0155275305
 30
0.0
 10
3.3783103463
 20
3.0171176316
 30
0.0
 10
3.37619559
 20
3.0189334263
 30
0.0
 10
3.3742684843
 20
3.0209523892
 30
0.0
 10
3.3725411788
 20
3.0231521183
 30
0.0
 10
3.3710239628
 20
3.0255104479
 30
0.0
 10
3.369725269
 20
3.0280051651
 30
0.0
 10
3.3686525753
 20
3.0306142515
 30
0.0
 10
3.3678113325
 20
3.0333151434
 30
0.0
 10
3.3672076278
 20
3.0360858235
 30
0.0
 10
3.3668445981
 20
3.0389026505
 30
0.0
 10
3.3667624662
 20
3.0407962639
 30
0.0
 10
3.3667624361
 20
3.0417429813
 30
0.0
  0
SPLINE
  5
28F
100
AcDbEntity
  8
0
100
AcDbSpline
 62
7
  6
CONTINUOUS
 70
0
 71
3
 72
42
 73
38
 74
0
 42
0.0000001
 43
0.0000001
 44
0.0000000001
 40
0.0
 40
0.0
 40
0.0
 40
0.0
 40
0.0033359608
 40
0.0067713635
 40
0.0103972668
 40
0.0142908945
 40
0.0185143634
 40
0.0231156962
 40
0.0281311755
 40
0.033588144
 40
0.0395067834
 40
0.0459018167
 40
0.0527841081
 40
0.0601611782
 40
0.0680379582
 40
0.0764176394
 40
0.0853016107
 40
0.0946898427
 40
0.1149733899
 40
0.1372498919
 40
0.1491264048
 40
0.1614884332
 40
0.1876467451
 40
0.215675858
 40
0.2455194215
 40
0.2771147649
 40
0.3103933404
 40
0.3452816365
 40
0.3817014006
 40
0.4195698425
 40
0.4588002674
 40
0.5409807908
 40
0.6274805973
 40
0.7174907905
 40
0.8101658718
 40
0.9046319268
 40
1.0
 40
1.0
 40
1.0
 40
1.0
 10
5.6329521787
 20
5.0423151748
 30
0.0
 10
5.6329521787
 20
5.0425651864
 30
0.0
 10
5.6329066893
 20
5.0430737353
 30
0.0
 10
5.6327036673
 20
5.0438295752
 30
0.0
 10
5.6323672435
 20
5.0445818488
 30
0.0
 10
5.6318991602
 20
5.0453299349
 30
0.0
 10
5.6313005462
 20
5.0460740934
 30
0.0
 10
5.6305721459
 20
5.0468145646
 30
0.0
 10
5.6297144626
 20
5.0475515103
 30
0.0
 10
5.6287278716
 20
5.0482848338
 30
0.0
 10
5.627612831
 20
5.0490143496
 30
0.0
 10
5.6263698801
 20
5.0497397907
 30
0.0
 10
5.6249996207
 20
5.0504607683
 30
0.0
 10
5.623502784
 20
5.0511769038
 30
0.0
 10
5.6218801994
 20
5.0518878104
 30
0.0
 10
5.6201327668
 20
5.0525930325
 30
0.0
 10
5.6182614967
 20
5.0532921782
 30
0.0
 10
5.6155317096
 20
5.0542403051
 30
0.0
 10
5.6118140619
 20
5.0553998131
 30
0.0
 10
5.6078797897
 20
5.0564818537
 30
0.0
 10
5.604499808
 20
5.0573355478
 30
0.0
 10
5.6008258121
 20
5.0582118735
 30
0.0
 10
5.5959532071
 20
5.0592785193
 30
0.0
 10
5.5897738655
 20
5.0604954866
 30
0.0
 10
5.5831719335
 20
5.0616692904
 30
0.0
 10
5.5761632571
 20
5.0627970318
 30
0.0
 10
5.5687646451
 20
5.0638759296
 30
0.0
 10
5.5609938735
 20
5.06490332
 30
0.0
 10
5.5528696207
 20
5.0658766662
 30
0.0
 10
5.544411424
 20
5.0667936224
 30
0.0
 10
5.5325308746
 20
5.0679560061
 30
0.0
 10
5.5170013928
 20
5.0692431042
 30
0.0
 10
5.4976545409
 20
5.0705093691
 30
0.0
 10
5.477504538
 20
5.0715074736
 30
0.0
 10
5.4567453585
 20
5.072227552
 30
0.0
 10
5.4355766948
 20
5.0726624768
 30
0.0
 10
5.4213494973
 20
5.0727592907
 30
0.0
 10
5.4142021951
 20
5.0727592907
 30
0.0
  0
SPLINE
  5
290
100
AcDbEntity
  8
0
100
AcDbSpline
 62
7
  6
CONTINUOUS
 70
0
 71
3
 72
42
 73
38
 74
0
 42
0.0000001
 43
0.0000001
 44
0.0000000001
 40
0.0
 40
0.0
 40
0.0
 40
0.0
 40
0.003335959
 40
0.0067713607
 40
0.0103972636
 40
0.0142908919
 40
0.0185143631
 40
0.0231156992
 40
0.0281311807
 40
0.0335881489
 40
0.0395067862
 40
0.0459018162
 40
0.0527841037
 40
0.0601611701
 40
0.0680379494
 40
0.0764176349
 40
0.0853016131
 40
0.0946898511
 40
0.1149733989
 40
0.1372498891
 40
0.1491263948
 40
0.1614884198
 40
0.187646743
 40
0.2156758701
 40
0.245519433
 40
0.2771147598
 40
0.3103933253
 40
0.3452816303
 40
0.381701414
 40
0.4195698571
 40
0.458800261
 40
0.5409807839
 40
0.6274806128
 40
0.7174907664
 40
0.8101658949
 40
0.9046319133
 40
1.0
 40
1.0
 40
1.0
 40
1.0
 10
5.6329521788
 20
5.289882192
 30
0.0
 10
5.6329521788
 20
5.2901322034
 30
0.0
 10
5.6329066894
 20
5.2906407521
 30
0.0
 10
5.6327036674
 20
5.2913965917
 30
0.0
 10
5.6323672439
 20
5.2921488654
 30
0.0
 10
5.6318991606
 20
5.2928969518
 30
0.0
 10
5.6313005461
 20
5.2936411105
 30
0.0
 10
5.6305721453
 20
5.2943815821
 30
0.0
 10
5.6297144617
 20
5.295118528
 30
0.0
 10
5.6287278709
 20
5.2958518516
 30
0.0
 10
5.6276128306
 20
5.2965813671
 30
0.0
 10
5.6263698802
 20
5.2973068078
 30
0.0
 10
5.6249996215
 20
5.2980277851
 30
0.0
 10
5.6235027855
 20
5.2987439204
 30
0.0
 10
5.6218802009
 20
5.299454827
 30
0.0
 10
5.6201327675
 20
5.3001600494
 30
0.0
 10
5.6182614962
 20
5.3008591954
 30
0.0
 10
5.6155317082
 20
5.3018073228
 30
0.0
 10
5.6118140609
 20
5.3029668307
 30
0.0
 10
5.60787979
 20
5.3040488708
 30
0.0
 10
5.60449981
 20
5.3049025645
 30
0.0
 10
5.6008258139
 20
5.3057788903
 30
0.0
 10
5.5959532073
 20
5.3068455363
 30
0.0
 10
5.5897738639
 20
5.3080625041
 30
0.0
 10
5.5831719321
 20
5.3092363078
 30
0.0
 10
5.5761632577
 20
5.310364049
 30
0.0
 10
5.568764647
 20
5.3114429465
 30
0.0
 10
5.5609938741
 20
5.3124703371
 30
0.0
 10
5.5528696191
 20
5.3134436835
 30
0.0
 10
5.5444114224
 20
5.3143606398
 30
0.0
 10
5.5325308745
 20
5.3155230233
 30
0.0
 10
5.5170013927
 20
5.3168101214
 30
0.0
 10
5.497654542
 20
5.3180763863
 30
0.0
 10
5.4775045369
 20
5.3190744909
 30
0.0
 10
5.4567453596
 20
5.3197945692
 30
0.0
 10
5.4355766941
 20
5.3202294941
 30
0.0
 10
5.4213494983
 20
5.3203263079
 30
0.0
 10
5.4142021951
 20
5.3203263079
 30
0.0
  0
SPLINE
  5
291
100
AcDbEntity
  8
0
100
AcDbSpline
 62
7
  6
CONTINUOUS
 70
0
 71
3
 72
19
 73
15
 74
0
 42
0.0000001
 43
0.0000001
 44
0.0000000001
 40
0.0
 40
0.0
 40
0.0
 40
0.0
 40
0.0606379205
 40
0.1213622622
 40
0.1822220484
 40
0.2432963045
 40
0.3046373819
 40
0.366291027
 40
0.4282905681
 40
0.4906550618
 40
0.6163371122
 40
0.7433627168
 40
0.8714047996
 40
1.0
 40
1.0
 40
1.0
 40
1.0
 10
3.295941394
 20
3.2457429813
 30
0.0
 10
3.2954794466
 20
3.2457429813
 30
0.0
 10
3.294554173
 20
3.2456946498
 30
0.0
 10
3.2931805603
 20
3.2454781045
 30
0.0
 10
3.2918334613
 20
3.2451194096
 30
0.0
 10
3.2905261415
 20
3.2446222393
 30
0.0
 10
3.2892711157
 20
3.2439912923
 30
0.0
 10
3.2880805254
 20
3.2432327903
 30
0.0
 10
3.2869657242
 20
3.2423539542
 30
0.0
 10
3.2855918979
 20
3.2410306817
 30
0.0
 10
3.2841163173
 20
3.2391167691
 30
0.0
 10
3.2828074583
 20
3.236509057
 30
0.0
 10
3.2820018112
 20
3.2336825503
 30
0.0
 10
3.2818207013
 20
3.231722636
 30
0.0
 10
3.2818207013
 20
3.2307429813
 30
0.0
  0
SPLINE
  5
292
100
AcDbEntity
  8
0
100
AcDbSpline
 62
7
  6
CONTINUOUS
 70
0
 71
3
 72
42
 73
38
 74
0
 42
0.0000001
 43
0.0000001
 44
0.0000000001
 40
0.0
 40
0.0
 40
0.0
 40
0.0
 40
0.0953680732
 40
0.1898341282
 40
0.2825092095
 40
0.3725194027
 40
0.4590192092
 40
0.5411997326
 40
0.5804301575
 40
0.6182985994
 40
0.6547183635
 40
0.6896066596
 40
0.7228852351
 40
0.7544805785
 40
0.784324142
 40
0.8123532549
 40
0.8385115668
 40
0.8508735952
 40
0.8627501081
 40
0.8850266101
 40
0.9053101573
 40
0.9146983893
 40
0.9235823606
 40
0.9319620418
 40
0.9398388218
 40
0.9472158919
 40
0.9540981833
 40
0.9604932166
 40
0.966411856
 40
0.9718688245
 40
0.9768843038
 40
0.9814856366
 40
0.9857091055
 40
0.9896027332
 40
0.9932286365
 40
0.9966640392
 40
1.0
 40
1.0
 40
1.0
 40
1.0
 10
5.4142021951
 20
5.0727592907
 30
0.0
 10
5.4070548929
 20
5.0727592907
 30
0.0
 10
5.3928276954
 20
5.0726624768
 30
0.0
 10
5.3716590316
 20
5.072227552
 30
0.0
 10
5.3508998522
 20
5.0715074736
 30
0.0
 10
5.3307498493
 20
5.0705093691
 30
0.0
 10
5.3114029973
 20
5.0692431042
 30
0.0
 10
5.2958735156
 20
5.0679560061
 30
0.0
 10
5.2839929662
 20
5.0667936224
 30
0.0
 10
5.2755347695
 20
5.0658766662
 30
0.0
 10
5.2674105167
 20
5.06490332
 30
0.0
 10
5.2596397451
 20
5.0638759296
 30
0.0
 10
5.2522411331
 20
5.0627970318
 30
0.0
 10
5.2452324567
 20
5.0616692904
 30
0.0
 10
5.2386305247
 20
5.0604954866
 30
0.0
 10
5.2324511831
 20
5.0592785193
 30
0.0
 10
5.2275785781
 20
5.0582118735
 30
0.0
 10
5.2239045822
 20
5.0573355478
 30
0.0
 10
5.2205246005
 20
5.0564818537
 30
0.0
 10
5.2165903283
 20
5.0553998131
 30
0.0
 10
5.2128726806
 20
5.0542403051
 30
0.0
 10
5.2101428935
 20
5.0532921782
 30
0.0
 10
5.2082716234
 20
5.0525930325
 30
0.0
 10
5.2065241907
 20
5.0518878104
 30
0.0
 10
5.2049016062
 20
5.0511769038
 30
0.0
 10
5.2034047695
 20
5.0504607683
 30
0.0
 10
5.2020345101
 20
5.0497397907
 30
0.0
 10
5.2007915592
 20
5.0490143496
 30
0.0
 10
5.1996765185
 20
5.0482848338
 30
0.0
 10
5.1986899276
 20
5.0475515103
 30
0.0
 10
5.1978322443
 20
5.0468145646
 30
0.0
 10
5.197103844
 20
5.0460740934
 30
0.0
 10
5.19650523
 20
5.0453299349
 30
0.0
 10
5.1960371466
 20
5.0445818488
 30
0.0
 10
5.1957007229
 20
5.0438295752
 30
0.0
 10
5.1954977009
 20
5.0430737353
 30
0.0
 10
5.1954522115
 20
5.0425651864
 30
0.0
 10
5.1954522115
 20
5.0423151748
 30
0.0
  0
SPLINE
  5
293
100
AcDbEntity
  8
0
100
AcDbSpline
 62
7
  6
CONTINUOUS
 70
0
 71
3
 72
41
 73
37
 74
0
 42
0.0000001
 43
0.0000001
 44
0.0000000001
 40
0.0
 40
0.0
 40
0.0
 40
0.0
 40
0.0953682606
 40
0.1898342906
 40
0.28250958
 40
0.372519885
 40
0.4590197722
 40
0.541200377
 40
0.5804308685
 40
0.6182994219
 40
0.6547191382
 40
0.6896075089
 40
0.7228861819
 40
0.7544814677
 40
0.7843251303
 40
0.8123542981
 40
0.8385125546
 40
0.8508746856
 40
0.8627512076
 40
0.8850277355
 40
0.9053112354
 40
0.923582296
 40
0.9319619175
 40
0.9398387553
 40
0.9472158561
 40
0.9540980956
 40
0.9604931689
 40
0.9664118384
 40
0.9718687712
 40
0.9768842727
 40
0.9814856277
 40
0.9857090812
 40
0.9896027171
 40
0.9932286314
 40
0.9966640354
 40
1.0
 40
1.0
 40
1.0
 40
1.0
 10
5.4142021951
 20
5.0169276207
 30
0.0
 10
5.420162383
 20
5.0169276207
 30
0.0
 10
5.4320265345
 20
5.0170083536
 30
0.0
 10
5.4496792274
 20
5.017371043
 30
0.0
 10
5.4669904442
 20
5.0179715202
 30
0.0
 10
5.4837936721
 20
5.018803843
 30
0.0
 10
5.4999271394
 20
5.0198597939
 30
0.0
 10
5.5128772772
 20
5.0209331138
 30
0.0
 10
5.5227845514
 20
5.0219024338
 30
0.0
 10
5.5298378989
 20
5.0226670828
 30
0.0
 10
5.5366127672
 20
5.0234787725
 30
0.0
 10
5.5430928663
 20
5.0243355162
 30
0.0
 10
5.5492626191
 20
5.0252352105
 30
0.0
 10
5.5551072013
 20
5.026175653
 30
0.0
 10
5.560612597
 20
5.0271544892
 30
0.0
 10
5.565765593
 20
5.0281693211
 30
0.0
 10
5.5698288876
 20
5.0290588194
 30
0.0
 10
5.5728926631
 20
5.0297895799
 30
0.0
 10
5.5757112459
 20
5.0305014909
 30
0.0
 10
5.5789921323
 20
5.0314037717
 30
0.0
 10
5.5826221339
 20
5.0325361679
 30
0.0
 10
5.585384986
 20
5.0335248784
 30
0.0
 10
5.5873862857
 20
5.0343324838
 30
0.0
 10
5.58873937
 20
5.0349253211
 30
0.0
 10
5.5899875959
 20
5.0355225033
 30
0.0
 10
5.591130258
 20
5.0361237435
 30
0.0
 10
5.5921667659
 20
5.0367286876
 30
0.0
 10
5.5930966104
 20
5.0373370308
 30
0.0
 10
5.5939193278
 20
5.0379485639
 30
0.0
 10
5.5946345578
 20
5.0385631036
 30
0.0
 10
5.5952419815
 20
5.0391805837
 30
0.0
 10
5.5957411623
 20
5.0398011485
 30
0.0
 10
5.5961315014
 20
5.0404249803
 30
0.0
 10
5.5964120523
 20
5.0410523051
 30
0.0
 10
5.5965813499
 20
5.0416826065
 30
0.0
 10
5.596619283
 20
5.0421066885
 30
0.0
 10
5.596619283
 20
5.0423151748
 30
0.0
  0
SPLINE
  5
294
100
AcDbEntity
  8
0
100
AcDbSpline
 62
7
  6
CONTINUOUS
 70
0
 71
3
 72
19
 73
15
 74
0
 42
0.0000001
 43
0.0000001
 44
0.0000000001
 40
0.0
 40
0.0
 40
0.0
 40
0.0
 40
0.0606379174
 40
0.1213622585
 40
0.1822220452
 40
0.2432963015
 40
0.3046373791
 40
0.3662910244
 40
0.4282905658
 40
0.4906550597
 40
0.6163371107
 40
0.7433627157
 40
0.8714047989
 40
1.0
 40
1.0
 40
1.0
 40
1.0
 10
3.5324629963
 20
3.2457429813
 30
0.0
 10
3.5329249437
 20
3.2457429813
 30
0.0
 10
3.5338502173
 20
3.2456946498
 30
0.0
 10
3.5352238299
 20
3.2454781045
 30
0.0
 10
3.5365709289
 20
3.2451194096
 30
0.0
 10
3.5378782487
 20
3.2446222392
 30
0.0
 10
3.5391332745
 20
3.2439912923
 30
0.0
 10
3.5403238648
 20
3.2432327902
 30
0.0
 10
3.541438666
 20
3.2423539542
 30
0.0
 10
3.5428124923
 20
3.2410306816
 30
0.0
 10
3.5442880729
 20
3.239116769
 30
0.0
 10
3.5455969319
 20
3.2365090569
 30
0.0
 10
3.5464025789
 20
3.2336825503
 30
0.0
 10
3.5465836889
 20
3.231722636
 30
0.0
 10
3.5465836889
 20
3.2307429813
 30
0.0
  0
SPLINE
  5
295
100
AcDbEntity
  8
0
100
AcDbSpline
 62
7
  6
CONTINUOUS
 70
0
 71
3
 72
22
 73
18
 74
0
 42
0.0000001
 43
0.0000001
 44
0.0000000001
 40
0.0
 40
0.0
 40
0.0
 40
0.0
 40
0.0148741011
 40
0.0300300556
 40
0.0621041886
 40
0.0979611374
 40
0.1386961508
 40
0.1848997459
 40
0.2368013155
 40
0.294376292
 40
0.3574181661
 40
0.4255845649
 40
0.4984272528
 40
0.575415003
 40
0.655951893
 40
0.8250028145
 40
1.0
 40
1.0
 40
1.0
 40
1.0
 10
3.4565817132
 20
3.2457429813
 30
0.0
 10
3.4566646702
 20
3.2457429813
 30
0.0
 10
3.4568324089
 20
3.2457306242
 30
0.0
 10
3.4571716529
 20
3.2456558635
 30
0.0
 10
3.4575986293
 20
3.2454621598
 30
0.0
 10
3.4580834814
 20
3.2450923674
 30
0.0
 10
3.45855019
 20
3.2445875362
 30
0.0
 10
3.4589962467
 20
3.2439524086
 30
0.0
 10
3.4594188055
 20
3.2431924564
 30
0.0
 10
3.4598143162
 20
3.2423143045
 30
0.0
 10
3.4601791908
 20
3.2413258941
 30
0.0
 10
3.4605099646
 20
3.2402363838
 30
0.0
 10
3.4608034528
 20
3.2390560314
 30
0.0
 10
3.461056834
 20
3.2377960287
 30
0.0
 10
3.4613423898
 20
3.235996716
 30
0.0
 10
3.4615792248
 20
3.2336384003
 30
0.0
 10
3.4616419542
 20
3.2317189903
 30
0.0
 10
3.4616419542
 20
3.2307429813
 30
0.0
  0
SPLINE
  5
296
100
AcDbEntity
  8
0
100
AcDbSpline
 62
7
  6
CONTINUOUS
 70
0
 71
3
 72
22
 73
18
 74
0
 42
0.0000001
 43
0.0000001
 44
0.0000000001
 40
0.0
 40
0.0
 40
0.0
 40
0.0
 40
0.0148741085
 40
0.0300300679
 40
0.0621042032
 40
0.0979611507
 40
0.1386961638
 40
0.1848997583
 40
0.2368013271
 40
0.2943763028
 40
0.3574181761
 40
0.4255845739
 40
0.4984272607
 40
0.5754150098
 40
0.6559518985
 40
0.8250028176
 40
1.0
 40
1.0
 40
1.0
 40
1.0
 10
3.3718226773
 20
3.2457429813
 30
0.0
 10
3.3717397201
 20
3.2457429813
 30
0.0
 10
3.3715719814
 20
3.2457306242
 30
0.0
 10
3.3712327374
 20
3.2456558635
 30
0.0
 10
3.3708057608
 20
3.2454621598
 30
0.0
 10
3.3703209088
 20
3.2450923674
 30
0.0
 10
3.3698542002
 20
3.2445875362
 30
0.0
 10
3.3694081435
 20
3.2439524086
 30
0.0
 10
3.3689855847
 20
3.2431924563
 30
0.0
 10
3.368590074
 20
3.2423143045
 30
0.0
 10
3.3682251994
 20
3.2413258941
 30
0.0
 10
3.3678944255
 20
3.2402363838
 30
0.0
 10
3.3676009374
 20
3.2390560314
 30
0.0
 10
3.3673475562
 20
3.2377960286
 30
0.0
 10
3.3670620004
 20
3.235996716
 30
0.0
 10
3.3668251652
 20
3.2336384003
 30
0.0
 10
3.3667624362
 20
3.2317189903
 30
0.0
 10
3.3667624362
 20
3.2307429813
 30
0.0
  0
SPLINE
  5
297
100
AcDbEntity
  8
0
100
AcDbSpline
 62
7
  6
CONTINUOUS
 70
0
 71
3
 72
25
 73
21
 74
0
 42
0.0000001
 43
0.0000001
 44
0.0000000001
 40
0.0
 40
0.0
 40
0.0
 40
0.0
 40
0.0069872064
 40
0.0147051583
 40
0.0236980614
 40
0.034307749
 40
0.0467304121
 40
0.0610767286
 40
0.0774011389
 40
0.0957241401
 40
0.1383411448
 40
0.1887517115
 40
0.2466030222
 40
0.3114258211
 40
0.3826582041
 40
0.4596599843
 40
0.5417256331
 40
0.6280961638
 40
0.8104812349
 40
1.0
 40
1.0
 40
1.0
 40
1.0
 10
3.4367021951
 20
3.0267429813
 30
0.0
 10
3.4366662276
 20
3.0267429813
 30
0.0
 10
3.4365900885
 20
3.0267292877
 30
0.0
 10
3.4364812756
 20
3.0266710668
 30
0.0
 10
3.4363751106
 20
3.0265774826
 30
0.0
 10
3.436270743
 20
3.0264492059
 30
0.0
 10
3.4361676599
 20
3.0262863518
 30
0.0
 10
3.4360658901
 20
3.026089006
 30
0.0
 10
3.4359655468
 20
3.0258574661
 30
0.0
 10
3.4358269284
 20
3.0254845228
 30
0.0
 10
3.4356628572
 20
3.0249347347
 30
0.0
 10
3.435483426
 20
3.0241788216
 30
0.0
 10
3.4353149787
 20
3.023303685
 30
0.0
 10
3.4351592479
 20
3.0223176066
 30
0.0
 10
3.4350179068
 20
3.0212298992
 30
0.0
 10
3.4348924005
 20
3.0200509757
 30
0.0
 10
3.4347839913
 20
3.018792137
 30
0.0
 10
3.4346615255
 20
3.0169903197
 30
0.0
 10
3.4345603014
 20
3.0146330707
 30
0.0
 10
3.4345335204
 20
3.0127185513
 30
0.0
 10
3.4345335204
 20
3.0117429813
 30
0.0
  0
SPLINE
  5
298
100
AcDbEntity
  8
0
100
AcDbSpline
 62
7
  6
CONTINUOUS
 70
0
 71
3
 72
25
 73
21
 74
0
 42
0.0000001
 43
0.0000001
 44
0.0000000001
 40
0.0
 40
0.0
 40
0.0
 40
0.0
 40
0.0069396111
 40
0.014620482
 40
0.0235869618
 40
0.0341788834
 40
0.0465901756
 40
0.0609297808
 40
0.0772509543
 40
0.0955733262
 40
0.1381946928
 40
0.1886144181
 40
0.2464777514
 40
0.3113141938
 40
0.3825609946
 40
0.4595774345
 40
0.5416576182
 40
0.6280424182
 40
0.8104546776
 40
1.0
 40
1.0
 40
1.0
 40
1.0
 10
3.3917021951
 20
3.0267429813
 30
0.0
 10
3.3917379125
 20
3.0267429813
 30
0.0
 10
3.3918136018
 20
3.0267292481
 30
0.0
 10
3.3919217249
 20
3.026670993
 30
0.0
 10
3.3920272988
 20
3.0265774126
 30
0.0
 10
3.392131186
 20
3.026449151
 30
0.0
 10
3.3922338888
 20
3.0262863113
 30
0.0
 10
3.3923353668
 20
3.0260889766
 30
0.0
 10
3.3924354977
 20
3.0258574445
 30
0.0
 10
3.3925739282
 20
3.0254844902
 30
0.0
 10
3.3927379471
 20
3.0249347074
 30
0.0
 10
3.3929175295
 20
3.0241788093
 30
0.0
 10
3.3930863021
 20
3.0233036818
 30
0.0
 10
3.3932424859
 20
3.0223176085
 30
0.0
 10
3.3933843561
 20
3.0212299038
 30
0.0
 10
3.3935104272
 20
3.0200509819
 30
0.0
 10
3.3936193742
 20
3.0187921427
 30
0.0
 10
3.3937425174
 20
3.0169903364
 30
0.0
 10
3.3938442233
 20
3.0146330821
 30
0.0
 10
3.393870908
 20
3.012718551
 30
0.0
 10
3.3938708697
 20
3.0117429813
 30
0.0
  0
SPLINE
  5
299
100
AcDbEntity
  8
0
100
AcDbSpline
 62
7
  6
CONTINUOUS
 70
0
 71
3
 72
15
 73
11
 74
0
 42
0.0000001
 43
0.0000001
 44
0.0000000001
 40
0.0
 40
0.0
 40
0.0
 40
0.0
 40
0.1243668067
 40
0.2488196216
 40
0.3734519076
 40
0.4983196755
 40
0.6234444646
 40
0.7488077711
 40
0.874351829
 40
1.0
 40
1.0
 40
1.0
 40
1.0
 10
3.5681920993
 20
3.0267429813
 30
0.0
 10
3.5672220017
 20
3.0267429813
 30
0.0
 10
3.5652756499
 20
3.0265494268
 30
0.0
 10
3.5624732864
 20
3.0256897239
 30
0.0
 10
3.559890112
 20
3.024293858
 30
0.0
 10
3.5576267832
 20
3.0224157756
 30
0.0
 10
3.5557698015
 20
3.0201279131
 30
0.0
 10
3.554390264
 20
3.0175180344
 30
0.0
 10
3.5535409044
 20
3.0146877643
 30
0.0
 10
3.5533497201
 20
3.012723074
 30
0.0
 10
3.5533496989
 20
3.0117429813
 30
0.0
  0
SPLINE
  5
29A
100
AcDbEntity
  8
0
100
AcDbSpline
 62
7
  6
CONTINUOUS
 70
0
 71
3
 72
15
 73
11
 74
0
 42
0.0000001
 43
0.0000001
 44
0.0000000001
 40
0.0
 40
0.0
 40
0.0
 40
0.0
 40
0.1243540139
 40
0.2488023443
 40
0.3734358999
 40
0.4983079766
 40
0.6234376293
 40
0.7488046809
 40
0.8743508123
 40
1.0
 40
1.0
 40
1.0
 40
1.0
 10
3.2602122908
 20
3.0267429813
 30
0.0
 10
3.2611822809
 20
3.0267429813
 30
0.0
 10
3.2631284806
 20
3.0265494069
 30
0.0
 10
3.2659306837
 20
3.0256896984
 30
0.0
 10
3.26851384
 20
3.0242938395
 30
0.0
 10
3.2707772523
 20
3.0224157734
 30
0.0
 10
3.2726343732
 20
3.0201279269
 30
0.0
 10
3.2740140534
 20
3.017518055
 30
0.0
 10
3.2748635104
 20
3.0146877786
 30
0.0
 10
3.2750546913
 20
3.012723074
 30
0.0
 10
3.2750546913
 20
3.0117429813
 30
0.0
  0
SPLINE
  5
29B
100
AcDbEntity
  8
0
100
AcDbSpline
 62
7
  6
CONTINUOUS
 70
0
 71
3
 72
22
 73
18
 74
0
 42
0.0000001
 43
0.0000001
 44
0.0000000001
 40
0.0
 40
0.0
 40
0.0
 40
0.0
 40
0.0128210491
 40
0.0265398724
 40
0.0415047192
 40
0.057868417
 40
0.094855307
 40
0.1375833143
 40
0.1859484817
 40
0.239706194
 40
0.2985434529
 40
0.3621457559
 40
0.5023726223
 40
0.5784454822
 40
0.6579996433
 40
0.8255483518
 40
1.0
 40
1.0
 40
1.0
 40
1.0
 10
7.5681922876
 20
3.0267429813
 30
0.0
 10
7.5681167198
 20
3.0267429822
 30
0.0
 10
7.5679600868
 20
3.0267565495
 30
0.0
 10
7.5677215109
 20
3.0268136147
 30
0.0
 10
7.5674720561
 20
3.0269060795
 30
0.0
 10
7.5671095811
 20
3.0270825922
 30
0.0
 10
7.5666343635
 20
3.0273946194
 30
0.0
 10
7.5660563773
 20
3.0278820806
 30
0.0
 10
7.5654569921
 20
3.028491527
 30
0.0
 10
7.5648451307
 20
3.0292175868
 30
0.0
 10
7.5642312754
 20
3.0300562342
 30
0.0
 10
7.563397726
 20
3.0313617852
 30
0.0
 10
7.5626426012
 20
3.0328341806
 30
0.0
 10
7.5619895949
 20
3.0344519907
 30
0.0
 10
7.5613909264
 20
3.036261609
 30
0.0
 10
7.5608545028
 20
3.0386960895
 30
0.0
 10
7.5607044261
 20
3.0407147554
 30
0.0
 10
7.5607043815
 20
3.0417429813
 30
0.0
  0
SPLINE
  5
29C
100
AcDbEntity
  8
0
100
AcDbSpline
 62
7
  6
CONTINUOUS
 70
0
 71
3
 72
29
 73
25
 74
0
 42
0.0000001
 43
0.0000001
 44
0.0000000001
 40
0.0
 40
0.0
 40
0.0
 40
0.0
 40
0.0068772159
 40
0.0107652538
 40
0.0150416278
 40
0.0249420905
 40
0.0368321046
 40
0.0508050748
 40
0.0668881617
 40
0.0850735327
 40
0.105317585
 40
0.1275568862
 40
0.1517201751
 40
0.205505099
 40
0.2660109256
 40
0.3325396757
 40
0.4043969236
 40
0.4808964642
 40
0.5613592326
 40
0.6451220666
 40
0.7315276379
 40
0.8199149827
 40
0.9096324518
 40
1.0
 40
1.0
 40
1.0
 40
1.0
 10
7.553349699
 20
3.0117429813
 30
0.0
 10
7.5532777115
 20
3.0117434788
 30
0.0
 10
7.5531647217
 20
3.011767635
 30
0.0
 10
7.5530213506
 20
3.0118330551
 30
0.0
 10
7.5528599461
 20
3.0119325511
 30
0.0
 10
7.5526526255
 20
3.0121122552
 30
0.0
 10
7.5524047179
 20
3.0123935995
 30
0.0
 10
7.5521464812
 20
3.0127493508
 30
0.0
 10
7.5518791951
 20
3.013178153
 30
0.0
 10
7.5516043599
 20
3.0136784967
 30
0.0
 10
7.55132337
 20
3.0142482021
 30
0.0
 10
7.5510376785
 20
3.0148848102
 30
0.0
 10
7.5506382154
 20
3.0158546429
 30
0.0
 10
7.5501425022
 20
3.0172172328
 30
0.0
 10
7.5495730441
 20
3.0190228092
 30
0.0
 10
7.5490224507
 20
3.0210311228
 30
0.0
 10
7.5485030311
 20
3.0232201348
 30
0.0
 10
7.5480264094
 20
3.0255678883
 30
0.0
 10
7.547603039
 20
3.0280523421
 30
0.0
 10
7.5472426078
 20
3.030651439
 30
0.0
 10
7.5469531414
 20
3.0333428473
 30
0.0
 10
7.5467417404
 20
3.0361040482
 30
0.0
 10
7.546613033
 20
3.0389118206
 30
0.0
 10
7.5465836959
 20
3.0407970331
 30
0.0
 10
7.5465836888
 20
3.0417429813
 30
0.0
  0
SPLINE
  5
29D
100
AcDbEntity
  8
0
100
AcDbSpline
 62
7
  6
CONTINUOUS
 70
0
 71
3
 72
23
 73
19
 74
0
 42
0.0000001
 43
0.0000001
 44
0.0000000001
 40
0.0
 40
0.0
 40
0.0
 40
0.0
 40
0.0625493108
 40
0.1249167657
 40
0.1871201753
 40
0.2491949917
 40
0.3111896802
 40
0.3731607938
 40
0.4351672083
 40
0.4972646407
 40
0.5595003759
 40
0.6219099175
 40
0.6845134228
 40
0.7473141716
 40
0.8103003846
 40
0.8734379416
 40
0.9366932577
 40
1.0
 40
1.0
 40
1.0
 40
1.0
 10
7.3938708698
 20
3.0117429813
 30
0.0
 10
7.3929354799
 20
3.0117440477
 30
0.0
 10
7.3910656183
 20
3.0118493379
 30
0.0
 10
7.3883028169
 20
3.0123289581
 30
0.0
 10
7.3856178535
 20
3.013112609
 30
0.0
 10
7.3830410629
 20
3.0141853196
 30
0.0
 10
7.3805981046
 20
3.0155275305
 30
0.0
 10
7.3783103462
 20
3.0171176316
 30
0.0
 10
7.37619559
 20
3.0189334263
 30
0.0
 10
7.3742684843
 20
3.0209523893
 30
0.0
 10
7.3725411788
 20
3.0231521183
 30
0.0
 10
7.3710239626
 20
3.0255104478
 30
0.0
 10
7.3697252691
 20
3.0280051651
 30
0.0
 10
7.3686525754
 20
3.0306142516
 30
0.0
 10
7.3678113325
 20
3.0333151435
 30
0.0
 10
7.3672076274
 20
3.0360858235
 30
0.0
 10
7.3668445976
 20
3.0389026505
 30
0.0
 10
7.3667624662
 20
3.0407962639
 30
0.0
 10
7.3667624361
 20
3.0417429813
 30
0.0
  0
SPLINE
  5
29E
100
AcDbEntity
  8
0
100
AcDbSpline
 62
7
  6
CONTINUOUS
 70
0
 71
3
 72
23
 73
19
 74
0
 42
0.0000001
 43
0.0000001
 44
0.0000000001
 40
0.0
 40
0.0
 40
0.0
 40
0.0
 40
0.0633065853
 40
0.1265614758
 40
0.1897001725
 40
0.2526859686
 40
0.3154869978
 40
0.3780904778
 40
0.4404996845
 40
0.5027358011
 40
0.5648328977
 40
0.6268396043
 40
0.6888103688
 40
0.7508051374
 40
0.812880159
 40
0.8750834667
 40
0.9374509003
 40
1.0
 40
1.0
 40
1.0
 40
1.0
 10
7.4616419541
 20
3.0417429813
 30
0.0
 10
7.461641885
 20
3.0407962733
 30
0.0
 10
7.461559172
 20
3.0389026883
 30
0.0
 10
7.4611954792
 20
3.0360860001
 30
0.0
 10
7.4605927997
 20
3.0333151472
 30
0.0
 10
7.4597522125
 20
3.0306140021
 30
0.0
 10
7.4586786887
 20
3.0280052903
 30
0.0
 10
7.4573805329
 20
3.0255103346
 30
0.0
 10
7.455863043
 20
3.0231521862
 30
0.0
 10
7.4541358852
 20
3.0209523886
 30
0.0
 10
7.452208727
 20
3.0189334836
 30
0.0
 10
7.4500939928
 20
3.017117722
 30
0.0
 10
7.4478063433
 20
3.0155274795
 30
0.0
 10
7.4453632781
 20
3.0141855225
 30
0.0
 10
7.4427867573
 20
3.0131122852
 30
0.0
 10
7.4401015771
 20
3.0123289628
 30
0.0
 10
7.4373386234
 20
3.0118515656
 30
0.0
 10
7.4354689008
 20
3.0117430855
 30
0.0
 10
7.4345335204
 20
3.0117429813
 30
0.0
  0
SPLINE
  5
29F
100
AcDbEntity
  8
0
100
AcDbSpline
 62
7
  6
CONTINUOUS
 70
0
 71
3
 72
42
 73
38
 74
0
 42
0.0000001
 43
0.0000001
 44
0.0000000001
 40
0.0
 40
0.0
 40
0.0
 40
0.0
 40
0.0953680867
 40
0.1898341051
 40
0.2825092336
 40
0.3725193872
 40
0.4590192161
 40
0.541199739
 40
0.5804301429
 40
0.618298586
 40
0.6547183697
 40
0.6896066747
 40
0.7228852402
 40
0.754480567
 40
0.7843241299
 40
0.812353257
 40
0.8385115802
 40
0.8508736052
 40
0.8627501109
 40
0.8850266011
 40
0.9053101489
 40
0.9146983869
 40
0.9235823651
 40
0.9319620506
 40
0.9398388299
 40
0.9472158963
 40
0.9540981838
 40
0.9604932138
 40
0.9664118511
 40
0.9718688193
 40
0.9768843008
 40
0.9814856369
 40
0.9857091081
 40
0.9896027364
 40
0.9932286393
 40
0.996664041
 40
1.0
 40
1.0
 40
1.0
 40
1.0
 10
5.4142021951
 20
5.3203263079
 30
0.0
 10
5.4070548919
 20
5.3203263079
 30
0.0
 10
5.3928276961
 20
5.3202294941
 30
0.0
 10
5.3716590306
 20
5.3197945692
 30
0.0
 10
5.3508998533
 20
5.3190744909
 30
0.0
 10
5.3307498481
 20
5.3180763863
 30
0.0
 10
5.3114029975
 20
5.3168101214
 30
0.0
 10
5.2958735157
 20
5.3155230233
 30
0.0
 10
5.2839929678
 20
5.3143606398
 30
0.0
 10
5.2755347711
 20
5.3134436835
 30
0.0
 10
5.2674105161
 20
5.3124703371
 30
0.0
 10
5.2596397432
 20
5.3114429465
 30
0.0
 10
5.2522411324
 20
5.310364049
 30
0.0
 10
5.2452324581
 20
5.3092363078
 30
0.0
 10
5.2386305263
 20
5.3080625041
 30
0.0
 10
5.2324511829
 20
5.3068455363
 30
0.0
 10
5.2275785763
 20
5.3057788903
 30
0.0
 10
5.2239045802
 20
5.3049025645
 30
0.0
 10
5.2205246002
 20
5.3040488708
 30
0.0
 10
5.2165903293
 20
5.3029668307
 30
0.0
 10
5.212872682
 20
5.3018073228
 30
0.0
 10
5.210142894
 20
5.3008591954
 30
0.0
 10
5.2082716227
 20
5.3001600494
 30
0.0
 10
5.2065241892
 20
5.299454827
 30
0.0
 10
5.2049016047
 20
5.2987439204
 30
0.0
 10
5.2034047687
 20
5.2980277851
 30
0.0
 10
5.20203451
 20
5.2973068078
 30
0.0
 10
5.2007915596
 20
5.2965813671
 30
0.0
 10
5.1996765193
 20
5.2958518516
 30
0.0
 10
5.1986899285
 20
5.295118528
 30
0.0
 10
5.1978322449
 20
5.2943815821
 30
0.0
 10
5.1971038441
 20
5.2936411105
 30
0.0
 10
5.1965052296
 20
5.2928969518
 30
0.0
 10
5.1960371463
 20
5.2921488654
 30
0.0
 10
5.1957007228
 20
5.2913965917
 30
0.0
 10
5.1954977008
 20
5.2906407521
 30
0.0
 10
5.1954522113
 20
5.2901322034
 30
0.0
 10
5.1954522113
 20
5.289882192
 30
0.0
  0
SPLINE
  5
2A0
100
AcDbEntity
  8
0
100
AcDbSpline
 62
7
  6
CONTINUOUS
 70
0
 71
3
 72
25
 73
21
 74
0
 42
0.0000001
 43
0.0000001
 44
0.0000000001
 40
0.0
 40
0.0
 40
0.0
 40
0.0
 40
0.0876990367
 40
0.1744788006
 40
0.2594956325
 40
0.3420427775
 40
0.4215549223
 40
0.4975858102
 40
0.5697772974
 40
0.6378045402
 40
0.7013706735
 40
0.7601746707
 40
0.8139021592
 40
0.8622450305
 40
0.9049401848
 40
0.9241156245
 40
0.9418385544
 40
0.9732549745
 40
0.9871984453
 40
1.0
 40
1.0
 40
1.0
 40
1.0
 10
7.2677000087
 20
3.0417429813
 30
0.0
 10
7.267699961
 20
3.0412257834
 30
0.0
 10
7.2676613587
 20
3.0401963948
 30
0.0
 10
7.267491409
 20
3.0386742517
 30
0.0
 10
7.2672201409
 20
3.0371977137
 30
0.0
 10
7.2668555795
 20
3.0357857484
 30
0.0
 10
7.2664147575
 20
3.0344515845
 30
0.0
 10
7.2659119608
 20
3.0332052216
 30
0.0
 10
7.2653611719
 20
3.0320540883
 30
0.0
 10
7.2647774958
 20
3.0310026957
 30
0.0
 10
7.2641727948
 20
3.0300557125
 30
0.0
 10
7.2635589287
 20
3.0292171288
 30
0.0
 10
7.2629470045
 20
3.0284910021
 30
0.0
 10
7.2623474713
 20
3.0278818968
 30
0.0
 10
7.2618496403
 20
3.02746193
 30
0.0
 10
7.2614640814
 20
3.0271934855
 30
0.0
 10
7.2611180847
 20
3.0269869935
 30
0.0
 10
7.2607748936
 20
3.0268351366
 30
0.0
 10
7.2604400453
 20
3.0267569861
 30
0.0
 10
7.2602821711
 20
3.0267429984
 30
0.0
 10
7.260206675
 20
3.0267429813
 30
0.0
  0
SPLINE
  5
2A1
100
AcDbEntity
  8
0
100
AcDbSpline
 62
7
  6
CONTINUOUS
 70
0
 71
3
 72
30
 73
26
 74
0
 42
0.0000001
 43
0.0000001
 44
0.0000000001
 40
0.0
 40
0.0
 40
0.0
 40
0.0
 40
0.0903647999
 40
0.1800782093
 40
0.2684681029
 40
0.3548741378
 40
0.4386320012
 40
0.5190963203
 40
0.5955912551
 40
0.6674476206
 40
0.733974361
 40
0.7944784299
 40
0.8482639115
 40
0.8724260567
 40
0.8946650015
 40
0.9149102639
 40
0.933097862
 40
0.9491812629
 40
0.9631458239
 40
0.9750200636
 40
0.9849159896
 40
0.9891957487
 40
0.9930871841
 40
0.9966581879
 40
1.0
 40
1.0
 40
1.0
 40
1.0
 10
7.2818207013
 20
3.0417429813
 30
0.0
 10
7.2818206825
 20
3.0407970455
 30
0.0
 10
7.2817912114
 20
3.0389118719
 30
0.0
 10
7.2816622764
 20
3.0361041096
 30
0.0
 10
7.2814511565
 20
3.0333428544
 30
0.0
 10
7.2811619057
 20
3.0306513907
 30
0.0
 10
7.2808011763
 20
3.0280523225
 30
0.0
 10
7.2803780654
 20
3.0255678668
 30
0.0
 10
7.2799012947
 20
3.0232201412
 30
0.0
 10
7.279381927
 20
3.0210311599
 30
0.0
 10
7.2788313418
 20
3.0190228556
 30
0.0
 10
7.278261842
 20
3.0172172951
 30
0.0
 10
7.2777662008
 20
3.0158546782
 30
0.0
 10
7.2773667124
 20
3.0148848465
 30
0.0
 10
7.2770810122
 20
3.0142482328
 30
0.0
 10
7.2768000265
 20
3.0136784778
 30
0.0
 10
7.2765252234
 20
3.0131780611
 30
0.0
 10
7.2762580354
 20
3.0127492606
 30
0.0
 10
7.2759998058
 20
3.0123937838
 30
0.0
 10
7.2757515832
 20
3.0121130972
 30
0.0
 10
7.2755441627
 20
3.011933799
 30
0.0
 10
7.2753832388
 20
3.0118337143
 30
0.0
 10
7.2752712635
 20
3.0117820767
 30
0.0
 10
7.2751621709
 20
3.0117504922
 30
0.0
 10
7.2750896732
 20
3.0117430054
 30
0.0
 10
7.2750546912
 20
3.0117429813
 30
0.0
  0
SPLINE
  5
2A2
100
AcDbEntity
  8
0
100
AcDbSpline
 62
7
  6
CONTINUOUS
 70
0
 71
3
 72
11
 73
7
 74
0
 42
0.0000001
 43
0.0000001
 44
0.0000000001
 40
0.0
 40
0.0
 40
0.0
 40
0.0
 40
0.2565962334
 40
0.51053259
 40
0.7591902358
 40
1.0
 40
1.0
 40
1.0
 40
1.0
 10
5.4142021951
 20
5.06347022
 30
0.0
 10
5.4204411973
 20
5.06347022
 30
0.0
 10
5.4328547117
 20
5.0635586237
 30
0.0
 10
5.4513103866
 20
5.0639556987
 30
0.0
 10
5.4693745737
 20
5.0646126807
 30
0.0
 10
5.4812602594
 20
5.0652311711
 30
0.0
 10
5.4871046732
 20
5.0655857911
 30
0.0
  0
SPLINE
  5
2A3
100
AcDbEntity
  8
0
100
AcDbSpline
 62
7
  6
CONTINUOUS
 70
0
 71
3
 72
15
 73
11
 74
0
 42
0.0000001
 43
0.0000001
 44
0.0000000001
 40
0.0
 40
0.0
 40
0.0
 40
0.0
 40
0.1243668336
 40
0.2488196582
 40
0.3734519415
 40
0.4983197001
 40
0.6234444789
 40
0.7488077774
 40
0.874351831
 40
1.0
 40
1.0
 40
1.0
 40
1.0
 10
7.5681920993
 20
3.0267429813
 30
0.0
 10
7.5672220014
 20
3.0267429813
 30
0.0
 10
7.5652756493
 20
3.0265494268
 30
0.0
 10
7.5624732855
 20
3.025689724
 30
0.0
 10
7.5598901111
 20
3.0242938581
 30
0.0
 10
7.5576267824
 20
3.0224157756
 30
0.0
 10
7.555769801
 20
3.0201279131
 30
0.0
 10
7.5543902639
 20
3.0175180344
 30
0.0
 10
7.5535409045
 20
3.0146877643
 30
0.0
 10
7.5533497201
 20
3.012723074
 30
0.0
 10
7.5533496989
 20
3.0117429813
 30
0.0
  0
SPLINE
  5
2A4
100
AcDbEntity
  8
0
100
AcDbSpline
 62
7
  6
CONTINUOUS
 70
0
 71
3
 72
25
 73
21
 74
0
 42
0.0000001
 43
0.0000001
 44
0.0000000001
 40
0.0
 40
0.0
 40
0.0
 40
0.0
 40
0.006939644
 40
0.0146205405
 40
0.0235870385
 40
0.0341789725
 40
0.0465902725
 40
0.0609298823
 40
0.0772510581
 40
0.0955734305
 40
0.1381947941
 40
0.1886145131
 40
0.2464778381
 40
0.3113142711
 40
0.3825610619
 40
0.4595774917
 40
0.5416576653
 40
0.6280424555
 40
0.810454696
 40
1.0
 40
1.0
 40
1.0
 40
1.0
 10
7.3917021951
 20
3.0267429813
 30
0.0
 10
7.3917379127
 20
3.0267429813
 30
0.0
 10
7.3918136023
 20
3.0267292482
 30
0.0
 10
7.3919217259
 20
3.026670993
 30
0.0
 10
7.3920273002
 20
3.0265774127
 30
0.0
 10
7.3921311877
 20
3.026449151
 30
0.0
 10
7.3922338908
 20
3.0262863113
 30
0.0
 10
7.3923353689
 20
3.0260889766
 30
0.0
 10
7.3924355
 20
3.0258574446
 30
0.0
 10
7.3925739306
 20
3.0254844902
 30
0.0
 10
7.3927379495
 20
3.0249347074
 30
0.0
 10
7.3929175319
 20
3.0241788093
 30
0.0
 10
7.3930863043
 20
3.0233036818
 30
0.0
 10
7.3932424877
 20
3.0223176085
 30
0.0
 10
7.3933843576
 20
3.0212299038
 30
0.0
 10
7.3935104283
 20
3.0200509819
 30
0.0
 10
7.3936193749
 20
3.0187921427
 30
0.0
 10
7.3937425176
 20
3.0169903363
 30
0.0
 10
7.3938442232
 20
3.0146330821
 30
0.0
 10
7.3938709079
 20
3.012718551
 30
0.0
 10
7.3938708697
 20
3.0117429813
 30
0.0
  0
SPLINE
  5
2A5
100
AcDbEntity
  8
0
100
AcDbSpline
 62
7
  6
CONTINUOUS
 70
0
 71
3
 72
25
 73
21
 74
0
 42
0.0000001
 43
0.0000001
 44
0.0000000001
 40
0.0
 40
0.0
 40
0.0
 40
0.0
 40
0.0069872064
 40
0.0147051583
 40
0.0236980614
 40
0.034307749
 40
0.0467304121
 40
0.0610767286
 40
0.0774011389
 40
0.0957241401
 40
0.1383411448
 40
0.1887517115
 40
0.2466030222
 40
0.3114258211
 40
0.3826582041
 40
0.4596599843
 40
0.5417256331
 40
0.6280961638
 40
0.8104812349
 40
1.0
 40
1.0
 40
1.0
 40
1.0
 10
7.4367021951
 20
3.0267429813
 30
0.0
 10
7.4366662276
 20
3.0267429813
 30
0.0
 10
7.4365900885
 20
3.0267292877
 30
0.0
 10
7.4364812756
 20
3.0266710668
 30
0.0
 10
7.4363751106
 20
3.0265774826
 30
0.0
 10
7.436270743
 20
3.0264492059
 30
0.0
 10
7.4361676599
 20
3.0262863518
 30
0.0
 10
7.4360658901
 20
3.026089006
 30
0.0
 10
7.4359655468
 20
3.0258574661
 30
0.0
 10
7.4358269284
 20
3.0254845228
 30
0.0
 10
7.4356628572
 20
3.0249347347
 30
0.0
 10
7.435483426
 20
3.0241788216
 30
0.0
 10
7.4353149787
 20
3.023303685
 30
0.0
 10
7.4351592479
 20
3.0223176066
 30
0.0
 10
7.4350179068
 20
3.0212298992
 30
0.0
 10
7.4348924005
 20
3.0200509757
 30
0.0
 10
7.4347839913
 20
3.018792137
 30
0.0
 10
7.4346615255
 20
3.0169903197
 30
0.0
 10
7.4345603014
 20
3.0146330707
 30
0.0
 10
7.4345335204
 20
3.0127185513
 30
0.0
 10
7.4345335204
 20
3.0117429813
 30
0.0
  0
SPLINE
  5
2A6
100
AcDbEntity
  8
0
100
AcDbSpline
 62
7
  6
CONTINUOUS
 70
0
 71
3
 72
15
 73
11
 74
0
 42
0.0000001
 43
0.0000001
 44
0.0000000001
 40
0.0
 40
0.0
 40
0.0
 40
0.0
 40
0.124354014
 40
0.2488023444
 40
0.3734359
 40
0.4983079766
 40
0.6234376293
 40
0.748804681
 40
0.8743508123
 40
1.0
 40
1.0
 40
1.0
 40
1.0
 10
7.2602122908
 20
3.0267429813
 30
0.0
 10
7.2611822809
 20
3.0267429813
 30
0.0
 10
7.2631284806
 20
3.0265494069
 30
0.0
 10
7.2659306837
 20
3.0256896984
 30
0.0
 10
7.26851384
 20
3.0242938395
 30
0.0
 10
7.2707772523
 20
3.0224157734
 30
0.0
 10
7.2726343732
 20
3.0201279269
 30
0.0
 10
7.2740140534
 20
3.017518055
 30
0.0
 10
7.2748635104
 20
3.0146877786
 30
0.0
 10
7.2750546913
 20
3.012723074
 30
0.0
 10
7.2750546913
 20
3.0117429813
 30
0.0
  0
SPLINE
  5
2A7
100
AcDbEntity
  8
0
100
AcDbSpline
 62
7
  6
CONTINUOUS
 70
0
 71
3
 72
29
 73
25
 74
0
 42
0.0000001
 43
0.0000001
 44
0.0000000001
 40
0.0
 40
0.0
 40
0.0
 40
0.0
 40
0.0068772287
 40
0.010765268
 40
0.0150416454
 40
0.0249421084
 40
0.0368321113
 40
0.050805074
 40
0.0668881606
 40
0.0850735345
 40
0.1053175901
 40
0.127556892
 40
0.1517201793
 40
0.2055051038
 40
0.2660109328
 40
0.3325396831
 40
0.4043969287
 40
0.4808964655
 40
0.5613592385
 40
0.6451220803
 40
0.7315276435
 40
0.8199149776
 40
0.9096324495
 40
1.0
 40
1.0
 40
1.0
 40
1.0
 10
3.553349699
 20
3.0117429813
 30
0.0
 10
3.5532777113
 20
3.0117434776
 30
0.0
 10
3.5531647211
 20
3.0117676338
 30
0.0
 10
3.5530213502
 20
3.011833055
 30
0.0
 10
3.5528599463
 20
3.0119325521
 30
0.0
 10
3.5526526258
 20
3.0121122559
 30
0.0
 10
3.5524047178
 20
3.0123935996
 30
0.0
 10
3.552146481
 20
3.0127493507
 30
0.0
 10
3.5518791951
 20
3.0131781529
 30
0.0
 10
3.5516043599
 20
3.0136784967
 30
0.0
 10
3.55132337
 20
3.0142482022
 30
0.0
 10
3.5510376785
 20
3.0148848103
 30
0.0
 10
3.5506382153
 20
3.015854643
 30
0.0
 10
3.5501425022
 20
3.0172172329
 30
0.0
 10
3.5495730441
 20
3.0190228094
 30
0.0
 10
3.5490224507
 20
3.021031123
 30
0.0
 10
3.5485030311
 20
3.0232201349
 30
0.0
 10
3.5480264093
 20
3.0255678884
 30
0.0
 10
3.5476030389
 20
3.0280523423
 30
0.0
 10
3.5472426082
 20
3.0306514393
 30
0.0
 10
3.5469531413
 20
3.0333428474
 30
0.0
 10
3.5467417396
 20
3.0361040481
 30
0.0
 10
3.5466130324
 20
3.0389118205
 30
0.0
 10
3.5465836959
 20
3.040797033
 30
0.0
 10
3.5465836888
 20
3.0417429813
 30
0.0
  0
SPLINE
  5
2A8
100
AcDbEntity
  8
0
100
AcDbSpline
 62
7
  6
CONTINUOUS
 70
0
 71
3
 72
23
 73
19
 74
0
 42
0.0000001
 43
0.0000001
 44
0.0000000001
 40
0.0
 40
0.0
 40
0.0
 40
0.0
 40
0.0128352822
 40
0.0265720405
 40
0.0415252734
 40
0.0578672292
 40
0.0756429307
 40
0.0948629169
 40
0.1376024127
 40
0.185971377
 40
0.2397242947
 40
0.2985599328
 40
0.3621624457
 40
0.4302273367
 40
0.5024533541
 40
0.6579989041
 40
0.8255463548
 40
1.0
 40
1.0
 40
1.0
 40
1.0
 10
3.5681922785
 20
3.0267429813
 30
0.0
 10
3.5681166261
 20
3.0267429821
 30
0.0
 10
3.5679598071
 20
3.0267565633
 30
0.0
 10
3.5677210724
 20
3.0268135099
 30
0.0
 10
3.5674717292
 20
3.026906038
 30
0.0
 10
3.5672114326
 20
3.0270329977
 30
0.0
 10
3.5669409478
 20
3.0271938223
 30
0.0
 10
3.5665546738
 20
3.0274620717
 30
0.0
 10
3.5660564019
 20
3.0278821216
 30
0.0
 10
3.5654569141
 20
3.0284913672
 30
0.0
 10
3.5648452334
 20
3.0292176466
 30
0.0
 10
3.5642314177
 20
3.0300562183
 30
0.0
 10
3.5636266441
 20
3.0310031282
 30
0.0
 10
3.563042808
 20
3.0320544461
 30
0.0
 10
3.5622905471
 20
3.0336284939
 30
0.0
 10
3.5614877351
 20
3.0358234574
 30
0.0
 10
3.5608543345
 20
3.0386957991
 30
0.0
 10
3.5607044261
 20
3.0407147347
 30
0.0
 10
3.5607043815
 20
3.0417429813
 30
0.0
  0
SPLINE
  5
2A9
100
AcDbEntity
  8
0
100
AcDbSpline
 62
7
  6
CONTINUOUS
 70
0
 71
3
 72
41
 73
37
 74
0
 42
0.0000001
 43
0.0000001
 44
0.0000000001
 40
0.0
 40
0.0
 40
0.0
 40
0.0
 40
0.0033359646
 40
0.0067713686
 40
0.0103972829
 40
0.0142909188
 40
0.0185143723
 40
0.0231157273
 40
0.0281312288
 40
0.0335881616
 40
0.0395068311
 40
0.0459019044
 40
0.0527841439
 40
0.0601612447
 40
0.0680380825
 40
0.076417704
 40
0.0946887646
 40
0.1149722645
 40
0.1372487924
 40
0.1491253144
 40
0.1614874454
 40
0.1876457019
 40
0.2156748697
 40
0.2455185323
 40
0.2771138181
 40
0.3103924911
 40
0.3452808618
 40
0.3817005781
 40
0.4195691315
 40
0.458799623
 40
0.5409802278
 40
0.627480115
 40
0.71749042
 40
0.8101657094
 40
0.9046317394
 40
1.0
 40
1.0
 40
1.0
 40
1.0
 10
5.2317851072
 20
5.0423151748
 30
0.0
 10
5.2317851072
 20
5.0421066885
 30
0.0
 10
5.2318230403
 20
5.0416826065
 30
0.0
 10
5.2319923379
 20
5.0410523051
 30
0.0
 10
5.2322728888
 20
5.0404249803
 30
0.0
 10
5.2326632279
 20
5.0398011485
 30
0.0
 10
5.2331624087
 20
5.0391805837
 30
0.0
 10
5.2337698323
 20
5.0385631036
 30
0.0
 10
5.2344850624
 20
5.0379485639
 30
0.0
 10
5.2353077798
 20
5.0373370308
 30
0.0
 10
5.2362376243
 20
5.0367286876
 30
0.0
 10
5.2372741322
 20
5.0361237435
 30
0.0
 10
5.2384167942
 20
5.0355225033
 30
0.0
 10
5.2396650202
 20
5.0349253211
 30
0.0
 10
5.2410181045
 20
5.0343324838
 30
0.0
 10
5.2430194042
 20
5.0335248784
 30
0.0
 10
5.2457822562
 20
5.0325361679
 30
0.0
 10
5.2494122579
 20
5.0314037717
 30
0.0
 10
5.2526931443
 20
5.0305014909
 30
0.0
 10
5.2555117271
 20
5.0297895799
 30
0.0
 10
5.2585755025
 20
5.0290588194
 30
0.0
 10
5.2626387972
 20
5.0281693211
 30
0.0
 10
5.2677917932
 20
5.0271544892
 30
0.0
 10
5.2732971889
 20
5.026175653
 30
0.0
 10
5.2791417711
 20
5.0252352105
 30
0.0
 10
5.2853115239
 20
5.0243355162
 30
0.0
 10
5.291791623
 20
5.0234787725
 30
0.0
 10
5.2985664913
 20
5.0226670828
 30
0.0
 10
5.3056198388
 20
5.0219024338
 30
0.0
 10
5.315527113
 20
5.0209331138
 30
0.0
 10
5.3284772508
 20
5.0198597939
 30
0.0
 10
5.3446107181
 20
5.018803843
 30
0.0
 10
5.3614139459
 20
5.0179715202
 30
0.0
 10
5.3787251628
 20
5.017371043
 30
0.0
 10
5.3963778557
 20
5.0170083536
 30
0.0
 10
5.4082420072
 20
5.0169276207
 30
0.0
 10
5.4142021951
 20
5.0169276207
 30
0.0
  0
SPLINE
  5
2AA
100
AcDbEntity
  8
0
100
AcDbSpline
 62
7
  6
CONTINUOUS
 70
0
 71
3
 72
19
 73
15
 74
0
 42
0.0000001
 43
0.0000001
 44
0.0000000001
 40
0.0
 40
0.0
 40
0.0
 40
0.0
 40
0.0606379174
 40
0.1213622585
 40
0.1822220452
 40
0.2432963015
 40
0.3046373791
 40
0.3662910244
 40
0.4282905658
 40
0.4906550597
 40
0.6163371107
 40
0.7433627157
 40
0.8714047989
 40
1.0
 40
1.0
 40
1.0
 40
1.0
 10
7.5324629963
 20
3.2457429813
 30
0.0
 10
7.5329249437
 20
3.2457429813
 30
0.0
 10
7.5338502173
 20
3.2456946498
 30
0.0
 10
7.5352238299
 20
3.2454781045
 30
0.0
 10
7.5365709289
 20
3.2451194096
 30
0.0
 10
7.5378782487
 20
3.2446222392
 30
0.0
 10
7.5391332745
 20
3.2439912923
 30
0.0
 10
7.5403238648
 20
3.2432327902
 30
0.0
 10
7.541438666
 20
3.2423539542
 30
0.0
 10
7.5428124923
 20
3.2410306816
 30
0.0
 10
7.5442880729
 20
3.239116769
 30
0.0
 10
7.5455969319
 20
3.2365090569
 30
0.0
 10
7.5464025789
 20
3.2336825503
 30
0.0
 10
7.5465836889
 20
3.231722636
 30
0.0
 10
7.5465836889
 20
3.2307429813
 30
0.0
  0
SPLINE
  5
2AB
100
AcDbEntity
  8
0
100
AcDbSpline
 62
7
  6
CONTINUOUS
 70
0
 71
3
 72
22
 73
18
 74
0
 42
0.0000001
 43
0.0000001
 44
0.0000000001
 40
0.0
 40
0.0
 40
0.0
 40
0.0
 40
0.0148741011
 40
0.0300300556
 40
0.0621041886
 40
0.0979611374
 40
0.1386961508
 40
0.1848997459
 40
0.2368013155
 40
0.294376292
 40
0.3574181661
 40
0.4255845649
 40
0.4984272528
 40
0.575415003
 40
0.655951893
 40
0.8250028145
 40
1.0
 40
1.0
 40
1.0
 40
1.0
 10
7.4565817132
 20
3.2457429813
 30
0.0
 10
7.4566646702
 20
3.2457429813
 30
0.0
 10
7.4568324089
 20
3.2457306242
 30
0.0
 10
7.4571716529
 20
3.2456558635
 30
0.0
 10
7.4575986293
 20
3.2454621598
 30
0.0
 10
7.4580834814
 20
3.2450923674
 30
0.0
 10
7.45855019
 20
3.2445875362
 30
0.0
 10
7.4589962467
 20
3.2439524086
 30
0.0
 10
7.4594188055
 20
3.2431924564
 30
0.0
 10
7.4598143162
 20
3.2423143045
 30
0.0
 10
7.4601791908
 20
3.2413258941
 30
0.0
 10
7.4605099646
 20
3.2402363838
 30
0.0
 10
7.4608034528
 20
3.2390560314
 30
0.0
 10
7.461056834
 20
3.2377960287
 30
0.0
 10
7.4613423898
 20
3.235996716
 30
0.0
 10
7.4615792248
 20
3.2336384003
 30
0.0
 10
7.4616419542
 20
3.2317189903
 30
0.0
 10
7.4616419542
 20
3.2307429813
 30
0.0
  0
SPLINE
  5
2AC
100
AcDbEntity
  8
0
100
AcDbSpline
 62
7
  6
CONTINUOUS
 70
0
 71
3
 72
11
 73
7
 74
0
 42
0.0000001
 43
0.0000001
 44
0.0000000001
 40
0.0
 40
0.0
 40
0.0
 40
0.0
 40
0.2408097642
 40
0.48946741
 40
0.7434037666
 40
1.0
 40
1.0
 40
1.0
 40
1.0
 10
5.3412997169
 20
5.0655857911
 30
0.0
 10
5.3471441308
 20
5.0652311711
 30
0.0
 10
5.3590298165
 20
5.0646126807
 30
0.0
 10
5.3770940036
 20
5.0639556987
 30
0.0
 10
5.3955496785
 20
5.0635586237
 30
0.0
 10
5.4079631929
 20
5.06347022
 30
0.0
 10
5.4142021951
 20
5.06347022
 30
0.0
  0
SPLINE
  5
2AD
100
AcDbEntity
  8
0
100
AcDbSpline
 62
7
  6
CONTINUOUS
 70
0
 71
3
 72
30
 73
26
 74
0
 42
0.0000001
 43
0.0000001
 44
0.0000000001
 40
0.0
 40
0.0
 40
0.0
 40
0.0
 40
0.0903647999
 40
0.1800782093
 40
0.2684681031
 40
0.3548741381
 40
0.4386320014
 40
0.5190963205
 40
0.5955912554
 40
0.6674476209
 40
0.7339743613
 40
0.7944784301
 40
0.8482639118
 40
0.8724260571
 40
0.8946650017
 40
0.9149102639
 40
0.9330978622
 40
0.9491812638
 40
0.963145825
 40
0.9750200642
 40
0.9849159895
 40
0.9891957486
 40
0.9930871842
 40
0.9966581881
 40
1.0
 40
1.0
 40
1.0
 40
1.0
 10
3.2818207013
 20
3.0417429813
 30
0.0
 10
3.2818206825
 20
3.0407970455
 30
0.0
 10
3.2817912114
 20
3.0389118719
 30
0.0
 10
3.2816622764
 20
3.0361041096
 30
0.0
 10
3.2814511565
 20
3.0333428544
 30
0.0
 10
3.2811619057
 20
3.0306513907
 30
0.0
 10
3.2808011763
 20
3.0280523225
 30
0.0
 10
3.2803780654
 20
3.0255678668
 30
0.0
 10
3.2799012947
 20
3.0232201412
 30
0.0
 10
3.279381927
 20
3.0210311599
 30
0.0
 10
3.2788313418
 20
3.0190228556
 30
0.0
 10
3.278261842
 20
3.0172172951
 30
0.0
 10
3.2777662008
 20
3.0158546782
 30
0.0
 10
3.2773667124
 20
3.0148848465
 30
0.0
 10
3.2770810122
 20
3.0142482328
 30
0.0
 10
3.2768000265
 20
3.0136784778
 30
0.0
 10
3.2765252234
 20
3.0131780611
 30
0.0
 10
3.2762580354
 20
3.0127492606
 30
0.0
 10
3.2759998059
 20
3.0123937838
 30
0.0
 10
3.2757515832
 20
3.0121130972
 30
0.0
 10
3.2755441627
 20
3.011933799
 30
0.0
 10
3.2753832388
 20
3.0118337143
 30
0.0
 10
3.2752712635
 20
3.0117820767
 30
0.0
 10
3.2751621709
 20
3.0117504922
 30
0.0
 10
3.2750896732
 20
3.0117430054
 30
0.0
 10
3.2750546912
 20
3.0117429813
 30
0.0
  0
SPLINE
  5
2AE
100
AcDbEntity
  8
0
100
AcDbSpline
 62
7
  6
CONTINUOUS
 70
0
 71
3
 72
23
 73
19
 74
0
 42
0.0000001
 43
0.0000001
 44
0.0000000001
 40
0.0
 40
0.0
 40
0.0
 40
0.0
 40
0.1743968455
 40
0.2594284827
 40
0.3419918601
 40
0.4215209272
 40
0.497565104
 40
0.5697693793
 40
0.6378099464
 40
0.7013838483
 40
0.7602038015
 40
0.8139383968
 40
0.8622874087
 40
0.9049968933
 40
0.9241695238
 40
0.9418955551
 40
0.9733381595
 40
1.0
 40
1.0
 40
1.0
 40
1.0
 10
3.2677000087
 20
3.0417429813
 30
0.0
 10
3.2676999138
 20
3.0407146833
 30
0.0
 10
3.2675851625
 20
3.0391820415
 30
0.0
 10
3.2672197862
 20
3.0371978487
 30
0.0
 10
3.2668558616
 20
3.0357855808
 30
0.0
 10
3.2664144001
 20
3.0344516456
 30
0.0
 10
3.2659121076
 20
3.0332050833
 30
0.0
 10
3.2653611117
 20
3.0320540376
 30
0.0
 10
3.2647772754
 20
3.0310027856
 30
0.0
 10
3.2641730296
 20
3.0300554919
 30
0.0
 10
3.2635587424
 20
3.0292172242
 30
0.0
 10
3.2629469384
 20
3.0284910254
 30
0.0
 10
3.2623475609
 20
3.0278817546
 30
0.0
 10
3.2618495128
 20
3.0274620276
 30
0.0
 10
3.2614641036
 20
3.0271934911
 30
0.0
 10
3.2611178378
 20
3.0269868533
 30
0.0
 10
3.2607065689
 20
3.0268050636
 30
0.0
 10
3.2603638792
 20
3.0267430168
 30
0.0
 10
3.2602066726
 20
3.0267429813
 30
0.0
  0
SPLINE
  5
2AF
100
AcDbEntity
  8
0
100
AcDbSpline
 62
7
  6
CONTINUOUS
 70
0
 71
3
 72
22
 73
18
 74
0
 42
0.0000001
 43
0.0000001
 44
0.0000000001
 40
0.0
 40
0.0
 40
0.0
 40
0.0
 40
0.0148741085
 40
0.0300300679
 40
0.0621042032
 40
0.0979611507
 40
0.1386961638
 40
0.1848997583
 40
0.2368013271
 40
0.2943763028
 40
0.3574181761
 40
0.4255845739
 40
0.4984272607
 40
0.5754150098
 40
0.6559518985
 40
0.8250028176
 40
1.0
 40
1.0
 40
1.0
 40
1.0
 10
7.3718226773
 20
3.2457429813
 30
0.0
 10
7.3717397201
 20
3.2457429813
 30
0.0
 10
7.3715719814
 20
3.2457306242
 30
0.0
 10
7.3712327374
 20
3.2456558635
 30
0.0
 10
7.3708057608
 20
3.2454621598
 30
0.0
 10
7.3703209088
 20
3.2450923674
 30
0.0
 10
7.3698542002
 20
3.2445875362
 30
0.0
 10
7.3694081435
 20
3.2439524086
 30
0.0
 10
7.3689855847
 20
3.2431924563
 30
0.0
 10
7.368590074
 20
3.2423143045
 30
0.0
 10
7.3682251994
 20
3.2413258941
 30
0.0
 10
7.3678944255
 20
3.2402363838
 30
0.0
 10
7.3676009374
 20
3.2390560314
 30
0.0
 10
7.3673475562
 20
3.2377960286
 30
0.0
 10
7.3670620004
 20
3.235996716
 30
0.0
 10
7.3668251652
 20
3.2336384003
 30
0.0
 10
7.3667624362
 20
3.2317189903
 30
0.0
 10
7.3667624362
 20
3.2307429813
 30
0.0
  0
SPLINE
  5
2B0
100
AcDbEntity
  8
0
100
AcDbSpline
 62
7
  6
CONTINUOUS
 70
0
 71
3
 72
19
 73
15
 74
0
 42
0.0000001
 43
0.0000001
 44
0.0000000001
 40
0.0
 40
0.0
 40
0.0
 40
0.0
 40
0.0606379205
 40
0.1213622622
 40
0.1822220484
 40
0.2432963045
 40
0.3046373819
 40
0.366291027
 40
0.4282905681
 40
0.4906550618
 40
0.6163371122
 40
0.7433627168
 40
0.8714047996
 40
1.0
 40
1.0
 40
1.0
 40
1.0
 10
7.295941394
 20
3.2457429813
 30
0.0
 10
7.2954794466
 20
3.2457429813
 30
0.0
 10
7.294554173
 20
3.2456946498
 30
0.0
 10
7.2931805603
 20
3.2454781045
 30
0.0
 10
7.2918334613
 20
3.2451194096
 30
0.0
 10
7.2905261415
 20
3.2446222393
 30
0.0
 10
7.2892711157
 20
3.2439912923
 30
0.0
 10
7.2880805254
 20
3.2432327903
 30
0.0
 10
7.2869657242
 20
3.2423539542
 30
0.0
 10
7.2855918979
 20
3.2410306817
 30
0.0
 10
7.2841163173
 20
3.2391167691
 30
0.0
 10
7.2828074583
 20
3.236509057
 30
0.0
 10
7.2820018112
 20
3.2336825503
 30
0.0
 10
7.2818207013
 20
3.231722636
 30
0.0
 10
7.2818207013
 20
3.2307429813
 30
0.0
  0
ENDSEC
  0
SECTION
  2
OBJECTS
  0
DICTIONARY
  5
C
100
AcDbDictionary
280
0
281
1
  3
ACAD_GROUP
350
D
  3
ACAD_MLINESTYLE
350
17
  3
ACAD_LAYOUT
350
1A
  3
ACAD_PLOTSETTINGS
350
19
  3
ACAD_PLOTSTYLENAME
350
E
  0
DICTIONARY
  5
D
102
{ACAD_REACTORS
330
C
102
}
100
AcDbDictionary
280
0
281
1
  0
ACDBDICTIONARYWDFLT
  5
E
102
{ACAD_REACTORS
330
C
102
}
100
AcDbDictionary
281
1
  3
Normal
350
F
100
AcDbDictionaryWithDefault
340
F
  0
DICTIONARY
  5
17
102
{ACAD_REACTORS
330
C
102
}
100
AcDbDictionary
280
0
281
1
  3
Standard
350
18
  0
DICTIONARY
  5
19
102
{ACAD_REACTORS
330
C
102
}
100
AcDbDictionary
281
1
  0
DICTIONARY
  5
1A
102
{ACAD_REACTORS
330
C
102
}
100
AcDbDictionary
281
1
  3
Model
350
2B1
  3
Layout1
350
2B2
  0
ACDBPLACEHOLDER
  5
F
102
{ACAD_REACTORS
330
E
102
}
  0
MLINESTYLE
  5
18
102
{ACAD_REACTORS
330
17
102
}
100
AcDbMlineStyle
  2
STANDARD
 70
0
  3

 62
256
 51
90.0
 52
90.0
 71
2
 49
0.5
 62
256
  6
BYLAYER
 49
-0.5
 62
256
  6
BYLAYER
  0
LAYOUT
  5
2B1
102
{ACAD_REACTORS
330
1A
102
}
100
AcDbPlotSettings
  1

  2
none_device
  4
ANSI_A_(11.00_x_8.50_Inches)
  6

 40
0.0
 41
0.0
 42
0.0
 43
0.0
 44
279.4
 45
215.9
 46
0.0
 47
0.0
 48
0.0
 49
0.0
140
0.0
141
0.0
142
1.0
143
1.0
 70
1024
 72
0
 73
0
 74
0
  7

 75
0
147
1.0
148
0.0
149
0.0
100
AcDbLayout
  1
Model
 70
0
 71
0
 10
0.0
 20
0.0
 11
11.0
 21
8.5
 12
0.0
 22
0.0
 32
0.0
 14
0.0
 24
0.0
 34
0.0
 15
0.0
 25
0.0
 35
0.0
146
0.0
 13
0.0
 23
0.0
 33
0.0
 16
1.0
 26
0.0
 36
0.0
 17
0.0
 27
1.0
 37
0.0
 76
0
330
202
345
0
346
0
  0
LAYOUT
  5
2B2
102
{ACAD_REACTORS
330
1A
102
}
100
AcDbPlotSettings
  1

  2
none_device
  4
ANSI_A_(11.00_x_8.50_Inches)
  6

 40
0.0
 41
0.0
 42
0.0
 43
0.0
 44
279.4
 45
215.9
 46
0.0
 47
0.0
 48
0.0
 49
0.0
140
0.0
141
0.0
142
1.0
143
1.0
 70
0
 72
0
 73
0
 74
0
  7

 75
0
147
1.0
148
0.0
149
0.0
100
AcDbLayout
  1
Layout1
 70
0
 71
1
 10
0.0
 20
0.0
 11
11.0
 21
8.5
 12
0.0
 22
0.0
 32
0.0
 14
0.0
 24
0.0
 34
0.0
 15
0.0
 25
0.0
 35
0.0
146
0.0
 13
0.0
 23
0.0
 33
0.0
 16
1.0
 26
0.0
 36
0.0
 17
0.0
 27
1.0
 37
0.0
 76
0
330
203
345
0
346
0
  0
ENDSEC
  0
EOF
