999
DXF file: E:\BT Custom\CADOUTPUT\_TOP.dxf
999
Pro/ENGINEER 2018400 by Parametric Technology Corporation
  0
SECTION
  2
HEADER
  9
$ACADVER
  1
AC1018
  9
$DWGCODEPAGE
  3
ANSI_1252
  9
$EXTMAX
 10
22.0
 20
17.0
 30
0.0
  9
$EXTMIN
 10
0.0
 20
0.0
 30
0.0
  9
$LIMMIN
 10
0.0
 20
0.0
  9
$LIMMAX
 10
22.0
 20
17.0
  9
$VIEWCTR
 10
11.0
 20
8.5
  9
$VIEWSIZE
 40
17.0
  9
$CLAYER
  8
0
  9
$LTSCALE
 40
1.21
  9
$CELTYPE
  6
BYLAYER
  9
$DIMSCALE
 40
1.0
  9
$DIMASZ
 40
0.1
  9
$DIMEXO
 40
0.0625
  9
$DIMDLI
 40
0.836
  9
$DIMEXE
 40
0.125
  9
$DIMCEN
 40
0.198
  9
$DIMLFAC
 40
1.0
  9
$DIMBLK
  1
_FILLED
  9
$DIMALT
 70
1
  9
$DIMALTD
 70
2
  9
$DIMALTTD
 70
2
  9
$DIMALTF
 40
25.4
  9
$DIMTXT
 40
0.08
  9
$DIMTOL
 70
1
  9
$DIMLIM
 70
0
  9
$DIMTFAC
 40
1.0
  9
$DIMTP
 40
0.001
  9
$DIMTM
 40
0.001
  9
$DIMGAP
 40
0.09
  9
$DIMDSEP
 70
46
  9
$AUNITS
 70
0
  9
$PDMODE
 70
3
  9
$PDSIZE
 40
0.06
  9
$HANDSEED
  5
31C
  9
$TILEMODE
 70
1
  9
$MEASUREMENT
 70
0
  9
$INSUNITS
 70
1
  0
ENDSEC
  0
SECTION
  2
CLASSES
  0
CLASS
  1
ACDBDICTIONARYWDFLT
  2
AcDbDictionaryWithDefault
  3
AutoCAD 2000
 90
0
 91
1
280
0
281
0
  0
CLASS
  1
ACDBPLACEHOLDER
  2
AcDbPlaceHolder
  3
AutoCAD 2000
 90
0
 91
1
280
0
281
0
  0
CLASS
  1
LAYOUT
  2
AcDbLayout
  3
AutoCAD 2000
 90
0
 91
0
280
0
281
0
  0
ENDSEC
  0
SECTION
  2
TABLES
  0
TABLE
  2
VPORT
  5
8
100
AcDbSymbolTable
 70
2
  0
VPORT
  5
1F4
100
AcDbSymbolTableRecord
100
AcDbViewportTableRecord
  2
*ACTIVE
 70
0
 10
0.0
 20
0.0
 11
1.0
 21
1.0
 12
11.0
 22
8.5
 13
0.0
 23
0.0
 14
1.0
 24
1.0
 15
0.0
 25
0.0
 16
0.0
 26
0.0
 36
1.0
 17
0.0
 27
0.0
 37
0.0
 40
17.0
 41
1.2941176471
 42
50.0
 43
0.0
 44
0.0
 50
0.0
 51
0.0
 71
0
 72
100
 73
1
 74
1
 75
0
 76
0
 77
0
 78
0
  0
ENDTAB
  0
TABLE
  2
LTYPE
  5
5
100
AcDbSymbolTable
 70
6
  0
LTYPE
  5
14
100
AcDbSymbolTableRecord
100
AcDbLinetypeTableRecord
  2
BYBLOCK
 70
0
  3

 72
65
 73
0
 40
0.0
  0
LTYPE
  5
15
100
AcDbSymbolTableRecord
100
AcDbLinetypeTableRecord
  2
BYLAYER
 70
0
  3

 72
65
 73
0
 40
0.0
  0
LTYPE
  5
16
100
AcDbSymbolTableRecord
100
AcDbLinetypeTableRecord
  2
CONTINUOUS
 70
64
  3
Solid line
 72
65
 73
0
 40
0.0
  0
LTYPE
  5
1F5
100
AcDbSymbolTableRecord
100
AcDbLinetypeTableRecord
  2
CENTER
 70
64
  3
____ _ ____ _ ____ _ ____ _ ____ _ ____ _ ____
 72
65
 73
4
 40
0.6
 49
0.375
 74
0
 49
-0.075
 74
0
 49
0.075
 74
0
 49
-0.075
 74
0
  0
LTYPE
  5
1F6
100
AcDbSymbolTableRecord
100
AcDbLinetypeTableRecord
  2
HIDDEN
 70
64
  3
- - - - - - - - - - - - - - - - - - - -
 72
65
 73
2
 40
0.2
 49
0.1
 74
0
 49
-0.1
 74
0
  0
LTYPE
  5
1F7
100
AcDbSymbolTableRecord
100
AcDbLinetypeTableRecord
  2
PHANTOM
 70
64
  3
_____ _ _ _____ _ _ _____ _ _ _____
 72
65
 73
6
 40
0.8
 49
0.45
 74
0
 49
-0.05
 74
0
 49
0.1
 74
0
 49
-0.05
 74
0
 49
0.1
 74
0
 49
-0.05
 74
0
  0
LTYPE
  5
1F8
100
AcDbSymbolTableRecord
100
AcDbLinetypeTableRecord
  2
DOT
 70
64
  3
. . . . . . . . . . . . . . . . . . . .
 72
65
 73
2
 40
0.2
 49
0.1
 74
0
 49
-0.1
 74
0
  0
LTYPE
  5
1F9
100
AcDbSymbolTableRecord
100
AcDbLinetypeTableRecord
  2
DASHED
 70
64
  3
- - - - - - - - - - - - - - - - - - - -
 72
65
 73
2
 40
0.2
 49
0.1
 74
0
 49
-0.1
 74
0
  0
ENDTAB
  0
TABLE
  2
LAYER
  5
2
100
AcDbSymbolTable
 70
36
  0
LAYER
  5
10
100
AcDbSymbolTableRecord
100
AcDbLayerTableRecord
  2
0
 70
0
 62
7
  6
CONTINUOUS
370
-3
390
F
  0
LAYER
  5
1FA
100
AcDbSymbolTableRecord
100
AcDbLayerTableRecord
  2
DEFAULT_1
 70
0
 62
7
  6
CENTER
370
-3
390
F
  0
LAYER
  5
1FB
100
AcDbSymbolTableRecord
100
AcDbLayerTableRecord
  2
DEFAULT_2
 70
0
 62
8
  6
HIDDEN
370
-3
390
F
  0
LAYER
  5
1FC
100
AcDbSymbolTableRecord
100
AcDbLayerTableRecord
  2
DEFAULT_3
 70
0
 62
7
  6
PHANTOM
370
-3
390
F
  0
LAYER
  5
1FD
100
AcDbSymbolTableRecord
100
AcDbLayerTableRecord
  2
ALL_FEATURES
 70
0
 62
7
  6
CONTINUOUS
370
-3
390
F
  0
LAYER
  5
1FE
100
AcDbSymbolTableRecord
100
AcDbLayerTableRecord
  2
AXES_FEATURES
 70
0
 62
7
  6
CONTINUOUS
370
-3
390
F
  0
LAYER
  5
1FF
100
AcDbSymbolTableRecord
100
AcDbLayerTableRecord
  2
DEFAULT_COORDINATE_SYSTEM
 70
0
 62
7
  6
CONTINUOUS
370
-3
390
F
  0
LAYER
  5
200
100
AcDbSymbolTableRecord
100
AcDbLayerTableRecord
  2
DEFAULT_DATUM_AXES
 70
0
 62
7
  6
CONTINUOUS
370
-3
390
F
  0
LAYER
  5
201
100
AcDbSymbolTableRecord
100
AcDbLayerTableRecord
  2
DEFAULT_DATUM_PLANES
 70
0
 62
7
  6
CONTINUOUS
370
-3
390
F
  0
LAYER
  5
202
100
AcDbSymbolTableRecord
100
AcDbLayerTableRecord
  2
DIMENSIONS
 70
0
 62
7
  6
CONTINUOUS
370
-3
390
F
  0
ENDTAB
  0
TABLE
  2
STYLE
  5
3
100
AcDbSymbolTable
 70
1
  0
STYLE
  5
11
100
AcDbSymbolTableRecord
100
AcDbTextStyleTableRecord
  2
STANDARD
 70
0
 40
0.0
 41
0.8
 50
0.0
 71
0
 42
0.2
  3
txt
  4

  0
STYLE
  5
203
100
AcDbSymbolTableRecord
100
AcDbTextStyleTableRecord
  2
TEXTSTYLE_1
 70
0
 40
0.0
 41
0.8
 50
0.0
 71
0
 42
0.2
  3
gdt
  4

  0
ENDTAB
  0
TABLE
  2
VIEW
  5
6
100
AcDbSymbolTable
 70
0
  0
ENDTAB
  0
TABLE
  2
UCS
  5
7
100
AcDbSymbolTable
 70
0
  0
ENDTAB
  0
TABLE
  2
APPID
  5
9
100
AcDbSymbolTable
 70
1
  0
APPID
  5
204
100
AcDbSymbolTableRecord
100
AcDbRegAppTableRecord
  2
ACAD
 70
0
  0
ENDTAB
  0
TABLE
  2
BLOCK_RECORD
  5
1
100
AcDbSymbolTable
 70
0
  0
BLOCK_RECORD
  5
205
100
AcDbSymbolTableRecord
100
AcDbBlockTableRecord
  2
*Model_Space
  0
BLOCK_RECORD
  5
206
100
AcDbSymbolTableRecord
100
AcDbBlockTableRecord
  2
*Paper_Space
  0
BLOCK_RECORD
  5
207
100
AcDbSymbolTableRecord
100
AcDbBlockTableRecord
  2
_FILLED
  0
ENDTAB
  0
TABLE
  2
DIMSTYLE
  5
A
100
AcDbSymbolTable
 70
1
100
AcDbDimStyleTable
 71
0
  0
DIMSTYLE
105
208
100
AcDbSymbolTableRecord
100
AcDbDimStyleTableRecord
  2
STANDARD
 70
0
  3

  4

 40
1.0
 41
0.1
 42
0.0625
 43
0.38
 44
0.125
 45
0.0
 46
0.0
 47
0.001
 48
0.001
140
0.08
141
0.09
142
0.0
143
25.4
144
1.0
145
0.0
146
1.0
147
0.09
 71
1.0
 72
0.0
 73
1
 74
1
 75
0
 76
0
 77
0
 78
4
 79
1
170
1
171
2
172
0
173
0
174
0
175
0
176
0
177
0
178
0
270
2
179
3
271
3
272
3
273
2
274
2
275
0
280
0
281
0
282
0
283
1
284
4
285
0
286
0
287
3
288
0
340
11
278
46
341
207
342
207
343
207
344
207
  0
ENDTAB
  0
ENDSEC
  0
SECTION
  2
BLOCKS
  0
BLOCK
  5
20
100
AcDbEntity
  8
0
100
AcDbBlockBegin
  2
*Model_Space
 70
0
 10
0.0
 20
0.0
 30
0.0
  3
*Model_Space
  1

  0
ENDBLK
  5
21
100
AcDbEntity
  8
0
100
AcDbBlockEnd
  0
BLOCK
  5
1C
100
AcDbEntity
  8
0
100
AcDbBlockBegin
  2
*Paper_Space
 70
0
 10
0.0
 20
0.0
 30
0.0
  3
*Paper_Space
  1

  0
ENDBLK
  5
1D
100
AcDbEntity
  8
0
100
AcDbBlockEnd
  0
BLOCK
  5
209
100
AcDbEntity
  8
0
100
AcDbBlockBegin
  2
_FILLED
 70
64
 10
0.0
 20
0.0
  3
_FILLED
  1

  0
SOLID
  5
20A
100
AcDbEntity
  8
0
  6
BYBLOCK
 62
0
100
AcDbTrace
 10
0.0
 20
0.0
 11
-1.0
 21
0.2
 12
-1.0
 22
-0.2
 13
-1.0
 23
-0.2
  0
ENDBLK
  5
20B
100
AcDbEntity
  8
0
  6
BYBLOCK
 62
0
100
AcDbBlockEnd
  0
ENDSEC
  0
SECTION
  2
ENTITIES
  0
LINE
  5
20C
100
AcDbEntity
  8
0
100
AcDbLine
 62
7
  6
CONTINUOUS
 10
7.1723183383
 20
9.15439916
 11
7.1723183383
 21
9.43439916
  0
LINE
  5
20D
100
AcDbEntity
  8
0
100
AcDbLine
 62
9
  6
CONTINUOUS
 10
7.2023183383
 20
9.12439916
 11
7.2023183383
 21
9.43439916
  0
LINE
  5
20E
100
AcDbEntity
  8
0
100
AcDbLine
 62
9
  6
CONTINUOUS
 10
10.6921484295
 20
5.5311546437
 11
10.6911293629
 21
5.5308956098
  0
LINE
  5
20F
100
AcDbEntity
  8
0
100
AcDbLine
 62
7
  6
CONTINUOUS
 10
11.4035073287
 20
5.5308956023
 11
11.403511105
 21
5.5308958041
  0
LINE
  5
210
100
AcDbEntity
  8
0
100
AcDbLine
 62
7
  6
CONTINUOUS
 10
11.3972238674
 20
5.5306154301
 11
11.4034808774
 21
5.5308942458
  0
LWPOLYLINE
  5
211
100
AcDbEntity
  8
0
100
AcDbPolyline
 62
7
  6
CONTINUOUS
 90
3
 70
0
 10
11.3816500952
 20
5.530312279
 10
11.3859879909
 20
5.5303402447
 10
11.3972238674
 20
5.5306154301
  0
LINE
  5
212
100
AcDbEntity
  8
0
100
AcDbLine
 62
9
  6
CONTINUOUS
 10
11.3073142391
 20
5.7582991533
 11
10.7873224373
 21
5.758299157
  0
LINE
  5
213
100
AcDbEntity
  8
0
100
AcDbLine
 62
7
  6
CONTINUOUS
 10
10.7129865829
 20
5.530312279
 11
11.0473183383
 21
5.530382898
  0
LINE
  5
214
100
AcDbEntity
  8
0
100
AcDbLine
 62
7
  6
CONTINUOUS
 10
11.0473183383
 20
5.5303828986
 11
11.381650094
 21
5.5303122791
  0
LWPOLYLINE
  5
215
100
AcDbEntity
  8
0
100
AcDbPolyline
 62
7
  6
CONTINUOUS
 90
3
 70
0
 10
10.6969029174
 20
5.5306347598
 10
10.7081303449
 20
5.5303465577
 10
10.7129865833
 20
5.530312279
  0
LINE
  5
216
100
AcDbEntity
  8
0
100
AcDbLine
 62
7
  6
CONTINUOUS
 10
10.6911558145
 20
5.5308942449
 11
10.6969029174
 21
5.5306347598
  0
LINE
  5
217
100
AcDbEntity
  8
0
100
AcDbLine
 62
7
  6
CONTINUOUS
 10
10.6911293629
 20
5.5308956098
 11
10.6911255765
 21
5.5308958121
  0
LINE
  5
218
100
AcDbEntity
  8
0
100
AcDbLine
 62
9
  6
CONTINUOUS
 10
11.4024882341
 20
5.5311546345
 11
11.4035073287
 21
5.5308956023
  0
LINE
  5
219
100
AcDbEntity
  8
0
100
AcDbLine
 62
9
  6
CONTINUOUS
 10
11.2779555107
 20
5.8206785561
 11
10.8166811659
 21
5.8206785561
  0
LINE
  5
21A
100
AcDbEntity
  8
0
100
AcDbLine
 62
9
  6
CONTINUOUS
 10
11.2779555107
 20
5.8305527366
 11
10.8166811659
 21
5.8305527366
  0
LINE
  5
21B
100
AcDbEntity
  8
0
100
AcDbLine
 62
9
  6
CONTINUOUS
 10
11.3273183383
 20
5.8521740928
 11
11.3179183172
 21
5.852174093
  0
LINE
  5
21C
100
AcDbEntity
  8
0
100
AcDbLine
 62
9
  6
CONTINUOUS
 10
10.7673183383
 20
5.8521740928
 11
10.7767183595
 21
5.8521740928
  0
LINE
  5
21D
100
AcDbEntity
  8
0
100
AcDbLine
 62
9
  6
CONTINUOUS
 10
10.9533049807
 20
5.9763051732
 11
11.1413316958
 21
5.9763051732
  0
LINE
  5
21E
100
AcDbEntity
  8
0
100
AcDbLine
 62
9
  6
CONTINUOUS
 10
10.9533049807
 20
5.9864150514
 11
11.1413316958
 21
5.9864150514
  0
LINE
  5
21F
100
AcDbEntity
  8
0
100
AcDbLine
 62
9
  6
CONTINUOUS
 10
10.9330542628
 20
6.0076474715
 11
10.922454284
 21
6.0076474715
  0
LINE
  5
220
100
AcDbEntity
  8
0
100
AcDbLine
 62
9
  6
CONTINUOUS
 10
11.1615824138
 20
6.0076474715
 11
11.1721823926
 21
6.0076474715
  0
LINE
  5
221
100
AcDbEntity
  8
0
100
AcDbLine
 62
7
  6
CONTINUOUS
 10
9.8976567549
 20
9.12439916
 11
9.8976567549
 21
9.0943991615
  0
LINE
  5
222
100
AcDbEntity
  8
0
100
AcDbLine
 62
9
  6
CONTINUOUS
 10
9.9176467483
 20
9.12439916
 11
9.9176467483
 21
9.0943991609
  0
LINE
  5
223
100
AcDbEntity
  8
0
100
AcDbLine
 62
7
  6
CONTINUOUS
 10
10.6908548815
 20
6.2783918459
 11
10.6907015312
 21
6.2783703045
  0
LINE
  5
224
100
AcDbEntity
  8
0
100
AcDbLine
 62
7
  6
CONTINUOUS
 10
10.693624562
 20
6.2785735751
 11
10.6908548815
 21
6.2783918459
  0
LINE
  5
225
100
AcDbEntity
  8
0
100
AcDbLine
 62
7
  6
CONTINUOUS
 10
10.7061386376
 20
6.2792411733
 11
10.6908548815
 21
6.2783918458
  0
LWPOLYLINE
  5
226
100
AcDbEntity
  8
0
100
AcDbPolyline
 62
7
  6
CONTINUOUS
 90
4
 70
0
 10
11.3884862907
 20
6.2792408498
 10
11.3737133565
 20
6.2788783381
 10
11.3511804764
 20
6.2785053709
 10
11.3315280536
 20
6.2783696741
  0
LINE
  5
227
100
AcDbEntity
  8
0
100
AcDbLine
 62
7
  6
CONTINUOUS
 10
11.3316942615
 20
6.2783700447
 11
11.3273183383
 21
6.2783633077
  0
LINE
  5
228
100
AcDbEntity
  8
0
100
AcDbLine
 62
9
  6
CONTINUOUS
 10
10.9330542628
 20
6.143057578
 11
10.922454284
 21
6.143057578
  0
LINE
  5
229
100
AcDbEntity
  8
0
100
AcDbLine
 62
9
  6
CONTINUOUS
 10
11.1615824138
 20
6.143057578
 11
11.1721823925
 21
6.1430575779
  0
LINE
  5
22A
100
AcDbEntity
  8
0
100
AcDbLine
 62
9
  6
CONTINUOUS
 10
11.1436137678
 20
6.1647509377
 11
10.9510229088
 21
6.1647509377
  0
LINE
  5
22B
100
AcDbEntity
  8
0
100
AcDbLine
 62
9
  6
CONTINUOUS
 10
11.1436137678
 20
6.1735309178
 11
10.9510229088
 21
6.1735309178
  0
LINE
  5
22C
100
AcDbEntity
  8
0
100
AcDbLine
 62
9
  6
CONTINUOUS
 10
11.3273183383
 20
6.3133661557
 11
11.3179183225
 21
6.3133661592
  0
LINE
  5
22D
100
AcDbEntity
  8
0
100
AcDbLine
 62
9
  6
CONTINUOUS
 10
10.7673183383
 20
6.3133661343
 11
10.7767183444
 21
6.3133661398
  0
LINE
  5
22E
100
AcDbEntity
  8
0
100
AcDbLine
 62
9
  6
CONTINUOUS
 10
10.837795486
 20
6.3183681332
 11
11.2568411906
 21
6.3183681332
  0
LINE
  5
22F
100
AcDbEntity
  8
0
100
AcDbLine
 62
9
  6
CONTINUOUS
 10
10.837795486
 20
6.3293243444
 11
11.2568411906
 21
6.3293243444
  0
LINE
  5
230
100
AcDbEntity
  8
0
100
AcDbLine
 62
7
  6
CONTINUOUS
 10
10.7673183383
 20
6.2783632616
 11
10.7116882147
 21
6.278493056
  0
LWPOLYLINE
  5
231
100
AcDbEntity
  8
0
100
AcDbPolyline
 62
7
  6
CONTINUOUS
 90
3
 70
0
 10
10.7631083971
 20
6.2783696746
 10
10.7436346858
 20
6.2785033249
 10
10.7213024971
 20
6.2788702289
  0
LINE
  5
232
100
AcDbEntity
  8
0
100
AcDbLine
 62
7
  6
CONTINUOUS
 10
10.7213024971
 20
6.2788702289
 11
10.7061503594
 21
6.2792408505
  0
LINE
  5
233
100
AcDbEntity
  8
0
100
AcDbLine
 62
7
  6
CONTINUOUS
 10
11.4037823019
 20
6.2783917762
 11
11.3884843656
 21
6.2792408016
  0
LINE
  5
234
100
AcDbEntity
  8
0
100
AcDbLine
 62
7
  6
CONTINUOUS
 10
11.4037858269
 20
6.2783912946
 11
11.403782302
 21
6.2783917762
  0
LWPOLYLINE
  5
235
100
AcDbEntity
  8
0
100
AcDbPolyline
 62
7
  6
CONTINUOUS
 90
5
 70
0
 10
10.1002412084
 20
8.8136021364
 10
10.1001417805
 20
8.8030263491
 10
10.1025777736
 20
8.7862151427
 10
10.1081291983
 20
8.7701610979
 10
10.1127713598
 20
8.7613091576
  0
LWPOLYLINE
  5
236
100
AcDbEntity
  8
0
100
AcDbPolyline
 62
7
  6
CONTINUOUS
 90
5
 70
0
 10
12.0085838483
 20
8.8341133412
 10
12.0157621521
 20
8.8367915495
 10
12.0278556829
 20
8.8440189003
 10
12.0379420513
 20
8.8538813553
 10
12.0420894945
 20
8.8597005832
  0
LINE
  5
237
100
AcDbEntity
  8
0
100
AcDbLine
 62
7
  6
CONTINUOUS
 10
12.0079420118
 20
8.8339066397
 11
12.0085842041
 21
8.8341124035
  0
LINE
  5
238
100
AcDbEntity
  8
0
100
AcDbLine
 62
7
  6
CONTINUOUS
 10
10.7673183383
 20
6.59379916
 11
11.3273183383
 21
6.59379916
  0
LINE
  5
239
100
AcDbEntity
  8
0
100
AcDbLine
 62
7
  6
CONTINUOUS
 10
10.7673182544
 20
6.62479916
 11
11.3273183913
 21
6.62479916
  0
LINE
  5
23A
100
AcDbEntity
  8
0
100
AcDbLine
 62
9
  6
CONTINUOUS
 10
11.1413316958
 20
5.9763051732
 11
11.2779555107
 21
5.8305527366
  0
LINE
  5
23B
100
AcDbEntity
  8
0
100
AcDbLine
 62
9
  6
CONTINUOUS
 10
11.1721823926
 20
6.0076474715
 11
11.3179183171
 21
5.8521740928
  0
LINE
  5
23C
100
AcDbEntity
  8
0
100
AcDbLine
 62
9
  6
CONTINUOUS
 10
10.922454284
 20
6.143057578
 11
10.790668919
 21
6.3116335716
  0
LINE
  5
23D
100
AcDbEntity
  8
0
100
AcDbLine
 62
9
  6
CONTINUOUS
 10
10.9510229088
 20
6.1735309178
 11
10.837795486
 21
6.3183681332
  0
LINE
  5
23E
100
AcDbEntity
  8
0
100
AcDbLine
 62
7
  6
CONTINUOUS
 10
10.0995795853
 20
8.8201825218
 11
10.1002253852
 21
8.8136032173
  0
LINE
  5
23F
100
AcDbEntity
  8
0
100
AcDbLine
 62
9
  6
CONTINUOUS
 10
11.4213029794
 20
6.2384040514
 11
11.4213949393
 21
6.2383373951
  0
LINE
  5
240
100
AcDbEntity
  8
0
100
AcDbLine
 62
9
  6
CONTINUOUS
 10
10.6736558324
 20
6.258678283
 11
10.6735690755
 21
6.2591913394
  0
LINE
  5
241
100
AcDbEntity
  8
0
100
AcDbLine
 62
9
  6
CONTINUOUS
 10
10.7873224373
 20
5.758299157
 11
10.7873183383
 21
5.758405009
  0
LINE
  5
242
100
AcDbEntity
  8
0
100
AcDbLine
 62
7
  6
CONTINUOUS
 10
10.7673340861
 20
5.7775596995
 11
10.7673365735
 21
5.7774954464
  0
LINE
  5
243
100
AcDbEntity
  8
0
100
AcDbLine
 62
7
  6
CONTINUOUS
 10
10.7673383402
 20
5.7774500087
 11
10.7673553323
 21
5.7768333457
  0
LINE
  5
244
100
AcDbEntity
  8
0
100
AcDbLine
 62
7
  6
CONTINUOUS
 10
10.7673183383
 20
5.7783511462
 11
10.7673342199
 21
5.7775563337
  0
LINE
  5
245
100
AcDbEntity
  8
0
100
AcDbLine
 62
9
  6
CONTINUOUS
 10
10.7129844487
 20
5.5305926171
 11
10.7129865829
 21
5.530312279
  0
LINE
  5
246
100
AcDbEntity
  8
0
100
AcDbLine
 62
7
  6
CONTINUOUS
 10
10.7673553323
 20
5.7768333457
 11
10.7673580773
 21
5.7763528348
  0
LINE
  5
247
100
AcDbEntity
  8
0
100
AcDbLine
 62
7
  6
CONTINUOUS
 10
10.7673183383
 20
5.7783511462
 11
10.7673183383
 21
6.59379916
  0
LINE
  5
248
100
AcDbEntity
  8
0
100
AcDbLine
 62
9
  6
CONTINUOUS
 10
10.7767183595
 20
5.8521740928
 11
10.7767183444
 21
6.3133661638
  0
LINE
  5
249
100
AcDbEntity
  8
0
100
AcDbLine
 62
9
  6
CONTINUOUS
 10
10.7873183383
 20
5.758405009
 11
10.7873183383
 21
5.8204088592
  0
LINE
  5
24A
100
AcDbEntity
  8
0
100
AcDbLine
 62
9
  6
CONTINUOUS
 10
10.7873183383
 20
6.3329444282
 11
10.7873183383
 21
6.5937991605
  0
LINE
  5
24B
100
AcDbEntity
  8
0
100
AcDbLine
 62
7
  6
CONTINUOUS
 10
10.7943183383
 20
6.62479916
 11
10.7943183383
 21
6.59379916
  0
LINE
  5
24C
100
AcDbEntity
  8
0
100
AcDbLine
 62
7
  6
CONTINUOUS
 10
10.6728523468
 20
6.038755374
 11
10.6721849649
 21
5.5680975322
  0
LINE
  5
24D
100
AcDbEntity
  8
0
100
AcDbLine
 62
7
  6
CONTINUOUS
 10
10.7673576266
 20
5.7762143562
 11
10.7673576391
 21
5.7762175598
  0
LWPOLYLINE
  5
24E
100
AcDbEntity
  8
0
100
AcDbPolyline
 62
7
  6
CONTINUOUS
 90
3
 70
0
 10
10.6734248826
 20
6.2536051638
 10
10.6732624475
 20
6.2427624008
 10
10.6728523468
 20
6.038755374
  0
LINE
  5
24F
100
AcDbEntity
  8
0
100
AcDbLine
 62
9
  6
CONTINUOUS
 10
10.67219341
 20
5.550890608
 11
10.6721925516
 21
5.5508330008
  0
LINE
  5
250
100
AcDbEntity
  8
0
100
AcDbLine
 62
7
  6
CONTINUOUS
 10
10.6735682815
 20
6.2591650117
 11
10.6734248826
 21
6.2536051638
  0
LINE
  5
251
100
AcDbEntity
  8
0
100
AcDbLine
 62
9
  6
CONTINUOUS
 10
10.8166811659
 20
5.8206785561
 11
10.8166811659
 21
5.8305527365
  0
LINE
  5
252
100
AcDbEntity
  8
0
100
AcDbLine
 62
9
  6
CONTINUOUS
 10
10.837795486
 20
6.3293243444
 11
10.837795486
 21
6.3183681332
  0
LINE
  5
253
100
AcDbEntity
  8
0
100
AcDbLine
 62
9
  6
CONTINUOUS
 10
10.922454284
 20
6.143057578
 11
10.922454284
 21
6.0076474715
  0
LINE
  5
254
100
AcDbEntity
  8
0
100
AcDbLine
 62
9
  6
CONTINUOUS
 10
10.9330542628
 20
6.143057578
 11
10.9330542628
 21
6.0076474715
  0
LINE
  5
255
100
AcDbEntity
  8
0
100
AcDbLine
 62
9
  6
CONTINUOUS
 10
10.9510229088
 20
6.1647509377
 11
10.9510229088
 21
6.1735309178
  0
LINE
  5
256
100
AcDbEntity
  8
0
100
AcDbLine
 62
9
  6
CONTINUOUS
 10
10.9533049807
 20
5.9864150514
 11
10.9533049807
 21
5.9763051732
  0
LINE
  5
257
100
AcDbEntity
  8
0
100
AcDbLine
 62
9
  6
CONTINUOUS
 10
11.0473183383
 20
5.5303828986
 11
11.0473183383
 21
5.75829916
  0
LINE
  5
258
100
AcDbEntity
  8
0
100
AcDbLine
 62
9
  6
CONTINUOUS
 10
10.6721860231
 20
5.5681046022
 11
10.6721849649
 21
5.5680975322
  0
LINE
  5
259
100
AcDbEntity
  8
0
100
AcDbLine
 62
7
  6
CONTINUOUS
 10
10.0525537523
 20
8.8597010428
 11
10.0567181076
 21
8.8538608537
  0
LWPOLYLINE
  5
25A
100
AcDbEntity
  8
0
100
AcDbPolyline
 62
7
  6
CONTINUOUS
 90
4
 70
0
 10
9.8977248638
 20
9.0938423799
 10
9.9500339757
 20
9.0174556454
 10
10.004254475
 20
8.935434099
 10
10.0525467158
 20
8.8596966043
  0
LWPOLYLINE
  5
25B
100
AcDbEntity
  8
0
100
AcDbPolyline
 62
7
  6
CONTINUOUS
 90
4
 70
0
 10
10.1127576731
 20
8.7613009808
 10
10.2632072355
 20
8.4917605217
 10
10.3934940358
 20
8.2206734659
 10
10.5010845935
 20
7.9553896417
  0
LWPOLYLINE
  5
25C
100
AcDbEntity
  8
0
100
AcDbPolyline
 62
7
  6
CONTINUOUS
 90
5
 70
0
 10
11.3285692602
 20
6.2270697011
 10
11.3287376216
 20
6.2266221611
 10
11.3281901769
 20
6.2300110967
 10
11.3275932136
 20
6.2384957887
 10
11.3273178998
 20
6.2513042161
  0
LINE
  5
25D
100
AcDbEntity
  8
0
100
AcDbLine
 62
9
  6
CONTINUOUS
 10
11.1413316958
 20
5.9864150514
 11
11.1413316958
 21
5.9763051732
  0
LINE
  5
25E
100
AcDbEntity
  8
0
100
AcDbLine
 62
9
  6
CONTINUOUS
 10
11.1436137678
 20
6.1647509377
 11
11.1436137678
 21
6.1735309178
  0
LINE
  5
25F
100
AcDbEntity
  8
0
100
AcDbLine
 62
9
  6
CONTINUOUS
 10
11.1615824138
 20
6.0076474715
 11
11.1615824138
 21
6.143057578
  0
LINE
  5
260
100
AcDbEntity
  8
0
100
AcDbLine
 62
9
  6
CONTINUOUS
 10
11.1721823926
 20
6.0076474715
 11
11.1721823926
 21
6.143057578
  0
LINE
  5
261
100
AcDbEntity
  8
0
100
AcDbLine
 62
9
  6
CONTINUOUS
 10
11.2568411906
 20
6.3293243444
 11
11.2568411906
 21
6.3183681333
  0
LINE
  5
262
100
AcDbEntity
  8
0
100
AcDbLine
 62
9
  6
CONTINUOUS
 10
11.2779555107
 20
5.8206785561
 11
11.2779555107
 21
5.8305527366
  0
LINE
  5
263
100
AcDbEntity
  8
0
100
AcDbLine
 62
7
  6
CONTINUOUS
 10
11.3003183383
 20
6.62479916
 11
11.3003183383
 21
6.59379916
  0
LINE
  5
264
100
AcDbEntity
  8
0
100
AcDbLine
 62
9
  6
CONTINUOUS
 10
11.3073183383
 20
6.5937991606
 11
11.3073183383
 21
6.3329444285
  0
LINE
  5
265
100
AcDbEntity
  8
0
100
AcDbLine
 62
9
  6
CONTINUOUS
 10
11.3073183383
 20
5.8204088592
 11
11.3073183383
 21
5.758405009
  0
LINE
  5
266
100
AcDbEntity
  8
0
100
AcDbLine
 62
9
  6
CONTINUOUS
 10
11.3179183225
 20
6.3133661689
 11
11.3179183171
 21
5.8521740928
  0
LINE
  5
267
100
AcDbEntity
  8
0
100
AcDbLine
 62
7
  6
CONTINUOUS
 10
11.3273183383
 20
6.59379916
 11
11.3273183383
 21
5.7783511462
  0
LWPOLYLINE
  5
268
100
AcDbEntity
  8
0
100
AcDbPolyline
 62
7
  6
CONTINUOUS
 90
3
 70
0
 10
11.3272785869
 20
5.7763530878
 10
11.3272815639
 20
5.7768476982
 10
11.3272984568
 20
5.7774530085
  0
LINE
  5
269
100
AcDbEntity
  8
0
100
AcDbLine
 62
7
  6
CONTINUOUS
 10
11.3273183383
 20
5.7783552882
 11
11.3273025908
 21
5.7775597096
  0
LINE
  5
26A
100
AcDbEntity
  8
0
100
AcDbLine
 62
9
  6
CONTINUOUS
 10
11.3073183383
 20
5.758405009
 11
11.3073142391
 21
5.7582991533
  0
LWPOLYLINE
  5
26B
100
AcDbEntity
  8
0
100
AcDbPolyline
 62
7
  6
CONTINUOUS
 90
5
 70
0
 10
11.9818779019
 20
8.7613059176
 10
11.9865209961
 20
8.7701598793
 10
11.992072076
 20
8.7862141938
 10
11.9945076549
 20
8.8030256166
 10
11.9944078852
 20
8.8136022605
  0
LINE
  5
26C
100
AcDbEntity
  8
0
100
AcDbLine
 62
7
  6
CONTINUOUS
 10
11.8314294828
 20
8.491760602
 11
11.9818808917
 21
8.7613041412
  0
LWPOLYLINE
  5
26D
100
AcDbEntity
  8
0
100
AcDbPolyline
 62
7
  6
CONTINUOUS
 90
4
 70
0
 10
12.0420916062
 20
8.859699231
 10
12.0903822691
 20
8.9354342031
 10
12.144602736
 20
9.0174556976
 10
12.1969117987
 20
9.0938423593
  0
LWPOLYLINE
  5
26E
100
AcDbEntity
  8
0
100
AcDbPolyline
 62
7
  6
CONTINUOUS
 90
4
 70
0
 10
10.0567181076
 20
8.8538608537
 10
10.0668160003
 20
8.8439974571
 10
10.0789068027
 20
8.8367804875
 10
10.0860549977
 20
8.8341151098
  0
LWPOLYLINE
  5
26F
100
AcDbEntity
  8
0
100
AcDbPolyline
 62
7
  6
CONTINUOUS
 90
3
 70
0
 10
10.0924317899
 20
8.8308448038
 10
10.0968838748
 20
8.8261033832
 10
10.0995795853
 20
8.8201825218
  0
LINE
  5
270
100
AcDbEntity
  8
0
100
AcDbLine
 62
9
  6
CONTINUOUS
 10
11.4224506534
 20
5.5681046022
 11
11.4224517117
 21
5.5680975321
  0
LINE
  5
271
100
AcDbEntity
  8
0
100
AcDbLine
 62
7
  6
CONTINUOUS
 10
11.421222894
 20
6.2530958532
 11
11.4210683953
 21
6.259165005
  0
LINE
  5
272
100
AcDbEntity
  8
0
100
AcDbLine
 62
9
  6
CONTINUOUS
 10
11.4224432557
 20
5.550890601
 11
11.4224441141
 21
5.5508329936
  0
LINE
  5
273
100
AcDbEntity
  8
0
100
AcDbLine
 62
7
  6
CONTINUOUS
 10
11.4213780303
 20
6.242248015
 11
11.421222894
 21
6.2530958532
  0
LWPOLYLINE
  5
274
100
AcDbEntity
  8
0
100
AcDbPolyline
 62
7
  6
CONTINUOUS
 90
3
 70
0
 10
11.4224517117
 20
5.5680975321
 10
11.4221714288
 20
5.810287403
 10
11.4213780303
 20
6.242248015
  0
LINE
  5
275
100
AcDbEntity
  8
0
100
AcDbLine
 62
9
  6
CONTINUOUS
 10
11.3816522279
 20
5.5305926171
 11
11.3816500952
 21
5.530312279
  0
LINE
  5
276
100
AcDbEntity
  8
0
100
AcDbLine
 62
7
  6
CONTINUOUS
 10
11.3273002313
 20
5.7774988511
 11
11.3273016808
 21
5.7775362377
  0
LINE
  5
277
100
AcDbEntity
  8
0
100
AcDbLine
 62
9
  6
CONTINUOUS
 10
11.4209808441
 20
6.2586782825
 11
11.4210676013
 21
6.2591913328
  0
LWPOLYLINE
  5
278
100
AcDbEntity
  8
0
100
AcDbPolyline
 62
7
  6
CONTINUOUS
 90
3
 70
0
 10
11.5935520567
 20
7.9553895702
 10
11.7011426422
 20
8.2206734693
 10
11.8314294828
 20
8.491760602
  0
LWPOLYLINE
  5
279
100
AcDbEntity
  8
0
100
AcDbPolyline
 62
7
  6
CONTINUOUS
 90
5
 70
0
 10
11.9944113403
 20
8.8136025009
 10
11.9950570836
 20
8.8201824934
 10
11.9977527901
 20
8.8261033659
 10
12.0022048765
 20
8.830844796
 10
12.0079420118
 20
8.8339066397
  0
LINE
  5
27A
100
AcDbEntity
  8
0
100
AcDbLine
 62
9
  6
CONTINUOUS
 10
11.1436137678
 20
6.1735309178
 11
11.2568411906
 21
6.3183681332
  0
LINE
  5
27B
100
AcDbEntity
  8
0
100
AcDbLine
 62
9
  6
CONTINUOUS
 10
10.6733336972
 20
6.2384040514
 11
10.6732417373
 21
6.2383373939
  0
LINE
  5
27C
100
AcDbEntity
  8
0
100
AcDbLine
 62
7
  6
CONTINUOUS
 10
10.08669466
 20
8.8339066413
 11
10.0924317899
 21
8.8308448038
  0
LINE
  5
27D
100
AcDbEntity
  8
0
100
AcDbLine
 62
9
  6
CONTINUOUS
 10
12.1769899283
 20
9.12439916
 11
12.1769899283
 21
9.0943991609
  0
LINE
  5
27E
100
AcDbEntity
  8
0
100
AcDbLine
 62
7
  6
CONTINUOUS
 10
12.1969799217
 20
9.12439916
 11
12.1969799217
 21
9.0943991615
  0
LINE
  5
27F
100
AcDbEntity
  8
0
100
AcDbLine
 62
9
  6
CONTINUOUS
 10
11.1721823926
 20
6.143057578
 11
11.3039677576
 21
6.3116335716
  0
LINE
  5
280
100
AcDbEntity
  8
0
100
AcDbLine
 62
9
  6
CONTINUOUS
 10
10.922454284
 20
6.0076474715
 11
10.7767183595
 21
5.8521740928
  0
LINE
  5
281
100
AcDbEntity
  8
0
100
AcDbLine
 62
9
  6
CONTINUOUS
 10
10.9533049807
 20
5.9763051732
 11
10.8166811659
 21
5.8305527366
  0
LINE
  5
282
100
AcDbEntity
  8
0
100
AcDbLine
 62
7
  6
CONTINUOUS
 10
10.0860539572
 20
8.8341119552
 11
10.08669466
 21
8.8339066413
  0
LINE
  5
283
100
AcDbEntity
  8
0
100
AcDbLine
 62
9
  6
CONTINUOUS
 10
12.0401739778
 20
8.8595851378
 11
12.0420904322
 21
8.859697517
  0
LINE
  5
284
100
AcDbEntity
  8
0
100
AcDbLine
 62
9
  6
CONTINUOUS
 10
10.1147695994
 20
8.7614213554
 11
10.1127540366
 21
8.7613070672
  0
LINE
  5
285
100
AcDbEntity
  8
0
100
AcDbLine
 62
9
  6
CONTINUOUS
 10
11.9627983947
 20
8.7614210106
 11
10.1318382769
 21
8.761421726
  0
LINE
  5
286
100
AcDbEntity
  8
0
100
AcDbLine
 62
9
  6
CONTINUOUS
 10
10.071311235
 20
8.8595851303
 11
12.0233256969
 21
8.8595860495
  0
LINE
  5
287
100
AcDbEntity
  8
0
100
AcDbLine
 62
9
  6
CONTINUOUS
 10
11.9818823407
 20
8.7613065664
 11
11.9818783412
 21
8.7613067552
  0
LINE
  5
288
100
AcDbEntity
  8
0
100
AcDbLine
 62
9
  6
CONTINUOUS
 10
11.9818783412
 20
8.7613067552
 11
11.9798673058
 21
8.7614217349
  0
LINE
  5
289
100
AcDbEntity
  8
0
100
AcDbLine
 62
9
  6
CONTINUOUS
 10
10.0525461607
 20
8.8596974904
 11
10.0544619414
 21
8.859586338
  0
LINE
  5
28A
100
AcDbEntity
  8
0
100
AcDbLine
 62
7
  6
CONTINUOUS
 10
9.9176467483
 20
9.0943991609
 11
12.1769899283
 21
9.0943991609
  0
LINE
  5
28B
100
AcDbEntity
  8
0
100
AcDbLine
 62
7
  6
CONTINUOUS
 10
14.8923183383
 20
9.12439916
 11
7.2023183383
 21
9.12439916
  0
LINE
  5
28C
100
AcDbEntity
  8
0
100
AcDbLine
 62
9
  6
CONTINUOUS
 10
14.9223183383
 20
9.15439916
 11
7.1723183383
 21
9.15439916
  0
LINE
  5
28D
100
AcDbEntity
  8
0
100
AcDbLine
 62
7
  6
CONTINUOUS
 10
7.1723183383
 20
9.43439916
 11
14.9223183383
 21
9.43439916
  0
LINE
  5
28E
100
AcDbEntity
  8
0
100
AcDbLine
 62
9
  6
CONTINUOUS
 10
14.8923183383
 20
9.12439916
 11
14.8923183383
 21
9.43439916
  0
LINE
  5
28F
100
AcDbEntity
  8
0
100
AcDbLine
 62
7
  6
CONTINUOUS
 10
14.9223183383
 20
9.15439916
 11
14.9223183383
 21
9.43439916
  0
ARC
  5
290
100
AcDbEntity
  8
0
100
AcDbCircle
 62
7
  6
CONTINUOUS
 10
3.5392475974
 20
5.5628852504
 40
7.8832047839
100
AcDbArc
 50
359.9128218391
 51
0.0379346802
  0
ARC
  5
291
100
AcDbEntity
  8
0
100
AcDbCircle
 62
9
  6
CONTINUOUS
 10
5.5202219311
 20
5.9804288526
 40
5.3853462956
100
AcDbArc
 50
32.3186787301
 51
35.3208734945
  0
ARC
  5
292
100
AcDbEntity
  8
0
100
AcDbCircle
 62
7
  6
CONTINUOUS
 10
5.5147289699
 20
5.9978026598
 40
5.3664682309
100
AcDbArc
 50
32.2267533989
 51
35.2363952629
  0
ARC
  5
293
100
AcDbEntity
  8
0
100
AcDbCircle
 62
9
  6
CONTINUOUS
 10
10.5546128413
 20
5.9785684048
 40
0.7736994064
100
AcDbArc
 50
349.4787557294
 51
350.5978147792
  0
ARC
  5
294
100
AcDbEntity
  8
0
100
AcDbCircle
 62
9
  6
CONTINUOUS
 10
10.6786821277
 20
6.2366919483
 40
0.742624254
100
AcDbArc
 50
1.1543219677
 51
1.6965622251
  0
ARC
  5
295
100
AcDbEntity
  8
0
100
AcDbCircle
 62
9
  6
CONTINUOUS
 10
10.7022165579
 20
6.2370337034
 40
0.7190877272
100
AcDbArc
 50
0.1091872391
 51
1.164873282
  0
ARC
  5
296
100
AcDbEntity
  8
0
100
AcDbCircle
 62
9
  6
CONTINUOUS
 10
10.7137783549
 20
5.9462111365
 40
0.4156192776
100
AcDbArc
 50
268.0061190628
 51
269.8905548836
  0
ARC
  5
297
100
AcDbEntity
  8
0
100
AcDbCircle
 62
9
  6
CONTINUOUS
 10
10.7136073528
 20
5.9428083136
 40
0.4122125687
100
AcDbArc
 50
267.0159528882
 51
268.0134170174
  0
ARC
  5
298
100
AcDbEntity
  8
0
100
AcDbCircle
 62
9
  6
CONTINUOUS
 10
10.1921704228
 20
8.8078089066
 40
0.0902374391
100
AcDbArc
 50
176.2789217897
 51
210.9349334815
  0
ARC
  5
299
100
AcDbEntity
  8
0
100
AcDbCircle
 62
7
  6
CONTINUOUS
 10
10.1051287341
 20
8.8915138069
 40
0.0598886517
100
AcDbArc
 50
212.2169107785
 51
253.3608456954
  0
ARC
  5
29A
100
AcDbEntity
  8
0
100
AcDbCircle
 62
9
  6
CONTINUOUS
 10
10.1084706524
 20
8.8661964922
 40
0.0353364889
100
AcDbArc
 50
235.1648171126
 51
237.769775082
  0
ARC
  5
29B
100
AcDbEntity
  8
0
100
AcDbCircle
 62
7
  6
CONTINUOUS
 10
7.2023183383
 20
9.15439916
 40
0.03
100
AcDbArc
 50
180.0
 51
270.0
  0
ARC
  5
29C
100
AcDbEntity
  8
0
100
AcDbCircle
 62
9
  6
CONTINUOUS
 10
10.6922380445
 20
5.5515177188
 40
0.0203635264
100
AcDbArc
 50
252.1040822156
 51
267.0458103888
  0
ARC
  5
29D
100
AcDbEntity
  8
0
100
AcDbCircle
 62
7
  6
CONTINUOUS
 10
10.0820598402
 20
8.8149721703
 40
0.0201052332
100
AcDbArc
 50
356.2730811192
 51
35.3323101088
  0
ARC
  5
29E
100
AcDbEntity
  8
0
100
AcDbCircle
 62
9
  6
CONTINUOUS
 10
10.6922250689
 20
5.5512441247
 40
0.0200896272
100
AcDbArc
 50
267.0425533725
 51
269.7814233596
  0
ARC
  5
29F
100
AcDbEntity
  8
0
100
AcDbCircle
 62
7
  6
CONTINUOUS
 10
10.6921924261
 20
5.55086726
 40
0.0199998851
100
AcDbArc
 50
180.0852906624
 51
266.9904485136
  0
ARC
  5
2A0
100
AcDbEntity
  8
0
100
AcDbCircle
 62
7
  6
CONTINUOUS
 10
10.6934855047
 20
6.2586026358
 40
0.0198298165
100
AcDbArc
 50
98.2240977343
 51
179.7814262573
  0
ARC
  5
2A1
100
AcDbEntity
  8
0
100
AcDbCircle
 62
7
  6
CONTINUOUS
 10
10.082288986
 20
8.8151785868
 40
0.0197913842
100
AcDbArc
 50
35.3542725766
 51
73.2875527155
  0
ARC
  5
2A2
100
AcDbEntity
  8
0
100
AcDbCircle
 62
9
  6
CONTINUOUS
 10
10.6916293675
 20
5.5509048147
 40
0.0194359626
100
AcDbArc
 50
180.0418802573
 51
198.2590557275
  0
ARC
  5
2A3
100
AcDbEntity
  8
0
100
AcDbCircle
 62
7
  6
CONTINUOUS
 10
9.9176508315
 20
9.080125774
 40
0.0142733874
100
AcDbArc
 50
90.0163908082
 51
103.6953935649
  0
ARC
  5
2A4
100
AcDbEntity
  8
0
100
AcDbCircle
 62
9
  6
CONTINUOUS
 10
10.8174227531
 20
4.1413890034
 40
1.6792897165
100
AcDbArc
 50
90.0253022556
 51
91.0271892303
  0
ARC
  5
2A5
100
AcDbEntity
  8
0
100
AcDbCircle
 62
9
  6
CONTINUOUS
 10
11.2772141909
 20
4.1414179883
 40
1.6792607314
100
AcDbArc
 50
88.9728021637
 51
89.9747064323
  0
ARC
  5
2A6
100
AcDbEntity
  8
0
100
AcDbCircle
 62
9
  6
CONTINUOUS
 10
11.5604662839
 20
5.9821588772
 40
0.7944538081
100
AcDbArc
 50
189.4168028688
 51
190.5066266385
  0
ARC
  5
2A7
100
AcDbEntity
  8
0
100
AcDbCircle
 62
9
  6
CONTINUOUS
 10
11.4135534799
 20
6.2367516485
 40
0.7402224701
100
AcDbArc
 50
178.3025543524
 51
178.8466632772
  0
ARC
  5
2A8
100
AcDbEntity
  8
0
100
AcDbCircle
 62
9
  6
CONTINUOUS
 10
11.4031191515
 20
6.2369147638
 40
0.7297869739
100
AcDbArc
 50
178.8429778754
 51
179.8830755314
  0
ARC
  5
2A9
100
AcDbEntity
  8
0
100
AcDbCircle
 62
9
  6
CONTINUOUS
 10
11.3809096738
 20
5.9455666228
 40
0.4149733672
100
AcDbArc
 50
271.9894177342
 51
272.9807172469
  0
ARC
  5
2AA
100
AcDbEntity
  8
0
100
AcDbCircle
 62
9
  6
CONTINUOUS
 10
11.3809432522
 20
5.9415809527
 40
0.4109889471
100
AcDbArc
 50
270.0988380142
 51
272.0040284088
  0
ARC
  5
2AB
100
AcDbEntity
  8
0
100
AcDbCircle
 62
9
  6
CONTINUOUS
 10
10.9588188736
 20
5.5350571587
 40
0.2870624468
100
AcDbArc
 50
173.1392658654
 51
176.8381436231
  0
ARC
  5
2AC
100
AcDbEntity
  8
0
100
AcDbCircle
 62
9
  6
CONTINUOUS
 10
11.1391831378
 20
5.5353521175
 40
0.2836859864
100
AcDbArc
 50
3.1398626982
 51
6.882478592
  0
ARC
  5
2AD
100
AcDbEntity
  8
0
100
AcDbCircle
 62
9
  6
CONTINUOUS
 10
11.4023986197
 20
5.551517712
 40
0.0203635288
100
AcDbArc
 50
272.9542659103
 51
287.8959171436
  0
ARC
  5
2AE
100
AcDbEntity
  8
0
100
AcDbCircle
 62
9
  6
CONTINUOUS
 10
11.4024115948
 20
5.5512441255
 40
0.0200896372
100
AcDbArc
 50
270.2185763509
 51
272.9575243135
  0
ARC
  5
2AF
100
AcDbEntity
  8
0
100
AcDbCircle
 62
7
  6
CONTINUOUS
 10
11.40244424
 20
5.550867251
 40
0.0199998851
100
AcDbArc
 50
273.0095965199
 51
359.9147125631
  0
ARC
  5
2B0
100
AcDbEntity
  8
0
100
AcDbCircle
 62
7
  6
CONTINUOUS
 10
11.4010773121
 20
6.2585757418
 40
0.0199995393
100
AcDbArc
 50
1.691798407
 51
82.2166263388
  0
ARC
  5
2B1
100
AcDbEntity
  8
0
100
AcDbCircle
 62
9
  6
CONTINUOUS
 10
10.7873018643
 20
5.7783989142
 40
0.0199951071
100
AcDbArc
 50
182.3251374617
 51
270.0472041466
  0
ARC
  5
2B2
100
AcDbEntity
  8
0
100
AcDbCircle
 62
9
  6
CONTINUOUS
 10
11.3073274226
 20
5.8404016197
 40
0.0199915159
100
AcDbArc
 50
269.9739660452
 51
359.9746127227
  0
ARC
  5
2B3
100
AcDbEntity
  8
0
100
AcDbCircle
 62
9
  6
CONTINUOUS
 10
10.787309254
 20
5.8404016188
 40
0.0199915159
100
AcDbArc
 50
180.0253871514
 51
270.0260339849
  0
ARC
  5
2B4
100
AcDbEntity
  8
0
100
AcDbCircle
 62
9
  6
CONTINUOUS
 10
11.3073398887
 20
5.7783978819
 40
0.019989908
100
AcDbArc
 50
269.9384705154
 51
357.684736325
  0
ARC
  5
2B5
100
AcDbEntity
  8
0
100
AcDbCircle
 62
9
  6
CONTINUOUS
 10
11.4011511729
 20
6.2586026346
 40
0.0198298155
100
AcDbArc
 50
0.218575644
 51
1.6301778945
  0
ARC
  5
2B6
100
AcDbEntity
  8
0
100
AcDbCircle
 62
9
  6
CONTINUOUS
 10
11.4029191419
 20
5.5509131029
 40
0.0195241267
100
AcDbArc
 50
341.7409483848
 51
359.933965557
  0
ARC
  5
2B7
100
AcDbEntity
  8
0
100
AcDbCircle
 62
9
  6
CONTINUOUS
 10
11.1551564073
 20
7.5533971508
 40
1.229901663
100
AcDbArc
 50
276.4522970948
 51
277.1067728579
  0
ARC
  5
2B8
100
AcDbEntity
  8
0
100
AcDbCircle
 62
9
  6
CONTINUOUS
 10
10.9384712269
 20
7.5449094668
 40
1.2213543509
100
AcDbArc
 50
262.8909380554
 51
263.549994083
  0
ARC
  5
2B9
100
AcDbEntity
  8
0
100
AcDbCircle
 62
9
  6
CONTINUOUS
 10
10.9260934232
 20
7.4590817468
 40
1.1554120958
100
AcDbArc
 50
262.571841555
 51
263.2689563443
  0
ARC
  5
2BA
100
AcDbEntity
  8
0
100
AcDbCircle
 62
9
  6
CONTINUOUS
 10
11.1685476607
 20
7.4590420563
 40
1.1553721623
100
AcDbArc
 50
276.7310572981
 51
277.4281957376
  0
ARC
  5
2BB
100
AcDbEntity
  8
0
100
AcDbCircle
 62
9
  6
CONTINUOUS
 10
10.9924091029
 20
6.9113867544
 40
1.0950269189
100
AcDbArc
 50
258.7794715075
 51
260.7653411727
  0
ARC
  5
2BC
100
AcDbEntity
  8
0
100
AcDbCircle
 62
9
  6
CONTINUOUS
 10
11.104122122
 20
6.9009323376
 40
1.0844028632
100
AcDbArc
 50
279.2244991128
 51
281.2298248291
  0
ARC
  5
2BD
100
AcDbEntity
  8
0
100
AcDbCircle
 62
7
  6
CONTINUOUS
 10
11.9024689004
 20
8.8078084533
 40
0.0902364424
100
AcDbArc
 50
329.0647327498
 51
3.7214145626
  0
ARC
  5
2BE
100
AcDbEntity
  8
0
100
AcDbCircle
 62
9
  6
CONTINUOUS
 10
11.9895047006
 20
8.8915144952
 40
0.0598891207
100
AcDbArc
 50
286.6411991018
 51
327.7828275236
  0
ARC
  5
2BF
100
AcDbEntity
  8
0
100
AcDbCircle
 62
9
  6
CONTINUOUS
 10
11.9861638793
 20
8.8661890866
 40
0.0353297315
100
AcDbArc
 50
302.2369941612
 51
304.8431451806
  0
ARC
  5
2C0
100
AcDbEntity
  8
0
100
AcDbCircle
 62
7
  6
CONTINUOUS
 10
12.1769724769
 20
9.0800127309
 40
0.0143864406
100
AcDbArc
 50
76.358927896
 51
89.9304977995
  0
ARC
  5
2C1
100
AcDbEntity
  8
0
100
AcDbCircle
 62
7
  6
CONTINUOUS
 10
18.003175289
 20
5.5626479556
 40
7.3309912966
100
AcDbArc
 50
179.9573532634
 51
180.0918902867
  0
ARC
  5
2C2
100
AcDbEntity
  8
0
100
AcDbCircle
 62
9
  6
CONTINUOUS
 10
16.574404583
 20
5.9804266186
 40
5.3853391775
100
AcDbArc
 50
144.679043703
 51
147.6812336625
  0
ARC
  5
2C3
100
AcDbEntity
  8
0
100
AcDbCircle
 62
9
  6
CONTINUOUS
 10
16.5798922002
 20
5.9978129994
 40
5.3664496001
100
AcDbArc
 50
144.7635996682
 51
147.7732668519
  0
ARC
  5
2C4
100
AcDbEntity
  8
0
100
AcDbCircle
 62
7
  6
CONTINUOUS
 10
14.8923183383
 20
9.15439916
 40
0.03
100
AcDbArc
 50
270.0
 51
360.0
  0
ARC
  5
2C5
100
AcDbEntity
  8
0
100
AcDbCircle
 62
9
  6
CONTINUOUS
 10
10.84833972
 20
150.465130678
 40
144.934600508
100
AcDbArc
 50
269.9464911291
 51
270.0786605723
  0
SPLINE
  5
2C6
100
AcDbEntity
  8
0
100
AcDbSpline
 62
7
  6
CONTINUOUS
 70
0
 71
3
 72
11
 73
7
 74
0
 42
0.0000001
 43
0.0000001
 44
0.0000000001
 40
0.0
 40
0.0
 40
0.0
 40
0.0
 40
0.2494931864
 40
0.4992915177
 40
0.7494460298
 40
1.0
 40
1.0
 40
1.0
 40
1.0
 10
10.6874728724
 20
6.277623789
 30
0.0
 10
10.6855345499
 20
6.277001589
 30
0.0
 10
10.6818250823
 20
6.27513843
 30
0.0
 10
10.6773893843
 20
6.2707934873
 30
0.0
 10
10.6744690069
 20
6.2653040056
 30
0.0
 10
10.6737218472
 20
6.2612103286
 30
0.0
 10
10.673663714
 20
6.2591667624
 30
0.0
  0
LINE
  5
2C7
100
AcDbEntity
  8
0
100
AcDbLine
 62
7
  6
CONTINUOUS
 10
11.3315280533
 20
6.2783697951
 11
11.3273183523
 21
6.2783604858
  0
LINE
  5
2C8
100
AcDbEntity
  8
0
100
AcDbLine
 62
7
  6
CONTINUOUS
 10
10.7673183242
 20
6.2783604857
 11
10.7631083974
 21
6.2783697955
  0
LINE
  5
2C9
100
AcDbEntity
  8
0
100
AcDbLine
 62
7
  6
CONTINUOUS
 10
10.0860662997
 20
8.8341127771
 11
10.0879803666
 21
8.8341339838
  0
SPLINE
  5
2CA
100
AcDbEntity
  8
0
100
AcDbSpline
 62
7
  6
CONTINUOUS
 70
0
 71
3
 72
16
 73
12
 74
0
 42
0.0000001
 43
0.0000001
 44
0.0000000001
 40
0.0
 40
0.0
 40
0.0
 40
0.0
 40
0.1214796129
 40
0.2441897285
 40
0.3680455672
 40
0.4303738389
 40
0.4929480996
 40
0.618752441
 40
0.7453104458
 40
0.8724613398
 40
1.0
 40
1.0
 40
1.0
 40
1.0
 10
10.5010862271
 20
7.9553847246
 30
0.0
 10
10.5200114163
 20
7.903575982
 30
0.0
 10
10.5561172428
 20
7.7987145107
 30
0.0
 10
10.6045945275
 20
7.6387535399
 30
0.0
 10
10.6401900923
 20
7.5030556281
 30
0.0
 10
10.6657083688
 20
7.3930226237
 30
0.0
 10
10.6892871612
 20
7.2816531575
 30
0.0
 10
10.7148602736
 20
7.1409243751
 30
0.0
 10
10.7391330827
 20
6.970284666
 30
0.0
 10
10.7569915289
 20
6.7980654151
 30
0.0
 10
10.7645912187
 20
6.6826431194
 30
0.0
 10
10.7673183379
 20
6.6247991679
 30
0.0
  0
SPLINE
  5
2CB
100
AcDbEntity
  8
0
100
AcDbSpline
 62
7
  6
CONTINUOUS
 70
0
 71
3
 72
16
 73
12
 74
0
 42
0.0000001
 43
0.0000001
 44
0.0000000001
 40
0.0
 40
0.0
 40
0.0
 40
0.0
 40
0.1214800478
 40
0.244190475
 40
0.3680456923
 40
0.4303738077
 40
0.4929481878
 40
0.618752904
 40
0.7453107144
 40
0.8724613859
 40
1.0
 40
1.0
 40
1.0
 40
1.0
 10
11.5935506017
 20
7.9553851689
 30
0.0
 10
11.5746253627
 20
7.9035762138
 30
0.0
 10
11.538519465
 20
7.798714369
 30
0.0
 10
11.4900420545
 20
7.6387533171
 30
0.0
 10
11.454446519
 20
7.5030555646
 30
0.0
 10
11.4289283426
 20
7.3930228035
 30
0.0
 10
11.4053495396
 20
7.2816531426
 30
0.0
 10
11.3797763666
 20
7.1409241819
 30
0.0
 10
11.3555036074
 20
6.9702844247
 30
0.0
 10
11.3376450741
 20
6.7980653365
 30
0.0
 10
11.3300453436
 20
6.6826431211
 30
0.0
 10
11.3273183385
 20
6.624799165
 30
0.0
  0
LINE
  5
2CC
100
AcDbEntity
  8
0
100
AcDbLine
 62
7
  6
CONTINUOUS
 10
9.8979453658
 20
9.0939933809
 11
9.8976567535
 21
9.0943991611
  0
LINE
  5
2CD
100
AcDbEntity
  8
0
100
AcDbLine
 62
7
  6
CONTINUOUS
 10
12.1969799217
 20
9.0943991615
 11
12.1966913336
 21
9.0939933323
  0
LINE
  5
2CE
100
AcDbEntity
  8
0
100
AcDbLine
 62
7
  6
CONTINUOUS
 10
11.3272899253
 20
5.7775051477
 11
11.327278616
 21
5.7763519022
  0
SPLINE
  5
2CF
100
AcDbEntity
  8
0
100
AcDbSpline
 62
7
  6
CONTINUOUS
 70
0
 71
3
 72
11
 73
7
 74
0
 42
0.0000001
 43
0.0000001
 44
0.0000000001
 40
0.0
 40
0.0
 40
0.0
 40
0.0
 40
0.2442098469
 40
0.4922330669
 40
0.7441465434
 40
1.0
 40
1.0
 40
1.0
 40
1.0
 10
11.9798673058
 20
8.7614217349
 30
0.0
 10
11.9424281775
 20
8.6989130453
 30
0.0
 10
11.8696723512
 20
8.5712736004
 30
0.0
 10
11.7685124973
 20
8.3735457135
 30
0.0
 10
11.6753975127
 20
8.1680765764
 30
0.0
 10
11.6197428947
 20
8.0270881119
 30
0.0
 10
11.5935506017
 20
7.9553851689
 30
0.0
  0
SPLINE
  5
2D0
100
AcDbEntity
  8
0
100
AcDbSpline
 62
7
  6
CONTINUOUS
 70
0
 71
3
 72
11
 73
7
 74
0
 42
0.0000001
 43
0.0000001
 44
0.0000000001
 40
0.0
 40
0.0
 40
0.0
 40
0.0
 40
0.2442096938
 40
0.4922319237
 40
0.7441453271
 40
1.0
 40
1.0
 40
1.0
 40
1.0
 10
10.1147695994
 20
8.7614213554
 30
0.0
 10
10.1522084714
 20
8.6989125635
 30
0.0
 10
10.2249642097
 20
8.5712734717
 30
0.0
 10
10.3261241869
 20
8.3735460405
 30
0.0
 10
10.4192390142
 20
8.1680767727
 30
0.0
 10
10.4748937748
 20
8.0270879977
 30
0.0
 10
10.5010862271
 20
7.9553847246
 30
0.0
  0
LINE
  5
2D1
100
AcDbEntity
  8
0
100
AcDbLine
 62
7
  6
CONTINUOUS
 10
12.0066555795
 20
8.8341337666
 11
12.0085706335
 21
8.8341127634
  0
LINE
  5
2D2
100
AcDbEntity
  8
0
100
AcDbLine
 62
9
  6
CONTINUOUS
 10
10.6733336972
 20
6.2384040514
 11
10.6724108374
 21
5.7660248191
  0
LINE
  5
2D3
100
AcDbEntity
  8
0
100
AcDbLine
 62
9
  6
CONTINUOUS
 10
10.6724108374
 20
5.7660248191
 11
10.6721921406
 21
5.5756323418
  0
LINE
  5
2D4
100
AcDbEntity
  8
0
100
AcDbLine
 62
9
  6
CONTINUOUS
 10
10.6721921406
 20
5.5756323418
 11
10.6721860231
 21
5.5681046023
  0
SPLINE
  5
2D5
100
AcDbEntity
  8
0
100
AcDbSpline
 62
9
  6
CONTINUOUS
 70
0
 71
3
 72
24
 73
20
 74
0
 42
0.0000001
 43
0.0000001
 44
0.0000000001
 40
0.0
 40
0.0
 40
0.0
 40
0.0
 40
0.0910703985
 40
0.1767291858
 40
0.2577151416
 40
0.3346351315
 40
0.4079662959
 40
0.478034283
 40
0.5450196577
 40
0.6089714816
 40
0.6697888604
 40
0.727284404
 40
0.7812531735
 40
0.8315298228
 40
0.878082372
 40
0.9211552942
 40
0.9613839255
 40
0.980798152
 40
1.0
 40
1.0
 40
1.0
 40
1.0
 10
10.6738119545
 20
5.5693486211
 30
0.0
 10
10.6746505303
 20
5.5762850245
 30
0.0
 10
10.6767914327
 20
5.5896903958
 30
0.0
 10
10.6814361474
 20
5.6089284666
 30
0.0
 10
10.6872011518
 20
5.6267217342
 30
0.0
 10
10.6938810132
 20
5.6431718793
 30
0.0
 10
10.7012600146
 20
5.6583909206
 30
0.0
 10
10.7091243196
 20
5.6724944982
 30
0.0
 10
10.71726165
 20
5.6855989928
 30
0.0
 10
10.7254583542
 20
5.6978176987
 30
0.0
 10
10.7335015126
 20
5.7092567935
 30
0.0
 10
10.741177776
 20
5.720016543
 30
0.0
 10
10.748274242
 20
5.7301967437
 30
0.0
 10
10.7545805393
 20
5.7399002997
 30
0.0
 10
10.7598885351
 20
5.7492409452
 30
0.0
 10
10.7639933376
 20
5.7583390737
 30
0.0
 10
10.7662525709
 20
5.7659269764
 30
0.0
 10
10.767184896
 20
5.7719116041
 30
0.0
 10
10.7673524147
 20
5.7748756559
 30
0.0
 10
10.7673581678
 20
5.776348808
 30
0.0
  0
SPLINE
  5
2D6
100
AcDbEntity
  8
0
100
AcDbSpline
 62
9
  6
CONTINUOUS
 70
0
 71
3
 72
34
 73
30
 74
0
 42
0.0000001
 43
0.0000001
 44
0.0000000001
 40
0.0
 40
0.0
 40
0.0
 40
0.0
 40
0.1043914268
 40
0.199708721
 40
0.2887193309
 40
0.3734037491
 40
0.4547951707
 40
0.5329917879
 40
0.6074391496
 40
0.6771013772
 40
0.7406052464
 40
0.7695597102
 40
0.7963774112
 40
0.8208580676
 40
0.842815789
 40
0.8620971785
 40
0.8786164287
 40
0.892432111
 40
0.8984349367
 40
0.9039444738
 40
0.9091039254
 40
0.9141087892
 40
0.9191951219
 40
0.9246104352
 40
0.9305822188
 40
0.937300794
 40
0.9535379358
 40
0.9742363491
 40
1.0
 40
1.0
 40
1.0
 40
1.0
 10
10.673655833
 20
6.258678283
 30
0.0
 10
10.6775036262
 20
6.2592909389
 30
0.0
 10
10.6849663527
 20
6.2599315367
 30
0.0
 10
10.6957563962
 20
6.2591182363
 30
0.0
 10
10.7055632506
 20
6.2567877443
 30
0.0
 10
10.7144381072
 20
6.2532620008
 30
0.0
 10
10.7224447618
 20
6.2488605608
 30
0.0
 10
10.7296371771
 20
6.2438822862
 30
0.0
 10
10.7360615524
 20
6.2386208807
 30
0.0
 10
10.741759996
 20
6.2333656917
 30
0.0
 10
10.7460580487
 20
6.229105921
 30
0.0
 10
10.749197279
 20
6.2259494173
 30
0.0
 10
10.7513185223
 20
6.2238346008
 30
0.0
 10
10.7532835235
 20
6.2219330926
 30
0.0
 10
10.755095904
 20
6.2202795256
 30
0.0
 10
10.7567604331
 20
6.218906939
 30
0.0
 10
10.758282289
 20
6.2178479637
 30
0.0
 10
10.7594957679
 20
6.2172233658
 30
0.0
 10
10.7604012669
 20
6.2169430159
 30
0.0
 10
10.7610186861
 20
6.2168463949
 30
0.0
 10
10.7616071872
 20
6.2168598179
 30
0.0
 10
10.762165708
 20
6.2169905895
 30
0.0
 10
10.7626911333
 20
6.217243799
 30
0.0
 10
10.7631812083
 20
6.217621445
 30
0.0
 10
10.7636366277
 20
6.2181246824
 30
0.0
 10
10.7642382576
 20
6.2190248352
 30
0.0
 10
10.7648906768
 20
6.2205296781
 30
0.0
 10
10.7655187367
 20
6.222787168
 30
0.0
 10
10.7658327109
 20
6.2244947924
 30
0.0
 10
10.7659812571
 20
6.2254448412
 30
0.0
  0
SPLINE
  5
2D7
100
AcDbEntity
  8
0
100
AcDbSpline
 62
9
  6
CONTINUOUS
 70
0
 71
3
 72
11
 73
7
 74
0
 42
0.0000001
 43
0.0000001
 44
0.0000000001
 40
0.0
 40
0.0
 40
0.0
 40
0.0
 40
0.1812942659
 40
0.4063544279
 40
0.6782850467
 40
1.0
 40
1.0
 40
1.0
 40
1.0
 10
10.7659812571
 20
6.2254448412
 30
0.0
 10
10.7662211405
 20
6.2269790507
 30
0.0
 10
10.7666112167
 20
6.2304405495
 30
0.0
 10
10.7669894718
 20
6.2362388485
 30
0.0
 10
10.7672291832
 20
6.2432481283
 30
0.0
 10
10.767298094
 20
6.2483326729
 30
0.0
 10
10.7673177542
 20
6.2510882057
 30
0.0
  0
SPLINE
  5
2D8
100
AcDbEntity
  8
0
100
AcDbSpline
 62
9
  6
CONTINUOUS
 70
0
 71
3
 72
15
 73
11
 74
0
 42
0.0000001
 43
0.0000001
 44
0.0000000001
 40
0.0
 40
0.0
 40
0.0
 40
0.0
 40
0.1536920326
 40
0.2963679874
 40
0.4308665873
 40
0.5587440915
 40
0.6804114509
 40
0.7953892644
 40
0.9024894784
 40
1.0
 40
1.0
 40
1.0
 40
1.0
 10
11.38848428
 20
6.2792459969
 30
0.0
 10
11.3849282224
 20
6.2791497437
 30
0.0
 10
11.3780715611
 20
6.2784671767
 30
0.0
 10
11.3683725106
 20
6.2760089402
 30
0.0
 10
11.3596607217
 20
6.2724740084
 30
0.0
 10
11.3518674634
 20
6.2681605246
 30
0.0
 10
11.3449344586
 20
6.2633304738
 30
0.0
 10
11.3388061522
 20
6.2582448379
 30
0.0
 10
11.3334291469
 20
6.2531595203
 30
0.0
 10
11.3301356599
 20
6.2497551243
 30
0.0
 10
11.3285834106
 20
6.2481166841
 30
0.0
  0
LINE
  5
2D9
100
AcDbEntity
  8
0
100
AcDbLine
 62
9
  6
CONTINUOUS
 10
11.994398264
 20
8.813602942
 11
11.9925133616
 21
8.8136651634
  0
SPLINE
  5
2DA
100
AcDbEntity
  8
0
100
AcDbSpline
 62
9
  6
CONTINUOUS
 70
0
 71
3
 72
32
 73
28
 74
0
 42
0.0000001
 43
0.0000001
 44
0.0000000001
 40
0.0
 40
0.0
 40
0.0
 40
0.0
 40
0.1039543689
 40
0.1990815411
 40
0.287992343
 40
0.3725966767
 40
0.4539641279
 40
0.5322909661
 40
0.6071527764
 40
0.6776645453
 40
0.7426092875
 40
0.8005567115
 40
0.8264336001
 40
0.8499992354
 40
0.8710875008
 40
0.8895687531
 40
0.905387271
 40
0.9186436564
 40
0.9297626121
 40
0.9348302367
 40
0.9398030427
 40
0.9449065275
 40
0.9503698311
 40
0.9563997737
 40
0.9631685676
 40
0.9794320589
 40
1.0
 40
1.0
 40
1.0
 40
1.0
 10
11.4209808436
 20
6.2586782825
 30
0.0
 10
11.4172494563
 20
6.2592723911
 30
0.0
 10
11.4100085588
 20
6.2599100109
 30
0.0
 10
11.3995244933
 20
6.2591989766
 30
0.0
 10
11.3899624862
 20
6.2570493598
 30
0.0
 10
11.3812763771
 20
6.2537510228
 30
0.0
 10
11.3734085114
 20
6.2495945398
 30
0.0
 10
11.3663094048
 20
6.2448521405
 30
0.0
 10
11.3599368283
 20
6.2397912548
 30
0.0
 10
11.3542528546
 20
6.2346747443
 30
0.0
 10
11.349221502
 20
6.2297642545
 30
0.0
 10
11.345419055
 20
6.2259198282
 30
0.0
 10
11.3426443545
 20
6.2231744299
 30
0.0
 10
11.3407883022
 20
6.2214057649
 30
0.0
 10
11.3390740664
 20
6.219879159
 30
0.0
 10
11.3374976729
 20
6.2186246534
 30
0.0
 10
11.3360515108
 20
6.2176710541
 30
0.0
 10
11.3347245531
 20
6.2170445231
 30
0.0
 10
11.3336584529
 20
6.2168238619
 30
0.0
 10
11.3328867215
 20
6.2168826136
 30
0.0
 10
11.3323540011
 20
6.2170364873
 30
0.0
 10
11.3318527859
 20
6.2173054247
 30
0.0
 10
11.331384528
 20
6.2176910197
 30
0.0
 10
11.3309482418
 20
6.2181946478
 30
0.0
 10
11.3303714837
 20
6.2190827517
 30
0.0
 10
11.3297427722
 20
6.2205477953
 30
0.0
 10
11.3293823332
 20
6.221839136
 30
0.0
 10
11.3292094461
 20
6.2225664447
 30
0.0
  0
LINE
  5
2DB
100
AcDbEntity
  8
0
100
AcDbLine
 62
9
  6
CONTINUOUS
 10
11.3292094461
 20
6.2225664447
 11
11.3286732428
 21
6.2253316681
  0
SPLINE
  5
2DC
100
AcDbEntity
  8
0
100
AcDbSpline
 62
9
  6
CONTINUOUS
 70
0
 71
3
 72
11
 73
7
 74
0
 42
0.0000001
 43
0.0000001
 44
0.0000000001
 40
0.0
 40
0.0
 40
0.0
 40
0.0
 40
0.1807186461
 40
0.4055503477
 40
0.677656182
 40
1.0
 40
1.0
 40
1.0
 40
1.0
 10
11.3286732428
 20
6.2253316681
 30
0.0
 10
11.3284295758
 20
6.2268673447
 30
0.0
 10
11.3280338793
 20
6.2303371306
 30
0.0
 10
11.3276507457
 20
6.2361559144
 30
0.0
 10
11.3274081934
 20
6.2432016677
 30
0.0
 10
11.3273386959
 20
6.248316019
 30
0.0
 10
11.3273189141
 20
6.2510893674
 30
0.0
  0
LINE
  5
2DD
100
AcDbEntity
  8
0
100
AcDbLine
 62
9
  6
CONTINUOUS
 10
11.4224506534
 20
5.5681046022
 11
11.4224442062
 21
5.5760305715
  0
LINE
  5
2DE
100
AcDbEntity
  8
0
100
AcDbLine
 62
9
  6
CONTINUOUS
 10
11.4224442062
 20
5.5760305715
 11
11.4222288748
 21
5.7638898762
  0
LINE
  5
2DF
100
AcDbEntity
  8
0
100
AcDbLine
 62
9
  6
CONTINUOUS
 10
11.4222288748
 20
5.7638898762
 11
11.4213029794
 21
6.2384040514
  0
SPLINE
  5
2E0
100
AcDbEntity
  8
0
100
AcDbSpline
 62
9
  6
CONTINUOUS
 70
0
 71
3
 72
27
 73
23
 74
0
 42
0.0000001
 43
0.0000001
 44
0.0000000001
 40
0.0
 40
0.0
 40
0.0
 40
0.0
 40
0.0193692302
 40
0.0387290922
 40
0.0583637484
 40
0.0785035645
 40
0.0993246809
 40
0.1209537234
 40
0.1669277109
 40
0.216750431
 40
0.27037765
 40
0.2985552304
 40
0.3275990798
 40
0.3881547472
 40
0.451818795
 40
0.5185063218
 40
0.588304861
 40
0.6614814663
 40
0.7385062813
 40
0.8200285332
 40
0.9068644023
 40
1.0
 40
1.0
 40
1.0
 40
1.0
 10
11.307314463
 20
5.7582991537
 30
0.0
 10
11.3071667519
 20
5.7566857212
 30
0.0
 10
11.3070625715
 20
5.7534390165
 30
0.0
 10
11.3074650825
 20
5.7485643053
 30
0.0
 10
11.3083890366
 20
5.7436965076
 30
0.0
 10
11.3097966657
 20
5.7388206505
 30
0.0
 10
11.3116507287
 20
5.7339193319
 30
0.0
 10
11.3147334557
 20
5.7271909024
 30
0.0
 10
11.3195748457
 20
5.718626671
 30
0.0
 10
11.3264665702
 20
5.7081946445
 30
0.0
 10
11.3328709693
 20
5.6992372968
 30
0.0
 10
11.3383274716
 20
5.6917407738
 30
0.0
 10
11.3441292402
 20
5.6837786486
 30
0.0
 10
11.3516045041
 20
5.6733627796
 30
0.0
 10
11.3605571258
 20
5.6601355589
 30
0.0
 10
11.3693365454
 20
5.6458719133
 30
0.0
 10
11.3776657389
 20
5.6304250591
 30
0.0
 10
11.3852671742
 20
5.6136473969
 30
0.0
 10
11.3918570369
 20
5.5953956281
 30
0.0
 10
11.3971635305
 20
5.5755404987
 30
0.0
 10
11.4009225986
 20
5.5539644771
 30
0.0
 10
11.4021717065
 20
5.5389387662
 30
0.0
 10
11.4024882337
 20
5.5311546765
 30
0.0
  0
LINE
  5
2E1
100
AcDbEntity
  8
0
100
AcDbLine
 62
9
  6
CONTINUOUS
 10
11.0473183383
 20
5.5306667433
 11
11.3816522264
 21
5.5305933608
  0
SPLINE
  5
2E2
100
AcDbEntity
  8
0
100
AcDbSpline
 62
9
  6
CONTINUOUS
 70
0
 71
3
 72
18
 73
14
 74
0
 42
0.0000001
 43
0.0000001
 44
0.0000000001
 40
0.0
 40
0.0
 40
0.0
 40
0.0
 40
0.1249135617
 40
0.2499094346
 40
0.3124561935
 40
0.3750205816
 40
0.4376329669
 40
0.5001857063
 40
0.5627515483
 40
0.6253490282
 40
0.750233365
 40
0.8751625572
 40
1.0
 40
1.0
 40
1.0
 40
1.0
 10
10.9510229088
 20
6.1647509377
 30
0.0
 10
10.9496897678
 20
6.1647509211
 30
0.0
 10
10.9470150573
 20
6.1645512395
 30
0.0
 10
10.9437794525
 20
6.1636191739
 30
0.0
 10
10.9413932326
 20
6.1624063774
 30
0.0
 10
10.9397465824
 20
6.1612533347
 30
0.0
 10
10.938273508
 20
6.1598861915
 30
0.0
 10
10.9369993993
 20
6.1583322239
 30
0.0
 10
10.9359339646
 20
6.1566299622
 30
0.0
 10
10.9347745051
 20
6.1542213496
 30
0.0
 10
10.9337822271
 20
6.1510186361
 30
0.0
 10
10.933168344
 20
6.1470580763
 30
0.0
 10
10.9330542677
 20
6.1443899066
 30
0.0
 10
10.9330542628
 20
6.143057578
 30
0.0
  0
SPLINE
  5
2E3
100
AcDbEntity
  8
0
100
AcDbSpline
 62
9
  6
CONTINUOUS
 70
0
 71
3
 72
16
 73
12
 74
0
 42
0.0000001
 43
0.0000001
 44
0.0000000001
 40
0.0
 40
0.0
 40
0.0
 40
0.0
 40
0.1249275349
 40
0.2499702967
 40
0.3749171389
 40
0.4998968803
 40
0.6248465254
 40
0.6874203832
 40
0.7499909969
 40
0.8750525665
 40
1.0
 40
1.0
 40
1.0
 40
1.0
 10
10.9330542628
 20
6.0076474715
 30
0.0
 10
10.9330542697
 20
6.0062571917
 30
0.0
 10
10.9332028877
 20
6.0034714724
 30
0.0
 10
10.9340078671
 20
5.9993600133
 30
0.0
 10
10.9355526304
 20
5.9954512245
 30
0.0
 10
10.9379662704
 20
5.991992703
 30
0.0
 10
10.9406795948
 20
5.9897463672
 30
0.0
 10
10.9431258813
 20
5.9884073548
 30
0.0
 10
10.9457151656
 20
5.9873675244
 30
0.0
 10
10.949127459
 20
5.9865856697
 30
0.0
 10
10.9519144794
 20
5.98641506
 30
0.0
 10
10.9533049807
 20
5.9864150514
 30
0.0
  0
SPLINE
  5
2E4
100
AcDbEntity
  8
0
100
AcDbSpline
 62
9
  6
CONTINUOUS
 70
0
 71
3
 72
16
 73
12
 74
0
 42
0.0000001
 43
0.0000001
 44
0.0000000001
 40
0.0
 40
0.0
 40
0.0
 40
0.0
 40
0.1249472665
 40
0.2500086002
 40
0.3125790885
 40
0.375153027
 40
0.5001019517
 40
0.6250818282
 40
0.7500291029
 40
0.8750723623
 40
1.0
 40
1.0
 40
1.0
 40
1.0
 10
11.1413316958
 20
5.9864150514
 30
0.0
 10
11.1427221951
 20
5.9864150631
 30
0.0
 10
11.1455092109
 20
5.9865856616
 30
0.0
 10
11.1489214979
 20
5.987367525
 30
0.0
 10
11.1515107718
 20
5.9884073707
 30
0.0
 10
11.1539570566
 20
5.9897463638
 30
0.0
 10
11.1566704082
 20
5.9919926621
 30
0.0
 10
11.1590840229
 20
5.9954512035
 30
0.0
 10
11.1606287885
 20
5.9993599985
 30
0.0
 10
11.1614338012
 20
6.0034714638
 30
0.0
 10
11.1615824058
 20
6.0062571908
 30
0.0
 10
11.1615824138
 20
6.0076474715
 30
0.0
  0
SPLINE
  5
2E5
100
AcDbEntity
  8
0
100
AcDbSpline
 62
9
  6
CONTINUOUS
 70
0
 71
3
 72
18
 73
14
 74
0
 42
0.0000001
 43
0.0000001
 44
0.0000000001
 40
0.0
 40
0.0
 40
0.0
 40
0.0
 40
0.0195903869
 40
0.0423153296
 40
0.0701671746
 40
0.1041932644
 40
0.1448949989
 40
0.1924090222
 40
0.3076277311
 40
0.4487030794
 40
0.6133296055
 40
0.7985347817
 40
1.0
 40
1.0
 40
1.0
 40
1.0
 10
11.3273183383
 20
5.8403927619
 30
0.0
 10
11.3273183383
 20
5.8403093709
 30
0.0
 10
11.3272755622
 20
5.8401281397
 30
0.0
 10
11.3271031639
 20
5.8398790151
 30
0.0
 10
11.3268322707
 20
5.8396384704
 30
0.0
 10
11.3264626807
 20
5.8394036101
 30
0.0
 10
11.325994791
 20
5.8391742617
 30
0.0
 10
11.3251888361
 20
5.838855736
 30
0.0
 10
11.3239453634
 20
5.8384922511
 30
0.0
 10
11.3221932352
 20
5.8381138984
 30
0.0
 10
11.3201296827
 20
5.8377794777
 30
0.0
 10
11.3177994625
 20
5.8374978301
 30
0.0
 10
11.316159514
 20
5.8373538388
 30
0.0
 10
11.3153042486
 20
5.8372908259
 30
0.0
  0
SPLINE
  5
2E6
100
AcDbEntity
  8
0
100
AcDbSpline
 62
9
  6
CONTINUOUS
 70
0
 71
3
 72
16
 73
12
 74
0
 42
0.0000001
 43
0.0000001
 44
0.0000000001
 40
0.0
 40
0.0
 40
0.0
 40
0.0
 40
0.036060757
 40
0.0740878602
 40
0.1593648521
 40
0.26090086
 40
0.3801885551
 40
0.5163579656
 40
0.6672328668
 40
0.8298361571
 40
1.0
 40
1.0
 40
1.0
 40
1.0
 10
11.3073183383
 20
5.8204088587
 30
0.0
 10
11.3075547961
 20
5.8204301572
 30
0.0
 10
11.3080370293
 20
5.8205269934
 30
0.0
 10
11.3090107463
 20
5.8209324717
 30
0.0
 10
11.3101989648
 20
5.8218557493
 30
0.0
 10
11.3114557011
 20
5.8234458571
 30
0.0
 10
11.3125880119
 20
5.8255151567
 30
0.0
 10
11.3135685633
 20
5.8280099269
 30
0.0
 10
11.3143700386
 20
5.8308641411
 30
0.0
 10
11.3149676568
 20
5.8339949889
 30
0.0
 10
11.3152162915
 20
5.8361739676
 30
0.0
 10
11.3153042486
 20
5.8372908259
 30
0.0
  0
SPLINE
  5
2E7
100
AcDbEntity
  8
0
100
AcDbSpline
 62
9
  6
CONTINUOUS
 70
0
 71
3
 72
18
 73
14
 74
0
 42
0.0000001
 43
0.0000001
 44
0.0000000001
 40
0.0
 40
0.0
 40
0.0
 40
0.0
 40
0.124836093
 40
0.2497626113
 40
0.3746449665
 40
0.4372418475
 40
0.4998046149
 40
0.5623592418
 40
0.6249728528
 40
0.6875362257
 40
0.7500850969
 40
0.8750842524
 40
1.0
 40
1.0
 40
1.0
 40
1.0
 10
11.1615824138
 20
6.143057578
 30
0.0
 10
11.1615823998
 20
6.1443898923
 30
0.0
 10
11.1614683518
 20
6.1470580141
 30
0.0
 10
11.1608545891
 20
6.1510185424
 30
0.0
 10
11.1598621403
 20
6.1542211372
 30
0.0
 10
11.1587028511
 20
6.1566297548
 30
0.0
 10
11.1576374887
 20
6.1583320545
 30
0.0
 10
11.1563632406
 20
6.1598858986
 30
0.0
 10
11.1548903291
 20
6.1612532417
 30
0.0
 10
11.1532436254
 20
6.1624062731
 30
0.0
 10
11.1508573589
 20
6.163619063
 30
0.0
 10
11.1476217127
 20
6.1645512833
 30
0.0
 10
11.1449469322
 20
6.1647509309
 30
0.0
 10
11.1436137678
 20
6.1647509377
 30
0.0
  0
SPLINE
  5
2E8
100
AcDbEntity
  8
0
100
AcDbSpline
 62
9
  6
CONTINUOUS
 70
0
 71
3
 72
11
 73
7
 74
0
 42
0.0000001
 43
0.0000001
 44
0.0000000001
 40
0.0
 40
0.0
 40
0.0
 40
0.0
 40
0.2338917497
 40
0.4802906086
 40
0.7369117382
 40
1.0
 40
1.0
 40
1.0
 40
1.0
 10
10.8012688978
 20
6.3312859785
 30
0.0
 10
10.804103995
 20
6.3309652767
 30
0.0
 10
10.80993733
 20
6.330406509
 30
0.0
 10
10.8189074741
 20
6.3298035427
 30
0.0
 10
10.8282460994
 20
6.3294200053
 30
0.0
 10
10.8345861457
 20
6.3293243766
 30
0.0
 10
10.8377954836
 20
6.3293243444
 30
0.0
  0
SPLINE
  5
2E9
100
AcDbEntity
  8
0
100
AcDbSpline
 62
9
  6
CONTINUOUS
 70
0
 71
3
 72
16
 73
12
 74
0
 42
0.0000001
 43
0.0000001
 44
0.0000000001
 40
0.0
 40
0.0
 40
0.0
 40
0.0
 40
0.0360596875
 40
0.0740858624
 40
0.1593614517
 40
0.2608968162
 40
0.3801846441
 40
0.5163540965
 40
0.6672293383
 40
0.8298345741
 40
1.0
 40
1.0
 40
1.0
 40
1.0
 10
10.7873183383
 20
5.8204088579
 30
0.0
 10
10.7870818889
 20
5.8204301565
 30
0.0
 10
10.786599672
 20
5.8205269935
 30
0.0
 10
10.7856259865
 20
5.8209324741
 30
0.0
 10
10.7844378074
 20
5.8218557569
 30
0.0
 10
10.783181114
 20
5.8234458659
 30
0.0
 10
10.7820488222
 20
5.8255151563
 30
0.0
 10
10.781068308
 20
5.8280099309
 30
0.0
 10
10.7802669118
 20
5.8308641626
 30
0.0
 10
10.7796691488
 20
5.8339949838
 30
0.0
 10
10.7794203845
 20
5.8361739625
 30
0.0
 10
10.7793324282
 20
5.8372908249
 30
0.0
  0
SPLINE
  5
2EA
100
AcDbEntity
  8
0
100
AcDbSpline
 62
9
  6
CONTINUOUS
 70
0
 71
3
 72
11
 73
7
 74
0
 42
0.0000001
 43
0.0000001
 44
0.0000000001
 40
0.0
 40
0.0
 40
0.0
 40
0.0
 40
0.2630881525
 40
0.5197067965
 40
0.7661045502
 40
1.0
 40
1.0
 40
1.0
 40
1.0
 10
11.2568412002
 20
6.3293243444
 30
0.0
 10
11.2600505362
 20
6.3293243809
 30
0.0
 10
11.2663905502
 20
6.3294199628
 30
0.0
 10
11.2757291275
 20
6.3298035451
 30
0.0
 10
11.2846992668
 20
6.3304065694
 30
0.0
 10
11.2905326338
 20
6.3309653118
 30
0.0
 10
11.2933677798
 20
6.3312859786
 30
0.0
  0
SPLINE
  5
2EB
100
AcDbEntity
  8
0
100
AcDbSpline
 62
9
  6
CONTINUOUS
 70
0
 71
3
 72
18
 73
14
 74
0
 42
0.0000001
 43
0.0000001
 44
0.0000000001
 40
0.0
 40
0.0
 40
0.0
 40
0.0
 40
0.0195903869
 40
0.0423153297
 40
0.0701671748
 40
0.1041932648
 40
0.1448949994
 40
0.1924090227
 40
0.3076277317
 40
0.4487030797
 40
0.613329606
 40
0.7985347824
 40
1.0
 40
1.0
 40
1.0
 40
1.0
 10
10.7673183383
 20
5.8403927611
 30
0.0
 10
10.7673183383
 20
5.8403093701
 30
0.0
 10
10.7673611144
 20
5.8401281388
 30
0.0
 10
10.7675335127
 20
5.8398790142
 30
0.0
 10
10.7678044058
 20
5.8396384695
 30
0.0
 10
10.7681739959
 20
5.8394036093
 30
0.0
 10
10.7686418856
 20
5.8391742608
 30
0.0
 10
10.7694478405
 20
5.8388557351
 30
0.0
 10
10.7706913132
 20
5.8384922501
 30
0.0
 10
10.7724434414
 20
5.8381138974
 30
0.0
 10
10.7745069939
 20
5.8377794767
 30
0.0
 10
10.7768372142
 20
5.8374978291
 30
0.0
 10
10.7784771628
 20
5.8373538378
 30
0.0
 10
10.7793324282
 20
5.8372908249
 30
0.0
  0
SPLINE
  5
2EC
100
AcDbEntity
  8
0
100
AcDbSpline
 62
9
  6
CONTINUOUS
 70
0
 71
3
 72
15
 73
11
 74
0
 42
0.0000001
 43
0.0000001
 44
0.0000000001
 40
0.0
 40
0.0
 40
0.0
 40
0.0
 40
0.1879903944
 40
0.2427129117
 40
0.3004996821
 40
0.4248358336
 40
0.5595114883
 40
0.7022117627
 40
0.8502215612
 40
1.0
 40
1.0
 40
1.0
 40
1.0
 10
10.7873183383
 20
6.3329443995
 30
0.0
 10
10.7859298145
 20
6.3325001392
 30
0.0
 10
10.7843191615
 20
6.3313529589
 30
0.0
 10
10.7827401391
 20
6.3296471003
 30
0.0
 10
10.7816028628
 20
6.3282004823
 30
0.0
 10
10.7803071398
 20
6.326104553
 30
0.0
 10
10.7789956282
 20
6.3232717943
 30
0.0
 10
10.7779321257
 20
6.3201430407
 30
0.0
 10
10.7771488856
 20
6.316813219
 30
0.0
 10
10.7768268193
 20
6.3145225939
 30
0.0
 10
10.7767183578
 20
6.3133661388
 30
0.0
  0
SPLINE
  5
2ED
100
AcDbEntity
  8
0
100
AcDbSpline
 62
9
  6
CONTINUOUS
 70
0
 71
3
 72
15
 73
11
 74
0
 42
0.0000001
 43
0.0000001
 44
0.0000000001
 40
0.0
 40
0.0
 40
0.0
 40
0.0
 40
0.0883706912
 40
0.1877779406
 40
0.2995285129
 40
0.4234710948
 40
0.5580741007
 40
0.7010140187
 40
0.8495303301
 40
1.0
 40
1.0
 40
1.0
 40
1.0
 10
10.8012688978
 20
6.3312859785
 30
0.0
 10
10.800606643
 20
6.3310927077
 30
0.0
 10
10.799261593
 20
6.3304578192
 30
0.0
 10
10.797432002
 20
6.3289767837
 30
0.0
 10
10.7957321203
 20
6.3269719351
 30
0.0
 10
10.7942074328
 20
6.3245058309
 30
0.0
 10
10.7928972001
 20
6.3216510013
 30
0.0
 10
10.7918419927
 20
6.3184904971
 30
0.0
 10
10.7910746319
 20
6.3151219005
 30
0.0
 10
10.790768288
 20
6.3128040275
 30
0.0
 10
10.790668919
 20
6.3116335716
 30
0.0
  0
SPLINE
  5
2EE
100
AcDbEntity
  8
0
100
AcDbSpline
 62
9
  6
CONTINUOUS
 70
0
 71
3
 72
15
 73
11
 74
0
 42
0.0000001
 43
0.0000001
 44
0.0000000001
 40
0.0
 40
0.0
 40
0.0
 40
0.0
 40
0.088370271
 40
0.1877772808
 40
0.2995277748
 40
0.4234704098
 40
0.5580735598
 40
0.7010136697
 40
0.8495301765
 40
1.0
 40
1.0
 40
1.0
 40
1.0
 10
11.2933677788
 20
6.3312859785
 30
0.0
 10
11.2940300292
 20
6.3310927068
 30
0.0
 10
11.2953750709
 20
6.330457816
 30
0.0
 10
11.2972046502
 20
6.3289767792
 30
0.0
 10
11.2989045238
 20
6.3269719299
 30
0.0
 10
11.3004292075
 20
6.3245058257
 30
0.0
 10
11.3017394411
 20
6.3216509967
 30
0.0
 10
11.3027946546
 20
6.3184904937
 30
0.0
 10
11.3035620269
 20
6.3151218989
 30
0.0
 10
11.303868382
 20
6.312804027
 30
0.0
 10
11.3039677576
 20
6.3116335716
 30
0.0
  0
SPLINE
  5
2EF
100
AcDbEntity
  8
0
100
AcDbSpline
 62
9
  6
CONTINUOUS
 70
0
 71
3
 72
15
 73
11
 74
0
 42
0.0000001
 43
0.0000001
 44
0.0000000001
 40
0.0
 40
0.0
 40
0.0
 40
0.0
 40
0.1879894515
 40
0.2427120348
 40
0.3004989304
 40
0.4248352728
 40
0.5595110266
 40
0.7022114189
 40
0.8502214244
 40
1.0
 40
1.0
 40
1.0
 40
1.0
 10
11.3073183383
 20
6.332944426
 30
0.0
 10
11.3087068538
 20
6.3325001677
 30
0.0
 10
11.3103174855
 20
6.3313529705
 30
0.0
 10
11.3118965031
 20
6.3296471193
 30
0.0
 10
11.3130337832
 20
6.3282005022
 30
0.0
 10
11.3143295092
 20
6.3261045732
 30
0.0
 10
11.3156410177
 20
6.323271812
 30
0.0
 10
11.3167045131
 20
6.3201430558
 30
0.0
 10
11.3174877725
 20
6.3168132387
 30
0.0
 10
11.3178098559
 20
6.3145226146
 30
0.0
 10
11.3179183177
 20
6.3133661595
 30
0.0
  0
SPLINE
  5
2F0
100
AcDbEntity
  8
0
100
AcDbSpline
 62
9
  6
CONTINUOUS
 70
0
 71
3
 72
17
 73
13
 74
0
 42
0.0000001
 43
0.0000001
 44
0.0000000001
 40
0.0
 40
0.0
 40
0.0
 40
0.0
 40
0.2489562047
 40
0.3739666093
 40
0.4365427446
 40
0.4991954555
 40
0.6244094155
 40
0.6870716528
 40
0.7497488067
 40
0.8124163815
 40
0.8750515125
 40
1.0
 40
1.0
 40
1.0
 40
1.0
 10
11.1721823926
 20
6.143057578
 30
0.0
 10
11.1715535349
 20
6.146728453
 30
0.0
 10
11.1700459129
 20
6.1521887572
 30
0.0
 10
11.1670360789
 20
6.1580105836
 30
0.0
 10
11.164926186
 20
6.1611084918
 30
0.0
 10
11.1625550513
 20
6.1640137052
 30
0.0
 10
11.1598036791
 20
6.1665954748
 30
0.0
 10
11.1567318423
 20
6.1687508085
 30
0.0
 10
11.1542893911
 20
6.1701532749
 30
0.0
 10
11.1517326233
 20
6.1713333036
 30
0.0
 10
11.1482078607
 20
6.172604687
 30
0.0
 10
11.1454600272
 20
6.1732388904
 30
0.0
 10
11.1436137678
 20
6.1735309178
 30
0.0
  0
SPLINE
  5
2F1
100
AcDbEntity
  8
0
100
AcDbSpline
 62
9
  6
CONTINUOUS
 70
0
 71
3
 72
10
 73
6
 74
0
 42
0.0000001
 43
0.0000001
 44
0.0000000001
 40
0.0
 40
0.0
 40
0.0
 40
0.0
 40
0.5205307606
 40
0.7678922955
 40
1.0
 40
1.0
 40
1.0
 40
1.0
 10
11.2568411906
 20
6.3183681332
 30
0.0
 10
11.2650007136
 20
6.3170810566
 30
0.0
 10
11.2770469094
 20
6.315238106
 30
0.0
 10
11.2927631079
 20
6.3130384932
 30
0.0
 10
11.30031029
 20
6.3120695881
 30
0.0
 10
11.3039677576
 20
6.3116335716
 30
0.0
  0
SPLINE
  5
2F2
100
AcDbEntity
  8
0
100
AcDbSpline
 62
9
  6
CONTINUOUS
 70
0
 71
3
 72
18
 73
14
 74
0
 42
0.0000001
 43
0.0000001
 44
0.0000000001
 40
0.0
 40
0.0
 40
0.0
 40
0.0
 40
0.1248922985
 40
0.1874992417
 40
0.2501388833
 40
0.3127878463
 40
0.3754220282
 40
0.5005815828
 40
0.5632068852
 40
0.6257560196
 40
0.7507126648
 40
0.8754898053
 40
1.0
 40
1.0
 40
1.0
 40
1.0
 10
10.9510229088
 20
6.1735309178
 30
0.0
 10
10.9491766454
 20
6.1732390301
 30
0.0
 10
10.9464288154
 20
6.1726048597
 30
0.0
 10
10.9429041209
 20
6.1713333846
 30
0.0
 10
10.9403474027
 20
6.1701533092
 30
0.0
 10
10.9379049582
 20
6.1687508774
 30
0.0
 10
10.9348331419
 20
6.1665955129
 30
0.0
 10
10.93208176
 20
6.1640138081
 30
0.0
 10
10.9297104985
 20
6.1611085581
 30
0.0
 10
10.9276005858
 20
6.1580110736
 30
0.0
 10
10.9254456999
 20
6.153841707
 30
0.0
 10
10.923583826
 20
6.148543977
 30
0.0
 10
10.9227693523
 20
6.1448942251
 30
0.0
 10
10.922454284
 20
6.143057578
 30
0.0
  0
SPLINE
  5
2F3
100
AcDbEntity
  8
0
100
AcDbSpline
 62
9
  6
CONTINUOUS
 70
0
 71
3
 72
10
 73
6
 74
0
 42
0.0000001
 43
0.0000001
 44
0.0000000001
 40
0.0
 40
0.0
 40
0.0
 40
0.0
 40
0.2321057861
 40
0.4794675512
 40
1.0
 40
1.0
 40
1.0
 40
1.0
 10
10.790668919
 20
6.3116335716
 30
0.0
 10
10.7943263469
 20
6.3120696836
 30
0.0
 10
10.8018736753
 20
6.3130372215
 30
0.0
 10
10.817590003
 20
6.3152361115
 30
0.0
 10
10.8296358418
 20
6.3170816197
 30
0.0
 10
10.837795486
 20
6.3183681332
 30
0.0
  0
SPLINE
  5
2F4
100
AcDbEntity
  8
0
100
AcDbSpline
 62
9
  6
CONTINUOUS
 70
0
 71
3
 72
18
 73
14
 74
0
 42
0.0000001
 43
0.0000001
 44
0.0000000001
 40
0.0
 40
0.0
 40
0.0
 40
0.0
 40
0.1246018425
 40
0.2495012564
 40
0.3120715882
 40
0.3746478016
 40
0.4372492442
 40
0.4999030458
 40
0.6250646314
 40
0.6876723354
 40
0.7502811341
 40
0.8752852882
 40
1.0
 40
1.0
 40
1.0
 40
1.0
 10
10.922454284
 20
6.0076474715
 30
0.0
 10
10.9227744188
 20
6.0057098618
 30
0.0
 10
10.9236389395
 20
6.0018622556
 30
0.0
 10
10.9253547839
 20
5.9972328421
 30
0.0
 10
10.9271438965
 20
5.9937171631
 30
0.0
 10
10.9286961749
 20
5.9911938041
 30
0.0
 10
10.9304612314
 20
5.988811965
 30
0.0
 10
10.9330867891
 20
5.9858598064
 30
0.0
 10
10.936099427
 20
5.9832705397
 30
0.0
 10
10.9394152471
 20
5.9811236356
 30
0.0
 10
10.9428983936
 20
5.9792647209
 30
0.0
 10
10.9475130392
 20
5.9774909956
 30
0.0
 10
10.9513645497
 20
5.9766190775
 30
0.0
 10
10.9533049807
 20
5.9763051732
 30
0.0
  0
SPLINE
  5
2F5
100
AcDbEntity
  8
0
100
AcDbSpline
 62
9
  6
CONTINUOUS
 70
0
 71
3
 72
18
 73
14
 74
0
 42
0.0000001
 43
0.0000001
 44
0.0000000001
 40
0.0
 40
0.0
 40
0.0
 40
0.0
 40
0.124714621
 40
0.2497186718
 40
0.3123274173
 40
0.3749351031
 40
0.5000966899
 40
0.5627503775
 40
0.6253517453
 40
0.6879280109
 40
0.7504984342
 40
0.875398021
 40
1.0
 40
1.0
 40
1.0
 40
1.0
 10
11.1413316958
 20
5.9763051732
 30
0.0
 10
11.1432721349
 20
5.9766190154
 30
0.0
 10
11.1471236577
 20
5.9774908946
 30
0.0
 10
11.1517382731
 20
5.9792646914
 30
0.0
 10
11.1552213851
 20
5.9811236619
 30
0.0
 10
11.1585371716
 20
5.9832706126
 30
0.0
 10
11.1615498021
 20
5.9858598754
 30
0.0
 10
11.1641753848
 20
5.9888120062
 30
0.0
 10
11.1659404604
 20
5.9911938272
 30
0.0
 10
11.1674927713
 20
5.9937171661
 30
0.0
 10
11.1692819312
 20
5.9972328254
 30
0.0
 10
11.1709978263
 20
6.0018622274
 30
0.0
 10
11.1718623147
 20
6.0057098508
 30
0.0
 10
11.1721823926
 20
6.0076474715
 30
0.0
  0
SPLINE
  5
2F6
100
AcDbEntity
  8
0
100
AcDbSpline
 62
9
  6
CONTINUOUS
 70
0
 71
3
 72
15
 73
11
 74
0
 42
0.0000001
 43
0.0000001
 44
0.0000000001
 40
0.0
 40
0.0
 40
0.0
 40
0.0
 40
0.1262009692
 40
0.2524358903
 40
0.3781586884
 40
0.5034131645
 40
0.6281494101
 40
0.7523927514
 40
0.8764094149
 40
1.0
 40
1.0
 40
1.0
 40
1.0
 10
11.3073183383
 20
6.332944426
 30
0.0
 10
11.3086238938
 20
6.3329444259
 30
0.0
 10
11.3112420235
 20
6.3326906618
 30
0.0
 10
11.3150153209
 20
6.3315737408
 30
0.0
 10
11.31849565
 20
6.329753956
 30
0.0
 10
11.3215446445
 20
6.3273039053
 30
0.0
 10
11.3240507016
 20
6.3243203172
 30
0.0
 10
11.3259138216
 20
6.3209115128
 30
0.0
 10
11.3270581303
 20
6.3172132929
 30
0.0
 10
11.327318334
 20
6.3146447032
 30
0.0
 10
11.3273183338
 20
6.3133661523
 30
0.0
  0
SPLINE
  5
2F7
100
AcDbEntity
  8
0
100
AcDbSpline
 62
9
  6
CONTINUOUS
 70
0
 71
3
 72
15
 73
11
 74
0
 42
0.0000001
 43
0.0000001
 44
0.0000000001
 40
0.0
 40
0.0
 40
0.0
 40
0.0
 40
0.1235906308
 40
0.247607337
 40
0.3718506638
 40
0.4965868919
 40
0.6218413692
 40
0.7475641648
 40
0.8737990484
 40
1.0
 40
1.0
 40
1.0
 40
1.0
 10
10.7673183083
 20
6.3133661308
 30
0.0
 10
10.7673183083
 20
6.3146446835
 30
0.0
 10
10.7675785133
 20
6.3172132768
 30
0.0
 10
10.7687228247
 20
6.3209115008
 30
0.0
 10
10.7705859493
 20
6.3243203075
 30
0.0
 10
10.7730920118
 20
6.3273038961
 30
0.0
 10
10.7761410117
 20
6.3297539461
 30
0.0
 10
10.7796213457
 20
6.3315737297
 30
0.0
 10
10.7833946494
 20
6.3326906431
 30
0.0
 10
10.7860127816
 20
6.3329444007
 30
0.0
 10
10.7873183383
 20
6.3329443995
 30
0.0
  0
SPLINE
  5
2F8
100
AcDbEntity
  8
0
100
AcDbSpline
 62
9
  6
CONTINUOUS
 70
0
 71
3
 72
15
 73
11
 74
0
 42
0.0000001
 43
0.0000001
 44
0.0000000001
 40
0.0
 40
0.0
 40
0.0
 40
0.0
 40
0.1252299461
 40
0.2505751178
 40
0.375684633
 40
0.5006745957
 40
0.6255900015
 40
0.7503698323
 40
0.8751446704
 40
1.0
 40
1.0
 40
1.0
 40
1.0
 10
11.4209729627
 20
6.2591667558
 30
0.0
 10
11.4209397185
 20
6.2603354054
 30
0.0
 10
11.4206673175
 20
6.2626729019
 30
0.0
 10
11.4196595955
 20
6.2660501829
 30
0.0
 10
11.4180762945
 20
6.2691979279
 30
0.0
 10
11.4159694523
 20
6.2720165066
 30
0.0
 10
11.4134058671
 20
6.27442285
 30
0.0
 10
11.4104610886
 20
6.2763408472
 30
0.0
 10
11.4072271356
 20
6.2777127369
 30
0.0
 10
11.4049405253
 20
6.2782320638
 30
0.0
 10
11.4037856762
 20
6.2783901943
 30
0.0
  0
SPLINE
  5
2F9
100
AcDbEntity
  8
0
100
AcDbSpline
 62
9
  6
CONTINUOUS
 70
0
 71
3
 72
11
 73
7
 74
0
 42
0.0000001
 43
0.0000001
 44
0.0000000001
 40
0.0
 40
0.0
 40
0.0
 40
0.0
 40
0.2511743908
 40
0.5015852493
 40
0.7511602596
 40
1.0
 40
1.0
 40
1.0
 40
1.0
 10
11.4086561042
 20
5.532139446
 30
0.0
 10
11.4101403362
 20
5.5326193018
 30
0.0
 10
11.4130037324
 20
5.5339281933
 30
0.0
 10
11.4167142067
 20
5.5368228098
 30
0.0
 10
11.4196462261
 20
5.5404857267
 30
0.0
 10
11.4209737966
 20
5.5433200127
 30
0.0
 10
11.4214583324
 20
5.5447874623
 30
0.0
  0
SPLINE
  5
2FA
100
AcDbEntity
  8
0
100
AcDbSpline
 62
9
  6
CONTINUOUS
 70
0
 71
3
 72
20
 73
16
 74
0
 42
0.0000001
 43
0.0000001
 44
0.0000000001
 40
0.0
 40
0.0
 40
0.0
 40
0.0
 40
0.1935261955
 40
0.379817762
 40
0.5512622618
 40
0.7016368806
 40
0.8254006084
 40
0.8757764127
 40
0.9178963772
 40
0.9513891867
 40
0.964814344
 40
0.9760191344
 40
0.9850244982
 40
0.9918904557
 40
1.0
 40
1.0
 40
1.0
 40
1.0
 10
10.1220066171
 20
8.8136652479
 30
0.0
 10
10.120720267
 20
8.8137481108
 30
0.0
 10
10.1181946079
 20
8.8138949794
 30
0.0
 10
10.1145264884
 20
8.8140611353
 30
0.0
 10
10.1111435635
 20
8.8141653126
 30
0.0
 10
10.108175795
 20
8.8142037665
 30
0.0
 10
10.1060140004
 20
8.814181626
 30
0.0
 10
10.1045746548
 20
8.8141230294
 30
0.0
 10
10.103737235
 20
8.8140660948
 30
0.0
 10
10.1031474124
 20
8.814003322
 30
0.0
 10
10.1027647738
 20
8.8139413668
 30
0.0
 10
10.1025462291
 20
8.8138954997
 30
0.0
 10
10.1023704691
 20
8.8138449191
 30
0.0
 10
10.1022281224
 20
8.8137879615
 30
0.0
 10
10.1021296873
 20
8.8137188608
 30
0.0
 10
10.1021230962
 20
8.8136652493
 30
0.0
  0
SPLINE
  5
2FB
100
AcDbEntity
  8
0
100
AcDbSpline
 62
9
  6
CONTINUOUS
 70
0
 71
3
 72
20
 73
16
 74
0
 42
0.0000001
 43
0.0000001
 44
0.0000000001
 40
0.0
 40
0.0
 40
0.0
 40
0.0
 40
0.0081088726
 40
0.0149744584
 40
0.0239794747
 40
0.0351839457
 40
0.0486088099
 40
0.0821011406
 40
0.1242208084
 40
0.1745964483
 40
0.298360217
 40
0.4487353737
 40
0.6201806688
 40
0.8064729612
 40
1.0
 40
1.0
 40
1.0
 40
1.0
 10
11.9925145127
 20
8.8136652556
 30
0.0
 10
11.9925079306
 20
8.8137188631
 30
0.0
 10
11.9924095036
 20
8.8137879674
 30
0.0
 10
11.992267168
 20
8.813844921
 30
0.0
 10
11.9920914164
 20
8.8138955009
 30
0.0
 10
11.9918728803
 20
8.8139413664
 30
0.0
 10
11.9914902524
 20
8.8140033198
 30
0.0
 10
11.9909004425
 20
8.8140660901
 30
0.0
 10
11.9900630369
 20
8.8141230218
 30
0.0
 10
11.9886237078
 20
8.8141816144
 30
0.0
 10
11.9864619313
 20
8.8142037505
 30
0.0
 10
11.9834941823
 20
8.8141652927
 30
0.0
 10
11.9801112765
 20
8.8140611127
 30
0.0
 10
11.9764431767
 20
8.8138949563
 30
0.0
 10
11.9739175315
 20
8.8137480887
 30
0.0
 10
11.9726311881
 20
8.8136652268
 30
0.0
  0
SPLINE
  5
2FC
100
AcDbEntity
  8
0
100
AcDbSpline
 62
9
  6
CONTINUOUS
 70
0
 71
3
 72
10
 73
6
 74
0
 42
0.0000001
 43
0.0000001
 44
0.0000000001
 40
0.0
 40
0.0
 40
0.0
 40
0.0
 40
0.2603169928
 40
0.5171138775
 40
1.0
 40
1.0
 40
1.0
 40
1.0
 10
10.1220066157
 20
8.813665276
 30
0.0
 10
10.1217716708
 20
8.8090201423
 30
0.0
 10
10.1218615086
 20
8.7997521432
 30
0.0
 10
10.124163588
 20
8.7820101046
 30
0.0
 10
10.1281937886
 20
8.7692409274
 30
0.0
 10
10.131838266
 20
8.7614207575
 30
0.0
  0
SPLINE
  5
2FD
100
AcDbEntity
  8
0
100
AcDbSpline
 62
9
  6
CONTINUOUS
 70
0
 71
3
 72
11
 73
7
 74
0
 42
0.0000001
 43
0.0000001
 44
0.0000000001
 40
0.0
 40
0.0
 40
0.0
 40
0.0
 40
0.2600786972
 40
0.5166445859
 40
0.764469201
 40
1.0
 40
1.0
 40
1.0
 40
1.0
 10
11.9726311883
 20
8.8136652564
 30
0.0
 10
11.9728665256
 20
8.8090202459
 30
0.0
 10
11.9727778518
 20
8.7997553481
 30
0.0
 10
11.9710120136
 20
8.7861667748
 30
0.0
 10
11.9677317885
 20
8.7733154099
 30
0.0
 10
11.9645789543
 20
8.7652393515
 30
0.0
 10
11.9627999985
 20
8.7614214867
 30
0.0
  0
SPLINE
  5
2FE
100
AcDbEntity
  8
0
100
AcDbSpline
 62
7
  6
CONTINUOUS
 70
0
 71
3
 72
10
 73
6
 74
0
 42
0.0000001
 43
0.0000001
 44
0.0000000001
 40
0.0
 40
0.0
 40
0.0
 40
0.0
 40
0.4314909488
 40
0.6963718112
 40
1.0
 40
1.0
 40
1.0
 40
1.0
 10
9.8979453658
 20
9.0939933809
 30
0.0
 10
9.8981376266
 20
9.093722074
 30
0.0
 10
9.8985767127
 20
9.0933775422
 30
0.0
 10
9.8992744156
 20
9.0930530282
 30
0.0
 10
9.8996933113
 20
9.0929186778
 30
0.0
 10
9.8999192475
 20
9.0928578264
 30
0.0
  0
SPLINE
  5
2FF
100
AcDbEntity
  8
0
100
AcDbSpline
 62
7
  6
CONTINUOUS
 70
0
 71
3
 72
13
 73
9
 74
0
 42
0.0000001
 43
0.0000001
 44
0.0000000001
 40
0.0
 40
0.0
 40
0.0
 40
0.0
 40
0.0830574049
 40
0.1803688779
 40
0.2913814197
 40
0.4150304542
 40
0.6935865865
 40
1.0
 40
1.0
 40
1.0
 40
1.0
 10
9.8999192475
 20
9.0928578264
 30
0.0
 10
9.9003071066
 20
9.0927533645
 30
0.0
 10
9.9011672831
 20
9.0925928728
 30
0.0
 10
9.9025730087
 20
9.0924755953
 30
0.0
 10
9.9041798482
 20
9.0924665745
 30
0.0
 10
9.9066591068
 20
9.0926061284
 30
0.0
 10
9.9100604543
 20
9.0930627931
 30
0.0
 10
9.9128312854
 20
9.0936443113
 30
0.0
 10
9.9142714638
 20
9.0939933428
 30
0.0
  0
SPLINE
  5
300
100
AcDbEntity
  8
0
100
AcDbSpline
 62
9
  6
CONTINUOUS
 70
0
 71
3
 72
9
 73
5
 74
0
 42
0.0000001
 43
0.0000001
 44
0.0000000001
 40
0.0
 40
0.0
 40
0.0
 40
0.0
 40
0.5103015418
 40
1.0
 40
1.0
 40
1.0
 40
1.0
 10
10.0936682341
 20
8.8341337082
 30
0.0
 10
10.0927255771
 20
8.833876877
 30
0.0
 10
10.0908059572
 20
8.833596077
 30
0.0
 10
10.0888792591
 20
8.8338670726
 30
0.0
 10
10.0879803928
 20
8.8341336812
 30
0.0
  0
SPLINE
  5
301
100
AcDbEntity
  8
0
100
AcDbSpline
 62
9
  6
CONTINUOUS
 70
0
 71
3
 72
15
 73
11
 74
0
 42
0.0000001
 43
0.0000001
 44
0.0000000001
 40
0.0
 40
0.0
 40
0.0
 40
0.0
 40
0.1248472699
 40
0.2498062231
 40
0.374679126
 40
0.4996346255
 40
0.6246396531
 40
0.7497024725
 40
0.8749581502
 40
1.0
 40
1.0
 40
1.0
 40
1.0
 10
10.7673385496
 20
5.7774498715
 30
0.0
 10
10.7673897985
 20
5.77618028
 30
0.0
 10
10.7677367469
 20
5.7736431628
 30
0.0
 10
10.7689703549
 20
5.7700113092
 30
0.0
 10
10.7708758779
 20
5.7666794726
 30
0.0
 10
10.7733823464
 20
5.7637728502
 30
0.0
 10
10.7763949048
 20
5.761391794
 30
0.0
 10
10.7798091803
 20
5.7596263379
 30
0.0
 10
10.7834960184
 20
5.7585444806
 30
0.0
 10
10.7860498315
 20
5.758298912
 30
0.0
 10
10.7873224372
 20
5.75829916
 30
0.0
  0
SPLINE
  5
302
100
AcDbEntity
  8
0
100
AcDbSpline
 62
9
  6
CONTINUOUS
 70
0
 71
3
 72
15
 73
11
 74
0
 42
0.0000001
 43
0.0000001
 44
0.0000000001
 40
0.0
 40
0.0
 40
0.0
 40
0.0
 40
0.1671995167
 40
0.325562337
 40
0.4718100857
 40
0.6040998001
 40
0.7215578102
 40
0.8247283512
 40
0.9159874745
 40
1.0
 40
1.0
 40
1.0
 40
1.0
 10
10.0713092623
 20
8.8595856452
 30
0.0
 10
10.0703923279
 20
8.859173977
 30
0.0
 10
10.0685742718
 20
8.8584425226
 30
0.0
 10
10.065858104
 20
8.8576125211
 30
0.0
 10
10.0632771392
 20
8.8570993288
 30
0.0
 10
10.0608971139
 20
8.8569125818
 30
0.0
 10
10.0587712612
 20
8.8570603018
 30
0.0
 10
10.0569439954
 20
8.8575430502
 30
0.0
 10
10.0554642892
 20
8.8583697811
 30
0.0
 10
10.0547330236
 20
8.8591601334
 30
0.0
 10
10.0544608855
 20
8.8595855753
 30
0.0
  0
SPLINE
  5
303
100
AcDbEntity
  8
0
100
AcDbSpline
 62
9
  6
CONTINUOUS
 70
0
 71
3
 72
15
 73
11
 74
0
 42
0.0000001
 43
0.0000001
 44
0.0000000001
 40
0.0
 40
0.0
 40
0.0
 40
0.0
 40
0.1684405491
 40
0.3280644432
 40
0.4753585298
 40
0.6082801306
 40
0.7257697035
 40
0.8282320688
 40
0.9180121395
 40
1.0
 40
1.0
 40
1.0
 40
1.0
 10
10.1318380867
 20
8.7614216427
 30
0.0
 10
10.1308993551
 20
8.7610099816
 30
0.0
 10
10.1290390491
 20
8.760278569
 30
0.0
 10
10.1262640545
 20
8.7594482982
 30
0.0
 10
10.1236321627
 20
8.7589345779
 30
0.0
 10
10.121212513
 20
8.7587471606
 30
0.0
 10
10.1190608181
 20
8.7588940029
 30
0.0
 10
10.117222748
 20
8.7593753141
 30
0.0
 10
10.1157473661
 20
8.7602013782
 30
0.0
 10
10.1150300885
 20
8.7609955945
 30
0.0
 10
10.1147700231
 20
8.761421383
 30
0.0
  0
SPLINE
  5
304
100
AcDbEntity
  8
0
100
AcDbSpline
 62
7
  6
CONTINUOUS
 70
0
 71
3
 72
16
 73
12
 74
0
 42
0.0000001
 43
0.0000001
 44
0.0000000001
 40
0.0
 40
0.0
 40
0.0
 40
0.0
 40
0.1789620245
 40
0.3495930109
 40
0.5069446759
 40
0.6471541148
 40
0.7671263802
 40
0.8652303591
 40
0.9060392507
 40
0.9417046731
 40
1.0
 40
1.0
 40
1.0
 40
1.0
 10
12.1803653578
 20
9.0939933615
 30
0.0
 10
12.1813405277
 20
9.0937570154
 30
0.0
 10
12.1832556086
 20
9.0933358954
 30
0.0
 10
12.1860581764
 20
9.0928549542
 30
0.0
 10
12.1886675517
 20
9.0925551039
 30
0.0
 10
12.1910083922
 20
9.0924430495
 30
0.0
 10
12.1930182738
 20
9.0925256003
 30
0.0
 10
12.1944574629
 20
9.0927594812
 30
0.0
 10
12.1953908494
 20
9.0930644567
 30
0.0
 10
12.1960732873
 20
9.0933868298
 30
0.0
 10
12.1965023535
 20
9.0937266543
 30
0.0
 10
12.1966913336
 20
9.0939933323
 30
0.0
  0
SPLINE
  5
305
100
AcDbEntity
  8
0
100
AcDbSpline
 62
9
  6
CONTINUOUS
 70
0
 71
3
 72
9
 73
5
 74
0
 42
0.0000001
 43
0.0000001
 44
0.0000000001
 40
0.0
 40
0.0
 40
0.0
 40
0.0
 40
0.4951786903
 40
1.0
 40
1.0
 40
1.0
 40
1.0
 10
12.0066554907
 20
8.83413374
 30
0.0
 10
12.006057509
 20
8.8339563549
 30
0.0
 10
12.0048116867
 20
8.8337165687
 30
0.0
 10
12.0035438405
 20
8.8337201519
 30
0.0
 10
12.002910651
 20
8.8337786158
 30
0.0
  0
LINE
  5
306
100
AcDbEntity
  8
0
100
AcDbLine
 62
9
  6
CONTINUOUS
 10
12.002910651
 20
8.8337786158
 11
12.000968037
 21
8.8341337081
  0
SPLINE
  5
307
100
AcDbEntity
  8
0
100
AcDbSpline
 62
9
  6
CONTINUOUS
 70
0
 71
3
 72
15
 73
11
 74
0
 42
0.0000001
 43
0.0000001
 44
0.0000000001
 40
0.0
 40
0.0
 40
0.0
 40
0.0
 40
0.0840127666
 40
0.1752717333
 40
0.278442004
 40
0.3958997258
 40
0.5281892164
 40
0.6744370197
 40
0.8328001878
 40
1.0
 40
1.0
 40
1.0
 40
1.0
 10
12.0401734557
 20
8.8595855799
 30
0.0
 10
12.0399013242
 20
8.8591601309
 30
0.0
 10
12.0391700731
 20
8.8583697614
 30
0.0
 10
12.037690377
 20
8.8575430063
 30
0.0
 10
12.0358631174
 20
8.8570602365
 30
0.0
 10
12.0337372664
 20
8.8569124964
 30
0.0
 10
12.0313572378
 20
8.8570992272
 30
0.0
 10
12.0287762646
 20
8.8576124097
 30
0.0
 10
12.0260600853
 20
8.8584424064
 30
0.0
 10
12.0242420204
 20
8.8591738595
 30
0.0
 10
12.0233250821
 20
8.859585528
 30
0.0
  0
SPLINE
  5
308
100
AcDbEntity
  8
0
100
AcDbSpline
 62
9
  6
CONTINUOUS
 70
0
 71
3
 72
15
 73
11
 74
0
 42
0.0000001
 43
0.0000001
 44
0.0000000001
 40
0.0
 40
0.0
 40
0.0
 40
0.0
 40
0.0819913902
 40
0.1717744002
 40
0.2742387455
 40
0.3917290122
 40
0.5246499561
 40
0.6719422205
 40
0.8315632766
 40
1.0
 40
1.0
 40
1.0
 40
1.0
 10
11.9798673351
 20
8.7614217829
 30
0.0
 10
11.9796072511
 20
8.7609959635
 30
0.0
 10
11.9788899415
 20
8.7602016846
 30
0.0
 10
11.977414504
 20
8.7593755169
 30
0.0
 10
11.9755763712
 20
8.7588940937
 30
0.0
 10
11.9734246086
 20
8.758747135
 30
0.0
 10
11.9710048894
 20
8.7589344386
 30
0.0
 10
11.9683729293
 20
8.7594480511
 30
0.0
 10
11.9655978703
 20
8.7602782225
 30
0.0
 10
11.9637375213
 20
8.7610095749
 30
0.0
 10
11.9627987695
 20
8.7614212065
 30
0.0
  0
SPLINE
  5
309
100
AcDbEntity
  8
0
100
AcDbSpline
 62
9
  6
CONTINUOUS
 70
0
 71
3
 72
23
 73
19
 74
0
 42
0.0000001
 43
0.0000001
 44
0.0000000001
 40
0.0
 40
0.0
 40
0.0
 40
0.0
 40
0.1177362359
 40
0.1774413123
 40
0.2377087492
 40
0.2985461881
 40
0.3599560141
 40
0.4219314262
 40
0.4844594714
 40
0.547512227
 40
0.6110572094
 40
0.643003458
 40
0.6750584594
 40
0.7394653295
 40
0.8042233703
 40
0.8692757257
 40
0.9345615793
 40
1.0
 40
1.0
 40
1.0
 40
1.0
 10
11.9627983947
 20
8.7614210106
 30
0.0
 10
11.9171330391
 20
8.6854623789
 30
0.0
 10
11.8512868661
 20
8.5691496754
 30
0.0
 10
11.7696330662
 20
8.4099064324
 30
0.0
 10
11.710997501
 20
8.2870527499
 30
0.0
 10
11.6554669723
 20
8.1613610878
 30
0.0
 10
11.6032591809
 20
8.0328623947
 30
0.0
 10
11.5546228887
 20
7.9016103205
 30
0.0
 10
11.5097846723
 20
7.7677067416
 30
0.0
 10
11.4689036407
 20
7.6313088511
 30
0.0
 10
11.4383388516
 20
7.5159177729
 30
0.0
 10
11.4160317496
 20
7.422527859
 30
0.0
 10
11.3951256254
 20
7.328149711
 30
0.0
 10
11.3718101536
 20
7.209023997
 30
0.0
 10
11.3484758939
 20
7.0646705156
 30
0.0
 10
11.3298038461
 20
6.9189723453
 30
0.0
 10
11.315824288
 20
6.7722370313
 30
0.0
 10
11.3096463558
 20
6.6740054518
 30
0.0
 10
11.307340733
 20
6.624799165
 30
0.0
  0
SPLINE
  5
30A
100
AcDbEntity
  8
0
100
AcDbSpline
 62
9
  6
CONTINUOUS
 70
0
 71
3
 72
20
 73
16
 74
0
 42
0.0000001
 43
0.0000001
 44
0.0000000001
 40
0.0
 40
0.0
 40
0.0
 40
0.0
 40
0.1177404178
 40
0.1774476615
 40
0.2377172837
 40
0.2985568291
 40
0.3599687658
 40
0.4219464269
 40
0.4844767687
 40
0.6110624224
 40
0.6750638218
 40
0.7394729733
 40
0.8042332868
 40
0.8692879903
 40
1.0
 40
1.0
 40
1.0
 40
1.0
 10
10.1318382769
 20
8.761421726
 30
0.0
 10
10.1775031436
 20
8.6854627888
 30
0.0
 10
10.2433487809
 20
8.5691497707
 30
0.0
 10
10.3250040241
 20
8.4099071715
 30
0.0
 10
10.3836409079
 20
8.2870540926
 30
0.0
 10
10.4391703693
 20
8.1613618399
 30
0.0
 10
10.491374486
 20
8.0328621831
 30
0.0
 10
10.5400107365
 20
7.9016082856
 30
0.0
 10
10.6000393627
 20
7.722359322
 30
0.0
 10
10.6518320861
 20
7.5388352582
 30
0.0
 10
10.6948896101
 20
7.3517525384
 30
0.0
 10
10.7228273185
 20
7.2090249202
 30
0.0
 10
10.746162907
 20
7.064669106
 30
0.0
 10
10.7710914409
 20
6.8701251336
 30
0.0
 10
10.7826901624
 20
6.7230842991
 30
0.0
 10
10.7872958144
 20
6.6247991681
 30
0.0
  0
SPLINE
  5
30B
100
AcDbEntity
  8
0
100
AcDbSpline
 62
9
  6
CONTINUOUS
 70
0
 71
3
 72
24
 73
20
 74
0
 42
0.0000001
 43
0.0000001
 44
0.0000000001
 40
0.0
 40
0.0
 40
0.0
 40
0.0
 40
0.0192019168
 40
0.0386163296
 40
0.0788453639
 40
0.1219184608
 40
0.1684709735
 40
0.2187474413
 40
0.2727159068
 40
0.3302111622
 40
0.3910283789
 40
0.4549802616
 40
0.5219656685
 40
0.5920335737
 40
0.6653646075
 40
0.7422844792
 40
0.823270426
 40
0.9089293586
 40
1.0
 40
1.0
 40
1.0
 40
1.0
 10
11.3272786222
 20
5.7763503223
 30
0.0
 10
11.327284431
 20
5.7748771472
 30
0.0
 10
11.3274520278
 20
5.7719130466
 30
0.0
 10
11.3283843873
 20
5.7659283017
 30
0.0
 10
11.3306434751
 20
5.7583402058
 30
0.0
 10
11.3347480008
 20
5.7492417724
 30
0.0
 10
11.3400557677
 20
5.7399008447
 30
0.0
 10
11.3463619965
 20
5.7301971194
 30
0.0
 10
11.3534584962
 20
5.7200168288
 30
0.0
 10
11.3611348646
 20
5.7092570265
 30
0.0
 10
11.3691781718
 20
5.6978178638
 30
0.0
 10
11.3773750189
 20
5.6855990429
 30
0.0
 10
11.3855124614
 20
5.6724943942
 30
0.0
 10
11.3933768454
 20
5.6583906495
 30
0.0
 10
11.4007558937
 20
5.6431714287
 30
0.0
 10
11.4074357881
 20
5.6267210835
 30
0.0
 10
11.4132008012
 20
5.6089275758
 30
0.0
 10
11.4178454807
 20
5.5896892166
 30
0.0
 10
11.4199863415
 20
5.5762836402
 30
0.0
 10
11.4208248927
 20
5.569347129
 30
0.0
  0
SPLINE
  5
30C
100
AcDbEntity
  8
0
100
AcDbSpline
 62
9
  6
CONTINUOUS
 70
0
 71
3
 72
11
 73
7
 74
0
 42
0.0000001
 43
0.0000001
 44
0.0000000001
 40
0.0
 40
0.0
 40
0.0
 40
0.0
 40
0.2488397397
 40
0.4984147482
 40
0.7488256071
 40
1.0
 40
1.0
 40
1.0
 40
1.0
 10
10.6731783337
 20
5.5447874691
 30
0.0
 10
10.6736628696
 20
5.5433200197
 30
0.0
 10
10.6749904401
 20
5.5404857343
 30
0.0
 10
10.6779224592
 20
5.5368228181
 30
0.0
 10
10.681632933
 20
5.5339282022
 30
0.0
 10
10.6844963287
 20
5.5326193109
 30
0.0
 10
10.6859805605
 20
5.5321394551
 30
0.0
  0
SPLINE
  5
30D
100
AcDbEntity
  8
0
100
AcDbSpline
 62
9
  6
CONTINUOUS
 70
0
 71
3
 72
9
 73
5
 74
0
 42
0.0000001
 43
0.0000001
 44
0.0000000001
 40
0.0
 40
0.0
 40
0.0
 40
0.0
 40
0.2754365154
 40
1.0
 40
1.0
 40
1.0
 40
1.0
 10
10.0713093324
 20
8.8595854943
 30
0.0
 10
10.0721485022
 20
8.8575890932
 30
0.0
 10
10.0755283837
 20
8.8504959903
 30
0.0
 10
10.080299372
 20
8.8439893981
 30
0.0
 10
10.0845326366
 20
8.840177138
 30
0.0
  0
LINE
  5
30E
100
AcDbEntity
  8
0
100
AcDbLine
 62
9
  6
CONTINUOUS
 10
10.0845326366
 20
8.840177138
 11
10.0882858247
 21
8.8371923515
  0
LINE
  5
30F
100
AcDbEntity
  8
0
100
AcDbLine
 62
9
  6
CONTINUOUS
 10
10.0896249046
 20
8.8363049343
 11
10.093666139
 21
8.8341340235
  0
SPLINE
  5
310
100
AcDbEntity
  8
0
100
AcDbSpline
 62
9
  6
CONTINUOUS
 70
0
 71
3
 72
11
 73
7
 74
0
 42
0.0000001
 43
0.0000001
 44
0.0000000001
 40
0.0
 40
0.0
 40
0.0
 40
0.0
 40
0.280790956
 40
0.5403986725
 40
0.7792738053
 40
1.0
 40
1.0
 40
1.0
 40
1.0
 10
12.0233251163
 20
8.859585332
 30
0.0
 10
12.0222925149
 20
8.857131287
 30
0.0
 10
12.0200305702
 20
8.8525168713
 30
0.0
 10
12.0159535164
 20
8.8463288763
 30
0.0
 10
12.0114305139
 20
8.8411945458
 30
0.0
 10
12.0080666676
 20
8.8383889046
 30
0.0
 10
12.0063488767
 20
8.8371932971
 30
0.0
  0
LINE
  5
311
100
AcDbEntity
  8
0
100
AcDbLine
 62
9
  6
CONTINUOUS
 10
12.0050095539
 20
8.836305471
 11
12.0009666732
 21
8.834133389
  0
LINE
  5
312
100
AcDbEntity
  8
0
100
AcDbLine
 62
9
  6
CONTINUOUS
 10
10.1021233238
 20
8.813665257
 11
10.1002387825
 21
8.8136029855
  0
SPLINE
  5
313
100
AcDbEntity
  8
0
100
AcDbSpline
 62
9
  6
CONTINUOUS
 70
0
 71
3
 72
15
 73
11
 74
0
 42
0.0000001
 43
0.0000001
 44
0.0000000001
 40
0.0
 40
0.0
 40
0.0
 40
0.0
 40
0.1536933393
 40
0.2963699358
 40
0.4308688115
 40
0.5587463613
 40
0.6804135787
 40
0.7953910316
 40
0.9024905755
 40
1.0
 40
1.0
 40
1.0
 40
1.0
 10
10.7061507499
 20
6.2792460527
 30
0.0
 10
10.709706956
 20
6.2791498748
 30
0.0
 10
10.7165639024
 20
6.2784674169
 30
0.0
 10
10.726263356
 20
6.2760092201
 30
0.0
 10
10.734975483
 20
6.2724742406
 30
0.0
 10
10.7427690204
 20
6.268160649
 30
0.0
 10
10.7497022485
 20
6.2633304532
 30
0.0
 10
10.7558307274
 20
6.2582446598
 30
0.0
 10
10.7612078584
 20
6.2531591948
 30
0.0
 10
10.7645014147
 20
6.2497547076
 30
0.0
 10
10.7660536942
 20
6.2481162295
 30
0.0
  0
LINE
  5
314
100
AcDbEntity
  8
0
100
AcDbLine
 62
9
  6
CONTINUOUS
 10
10.0936678949
 20
8.8341337601
 11
12.0009681238
 21
8.8341339191
  0
SPLINE
  5
315
100
AcDbEntity
  8
0
100
AcDbSpline
 62
9
  6
CONTINUOUS
 70
0
 71
3
 72
13
 73
9
 74
0
 42
0.0000001
 43
0.0000001
 44
0.0000000001
 40
0.0
 40
0.0
 40
0.0
 40
0.0
 40
0.1830348004
 40
0.3893294878
 40
0.50896228
 40
0.6469479878
 40
0.8116202973
 40
1.0
 40
1.0
 40
1.0
 40
1.0
 10
12.0066555795
 20
8.8341337666
 30
0.0
 10
12.005089985
 20
8.8336638928
 30
0.0
 10
12.0018719069
 20
8.8322440977
 30
0.0
 10
11.9982902916
 20
8.8293446155
 30
0.0
 10
11.9957045521
 20
8.8260881291
 30
0.0
 10
11.9938897669
 20
8.8227567514
 30
0.0
 10
11.9925990498
 20
8.8185311245
 30
0.0
 10
11.9924047483
 20
8.8153439709
 30
0.0
 10
11.9925133616
 20
8.8136651634
 30
0.0
  0
SPLINE
  5
316
100
AcDbEntity
  8
0
100
AcDbSpline
 62
9
  6
CONTINUOUS
 70
0
 71
3
 72
27
 73
23
 74
0
 42
0.0000001
 43
0.0000001
 44
0.0000000001
 40
0.0
 40
0.0
 40
0.0
 40
0.0
 40
0.0931356333
 40
0.1799715467
 40
0.2614938101
 40
0.3385185519
 40
0.4116950427
 40
0.4814935269
 40
0.5481811619
 40
0.6118455496
 40
0.6724013913
 40
0.7014452412
 40
0.7296227821
 40
0.7832498544
 40
0.8330724245
 40
0.8790463258
 40
0.9006753434
 40
0.9214964448
 40
0.9416362538
 40
0.9612709081
 40
0.9806307707
 40
1.0
 40
1.0
 40
1.0
 40
1.0
 10
10.6921484299
 20
5.5311546771
 30
0.0
 10
10.6924649454
 20
5.5389387705
 30
0.0
 10
10.6937140452
 20
5.55396449
 30
0.0
 10
10.6974731312
 20
5.5755405175
 30
0.0
 10
10.7027796527
 20
5.5953956387
 30
0.0
 10
10.7093695389
 20
5.6136473835
 30
0.0
 10
10.7169709738
 20
5.6304250236
 30
0.0
 10
10.7253001621
 20
5.6458718751
 30
0.0
 10
10.734079589
 20
5.660135555
 30
0.0
 10
10.743032216
 20
5.6733628354
 30
0.0
 10
10.7505074967
 20
5.683778746
 30
0.0
 10
10.7563092724
 20
5.6917408802
 30
0.0
 10
10.761765769
 20
5.6992373885
 30
0.0
 10
10.7681701597
 20
5.7081947079
 30
0.0
 10
10.7750618759
 20
5.7186267019
 30
0.0
 10
10.7799032557
 20
5.7271909147
 30
0.0
 10
10.7829859738
 20
5.7339193368
 30
0.0
 10
10.7848400309
 20
5.7388206537
 30
0.0
 10
10.786247654
 20
5.7436965106
 30
0.0
 10
10.7871716025
 20
5.7485643087
 30
0.0
 10
10.7875741086
 20
5.7534390202
 30
0.0
 10
10.7874699256
 20
5.7566857249
 30
0.0
 10
10.7873222134
 20
5.7582991572
 30
0.0
  0
SPLINE
  5
317
100
AcDbEntity
  8
0
100
AcDbSpline
 62
9
  6
CONTINUOUS
 70
0
 71
3
 72
18
 73
14
 74
0
 42
0.0000001
 43
0.0000001
 44
0.0000000001
 40
0.0
 40
0.0
 40
0.0
 40
0.0
 40
0.1206302605
 40
0.241632794
 40
0.3631825878
 40
0.4855879086
 40
0.6093619562
 40
0.7354392985
 40
0.7999419003
 40
0.8657133777
 40
0.8990545295
 40
0.9326832267
 40
1.0
 40
1.0
 40
1.0
 40
1.0
 10
12.0009681238
 20
8.8341339191
 30
0.0
 10
11.9994523455
 20
8.8339070042
 30
0.0
 10
11.9964295815
 20
8.8333552891
 30
0.0
 10
11.9919552894
 20
8.8322099808
 30
0.0
 10
11.9875646508
 20
8.8307008902
 30
0.0
 10
11.9833056905
 20
8.8287563698
 30
0.0
 10
11.9792689962
 20
8.8262654217
 30
0.0
 10
11.9762570861
 20
8.8235871172
 30
0.0
 10
11.9742955391
 20
8.8209722589
 30
0.0
 10
11.9733501093
 20
8.8191044187
 30
0.0
 10
11.9728374196
 20
8.8174937279
 30
0.0
 10
11.9725217957
 20
8.8158140077
 30
0.0
 10
11.972520353
 20
8.8145135061
 30
0.0
 10
11.9726303587
 20
8.813665316
 30
0.0
  0
LINE
  5
318
100
AcDbEntity
  8
0
100
AcDbLine
 62
9
  6
CONTINUOUS
 10
11.9726303587
 20
8.813665316
 11
10.1220067874
 21
8.8136651562
  0
SPLINE
  5
319
100
AcDbEntity
  8
0
100
AcDbSpline
 62
9
  6
CONTINUOUS
 70
0
 71
3
 72
18
 73
14
 74
0
 42
0.0000001
 43
0.0000001
 44
0.0000000001
 40
0.0
 40
0.0
 40
0.0
 40
0.0
 40
0.1206359811
 40
0.2416407779
 40
0.3631881486
 40
0.4855930722
 40
0.6093658045
 40
0.7354415335
 40
0.799943737
 40
0.8657157536
 40
0.8990563304
 40
0.9326834722
 40
1.0
 40
1.0
 40
1.0
 40
1.0
 10
10.0936678949
 20
8.8341337601
 30
0.0
 10
10.0951837714
 20
8.8339067909
 30
0.0
 10
10.0982067472
 20
8.8333553468
 30
0.0
 10
10.1026812547
 20
8.8322101385
 30
0.0
 10
10.1070719224
 20
8.8307008617
 30
0.0
 10
10.1113309813
 20
8.8287564582
 30
0.0
 10
10.115367714
 20
8.8262654284
 30
0.0
 10
10.1183795193
 20
8.8235869511
 30
0.0
 10
10.1203411221
 20
8.8209720895
 30
0.0
 10
10.1212867306
 20
8.8191042984
 30
0.0
 10
10.1217995043
 20
8.8174936146
 30
0.0
 10
10.1221150025
 20
8.8158138446
 30
0.0
 10
10.1221163731
 20
8.8145134158
 30
0.0
 10
10.1220067874
 20
8.8136651562
 30
0.0
  0
ENDSEC
  0
SECTION
  2
OBJECTS
  0
DICTIONARY
  5
C
100
AcDbDictionary
280
0
281
1
  3
ACAD_GROUP
350
D
  3
ACAD_MLINESTYLE
350
17
  3
ACAD_LAYOUT
350
1A
  3
ACAD_PLOTSETTINGS
350
19
  3
ACAD_PLOTSTYLENAME
350
E
  0
DICTIONARY
  5
D
102
{ACAD_REACTORS
330
C
102
}
100
AcDbDictionary
280
0
281
1
  0
ACDBDICTIONARYWDFLT
  5
E
102
{ACAD_REACTORS
330
C
102
}
100
AcDbDictionary
281
1
  3
Normal
350
F
100
AcDbDictionaryWithDefault
340
F
  0
DICTIONARY
  5
17
102
{ACAD_REACTORS
330
C
102
}
100
AcDbDictionary
280
0
281
1
  3
Standard
350
18
  0
DICTIONARY
  5
19
102
{ACAD_REACTORS
330
C
102
}
100
AcDbDictionary
281
1
  0
DICTIONARY
  5
1A
102
{ACAD_REACTORS
330
C
102
}
100
AcDbDictionary
281
1
  3
Model
350
31A
  3
Layout1
350
31B
  0
ACDBPLACEHOLDER
  5
F
102
{ACAD_REACTORS
330
E
102
}
  0
MLINESTYLE
  5
18
102
{ACAD_REACTORS
330
17
102
}
100
AcDbMlineStyle
  2
STANDARD
 70
0
  3

 62
256
 51
90.0
 52
90.0
 71
2
 49
0.5
 62
256
  6
BYLAYER
 49
-0.5
 62
256
  6
BYLAYER
  0
LAYOUT
  5
31A
102
{ACAD_REACTORS
330
1A
102
}
100
AcDbPlotSettings
  1

  2
none_device
  4
ANSI_C_(22.00_x_17.00_Inches)
  6

 40
0.0
 41
0.0
 42
0.0
 43
0.0
 44
558.8
 45
431.8
 46
0.0
 47
0.0
 48
0.0
 49
0.0
140
0.0
141
0.0
142
1.0
143
1.0
 70
1024
 72
0
 73
0
 74
0
  7

 75
0
147
1.0
148
0.0
149
0.0
100
AcDbLayout
  1
Model
 70
0
 71
0
 10
0.0
 20
0.0
 11
22.0
 21
17.0
 12
0.0
 22
0.0
 32
0.0
 14
0.0
 24
0.0
 34
0.0
 15
0.0
 25
0.0
 35
0.0
146
0.0
 13
0.0
 23
0.0
 33
0.0
 16
1.0
 26
0.0
 36
0.0
 17
0.0
 27
1.0
 37
0.0
 76
0
330
205
345
0
346
0
  0
LAYOUT
  5
31B
102
{ACAD_REACTORS
330
1A
102
}
100
AcDbPlotSettings
  1

  2
none_device
  4
ANSI_C_(22.00_x_17.00_Inches)
  6

 40
0.0
 41
0.0
 42
0.0
 43
0.0
 44
558.8
 45
431.8
 46
0.0
 47
0.0
 48
0.0
 49
0.0
140
0.0
141
0.0
142
1.0
143
1.0
 70
0
 72
0
 73
0
 74
0
  7

 75
0
147
1.0
148
0.0
149
0.0
100
AcDbLayout
  1
Layout1
 70
0
 71
1
 10
0.0
 20
0.0
 11
22.0
 21
17.0
 12
0.0
 22
0.0
 32
0.0
 14
0.0
 24
0.0
 34
0.0
 15
0.0
 25
0.0
 35
0.0
146
0.0
 13
0.0
 23
0.0
 33
0.0
 16
1.0
 26
0.0
 36
0.0
 17
0.0
 27
1.0
 37
0.0
 76
0
330
206
345
0
346
0
  0
ENDSEC
  0
EOF
