999
DXF file: 4-3244bp_front.dxf
999
Pro/ENGINEER 2023134 by Parametric Technology Corporation
  0
SECTION
  2
HEADER
  9
$ACADVER
  1
AC1032
  9
$DWGCODEPAGE
  3
ANSI_1252
  9
$EXTMAX
 10
11.0
 20
8.5
 30
0.0
  9
$EXTMIN
 10
0.0
 20
0.0
 30
0.0
  9
$LIMMIN
 10
0.0
 20
0.0
  9
$LIMMAX
 10
11.0
 20
8.5
  9
$VIEWCTR
 10
5.5
 20
4.25
  9
$VIEWSIZE
 40
8.5
  9
$CLAYER
  8
0
  9
$LTSCALE
 40
0.605
  9
$CELTYPE
  6
BYLAYER
  9
$DIMSCALE
 40
1.0
  9
$DIMASZ
 40
0.1
  9
$DIMEXO
 40
0.0625
  9
$DIMDLI
 40
0.418
  9
$DIMEXE
 40
0.125
  9
$DIMCEN
 40
0.099
  9
$DIMLFAC
 40
1.0
  9
$DIMBLK
  1
_FILLED
  9
$DIMALT
 70
1
  9
$DIMALTD
 70
2
  9
$DIMALTTD
 70
2
  9
$DIMALTF
 40
25.4
  9
$DIMTXT
 40
0.08
  9
$DIMTOL
 70
1
  9
$DIMLIM
 70
0
  9
$DIMTFAC
 40
1.0
  9
$DIMTP
 40
0.001
  9
$DIMTM
 40
0.001
  9
$DIMGAP
 40
0.09
  9
$DIMDSEP
 70
46
  9
$AUNITS
 70
0
  9
$PDMODE
 70
3
  9
$PDSIZE
 40
0.3125
  9
$HANDSEED
  5
40D
  9
$TILEMODE
 70
1
  9
$MEASUREMENT
 70
0
  9
$INSUNITS
 70
1
  0
ENDSEC
  0
SECTION
  2
CLASSES
  0
CLASS
  1
ACDBDICTIONARYWDFLT
  2
AcDbDictionaryWithDefault
  3
AutoCAD 2000
 90
0
 91
1
280
0
281
0
  0
CLASS
  1
ACDBPLACEHOLDER
  2
AcDbPlaceHolder
  3
AutoCAD 2000
 90
0
 91
1
280
0
281
0
  0
CLASS
  1
LAYOUT
  2
AcDbLayout
  3
AutoCAD 2000
 90
0
 91
0
280
0
281
0
  0
ENDSEC
  0
SECTION
  2
TABLES
  0
TABLE
  2
VPORT
  5
8
100
AcDbSymbolTable
 70
2
  0
VPORT
  5
1F4
100
AcDbSymbolTableRecord
100
AcDbViewportTableRecord
  2
*ACTIVE
 70
0
 10
0.0
 20
0.0
 11
1.0
 21
1.0
 12
5.5
 22
4.25
 13
0.0
 23
0.0
 14
1.0
 24
1.0
 15
0.0
 25
0.0
 16
0.0
 26
0.0
 36
1.0
 17
0.0
 27
0.0
 37
0.0
 40
8.5
 41
1.2941176471
 42
50.0
 43
0.0
 44
0.0
 50
0.0
 51
0.0
 71
0
 72
100
 73
1
 74
1
 75
0
 76
0
 77
0
 78
0
  0
ENDTAB
  0
TABLE
  2
LTYPE
  5
5
100
AcDbSymbolTable
 70
6
  0
LTYPE
  5
14
100
AcDbSymbolTableRecord
100
AcDbLinetypeTableRecord
  2
BYBLOCK
 70
0
  3

 72
65
 73
0
 40
0.0
  0
LTYPE
  5
15
100
AcDbSymbolTableRecord
100
AcDbLinetypeTableRecord
  2
BYLAYER
 70
0
  3

 72
65
 73
0
 40
0.0
  0
LTYPE
  5
16
100
AcDbSymbolTableRecord
100
AcDbLinetypeTableRecord
  2
CONTINUOUS
 70
64
  3
Solid line
 72
65
 73
0
 40
0.0
  0
LTYPE
  5
1F5
100
AcDbSymbolTableRecord
100
AcDbLinetypeTableRecord
  2
CENTER
 70
64
  3
____ _ ____ _ ____ _ ____ _ ____ _ ____ _ ____
 72
65
 73
4
 40
0.6
 49
0.375
 74
0
 49
-0.075
 74
0
 49
0.075
 74
0
 49
-0.075
 74
0
  0
LTYPE
  5
1F6
100
AcDbSymbolTableRecord
100
AcDbLinetypeTableRecord
  2
HIDDEN
 70
64
  3
- - - - - - - - - - - - - - - - - - - -
 72
65
 73
2
 40
0.2
 49
0.1
 74
0
 49
-0.1
 74
0
  0
LTYPE
  5
1F7
100
AcDbSymbolTableRecord
100
AcDbLinetypeTableRecord
  2
PHANTOM
 70
64
  3
_____ _ _ _____ _ _ _____ _ _ _____
 72
65
 73
6
 40
0.8
 49
0.45
 74
0
 49
-0.05
 74
0
 49
0.1
 74
0
 49
-0.05
 74
0
 49
0.1
 74
0
 49
-0.05
 74
0
  0
LTYPE
  5
1F8
100
AcDbSymbolTableRecord
100
AcDbLinetypeTableRecord
  2
DOT
 70
64
  3
. . . . . . . . . . . . . . . . . . . .
 72
65
 73
2
 40
0.2
 49
0.1
 74
0
 49
-0.1
 74
0
  0
LTYPE
  5
1F9
100
AcDbSymbolTableRecord
100
AcDbLinetypeTableRecord
  2
DASHED
 70
64
  3
- - - - - - - - - - - - - - - - - - - -
 72
65
 73
2
 40
0.2
 49
0.1
 74
0
 49
-0.1
 74
0
  0
ENDTAB
  0
TABLE
  2
LAYER
  5
2
100
AcDbSymbolTable
 70
36
  0
LAYER
  5
10
100
AcDbSymbolTableRecord
100
AcDbLayerTableRecord
  2
0
 70
0
 62
7
  6
CONTINUOUS
370
-3
390
F
  0
LAYER
  5
1FA
100
AcDbSymbolTableRecord
100
AcDbLayerTableRecord
  2
DEFAULT_1
 70
0
 62
7
  6
CENTER
370
-3
390
F
  0
LAYER
  5
1FB
100
AcDbSymbolTableRecord
100
AcDbLayerTableRecord
  2
DEFAULT_2
 70
0
 62
8
  6
HIDDEN
370
-3
390
F
  0
LAYER
  5
1FC
100
AcDbSymbolTableRecord
100
AcDbLayerTableRecord
  2
DEFAULT_3
 70
0
 62
7
  6
PHANTOM
370
-3
390
F
  0
LAYER
  5
1FD
100
AcDbSymbolTableRecord
100
AcDbLayerTableRecord
  2
DEFAULT_COORDINATE_SYSTEM
 70
0
 62
7
  6
CONTINUOUS
370
-3
390
F
  0
LAYER
  5
1FE
100
AcDbSymbolTableRecord
100
AcDbLayerTableRecord
  2
DEFAULT_DATUM_AXES
 70
0
 62
7
  6
CONTINUOUS
370
-3
390
F
  0
LAYER
  5
1FF
100
AcDbSymbolTableRecord
100
AcDbLayerTableRecord
  2
DEFAULT_DATUM_CURVES
 70
0
 62
7
  6
CONTINUOUS
370
-3
390
F
  0
LAYER
  5
200
100
AcDbSymbolTableRecord
100
AcDbLayerTableRecord
  2
DEFAULT_DATUM_PLANES
 70
0
 62
7
  6
CONTINUOUS
370
-3
390
F
  0
ENDTAB
  0
TABLE
  2
STYLE
  5
3
100
AcDbSymbolTable
 70
1
  0
STYLE
  5
11
100
AcDbSymbolTableRecord
100
AcDbTextStyleTableRecord
  2
STANDARD
 70
0
 40
0.0
 41
0.8
 50
0.0
 71
0
 42
0.2
  3
txt
  4

  0
STYLE
  5
201
100
AcDbSymbolTableRecord
100
AcDbTextStyleTableRecord
  2
TEXTSTYLE_1
 70
0
 40
0.0
 41
0.8
 50
0.0
 71
0
 42
0.2
  3
gdt
  4

  0
ENDTAB
  0
TABLE
  2
VIEW
  5
6
100
AcDbSymbolTable
 70
0
  0
ENDTAB
  0
TABLE
  2
UCS
  5
7
100
AcDbSymbolTable
 70
0
  0
ENDTAB
  0
TABLE
  2
APPID
  5
9
100
AcDbSymbolTable
 70
1
  0
APPID
  5
202
100
AcDbSymbolTableRecord
100
AcDbRegAppTableRecord
  2
ACAD
 70
0
  0
ENDTAB
  0
TABLE
  2
BLOCK_RECORD
  5
1
100
AcDbSymbolTable
 70
0
  0
BLOCK_RECORD
  5
203
100
AcDbSymbolTableRecord
100
AcDbBlockTableRecord
  2
*Model_Space
  0
BLOCK_RECORD
  5
204
100
AcDbSymbolTableRecord
100
AcDbBlockTableRecord
  2
*Paper_Space
  0
BLOCK_RECORD
  5
205
100
AcDbSymbolTableRecord
100
AcDbBlockTableRecord
  2
_FILLED
  0
ENDTAB
  0
TABLE
  2
DIMSTYLE
  5
A
100
AcDbSymbolTable
 70
1
100
AcDbDimStyleTable
 71
0
  0
DIMSTYLE
105
206
100
AcDbSymbolTableRecord
100
AcDbDimStyleTableRecord
  2
STANDARD
 70
0
  3

  4

 40
1.0
 41
0.1
 42
0.0625
 43
0.38
 44
0.125
 45
0.0
 46
0.0
 47
0.001
 48
0.001
140
0.08
141
0.09
142
0.0
143
25.4
144
1.0
145
0.0
146
1.0
147
0.09
 71
1
 72
0
 73
1
 74
1
 75
0
 76
0
 77
0
 78
4
 79
1
170
1
171
2
172
0
173
0
174
0
175
0
176
0
177
0
178
0
270
2
179
3
271
3
272
3
273
2
274
2
275
0
280
0
281
0
282
0
283
1
284
4
285
0
286
0
287
3
288
0
340
11
278
46
341
205
342
205
343
205
344
205
  0
ENDTAB
  0
ENDSEC
  0
SECTION
  2
BLOCKS
  0
BLOCK
  5
20
100
AcDbEntity
  8
0
100
AcDbBlockBegin
  2
*Model_Space
 70
0
 10
0.0
 20
0.0
 30
0.0
  3
*Model_Space
  1

  0
ENDBLK
  5
21
100
AcDbEntity
  8
0
100
AcDbBlockEnd
  0
BLOCK
  5
1C
100
AcDbEntity
  8
0
100
AcDbBlockBegin
  2
*Paper_Space
 70
0
 10
0.0
 20
0.0
 30
0.0
  3
*Paper_Space
  1

  0
ENDBLK
  5
1D
100
AcDbEntity
  8
0
100
AcDbBlockEnd
  0
BLOCK
  5
207
100
AcDbEntity
  8
0
100
AcDbBlockBegin
  2
_FILLED
 70
64
 10
0.0
 20
0.0
  3
_FILLED
  1

  0
SOLID
  5
208
100
AcDbEntity
  8
0
  6
BYBLOCK
 62
0
100
AcDbTrace
 10
0.0
 20
0.0
 11
-1.0
 21
0.2
 12
-1.0
 22
-0.2
 13
-1.0
 23
-0.2
  0
ENDBLK
  5
209
100
AcDbEntity
  8
0
  6
BYBLOCK
 62
0
100
AcDbBlockEnd
  0
ENDSEC
  0
SECTION
  2
ENTITIES
  0
MTEXT
  5
20A
100
AcDbEntity
  8
0
100
AcDbMText
 62
2
  6
CONTINUOUS
  7
STANDARD
 71
3
 72
1
 10
5.812765411
 20
0.4558476027
 30
0.0
 11
1.0
 21
0.0
 31
0.0
 73
2
 44
0.9
  1
SCALE 1.000
 40
0.08
 41
0.704
  0
LINE
  5
20B
100
AcDbEntity
  8
0
100
AcDbLine
 62
7
  6
CONTINUOUS
 10
0.0
 20
0.0
 11
0.0
 21
8.5
  0
LINE
  5
20C
100
AcDbEntity
  8
0
100
AcDbLine
 62
7
  6
CONTINUOUS
 10
0.0
 20
0.0
 11
11.0
 21
0.0
  0
LINE
  5
20D
100
AcDbEntity
  8
0
100
AcDbLine
 62
7
  6
CONTINUOUS
 10
0.0
 20
8.5
 11
11.0
 21
8.5
  0
LINE
  5
20E
100
AcDbEntity
  8
0
100
AcDbLine
 62
7
  6
CONTINUOUS
 10
11.0
 20
0.0
 11
11.0
 21
8.5
  0
LINE
  5
20F
100
AcDbEntity
  8
0
100
AcDbLine
 62
7
  6
CONTINUOUS
 10
5.3686161731
 20
6.8121657356
 11
5.3848697019
 21
6.816952969
  0
LINE
  5
210
100
AcDbEntity
  8
0
100
AcDbLine
 62
7
  6
CONTINUOUS
 10
5.2360192385
 20
2.2406763699
 11
5.2561663012
 21
2.2454636038
  0
LINE
  5
211
100
AcDbEntity
  8
0
100
AcDbLine
 62
7
  6
CONTINUOUS
 10
5.2037839463
 20
2.2406763699
 11
5.2360192385
 21
2.2406763699
  0
LINE
  5
212
100
AcDbEntity
  8
0
100
AcDbLine
 62
7
  6
CONTINUOUS
 10
5.3327251209
 20
2.2406763699
 11
5.3569015915
 21
2.2406763699
  0
LINE
  5
213
100
AcDbEntity
  8
0
100
AcDbLine
 62
7
  6
CONTINUOUS
 10
5.5100192308
 20
2.2406763699
 11
5.5341957245
 21
2.2406763699
  0
LINE
  5
214
100
AcDbEntity
  8
0
100
AcDbLine
 62
7
  6
CONTINUOUS
 10
5.2360192385
 20
2.269399774
 11
5.2037839463
 21
2.269399774
  0
LINE
  5
215
100
AcDbEntity
  8
0
100
AcDbLine
 62
7
  6
CONTINUOUS
 10
5.3569015915
 20
2.3459955197
 11
5.4616662897
 21
2.3459955197
  0
LINE
  5
216
100
AcDbEntity
  8
0
100
AcDbLine
 62
7
  6
CONTINUOUS
 10
5.5341957245
 20
2.3459955197
 11
5.6389603996
 21
2.3459955197
  0
LINE
  5
217
100
AcDbEntity
  8
0
100
AcDbLine
 62
7
  6
CONTINUOUS
 10
5.6389603996
 20
2.3747189205
 11
5.5341957245
 21
2.3747189205
  0
LINE
  5
218
100
AcDbEntity
  8
0
100
AcDbLine
 62
7
  6
CONTINUOUS
 10
5.4616662897
 20
2.3747189205
 11
5.3569015915
 21
2.3747189205
  0
LINE
  5
219
100
AcDbEntity
  8
0
100
AcDbLine
 62
7
  6
CONTINUOUS
 10
5.1836368865
 20
2.2454636038
 11
5.2037839463
 21
2.2406763699
  0
LINE
  5
21A
100
AcDbEntity
  8
0
100
AcDbLine
 62
7
  6
CONTINUOUS
 10
5.2037839463
 20
2.269399774
 11
5.1876662973
 21
2.2741870075
  0
LINE
  5
21B
100
AcDbEntity
  8
0
100
AcDbLine
 62
7
  6
CONTINUOUS
 10
5.3564260322
 20
6.8025912686
 11
5.3686161731
 21
6.8121657356
  0
LINE
  5
21C
100
AcDbEntity
  8
0
100
AcDbLine
 62
7
  6
CONTINUOUS
 10
5.364552785
 20
6.8408891364
 11
5.3482992794
 21
6.8313146694
  0
LINE
  5
21D
100
AcDbEntity
  8
0
100
AcDbLine
 62
7
  6
CONTINUOUS
 10
5.4336302653
 20
6.6541870075
 11
5.4173767364
 21
6.649399774
  0
LINE
  5
21E
100
AcDbEntity
  8
0
100
AcDbLine
 62
7
  6
CONTINUOUS
 10
7.1924283141
 20
2.9206763699
 11
7.2125085433
 21
2.9254636038
  0
LINE
  5
21F
100
AcDbEntity
  8
0
100
AcDbLine
 62
7
  6
CONTINUOUS
 10
6.8229523859
 20
2.9206763699
 11
6.8430326152
 21
2.9254636038
  0
LINE
  5
220
100
AcDbEntity
  8
0
100
AcDbLine
 62
7
  6
CONTINUOUS
 10
6.6382144219
 20
2.9206763699
 11
6.6582946396
 21
2.9254636038
  0
LINE
  5
221
100
AcDbEntity
  8
0
100
AcDbLine
 62
7
  6
CONTINUOUS
 10
5.2037839463
 20
2.4656763699
 11
5.1836368865
 21
2.4608891364
  0
LINE
  5
222
100
AcDbEntity
  8
0
100
AcDbLine
 62
7
  6
CONTINUOUS
 10
5.2037839463
 20
2.436952969
 11
5.2360192385
 21
2.436952969
  0
LINE
  5
223
100
AcDbEntity
  8
0
100
AcDbLine
 62
7
  6
CONTINUOUS
 10
5.3569015915
 20
2.436952969
 11
5.4777839444
 21
2.436952969
  0
LINE
  5
224
100
AcDbEntity
  8
0
100
AcDbLine
 62
7
  6
CONTINUOUS
 10
5.5341957245
 20
2.436952969
 11
5.6550780774
 21
2.436952969
  0
LINE
  5
225
100
AcDbEntity
  8
0
100
AcDbLine
 62
7
  6
CONTINUOUS
 10
5.6550780774
 20
2.4656763699
 11
5.5100192308
 21
2.4656763699
  0
LINE
  5
226
100
AcDbEntity
  8
0
100
AcDbLine
 62
7
  6
CONTINUOUS
 10
5.4777839444
 20
2.4656763699
 11
5.3327251209
 21
2.4656763699
  0
LINE
  5
227
100
AcDbEntity
  8
0
100
AcDbLine
 62
7
  6
CONTINUOUS
 10
5.2360192385
 20
2.4656763699
 11
5.2037839463
 21
2.4656763699
  0
LINE
  5
228
100
AcDbEntity
  8
0
100
AcDbLine
 62
7
  6
CONTINUOUS
 10
5.2561663012
 20
2.4608891364
 11
5.2360192385
 21
2.4656763699
  0
LINE
  5
229
100
AcDbEntity
  8
0
100
AcDbLine
 62
7
  6
CONTINUOUS
 10
5.2360192385
 20
2.436952969
 11
5.2521368817
 21
2.4321657356
  0
LINE
  5
22A
100
AcDbEntity
  8
0
100
AcDbLine
 62
7
  6
CONTINUOUS
 10
5.1675192376
 20
2.255038072
 11
5.1836368865
 21
2.2454636038
  0
LINE
  5
22B
100
AcDbEntity
  8
0
100
AcDbLine
 62
7
  6
CONTINUOUS
 10
5.2722839444
 20
2.4513146694
 11
5.2561663012
 21
2.4608891364
  0
LINE
  5
22C
100
AcDbEntity
  8
0
100
AcDbLine
 62
7
  6
CONTINUOUS
 10
5.1876662973
 20
2.2741870075
 11
5.175578062
 21
2.2837614778
  0
LINE
  5
22D
100
AcDbEntity
  8
0
100
AcDbLine
 62
7
  6
CONTINUOUS
 10
3.9133133562
 20
4.6381763699
 11
3.9133133562
 21
4.4281763699
  0
LINE
  5
22E
100
AcDbEntity
  8
0
100
AcDbLine
 62
7
  6
CONTINUOUS
 10
5.3482992794
 20
6.8313146694
 11
5.3320457505
 21
6.8121657356
  0
LINE
  5
22F
100
AcDbEntity
  8
0
100
AcDbLine
 62
7
  6
CONTINUOUS
 10
5.4458204062
 20
6.6637614778
 11
5.4336302653
 21
6.6541870075
  0
LINE
  5
230
100
AcDbEntity
  8
0
100
AcDbLine
 62
7
  6
CONTINUOUS
 10
5.4376936301
 20
6.6254636038
 11
5.453947159
 21
6.635038072
  0
LINE
  5
231
100
AcDbEntity
  8
0
100
AcDbLine
 62
7
  6
CONTINUOUS
 10
6.7908240514
 20
3.1456763699
 11
6.7707438451
 21
3.1408891364
  0
LINE
  5
232
100
AcDbEntity
  8
0
100
AcDbLine
 62
7
  6
CONTINUOUS
 10
6.6020700426
 20
3.1456763699
 11
6.5819898277
 21
3.1408891364
  0
LINE
  5
233
100
AcDbEntity
  8
0
100
AcDbLine
 62
7
  6
CONTINUOUS
 10
6.6020700426
 20
2.9206763699
 11
6.6382144219
 21
2.9206763699
  0
LINE
  5
234
100
AcDbEntity
  8
0
100
AcDbLine
 62
7
  6
CONTINUOUS
 10
6.7908240514
 20
2.9206763699
 11
6.8229523859
 21
2.9206763699
  0
LINE
  5
235
100
AcDbEntity
  8
0
100
AcDbLine
 62
7
  6
CONTINUOUS
 10
6.9193374127
 20
2.9206763699
 11
7.0639149758
 21
2.9206763699
  0
LINE
  5
236
100
AcDbEntity
  8
0
100
AcDbLine
 62
7
  6
CONTINUOUS
 10
7.0960432874
 20
2.9206763699
 11
7.1924283141
 21
2.9206763699
  0
LINE
  5
237
100
AcDbEntity
  8
0
100
AcDbLine
 62
7
  6
CONTINUOUS
 10
7.1924283141
 20
2.949399774
 11
7.1201395441
 21
2.949399774
  0
LINE
  5
238
100
AcDbEntity
  8
0
100
AcDbLine
 62
7
  6
CONTINUOUS
 10
7.0639149758
 20
2.949399774
 11
6.9434336923
 21
2.949399774
  0
LINE
  5
239
100
AcDbEntity
  8
0
100
AcDbLine
 62
7
  6
CONTINUOUS
 10
6.8229523859
 20
2.949399774
 11
6.7908240514
 21
2.949399774
  0
LINE
  5
23A
100
AcDbEntity
  8
0
100
AcDbLine
 62
7
  6
CONTINUOUS
 10
6.6382144219
 20
2.949399774
 11
6.6020700426
 21
2.949399774
  0
LINE
  5
23B
100
AcDbEntity
  8
0
100
AcDbLine
 62
7
  6
CONTINUOUS
 10
6.6944390246
 20
2.9781231782
 11
6.6703427679
 21
2.9781231782
  0
LINE
  5
23C
100
AcDbEntity
  8
0
100
AcDbLine
 62
7
  6
CONTINUOUS
 10
5.3083133562
 20
3.0331763699
 11
5.5183133562
 21
3.0331763699
  0
LINE
  5
23D
100
AcDbEntity
  8
0
100
AcDbLine
 62
7
  6
CONTINUOUS
 10
5.2521368817
 20
2.4321657356
 11
5.264225117
 21
2.4225912686
  0
LINE
  5
23E
100
AcDbEntity
  8
0
100
AcDbLine
 62
7
  6
CONTINUOUS
 10
5.1514015915
 20
2.2741870075
 11
5.1675192376
 21
2.255038072
  0
LINE
  5
23F
100
AcDbEntity
  8
0
100
AcDbLine
 62
7
  6
CONTINUOUS
 10
3.9333133562
 20
4.4081763699
 11
3.9333133562
 21
4.6581763699
  0
LINE
  5
240
100
AcDbEntity
  8
0
100
AcDbLine
 62
7
  6
CONTINUOUS
 10
5.453947159
 20
6.635038072
 11
5.4702006879
 21
6.6541870075
  0
LINE
  5
241
100
AcDbEntity
  8
0
100
AcDbLine
 62
7
  6
CONTINUOUS
 10
5.2883133562
 20
3.0531763699
 11
5.5383133562
 21
3.0531763699
  0
LINE
  5
242
100
AcDbEntity
  8
0
100
AcDbLine
 62
7
  6
CONTINUOUS
 10
6.6703427679
 20
3.0882295548
 11
6.6944390246
 21
3.0882295548
  0
LINE
  5
243
100
AcDbEntity
  8
0
100
AcDbLine
 62
7
  6
CONTINUOUS
 10
6.6020700426
 20
3.116952969
 11
6.6382144219
 21
3.116952969
  0
LINE
  5
244
100
AcDbEntity
  8
0
100
AcDbLine
 62
7
  6
CONTINUOUS
 10
6.7908240514
 20
3.116952969
 11
6.8229523859
 21
3.116952969
  0
LINE
  5
245
100
AcDbEntity
  8
0
100
AcDbLine
 62
7
  6
CONTINUOUS
 10
7.1201395441
 20
3.116952969
 11
7.1924283141
 21
3.116952969
  0
LINE
  5
246
100
AcDbEntity
  8
0
100
AcDbLine
 62
7
  6
CONTINUOUS
 10
7.1924283141
 20
3.1456763699
 11
7.0960432874
 21
3.1456763699
  0
LINE
  5
247
100
AcDbEntity
  8
0
100
AcDbLine
 62
7
  6
CONTINUOUS
 10
6.9434336923
 20
3.1456763699
 11
6.9193374127
 21
3.1456763699
  0
LINE
  5
248
100
AcDbEntity
  8
0
100
AcDbLine
 62
7
  6
CONTINUOUS
 10
6.8229523859
 20
3.1456763699
 11
6.7908240514
 21
3.1456763699
  0
LINE
  5
249
100
AcDbEntity
  8
0
100
AcDbLine
 62
7
  6
CONTINUOUS
 10
6.6382144219
 20
3.1456763699
 11
6.6020700426
 21
3.1456763699
  0
LINE
  5
24A
100
AcDbEntity
  8
0
100
AcDbLine
 62
7
  6
CONTINUOUS
 10
6.5819898277
 20
2.9254636038
 11
6.6020700426
 21
2.9206763699
  0
LINE
  5
24B
100
AcDbEntity
  8
0
100
AcDbLine
 62
7
  6
CONTINUOUS
 10
6.7707438451
 20
2.9254636038
 11
6.7908240514
 21
2.9206763699
  0
LINE
  5
24C
100
AcDbEntity
  8
0
100
AcDbLine
 62
7
  6
CONTINUOUS
 10
5.2884015876
 20
2.4321657356
 11
5.2722839444
 21
2.4513146694
  0
LINE
  5
24D
100
AcDbEntity
  8
0
100
AcDbLine
 62
7
  6
CONTINUOUS
 10
5.175578062
 20
2.2837614778
 11
5.1675192376
 21
2.2981231782
  0
LINE
  5
24E
100
AcDbEntity
  8
0
100
AcDbLine
 62
7
  6
CONTINUOUS
 10
5.3320457505
 20
6.8121657356
 11
5.3239189977
 21
6.7930168017
  0
LINE
  5
24F
100
AcDbEntity
  8
0
100
AcDbLine
 62
7
  6
CONTINUOUS
 10
5.3482992794
 20
6.7882295548
 11
5.3564260322
 21
6.8025912686
  0
LINE
  5
250
100
AcDbEntity
  8
0
100
AcDbLine
 62
7
  6
CONTINUOUS
 10
5.453947159
 20
6.6781231782
 11
5.4458204062
 21
6.6637614778
  0
LINE
  5
251
100
AcDbEntity
  8
0
100
AcDbLine
 62
7
  6
CONTINUOUS
 10
7.0447987931
 20
6.0547189205
 11
7.0311968513
 21
6.049931687
  0
LINE
  5
252
100
AcDbEntity
  8
0
100
AcDbLine
 62
7
  6
CONTINUOUS
 10
6.6582946396
 20
3.1408891364
 11
6.6382144219
 21
3.1456763699
  0
LINE
  5
253
100
AcDbEntity
  8
0
100
AcDbLine
 62
7
  6
CONTINUOUS
 10
6.8430326152
 20
3.1408891364
 11
6.8229523859
 21
3.1456763699
  0
LINE
  5
254
100
AcDbEntity
  8
0
100
AcDbLine
 62
7
  6
CONTINUOUS
 10
7.2125085433
 20
3.1408891364
 11
7.1924283141
 21
3.1456763699
  0
LINE
  5
255
100
AcDbEntity
  8
0
100
AcDbLine
 62
7
  6
CONTINUOUS
 10
6.6020700426
 20
2.949399774
 11
6.5860058695
 21
2.9541870075
  0
LINE
  5
256
100
AcDbEntity
  8
0
100
AcDbLine
 62
7
  6
CONTINUOUS
 10
6.7908240514
 20
2.949399774
 11
6.7747598726
 21
2.9541870075
  0
LINE
  5
257
100
AcDbEntity
  8
0
100
AcDbLine
 62
7
  6
CONTINUOUS
 10
6.6382144219
 20
3.116952969
 11
6.6542786006
 21
3.1121657356
  0
LINE
  5
258
100
AcDbEntity
  8
0
100
AcDbLine
 62
7
  6
CONTINUOUS
 10
6.8229523859
 20
3.116952969
 11
6.8390165647
 21
3.1121657356
  0
LINE
  5
259
100
AcDbEntity
  8
0
100
AcDbLine
 62
7
  6
CONTINUOUS
 10
5.264225117
 20
2.4225912686
 11
5.2722839444
 21
2.4082295548
  0
LINE
  5
25A
100
AcDbEntity
  8
0
100
AcDbLine
 62
7
  6
CONTINUOUS
 10
5.143342768
 20
2.2933359448
 11
5.1514015915
 21
2.2741870075
  0
LINE
  5
25B
100
AcDbEntity
  8
0
100
AcDbLine
 62
7
  6
CONTINUOUS
 10
5.296460415
 20
2.4130168017
 11
5.2884015876
 21
2.4321657356
  0
LINE
  5
25C
100
AcDbEntity
  8
0
100
AcDbLine
 62
7
  6
CONTINUOUS
 10
5.4702006879
 20
6.6541870075
 11
5.4783274407
 21
6.6733359448
  0
LINE
  5
25D
100
AcDbEntity
  8
0
100
AcDbLine
 62
7
  6
CONTINUOUS
 10
7.1924283141
 20
3.116952969
 11
7.2084925159
 21
3.1121657356
  0
LINE
  5
25E
100
AcDbEntity
  8
0
100
AcDbLine
 62
7
  6
CONTINUOUS
 10
6.5659256547
 20
2.935038072
 11
6.5819898277
 21
2.9254636038
  0
LINE
  5
25F
100
AcDbEntity
  8
0
100
AcDbLine
 62
7
  6
CONTINUOUS
 10
6.7546796663
 20
2.935038072
 11
6.7707438451
 21
2.9254636038
  0
LINE
  5
260
100
AcDbEntity
  8
0
100
AcDbLine
 62
7
  6
CONTINUOUS
 10
5.1675192376
 20
2.2981231782
 11
5.1634898268
 21
2.3172721121
  0
LINE
  5
261
100
AcDbEntity
  8
0
100
AcDbLine
 62
7
  6
CONTINUOUS
 10
5.2722839444
 20
2.4082295548
 11
5.2763133523
 21
2.3890806209
  0
LINE
  5
262
100
AcDbEntity
  8
0
100
AcDbLine
 62
7
  6
CONTINUOUS
 10
5.1393133562
 20
2.3172721121
 11
5.143342768
 21
2.2933359448
  0
LINE
  5
263
100
AcDbEntity
  8
0
100
AcDbLine
 62
7
  6
CONTINUOUS
 10
5.1438913463
 20
4.1299578374
 11
5.1460084312
 21
4.1106268732
  0
LINE
  5
264
100
AcDbEntity
  8
0
100
AcDbLine
 62
7
  6
CONTINUOUS
 10
5.068709303
 20
4.8954580925
 11
5.0704041814
 21
4.8760855447
  0
LINE
  5
265
100
AcDbEntity
  8
0
100
AcDbLine
 62
7
  6
CONTINUOUS
 10
5.1056663595
 20
4.1583074198
 11
5.1058784842
 21
4.1388620289
  0
LINE
  5
266
100
AcDbEntity
  8
0
100
AcDbLine
 62
7
  6
CONTINUOUS
 10
5.1248133562
 20
6.8456763699
 11
5.1248133562
 21
6.6206763699
  0
LINE
  5
267
100
AcDbEntity
  8
0
100
AcDbLine
 62
7
  6
CONTINUOUS
 10
5.1393133562
 20
2.3890806209
 11
5.1393133562
 21
2.3172721121
  0
LINE
  5
268
100
AcDbEntity
  8
0
100
AcDbLine
 62
7
  6
CONTINUOUS
 10
5.1058784842
 20
4.9274907108
 11
5.1056663595
 21
4.90804532
  0
LINE
  5
269
100
AcDbEntity
  8
0
100
AcDbLine
 62
7
  6
CONTINUOUS
 10
5.0704041814
 20
4.1902671951
 11
5.068709303
 21
4.1708946472
  0
LINE
  5
26A
100
AcDbEntity
  8
0
100
AcDbLine
 62
7
  6
CONTINUOUS
 10
5.1460084312
 20
4.9557258665
 11
5.1438913463
 21
4.9363949024
  0
LINE
  5
26B
100
AcDbEntity
  8
0
100
AcDbLine
 62
7
  6
CONTINUOUS
 10
5.3239189977
 20
6.7930168017
 11
5.3198556097
 21
6.7690806209
  0
LINE
  5
26C
100
AcDbEntity
  8
0
100
AcDbLine
 62
7
  6
CONTINUOUS
 10
5.4783274407
 20
6.6733359448
 11
5.4823908287
 21
6.6972721121
  0
LINE
  5
26D
100
AcDbEntity
  8
0
100
AcDbLine
 62
7
  6
CONTINUOUS
 10
5.0384444061
 20
4.2255293732
 11
5.0348588473
 21
4.2064162366
  0
LINE
  5
26E
100
AcDbEntity
  8
0
100
AcDbLine
 62
7
  6
CONTINUOUS
 10
5.1887126708
 20
4.9798916395
 11
5.1847110144
 21
4.9608612699
  0
LINE
  5
26F
100
AcDbEntity
  8
0
100
AcDbLine
 62
7
  6
CONTINUOUS
 10
5.3442358914
 20
6.7690806209
 11
5.3482992794
 21
6.7882295548
  0
LINE
  5
270
100
AcDbEntity
  8
0
100
AcDbLine
 62
7
  6
CONTINUOUS
 10
5.458010547
 20
6.6972721121
 11
5.453947159
 21
6.6781231782
  0
LINE
  5
271
100
AcDbEntity
  8
0
100
AcDbLine
 62
7
  6
CONTINUOUS
 10
5.0100948237
 20
4.26375436
 11
5.0046531154
 21
4.2450847046
  0
LINE
  5
272
100
AcDbEntity
  8
0
100
AcDbLine
 62
7
  6
CONTINUOUS
 10
5.2335799378
 20
4.9997553003
 11
5.2277322481
 21
4.981208798
  0
LINE
  5
273
100
AcDbEntity
  8
0
100
AcDbLine
 62
7
  6
CONTINUOUS
 10
4.9856284562
 20
4.3045740281
 11
4.9783830049
 21
4.2865276529
  0
LINE
  5
274
100
AcDbEntity
  8
0
100
AcDbLine
 62
7
  6
CONTINUOUS
 10
5.2801781358
 20
5.0151255509
 11
5.2725407292
 21
4.9972415289
  0
LINE
  5
275
100
AcDbEntity
  8
0
100
AcDbLine
 62
7
  6
CONTINUOUS
 10
4.965280928
 20
4.3475952618
 11
4.9563015116
 21
4.3303459632
  0
LINE
  5
276
100
AcDbEntity
  8
0
100
AcDbLine
 62
7
  6
CONTINUOUS
 10
5.3280584988
 20
5.0258543674
 11
5.3187049277
 21
5.0088050586
  0
LINE
  5
277
100
AcDbEntity
  8
0
100
AcDbLine
 62
7
  6
CONTINUOUS
 10
4.9492481971
 20
4.3924037429
 11
4.9386212921
 21
4.3761176411
  0
LINE
  5
278
100
AcDbEntity
  8
0
100
AcDbLine
 62
7
  6
CONTINUOUS
 10
5.3767599127
 20
5.0318384255
 11
5.3657802571
 21
5.0157880241
  0
LINE
  5
279
100
AcDbEntity
  8
0
100
AcDbLine
 62
7
  6
CONTINUOUS
 10
4.9376846674
 20
4.4385679414
 11
4.9255126166
 21
4.4234018805
  0
LINE
  5
27A
100
AcDbEntity
  8
0
100
AcDbLine
 62
7
  6
CONTINUOUS
 10
5.4258133562
 20
5.0330200954
 11
5.4133133562
 21
5.0181231755
  0
LINE
  5
27B
100
AcDbEntity
  8
0
100
AcDbLine
 62
7
  6
CONTINUOUS
 10
4.9307017019
 20
4.4856432708
 11
4.917101729
 21
4.4717433082
  0
LINE
  5
27C
100
AcDbEntity
  8
0
100
AcDbLine
 62
7
  6
CONTINUOUS
 10
5.4747464178
 20
5.029387997
 11
5.4608464553
 21
5.0157880241
  0
LINE
  5
27D
100
AcDbEntity
  8
0
100
AcDbLine
 62
7
  6
CONTINUOUS
 10
4.9283665505
 20
4.5331763699
 11
4.9134696306
 21
4.5206763699
  0
LINE
  5
27E
100
AcDbEntity
  8
0
100
AcDbLine
 62
7
  6
CONTINUOUS
 10
5.5230878456
 20
5.0209771094
 11
5.5079217846
 21
5.0088050586
  0
LINE
  5
27F
100
AcDbEntity
  8
0
100
AcDbLine
 62
7
  6
CONTINUOUS
 10
4.9307017019
 20
4.580709469
 11
4.9146513005
 21
4.5697298134
  0
LINE
  5
280
100
AcDbEntity
  8
0
100
AcDbLine
 62
7
  6
CONTINUOUS
 10
5.5703720849
 20
5.007868434
 11
5.5540859831
 21
4.9972415289
  0
LINE
  5
281
100
AcDbEntity
  8
0
100
AcDbLine
 62
7
  6
CONTINUOUS
 10
4.9376846674
 20
4.6277847983
 11
4.9206353586
 21
4.6184312272
  0
LINE
  5
282
100
AcDbEntity
  8
0
100
AcDbLine
 62
7
  6
CONTINUOUS
 10
7.0493327563
 20
6.0307827531
 11
7.0674687133
 21
6.0403572201
  0
LINE
  5
283
100
AcDbEntity
  8
0
100
AcDbLine
 62
7
  6
CONTINUOUS
 10
5.6161437629
 20
4.9901882145
 11
5.5988944643
 21
4.981208798
  0
LINE
  5
284
100
AcDbEntity
  8
0
100
AcDbLine
 62
7
  6
CONTINUOUS
 10
4.9492481971
 20
4.6739489968
 11
4.9313641751
 21
4.6663115902
  0
LINE
  5
285
100
AcDbEntity
  8
0
100
AcDbLine
 62
7
  6
CONTINUOUS
 10
5.6599620731
 20
4.9681067211
 11
5.6419156979
 21
4.9608612699
  0
LINE
  5
286
100
AcDbEntity
  8
0
100
AcDbLine
 62
7
  6
CONTINUOUS
 10
4.965280928
 20
4.718757478
 11
4.9467344257
 21
4.7129097883
  0
LINE
  5
287
100
AcDbEntity
  8
0
100
AcDbLine
 62
7
  6
CONTINUOUS
 10
5.7014050214
 20
4.9418366107
 11
5.682735366
 21
4.9363949024
  0
LINE
  5
288
100
AcDbEntity
  8
0
100
AcDbLine
 62
7
  6
CONTINUOUS
 10
5.8409982562
 20
4.3045740281
 11
5.8600286258
 21
4.3085756845
  0
LINE
  5
289
100
AcDbEntity
  8
0
100
AcDbLine
 62
7
  6
CONTINUOUS
 10
5.0865532229
 20
4.154721861
 11
5.1056663595
 21
4.1583074198
  0
LINE
  5
28A
100
AcDbEntity
  8
0
100
AcDbLine
 62
7
  6
CONTINUOUS
 10
5.8165318887
 20
4.26375436
 11
5.8358628528
 21
4.2658714449
  0
LINE
  5
28B
100
AcDbEntity
  8
0
100
AcDbLine
 62
7
  6
CONTINUOUS
 10
5.0510316335
 20
4.1885723167
 11
5.0704041814
 21
4.1902671951
  0
LINE
  5
28C
100
AcDbEntity
  8
0
100
AcDbLine
 62
7
  6
CONTINUOUS
 10
5.7881823063
 20
4.2255293732
 11
5.8076276971
 21
4.2257414979
  0
LINE
  5
28D
100
AcDbEntity
  8
0
100
AcDbLine
 62
7
  6
CONTINUOUS
 10
5.0189990152
 20
4.2257414979
 11
5.0384444061
 21
4.2255293732
  0
LINE
  5
28E
100
AcDbEntity
  8
0
100
AcDbLine
 62
7
  6
CONTINUOUS
 10
5.756222531
 20
4.1902671951
 11
5.7755950788
 21
4.1885723167
  0
LINE
  5
28F
100
AcDbEntity
  8
0
100
AcDbLine
 62
7
  6
CONTINUOUS
 10
4.9907638595
 20
4.2658714449
 11
5.0100948237
 21
4.26375436
  0
LINE
  5
290
100
AcDbEntity
  8
0
100
AcDbLine
 62
7
  6
CONTINUOUS
 10
5.7209603529
 20
4.1583074198
 11
5.7400734895
 21
4.154721861
  0
LINE
  5
291
100
AcDbEntity
  8
0
100
AcDbLine
 62
7
  6
CONTINUOUS
 10
4.9665980865
 20
4.3085756845
 11
4.9856284562
 21
4.3045740281
  0
LINE
  5
292
100
AcDbEntity
  8
0
100
AcDbLine
 62
7
  6
CONTINUOUS
 10
5.682735366
 20
4.1299578374
 11
5.7014050214
 21
4.1245161291
  0
LINE
  5
293
100
AcDbEntity
  8
0
100
AcDbLine
 62
7
  6
CONTINUOUS
 10
4.9467344257
 20
4.3534429515
 11
4.965280928
 21
4.3475952618
  0
LINE
  5
294
100
AcDbEntity
  8
0
100
AcDbLine
 62
7
  6
CONTINUOUS
 10
5.6419156979
 20
4.1054914699
 11
5.6599620731
 21
4.0982460186
  0
LINE
  5
295
100
AcDbEntity
  8
0
100
AcDbLine
 62
7
  6
CONTINUOUS
 10
4.9313641751
 20
4.4000411495
 11
4.9492481971
 21
4.3924037429
  0
LINE
  5
296
100
AcDbEntity
  8
0
100
AcDbLine
 62
7
  6
CONTINUOUS
 10
5.5988944643
 20
4.0851439417
 11
5.6161437629
 21
4.0761645253
  0
LINE
  5
297
100
AcDbEntity
  8
0
100
AcDbLine
 62
7
  6
CONTINUOUS
 10
4.9206353586
 20
4.4479215125
 11
4.9376846674
 21
4.4385679414
  0
LINE
  5
298
100
AcDbEntity
  8
0
100
AcDbLine
 62
7
  6
CONTINUOUS
 10
6.6743588069
 20
3.1313146694
 11
6.6582946396
 21
3.1408891364
  0
LINE
  5
299
100
AcDbEntity
  8
0
100
AcDbLine
 62
7
  6
CONTINUOUS
 10
6.859096771
 20
3.1313146694
 11
6.8430326152
 21
3.1408891364
  0
LINE
  5
29A
100
AcDbEntity
  8
0
100
AcDbLine
 62
7
  6
CONTINUOUS
 10
7.2285726991
 20
3.1313146694
 11
7.2125085433
 21
3.1408891364
  0
LINE
  5
29B
100
AcDbEntity
  8
0
100
AcDbLine
 62
7
  6
CONTINUOUS
 10
5.5540859831
 20
4.0691112108
 11
5.5703720849
 21
4.0584843058
  0
LINE
  5
29C
100
AcDbEntity
  8
0
100
AcDbLine
 62
7
  6
CONTINUOUS
 10
4.9146513005
 20
4.4966229264
 11
4.9307017019
 21
4.4856432708
  0
LINE
  5
29D
100
AcDbEntity
  8
0
100
AcDbLine
 62
7
  6
CONTINUOUS
 10
6.5860058695
 20
2.9541870075
 11
6.5739577412
 21
2.9637614778
  0
LINE
  5
29E
100
AcDbEntity
  8
0
100
AcDbLine
 62
7
  6
CONTINUOUS
 10
6.7747598726
 20
2.9541870075
 11
6.7627117442
 21
2.9637614778
  0
LINE
  5
29F
100
AcDbEntity
  8
0
100
AcDbLine
 62
7
  6
CONTINUOUS
 10
6.6542786006
 20
3.1121657356
 11
6.666326729
 21
3.1025912686
  0
LINE
  5
2A0
100
AcDbEntity
  8
0
100
AcDbLine
 62
7
  6
CONTINUOUS
 10
5.5079217846
 20
4.0575476811
 11
5.5230878456
 21
4.0453756303
  0
LINE
  5
2A1
100
AcDbEntity
  8
0
100
AcDbLine
 62
7
  6
CONTINUOUS
 10
4.9134696306
 20
4.5456763699
 11
4.9283665505
 21
4.5331763699
  0
LINE
  5
2A2
100
AcDbEntity
  8
0
100
AcDbLine
 62
7
  6
CONTINUOUS
 10
5.4608464553
 20
4.0505647156
 11
5.4747464178
 21
4.0369647427
  0
LINE
  5
2A3
100
AcDbEntity
  8
0
100
AcDbLine
 62
7
  6
CONTINUOUS
 10
4.917101729
 20
4.5946094315
 11
4.9307017019
 21
4.580709469
  0
LINE
  5
2A4
100
AcDbEntity
  8
0
100
AcDbLine
 62
7
  6
CONTINUOUS
 10
5.4133133562
 20
4.0482295642
 11
5.4258133562
 21
4.0333326443
  0
LINE
  5
2A5
100
AcDbEntity
  8
0
100
AcDbLine
 62
7
  6
CONTINUOUS
 10
4.9255126166
 20
4.6429508592
 11
4.9376846674
 21
4.6277847983
  0
LINE
  5
2A6
100
AcDbEntity
  8
0
100
AcDbLine
 62
7
  6
CONTINUOUS
 10
5.3657802571
 20
4.0505647156
 11
5.3767599127
 21
4.0345143142
  0
LINE
  5
2A7
100
AcDbEntity
  8
0
100
AcDbLine
 62
7
  6
CONTINUOUS
 10
4.9386212921
 20
4.6902350986
 11
4.9492481971
 21
4.6739489968
  0
LINE
  5
2A8
100
AcDbEntity
  8
0
100
AcDbLine
 62
7
  6
CONTINUOUS
 10
5.3187049277
 20
4.0575476811
 11
5.3280584988
 21
4.0404983723
  0
LINE
  5
2A9
100
AcDbEntity
  8
0
100
AcDbLine
 62
7
  6
CONTINUOUS
 10
4.9563015116
 20
4.7360067766
 11
4.965280928
 21
4.718757478
  0
LINE
  5
2AA
100
AcDbEntity
  8
0
100
AcDbLine
 62
7
  6
CONTINUOUS
 10
5.2725407292
 20
4.0691112108
 11
5.2801781358
 21
4.0512271888
  0
LINE
  5
2AB
100
AcDbEntity
  8
0
100
AcDbLine
 62
7
  6
CONTINUOUS
 10
4.9783830049
 20
4.7798250868
 11
4.9856284562
 21
4.7617787116
  0
LINE
  5
2AC
100
AcDbEntity
  8
0
100
AcDbLine
 62
7
  6
CONTINUOUS
 10
5.2277322481
 20
4.0851439417
 11
5.2335799378
 21
4.0665974394
  0
LINE
  5
2AD
100
AcDbEntity
  8
0
100
AcDbLine
 62
7
  6
CONTINUOUS
 10
5.0046531154
 20
4.8212680351
 11
5.0100948237
 21
4.8025983797
  0
LINE
  5
2AE
100
AcDbEntity
  8
0
100
AcDbLine
 62
7
  6
CONTINUOUS
 10
5.1847110144
 20
4.1054914699
 11
5.1887126708
 21
4.0864611002
  0
LINE
  5
2AF
100
AcDbEntity
  8
0
100
AcDbLine
 62
7
  6
CONTINUOUS
 10
5.0348588473
 20
4.8599365032
 11
5.0384444061
 21
4.8408233666
  0
LINE
  5
2B0
100
AcDbEntity
  8
0
100
AcDbLine
 62
7
  6
CONTINUOUS
 10
5.3004898229
 20
2.3890806209
 11
5.296460415
 21
2.4130168017
  0
LINE
  5
2B1
100
AcDbEntity
  8
0
100
AcDbLine
 62
7
  6
CONTINUOUS
 10
5.1491936379
 20
6.6206763699
 11
5.1491936379
 21
6.7259955197
  0
LINE
  5
2B2
100
AcDbEntity
  8
0
100
AcDbLine
 62
7
  6
CONTINUOUS
 10
5.1491936379
 20
6.7547189205
 11
5.1491936379
 21
6.8456763699
  0
LINE
  5
2B3
100
AcDbEntity
  8
0
100
AcDbLine
 62
7
  6
CONTINUOUS
 10
5.1634898268
 20
2.3172721121
 11
5.1634898268
 21
2.3890806209
  0
LINE
  5
2B4
100
AcDbEntity
  8
0
100
AcDbLine
 62
7
  6
CONTINUOUS
 10
5.2629682819
 20
6.8456763699
 11
5.2629682819
 21
6.7547189205
  0
LINE
  5
2B5
100
AcDbEntity
  8
0
100
AcDbLine
 62
7
  6
CONTINUOUS
 10
5.2629682819
 20
6.7259955197
 11
5.2629682819
 21
6.6206763699
  0
LINE
  5
2B6
100
AcDbEntity
  8
0
100
AcDbLine
 62
7
  6
CONTINUOUS
 10
5.2763133523
 20
2.3890806209
 11
5.2763133523
 21
2.3172721121
  0
LINE
  5
2B7
100
AcDbEntity
  8
0
100
AcDbLine
 62
7
  6
CONTINUOUS
 10
5.2873485636
 20
6.6206763699
 11
5.2873485636
 21
6.8456763699
  0
LINE
  5
2B8
100
AcDbEntity
  8
0
100
AcDbLine
 62
7
  6
CONTINUOUS
 10
5.2883133562
 20
6.0131763699
 11
5.2883133562
 21
5.0172992881
  0
LINE
  5
2B9
100
AcDbEntity
  8
0
100
AcDbLine
 62
7
  6
CONTINUOUS
 10
5.2883133562
 20
4.0490534516
 11
5.2883133562
 21
3.0531763699
  0
LINE
  5
2BA
100
AcDbEntity
  8
0
100
AcDbLine
 62
7
  6
CONTINUOUS
 10
5.3004898229
 20
2.3172721121
 11
5.3004898229
 21
2.3890806209
  0
LINE
  5
2BB
100
AcDbEntity
  8
0
100
AcDbLine
 62
7
  6
CONTINUOUS
 10
5.3083133562
 20
4.0492075632
 11
5.3083133562
 21
3.0331763699
  0
LINE
  5
2BC
100
AcDbEntity
  8
0
100
AcDbLine
 62
7
  6
CONTINUOUS
 10
5.3083133562
 20
5.0171451765
 11
5.3083133562
 21
6.0331763699
  0
LINE
  5
2BD
100
AcDbEntity
  8
0
100
AcDbLine
 62
7
  6
CONTINUOUS
 10
5.3198556097
 20
6.7690806209
 11
5.3198556097
 21
6.6972721121
  0
LINE
  5
2BE
100
AcDbEntity
  8
0
100
AcDbLine
 62
7
  6
CONTINUOUS
 10
5.3327251209
 20
2.4656763699
 11
5.3327251209
 21
2.2406763699
  0
LINE
  5
2BF
100
AcDbEntity
  8
0
100
AcDbLine
 62
7
  6
CONTINUOUS
 10
5.3442358914
 20
6.6972721121
 11
5.3442358914
 21
6.7690806209
  0
LINE
  5
2C0
100
AcDbEntity
  8
0
100
AcDbLine
 62
7
  6
CONTINUOUS
 10
5.3569015915
 20
2.2406763699
 11
5.3569015915
 21
2.3459955197
  0
LINE
  5
2C1
100
AcDbEntity
  8
0
100
AcDbLine
 62
7
  6
CONTINUOUS
 10
5.3569015915
 20
2.3747189205
 11
5.3569015915
 21
2.436952969
  0
LINE
  5
2C2
100
AcDbEntity
  8
0
100
AcDbLine
 62
7
  6
CONTINUOUS
 10
3.9333133562
 20
4.4081763699
 11
4.9291904379
 21
4.4081763699
  0
LINE
  5
2C3
100
AcDbEntity
  8
0
100
AcDbLine
 62
7
  6
CONTINUOUS
 10
5.8974362744
 20
4.4081763699
 11
6.8933133562
 21
4.4081763699
  0
LINE
  5
2C4
100
AcDbEntity
  8
0
100
AcDbLine
 62
7
  6
CONTINUOUS
 10
3.9133133562
 20
4.4281763699
 11
4.9293445495
 21
4.4281763699
  0
LINE
  5
2C5
100
AcDbEntity
  8
0
100
AcDbLine
 62
7
  6
CONTINUOUS
 10
5.8972821628
 20
4.4281763699
 11
6.9133133562
 21
4.4281763699
  0
LINE
  5
2C6
100
AcDbEntity
  8
0
100
AcDbLine
 62
7
  6
CONTINUOUS
 10
6.8390165647
 20
3.1121657356
 11
6.8510646931
 21
3.1025912686
  0
LINE
  5
2C7
100
AcDbEntity
  8
0
100
AcDbLine
 62
7
  6
CONTINUOUS
 10
7.2084925159
 20
3.1121657356
 11
7.2205406442
 21
3.1025912686
  0
LINE
  5
2C8
100
AcDbEntity
  8
0
100
AcDbLine
 62
7
  6
CONTINUOUS
 10
6.5498614845
 20
2.9541870075
 11
6.5659256547
 21
2.935038072
  0
LINE
  5
2C9
100
AcDbEntity
  8
0
100
AcDbLine
 62
7
  6
CONTINUOUS
 10
6.7386154875
 20
2.9541870075
 11
6.7546796663
 21
2.935038072
  0
LINE
  5
2CA
100
AcDbEntity
  8
0
100
AcDbLine
 62
7
  6
CONTINUOUS
 10
5.682735366
 20
4.9363949024
 11
5.6806182811
 21
4.9557258665
  0
LINE
  5
2CB
100
AcDbEntity
  8
0
100
AcDbLine
 62
7
  6
CONTINUOUS
 10
5.7579174093
 20
4.1708946472
 11
5.756222531
 21
4.1902671951
  0
LINE
  5
2CC
100
AcDbEntity
  8
0
100
AcDbLine
 62
7
  6
CONTINUOUS
 10
5.7209603529
 20
4.90804532
 11
5.7207482281
 21
4.9274907108
  0
LINE
  5
2CD
100
AcDbEntity
  8
0
100
AcDbLine
 62
7
  6
CONTINUOUS
 10
5.458010547
 20
6.7690806209
 11
5.458010547
 21
6.6972721121
  0
LINE
  5
2CE
100
AcDbEntity
  8
0
100
AcDbLine
 62
7
  6
CONTINUOUS
 10
5.4616662897
 20
2.3459955197
 11
5.4616662897
 21
2.3747189205
  0
LINE
  5
2CF
100
AcDbEntity
  8
0
100
AcDbLine
 62
7
  6
CONTINUOUS
 10
5.4777839444
 20
2.436952969
 11
5.4777839444
 21
2.4656763699
  0
LINE
  5
2D0
100
AcDbEntity
  8
0
100
AcDbLine
 62
7
  6
CONTINUOUS
 10
5.4823908287
 20
6.6972721121
 11
5.4823908287
 21
6.7690806209
  0
LINE
  5
2D1
100
AcDbEntity
  8
0
100
AcDbLine
 62
7
  6
CONTINUOUS
 10
5.5100192308
 20
2.4656763699
 11
5.5100192308
 21
2.2406763699
  0
LINE
  5
2D2
100
AcDbEntity
  8
0
100
AcDbLine
 62
7
  6
CONTINUOUS
 10
5.5148978632
 20
6.8456763699
 11
5.5148978632
 21
6.8217402025
  0
LINE
  5
2D3
100
AcDbEntity
  8
0
100
AcDbLine
 62
7
  6
CONTINUOUS
 10
5.5183133562
 20
3.0331763699
 11
5.5183133562
 21
4.0492075632
  0
LINE
  5
2D4
100
AcDbEntity
  8
0
100
AcDbLine
 62
7
  6
CONTINUOUS
 10
5.5183133562
 20
5.0171451765
 11
5.5183133562
 21
6.0331763699
  0
LINE
  5
2D5
100
AcDbEntity
  8
0
100
AcDbLine
 62
7
  6
CONTINUOUS
 10
5.5341957245
 20
2.2406763699
 11
5.5341957245
 21
2.3459955197
  0
LINE
  5
2D6
100
AcDbEntity
  8
0
100
AcDbLine
 62
7
  6
CONTINUOUS
 10
5.5341957245
 20
2.3747189205
 11
5.5341957245
 21
2.436952969
  0
LINE
  5
2D7
100
AcDbEntity
  8
0
100
AcDbLine
 62
7
  6
CONTINUOUS
 10
5.5383133562
 20
3.0531763699
 11
5.5383133562
 21
4.0490534516
  0
LINE
  5
2D8
100
AcDbEntity
  8
0
100
AcDbLine
 62
7
  6
CONTINUOUS
 10
5.5383133562
 20
5.0172992881
 11
5.5383133562
 21
6.0131763699
  0
LINE
  5
2D9
100
AcDbEntity
  8
0
100
AcDbLine
 62
7
  6
CONTINUOUS
 10
5.5799119322
 20
6.8217402025
 11
5.5799119322
 21
6.6206763699
  0
LINE
  5
2DA
100
AcDbEntity
  8
0
100
AcDbLine
 62
7
  6
CONTINUOUS
 10
5.6042922139
 20
6.6206763699
 11
5.6042922139
 21
6.8217402025
  0
LINE
  5
2DB
100
AcDbEntity
  8
0
100
AcDbLine
 62
7
  6
CONTINUOUS
 10
5.6389603996
 20
2.3459955197
 11
5.6389603996
 21
2.3747189205
  0
LINE
  5
2DC
100
AcDbEntity
  8
0
100
AcDbLine
 62
7
  6
CONTINUOUS
 10
5.6550780774
 20
2.436952969
 11
5.6550780774
 21
2.4656763699
  0
LINE
  5
2DD
100
AcDbEntity
  8
0
100
AcDbLine
 62
7
  6
CONTINUOUS
 10
5.6693063294
 20
6.8217402025
 11
5.6693063294
 21
6.8456763699
  0
LINE
  5
2DE
100
AcDbEntity
  8
0
100
AcDbLine
 62
7
  6
CONTINUOUS
 10
5.7207482281
 20
4.1388620289
 11
5.7209603529
 21
4.1583074198
  0
LINE
  5
2DF
100
AcDbEntity
  8
0
100
AcDbLine
 62
7
  6
CONTINUOUS
 10
5.756222531
 20
4.8760855447
 11
5.7579174093
 21
4.8954580925
  0
LINE
  5
2E0
100
AcDbEntity
  8
0
100
AcDbLine
 62
7
  6
CONTINUOUS
 10
5.6806182811
 20
4.1106268732
 11
5.682735366
 21
4.1299578374
  0
LINE
  5
2E1
100
AcDbEntity
  8
0
100
AcDbLine
 62
7
  6
CONTINUOUS
 10
5.143342768
 20
2.4130168017
 11
5.1393133562
 21
2.3890806209
  0
LINE
  5
2E2
100
AcDbEntity
  8
0
100
AcDbLine
 62
7
  6
CONTINUOUS
 10
5.296460415
 20
2.2933359448
 11
5.3004898229
 21
2.3172721121
  0
LINE
  5
2E3
100
AcDbEntity
  8
0
100
AcDbLine
 62
7
  6
CONTINUOUS
 10
5.7881823063
 20
4.8408233666
 11
5.791767865
 21
4.8599365032
  0
LINE
  5
2E4
100
AcDbEntity
  8
0
100
AcDbLine
 62
7
  6
CONTINUOUS
 10
5.6379140415
 20
4.0864611002
 11
5.6419156979
 21
4.1054914699
  0
LINE
  5
2E5
100
AcDbEntity
  8
0
100
AcDbLine
 62
7
  6
CONTINUOUS
 10
5.1634898268
 20
2.3890806209
 11
5.1675192376
 21
2.4082295548
  0
LINE
  5
2E6
100
AcDbEntity
  8
0
100
AcDbLine
 62
7
  6
CONTINUOUS
 10
5.2763133523
 20
2.3172721121
 11
5.2722839444
 21
2.2981231782
  0
LINE
  5
2E7
100
AcDbEntity
  8
0
100
AcDbLine
 62
7
  6
CONTINUOUS
 10
5.8165318887
 20
4.8025983797
 11
5.821973597
 21
4.8212680351
  0
LINE
  5
2E8
100
AcDbEntity
  8
0
100
AcDbLine
 62
7
  6
CONTINUOUS
 10
5.5930467746
 20
4.0665974394
 11
5.5988944643
 21
4.0851439417
  0
LINE
  5
2E9
100
AcDbEntity
  8
0
100
AcDbLine
 62
7
  6
CONTINUOUS
 10
5.8409982562
 20
4.7617787116
 11
5.8482437074
 21
4.7798250868
  0
LINE
  5
2EA
100
AcDbEntity
  8
0
100
AcDbLine
 62
7
  6
CONTINUOUS
 10
5.5464485765
 20
4.0512271888
 11
5.5540859831
 21
4.0691112108
  0
LINE
  5
2EB
100
AcDbEntity
  8
0
100
AcDbLine
 62
7
  6
CONTINUOUS
 10
5.8613457843
 20
4.718757478
 11
5.8703252008
 21
4.7360067766
  0
LINE
  5
2EC
100
AcDbEntity
  8
0
100
AcDbLine
 62
7
  6
CONTINUOUS
 10
5.4985682135
 20
4.0404983723
 11
5.5079217846
 21
4.0575476811
  0
LINE
  5
2ED
100
AcDbEntity
  8
0
100
AcDbLine
 62
7
  6
CONTINUOUS
 10
5.8773785152
 20
4.6739489968
 11
5.8880054203
 21
4.6902350986
  0
LINE
  5
2EE
100
AcDbEntity
  8
0
100
AcDbLine
 62
7
  6
CONTINUOUS
 10
5.4498667997
 20
4.0345143142
 11
5.4608464553
 21
4.0505647156
  0
LINE
  5
2EF
100
AcDbEntity
  8
0
100
AcDbLine
 62
7
  6
CONTINUOUS
 10
5.8889420449
 20
4.6277847983
 11
5.9011140957
 21
4.6429508592
  0
LINE
  5
2F0
100
AcDbEntity
  8
0
100
AcDbLine
 62
7
  6
CONTINUOUS
 10
5.4008133562
 20
4.0333326443
 11
5.4133133562
 21
4.0482295642
  0
LINE
  5
2F1
100
AcDbEntity
  8
0
100
AcDbLine
 62
7
  6
CONTINUOUS
 10
7.0538667715
 20
6.0642933874
 11
7.0447987931
 21
6.0547189205
  0
LINE
  5
2F2
100
AcDbEntity
  8
0
100
AcDbLine
 62
7
  6
CONTINUOUS
 10
5.8959250104
 20
4.580709469
 11
5.9095249833
 21
4.5946094315
  0
LINE
  5
2F3
100
AcDbEntity
  8
0
100
AcDbLine
 62
7
  6
CONTINUOUS
 10
5.3518802945
 20
4.0369647427
 11
5.3657802571
 21
4.0505647156
  0
LINE
  5
2F4
100
AcDbEntity
  8
0
100
AcDbLine
 62
7
  6
CONTINUOUS
 10
5.8982601618
 20
4.5331763699
 11
5.9131570817
 21
4.5456763699
  0
LINE
  5
2F5
100
AcDbEntity
  8
0
100
AcDbLine
 62
7
  6
CONTINUOUS
 10
5.3035388668
 20
4.0453756303
 11
5.3187049277
 21
4.0575476811
  0
LINE
  5
2F6
100
AcDbEntity
  8
0
100
AcDbLine
 62
7
  6
CONTINUOUS
 10
5.8959250104
 20
4.4856432708
 11
5.9119754118
 21
4.4966229264
  0
LINE
  5
2F7
100
AcDbEntity
  8
0
100
AcDbLine
 62
7
  6
CONTINUOUS
 10
5.2562546274
 20
4.0584843058
 11
5.2725407292
 21
4.0691112108
  0
LINE
  5
2F8
100
AcDbEntity
  8
0
100
AcDbLine
 62
7
  6
CONTINUOUS
 10
5.8889420449
 20
4.4385679414
 11
5.9059913537
 21
4.4479215125
  0
LINE
  5
2F9
100
AcDbEntity
  8
0
100
AcDbLine
 62
7
  6
CONTINUOUS
 10
5.2104829495
 20
4.0761645253
 11
5.2277322481
 21
4.0851439417
  0
LINE
  5
2FA
100
AcDbEntity
  8
0
100
AcDbLine
 62
7
  6
CONTINUOUS
 10
5.8773785152
 20
4.3924037429
 11
5.8952625372
 21
4.4000411495
  0
LINE
  5
2FB
100
AcDbEntity
  8
0
100
AcDbLine
 62
7
  6
CONTINUOUS
 10
5.1666646392
 20
4.0982460186
 11
5.1847110144
 21
4.1054914699
  0
LINE
  5
2FC
100
AcDbEntity
  8
0
100
AcDbLine
 62
7
  6
CONTINUOUS
 10
5.8613457843
 20
4.3475952618
 11
5.8798922866
 21
4.3534429515
  0
LINE
  5
2FD
100
AcDbEntity
  8
0
100
AcDbLine
 62
7
  6
CONTINUOUS
 10
5.1252216909
 20
4.1245161291
 11
5.1438913463
 21
4.1299578374
  0
LINE
  5
2FE
100
AcDbEntity
  8
0
100
AcDbLine
 62
7
  6
CONTINUOUS
 10
4.9856284562
 20
4.7617787116
 11
4.9665980865
 21
4.7577770552
  0
LINE
  5
2FF
100
AcDbEntity
  8
0
100
AcDbLine
 62
7
  6
CONTINUOUS
 10
5.7400734895
 20
4.9116308787
 11
5.7209603529
 21
4.90804532
  0
LINE
  5
300
100
AcDbEntity
  8
0
100
AcDbLine
 62
7
  6
CONTINUOUS
 10
5.0100948237
 20
4.8025983797
 11
4.9907638595
 21
4.8004812948
  0
LINE
  5
301
100
AcDbEntity
  8
0
100
AcDbLine
 62
7
  6
CONTINUOUS
 10
5.7755950788
 20
4.877780423
 11
5.756222531
 21
4.8760855447
  0
LINE
  5
302
100
AcDbEntity
  8
0
100
AcDbLine
 62
7
  6
CONTINUOUS
 10
5.0384444061
 20
4.8408233666
 11
5.0189990152
 21
4.8406112418
  0
LINE
  5
303
100
AcDbEntity
  8
0
100
AcDbLine
 62
7
  6
CONTINUOUS
 10
4.9293445495
 20
4.6381763699
 11
3.9133133562
 21
4.6381763699
  0
LINE
  5
304
100
AcDbEntity
  8
0
100
AcDbLine
 62
7
  6
CONTINUOUS
 10
5.8972821628
 20
4.6381763699
 11
6.9133133562
 21
4.6381763699
  0
LINE
  5
305
100
AcDbEntity
  8
0
100
AcDbLine
 62
7
  6
CONTINUOUS
 10
6.8933133562
 20
4.6581763699
 11
5.8974362744
 21
4.6581763699
  0
LINE
  5
306
100
AcDbEntity
  8
0
100
AcDbLine
 62
7
  6
CONTINUOUS
 10
4.9291904379
 20
4.6581763699
 11
3.9333133562
 21
4.6581763699
  0
LINE
  5
307
100
AcDbEntity
  8
0
100
AcDbLine
 62
7
  6
CONTINUOUS
 10
5.8076276971
 20
4.8406112418
 11
5.7881823063
 21
4.8408233666
  0
LINE
  5
308
100
AcDbEntity
  8
0
100
AcDbLine
 62
7
  6
CONTINUOUS
 10
5.0704041814
 20
4.8760855447
 11
5.0510316335
 21
4.877780423
  0
LINE
  5
309
100
AcDbEntity
  8
0
100
AcDbLine
 62
7
  6
CONTINUOUS
 10
5.8358628528
 20
4.8004812948
 11
5.8165318887
 21
4.8025983797
  0
LINE
  5
30A
100
AcDbEntity
  8
0
100
AcDbLine
 62
7
  6
CONTINUOUS
 10
5.1056663595
 20
4.90804532
 11
5.0865532229
 21
4.9116308787
  0
LINE
  5
30B
100
AcDbEntity
  8
0
100
AcDbLine
 62
7
  6
CONTINUOUS
 10
5.8600286258
 20
4.7577770552
 11
5.8409982562
 21
4.7617787116
  0
LINE
  5
30C
100
AcDbEntity
  8
0
100
AcDbLine
 62
7
  6
CONTINUOUS
 10
5.1438913463
 20
4.9363949024
 11
5.1252216909
 21
4.9418366107
  0
LINE
  5
30D
100
AcDbEntity
  8
0
100
AcDbLine
 62
7
  6
CONTINUOUS
 10
5.8798922866
 20
4.7129097883
 11
5.8613457843
 21
4.718757478
  0
LINE
  5
30E
100
AcDbEntity
  8
0
100
AcDbLine
 62
7
  6
CONTINUOUS
 10
5.1847110144
 20
4.9608612699
 11
5.1666646392
 21
4.9681067211
  0
LINE
  5
30F
100
AcDbEntity
  8
0
100
AcDbLine
 62
7
  6
CONTINUOUS
 10
5.8952625372
 20
4.6663115902
 11
5.8773785152
 21
4.6739489968
  0
LINE
  5
310
100
AcDbEntity
  8
0
100
AcDbLine
 62
7
  6
CONTINUOUS
 10
5.2277322481
 20
4.981208798
 11
5.2104829495
 21
4.9901882145
  0
LINE
  5
311
100
AcDbEntity
  8
0
100
AcDbLine
 62
7
  6
CONTINUOUS
 10
5.9059913537
 20
4.6184312272
 11
5.8889420449
 21
4.6277847983
  0
LINE
  5
312
100
AcDbEntity
  8
0
100
AcDbLine
 62
7
  6
CONTINUOUS
 10
5.2725407292
 20
4.9972415289
 11
5.2562546274
 21
5.007868434
  0
LINE
  5
313
100
AcDbEntity
  8
0
100
AcDbLine
 62
7
  6
CONTINUOUS
 10
5.9119754118
 20
4.5697298134
 11
5.8959250104
 21
4.580709469
  0
LINE
  5
314
100
AcDbEntity
  8
0
100
AcDbLine
 62
7
  6
CONTINUOUS
 10
5.3187049277
 20
5.0088050586
 11
5.3035388668
 21
5.0209771094
  0
LINE
  5
315
100
AcDbEntity
  8
0
100
AcDbLine
 62
7
  6
CONTINUOUS
 10
5.9131570817
 20
4.5206763699
 11
5.8982601618
 21
4.5331763699
  0
LINE
  5
316
100
AcDbEntity
  8
0
100
AcDbLine
 62
7
  6
CONTINUOUS
 10
5.3657802571
 20
5.0157880241
 11
5.3518802945
 21
5.029387997
  0
LINE
  5
317
100
AcDbEntity
  8
0
100
AcDbLine
 62
7
  6
CONTINUOUS
 10
5.9095249833
 20
4.4717433082
 11
5.8959250104
 21
4.4856432708
  0
LINE
  5
318
100
AcDbEntity
  8
0
100
AcDbLine
 62
7
  6
CONTINUOUS
 10
5.4133133562
 20
5.0181231755
 11
5.4008133562
 21
5.0330200954
  0
LINE
  5
319
100
AcDbEntity
  8
0
100
AcDbLine
 62
7
  6
CONTINUOUS
 10
6.6904229857
 20
3.1121657356
 11
6.6743588069
 21
3.1313146694
  0
LINE
  5
31A
100
AcDbEntity
  8
0
100
AcDbLine
 62
7
  6
CONTINUOUS
 10
6.8751609497
 20
3.1121657356
 11
6.859096771
 21
3.1313146694
  0
LINE
  5
31B
100
AcDbEntity
  8
0
100
AcDbLine
 62
7
  6
CONTINUOUS
 10
5.9011140957
 20
4.4234018805
 11
5.8889420449
 21
4.4385679414
  0
LINE
  5
31C
100
AcDbEntity
  8
0
100
AcDbLine
 62
7
  6
CONTINUOUS
 10
5.4608464553
 20
5.0157880241
 11
5.4498667997
 21
5.0318384255
  0
LINE
  5
31D
100
AcDbEntity
  8
0
100
AcDbLine
 62
7
  6
CONTINUOUS
 10
5.8880054203
 20
4.3761176411
 11
5.8773785152
 21
4.3924037429
  0
LINE
  5
31E
100
AcDbEntity
  8
0
100
AcDbLine
 62
7
  6
CONTINUOUS
 10
6.5739577412
 20
2.9637614778
 11
6.5659256547
 21
2.9781231782
  0
LINE
  5
31F
100
AcDbEntity
  8
0
100
AcDbLine
 62
7
  6
CONTINUOUS
 10
5.5079217846
 20
5.0088050586
 11
5.4985682135
 21
5.0258543674
  0
LINE
  5
320
100
AcDbEntity
  8
0
100
AcDbLine
 62
7
  6
CONTINUOUS
 10
5.8703252008
 20
4.3303459632
 11
5.8613457843
 21
4.3475952618
  0
LINE
  5
321
100
AcDbEntity
  8
0
100
AcDbLine
 62
7
  6
CONTINUOUS
 10
5.5540859831
 20
4.9972415289
 11
5.5464485765
 21
5.0151255509
  0
LINE
  5
322
100
AcDbEntity
  8
0
100
AcDbLine
 62
7
  6
CONTINUOUS
 10
5.8482437074
 20
4.2865276529
 11
5.8409982562
 21
4.3045740281
  0
LINE
  5
323
100
AcDbEntity
  8
0
100
AcDbLine
 62
7
  6
CONTINUOUS
 10
5.5988944643
 20
4.981208798
 11
5.5930467746
 21
4.9997553003
  0
LINE
  5
324
100
AcDbEntity
  8
0
100
AcDbLine
 62
7
  6
CONTINUOUS
 10
5.821973597
 20
4.2450847046
 11
5.8165318887
 21
4.26375436
  0
LINE
  5
325
100
AcDbEntity
  8
0
100
AcDbLine
 62
7
  6
CONTINUOUS
 10
5.6419156979
 20
4.9608612699
 11
5.6379140415
 21
4.9798916395
  0
LINE
  5
326
100
AcDbEntity
  8
0
100
AcDbLine
 62
7
  6
CONTINUOUS
 10
5.791767865
 20
4.2064162366
 11
5.7881823063
 21
4.2255293732
  0
LINE
  5
327
100
AcDbEntity
  8
0
100
AcDbLine
 62
7
  6
CONTINUOUS
 10
5.3198556097
 20
6.6972721121
 11
5.3239189977
 21
6.6733359448
  0
LINE
  5
328
100
AcDbEntity
  8
0
100
AcDbLine
 62
7
  6
CONTINUOUS
 10
5.1514015915
 20
2.4321657356
 11
5.143342768
 21
2.4130168017
  0
LINE
  5
329
100
AcDbEntity
  8
0
100
AcDbLine
 62
7
  6
CONTINUOUS
 10
7.0674687133
 20
6.0403572201
 11
7.081070655
 21
6.059506154
  0
LINE
  5
32A
100
AcDbEntity
  8
0
100
AcDbLine
 62
7
  6
CONTINUOUS
 10
7.2446369009
 20
3.1121657356
 11
7.2285726991
 21
3.1313146694
  0
LINE
  5
32B
100
AcDbEntity
  8
0
100
AcDbLine
 62
7
  6
CONTINUOUS
 10
6.7627117442
 20
2.9637614778
 11
6.7546796663
 21
2.9781231782
  0
LINE
  5
32C
100
AcDbEntity
  8
0
100
AcDbLine
 62
7
  6
CONTINUOUS
 10
6.8510646931
 20
3.1025912686
 11
6.859096771
 21
3.0882295548
  0
LINE
  5
32D
100
AcDbEntity
  8
0
100
AcDbLine
 62
7
  6
CONTINUOUS
 10
6.5418293991
 20
2.9733359448
 11
6.5498614845
 21
2.9541870075
  0
LINE
  5
32E
100
AcDbEntity
  8
0
100
AcDbLine
 62
7
  6
CONTINUOUS
 10
6.7305834096
 20
2.9733359448
 11
6.7386154875
 21
2.9541870075
  0
LINE
  5
32F
100
AcDbEntity
  8
0
100
AcDbLine
 62
7
  6
CONTINUOUS
 10
5.3482992794
 20
6.6781231782
 11
5.3442358914
 21
6.6972721121
  0
LINE
  5
330
100
AcDbEntity
  8
0
100
AcDbLine
 62
7
  6
CONTINUOUS
 10
5.453947159
 20
6.7882295548
 11
5.458010547
 21
6.7690806209
  0
LINE
  5
331
100
AcDbEntity
  8
0
100
AcDbLine
 62
7
  6
CONTINUOUS
 10
5.4823908287
 20
6.7690806209
 11
5.4783274407
 21
6.7930168017
  0
LINE
  5
332
100
AcDbEntity
  8
0
100
AcDbLine
 62
7
  6
CONTINUOUS
 10
6.6367405406
 20
6.1456763699
 11
6.6095366571
 21
5.9733359448
  0
LINE
  5
333
100
AcDbEntity
  8
0
100
AcDbLine
 62
7
  6
CONTINUOUS
 10
6.5188570476
 20
5.9206763699
 11
6.5551288901
 21
6.1025912686
  0
LINE
  5
334
100
AcDbEntity
  8
0
100
AcDbLine
 62
7
  6
CONTINUOUS
 10
6.5369929657
 20
6.1456763699
 11
6.5007211232
 21
5.9733359448
  0
LINE
  5
335
100
AcDbEntity
  8
0
100
AcDbLine
 62
7
  6
CONTINUOUS
 10
6.7500900638
 20
5.9972721121
 11
6.7908958891
 21
6.126527436
  0
LINE
  5
336
100
AcDbEntity
  8
0
100
AcDbLine
 62
7
  6
CONTINUOUS
 10
6.7274201436
 20
5.9206763699
 11
6.7455560746
 21
5.9781231782
  0
LINE
  5
337
100
AcDbEntity
  8
0
100
AcDbLine
 62
7
  6
CONTINUOUS
 10
6.7727599581
 20
6.1456763699
 11
6.7002162601
 21
5.9206763699
  0
LINE
  5
338
100
AcDbEntity
  8
0
100
AcDbLine
 62
7
  6
CONTINUOUS
 10
5.2884015876
 20
2.2741870075
 11
5.296460415
 21
2.2933359448
  0
LINE
  5
339
100
AcDbEntity
  8
0
100
AcDbLine
 62
7
  6
CONTINUOUS
 10
5.1675192376
 20
2.4082295548
 11
5.175578062
 21
2.4225912686
  0
LINE
  5
33A
100
AcDbEntity
  8
0
100
AcDbLine
 62
7
  6
CONTINUOUS
 10
7.2205406442
 20
3.1025912686
 11
7.2285726991
 21
3.0882295548
  0
LINE
  5
33B
100
AcDbEntity
  8
0
100
AcDbLine
 62
7
  6
CONTINUOUS
 10
5.3239189977
 20
6.6733359448
 11
5.3320457505
 21
6.6541870075
  0
LINE
  5
33C
100
AcDbEntity
  8
0
100
AcDbLine
 62
7
  6
CONTINUOUS
 10
5.4783274407
 20
6.7930168017
 11
5.4702006879
 21
6.8121657356
  0
LINE
  5
33D
100
AcDbEntity
  8
0
100
AcDbLine
 62
7
  6
CONTINUOUS
 10
6.8831930276
 20
3.0930168017
 11
6.8751609497
 21
3.1121657356
  0
LINE
  5
33E
100
AcDbEntity
  8
0
100
AcDbLine
 62
7
  6
CONTINUOUS
 10
6.666326729
 20
3.1025912686
 11
6.6703427679
 21
3.0882295548
  0
LINE
  5
33F
100
AcDbEntity
  8
0
100
AcDbLine
 62
7
  6
CONTINUOUS
 10
6.5659256547
 20
2.9781231782
 11
6.5619096128
 21
2.9972721121
  0
LINE
  5
340
100
AcDbEntity
  8
0
100
AcDbLine
 62
7
  6
CONTINUOUS
 10
6.5378133562
 20
2.9972721121
 11
6.5418293991
 21
2.9733359448
  0
LINE
  5
341
100
AcDbEntity
  8
0
100
AcDbLine
 62
7
  6
CONTINUOUS
 10
6.5378133562
 20
3.0690806209
 11
6.5378133562
 21
2.9972721121
  0
LINE
  5
342
100
AcDbEntity
  8
0
100
AcDbLine
 62
7
  6
CONTINUOUS
 10
6.5619096128
 20
2.9972721121
 11
6.5619096128
 21
3.0690806209
  0
LINE
  5
343
100
AcDbEntity
  8
0
100
AcDbLine
 62
7
  6
CONTINUOUS
 10
6.6276725751
 20
5.9206763699
 11
6.6639444241
 21
6.1456763699
  0
LINE
  5
344
100
AcDbEntity
  8
0
100
AcDbLine
 62
7
  6
CONTINUOUS
 10
7.0584007348
 20
6.0786550878
 11
7.0538667715
 21
6.0642933874
  0
LINE
  5
345
100
AcDbEntity
  8
0
100
AcDbLine
 62
7
  6
CONTINUOUS
 10
7.081070655
 20
6.059506154
 11
7.0856046183
 21
6.0738678544
  0
LINE
  5
346
100
AcDbEntity
  8
0
100
AcDbLine
 62
7
  6
CONTINUOUS
 10
7.2533618826
 20
5.9206763699
 11
7.316837628
 21
6.0978040351
  0
LINE
  5
347
100
AcDbEntity
  8
0
100
AcDbLine
 62
7
  6
CONTINUOUS
 10
5.2722839444
 20
2.2981231782
 11
5.264225117
 21
2.2837614778
  0
LINE
  5
348
100
AcDbEntity
  8
0
100
AcDbLine
 62
7
  6
CONTINUOUS
 10
5.1675192376
 20
2.4513146694
 11
5.1514015915
 21
2.4321657356
  0
LINE
  5
349
100
AcDbEntity
  8
0
100
AcDbLine
 62
7
  6
CONTINUOUS
 10
5.3564260322
 20
6.6637614778
 11
5.3482992794
 21
6.6781231782
  0
LINE
  5
34A
100
AcDbEntity
  8
0
100
AcDbLine
 62
7
  6
CONTINUOUS
 10
5.4458204062
 20
6.8025912686
 11
5.453947159
 21
6.7882295548
  0
LINE
  5
34B
100
AcDbEntity
  8
0
100
AcDbLine
 62
7
  6
CONTINUOUS
 10
7.2526689558
 20
3.0930168017
 11
7.2446369009
 21
3.1121657356
  0
LINE
  5
34C
100
AcDbEntity
  8
0
100
AcDbLine
 62
7
  6
CONTINUOUS
 10
6.7546796663
 20
2.9781231782
 11
6.7506636159
 21
2.9972721121
  0
LINE
  5
34D
100
AcDbEntity
  8
0
100
AcDbLine
 62
7
  6
CONTINUOUS
 10
6.859096771
 20
3.0882295548
 11
6.8631128214
 21
3.0690806209
  0
LINE
  5
34E
100
AcDbEntity
  8
0
100
AcDbLine
 62
7
  6
CONTINUOUS
 10
6.6944390246
 20
3.0882295548
 11
6.6904229857
 21
3.1121657356
  0
LINE
  5
34F
100
AcDbEntity
  8
0
100
AcDbLine
 62
7
  6
CONTINUOUS
 10
6.7265673707
 20
2.9972721121
 11
6.7305834096
 21
2.9733359448
  0
LINE
  5
350
100
AcDbEntity
  8
0
100
AcDbLine
 62
7
  6
CONTINUOUS
 10
6.8872090781
 20
3.0690806209
 11
6.8831930276
 21
3.0930168017
  0
LINE
  5
351
100
AcDbEntity
  8
0
100
AcDbLine
 62
7
  6
CONTINUOUS
 10
6.7265673707
 20
3.0690806209
 11
6.7265673707
 21
2.9972721121
  0
LINE
  5
352
100
AcDbEntity
  8
0
100
AcDbLine
 62
7
  6
CONTINUOUS
 10
6.7506636159
 20
2.9972721121
 11
6.7506636159
 21
3.0690806209
  0
LINE
  5
353
100
AcDbEntity
  8
0
100
AcDbLine
 62
7
  6
CONTINUOUS
 10
6.8631128214
 20
3.0690806209
 11
6.8631128214
 21
2.9972721121
  0
LINE
  5
354
100
AcDbEntity
  8
0
100
AcDbLine
 62
7
  6
CONTINUOUS
 10
6.8872090781
 20
2.9972721121
 11
6.8872090781
 21
3.0690806209
  0
LINE
  5
355
100
AcDbEntity
  8
0
100
AcDbLine
 62
7
  6
CONTINUOUS
 10
6.8933133562
 20
4.4081763699
 11
6.8933133562
 21
4.6581763699
  0
LINE
  5
356
100
AcDbEntity
  8
0
100
AcDbLine
 62
7
  6
CONTINUOUS
 10
6.9133133562
 20
4.4281763699
 11
6.9133133562
 21
4.6381763699
  0
LINE
  5
357
100
AcDbEntity
  8
0
100
AcDbLine
 62
7
  6
CONTINUOUS
 10
6.917847354
 20
6.1456763699
 11
6.917847354
 21
5.9206763699
  0
LINE
  5
358
100
AcDbEntity
  8
0
100
AcDbLine
 62
7
  6
CONTINUOUS
 10
6.9193374127
 20
3.1456763699
 11
6.9193374127
 21
2.9206763699
  0
LINE
  5
359
100
AcDbEntity
  8
0
100
AcDbLine
 62
7
  6
CONTINUOUS
 10
6.9434336923
 20
2.949399774
 11
6.9434336923
 21
3.1456763699
  0
LINE
  5
35A
100
AcDbEntity
  8
0
100
AcDbLine
 62
7
  6
CONTINUOUS
 10
6.9450512375
 20
5.9206763699
 11
6.9450512375
 21
6.0212082862
  0
LINE
  5
35B
100
AcDbEntity
  8
0
100
AcDbLine
 62
7
  6
CONTINUOUS
 10
6.9450512375
 20
6.049931687
 11
6.9450512375
 21
6.1217402025
  0
LINE
  5
35C
100
AcDbEntity
  8
0
100
AcDbLine
 62
7
  6
CONTINUOUS
 10
6.5418293991
 20
3.0930168017
 11
6.5378133562
 21
3.0690806209
  0
LINE
  5
35D
100
AcDbEntity
  8
0
100
AcDbLine
 62
7
  6
CONTINUOUS
 10
6.6904229857
 20
2.9541870075
 11
6.6944390246
 21
2.9781231782
  0
LINE
  5
35E
100
AcDbEntity
  8
0
100
AcDbLine
 62
7
  6
CONTINUOUS
 10
6.7305834096
 20
3.0930168017
 11
6.7265673707
 21
3.0690806209
  0
LINE
  5
35F
100
AcDbEntity
  8
0
100
AcDbLine
 62
7
  6
CONTINUOUS
 10
6.5619096128
 20
3.0690806209
 11
6.5659256547
 21
3.0882295548
  0
LINE
  5
360
100
AcDbEntity
  8
0
100
AcDbLine
 62
7
  6
CONTINUOUS
 10
7.3032356863
 20
6.1456763699
 11
7.2352259775
 21
5.9446125406
  0
LINE
  5
361
100
AcDbEntity
  8
0
100
AcDbLine
 62
7
  6
CONTINUOUS
 10
5.2722839444
 20
2.255038072
 11
5.2884015876
 21
2.2741870075
  0
LINE
  5
362
100
AcDbEntity
  8
0
100
AcDbLine
 62
7
  6
CONTINUOUS
 10
5.175578062
 20
2.4225912686
 11
5.1876662973
 21
2.4321657356
  0
LINE
  5
363
100
AcDbEntity
  8
0
100
AcDbLine
 62
7
  6
CONTINUOUS
 10
6.4825852019
 20
5.9206763699
 11
6.5188570476
 21
5.9206763699
  0
LINE
  5
364
100
AcDbEntity
  8
0
100
AcDbLine
 62
7
  6
CONTINUOUS
 10
6.5914007391
 20
5.9206763699
 11
6.6276725751
 21
5.9206763699
  0
LINE
  5
365
100
AcDbEntity
  8
0
100
AcDbLine
 62
7
  6
CONTINUOUS
 10
6.7002162601
 20
5.9206763699
 11
6.7274201436
 21
5.9206763699
  0
LINE
  5
366
100
AcDbEntity
  8
0
100
AcDbLine
 62
7
  6
CONTINUOUS
 10
6.8543716086
 20
5.9206763699
 11
6.8815754921
 21
5.9206763699
  0
LINE
  5
367
100
AcDbEntity
  8
0
100
AcDbLine
 62
7
  6
CONTINUOUS
 10
6.917847354
 20
5.9206763699
 11
6.9450512375
 21
5.9206763699
  0
LINE
  5
368
100
AcDbEntity
  8
0
100
AcDbLine
 62
7
  6
CONTINUOUS
 10
7.0584007348
 20
5.9206763699
 11
7.0901385816
 21
5.9206763699
  0
LINE
  5
369
100
AcDbEntity
  8
0
100
AcDbLine
 62
7
  6
CONTINUOUS
 10
7.1264104435
 20
5.9206763699
 11
7.153614327
 21
5.9206763699
  0
LINE
  5
36A
100
AcDbEntity
  8
0
100
AcDbLine
 62
7
  6
CONTINUOUS
 10
7.2170900725
 20
5.9206763699
 11
7.2533618826
 21
5.9206763699
  0
LINE
  5
36B
100
AcDbEntity
  8
0
100
AcDbLine
 62
7
  6
CONTINUOUS
 10
7.316837628
 20
5.9206763699
 11
7.3440415115
 21
5.9206763699
  0
LINE
  5
36C
100
AcDbEntity
  8
0
100
AcDbLine
 62
7
  6
CONTINUOUS
 10
6.7455560746
 20
5.9781231782
 11
6.8362356776
 21
5.9781231782
  0
LINE
  5
36D
100
AcDbEntity
  8
0
100
AcDbLine
 62
7
  6
CONTINUOUS
 10
6.8317017143
 20
5.9972721121
 11
6.7500900638
 21
5.9972721121
  0
LINE
  5
36E
100
AcDbEntity
  8
0
100
AcDbLine
 62
7
  6
CONTINUOUS
 10
5.2883133562
 20
6.0131763699
 11
5.5383133562
 21
6.0131763699
  0
LINE
  5
36F
100
AcDbEntity
  8
0
100
AcDbLine
 62
7
  6
CONTINUOUS
 10
6.9450512375
 20
6.0212082862
 11
7.0221288728
 21
6.0212082862
  0
LINE
  5
370
100
AcDbEntity
  8
0
100
AcDbLine
 62
7
  6
CONTINUOUS
 10
5.5183133562
 20
6.0331763699
 11
5.3083133562
 21
6.0331763699
  0
LINE
  5
371
100
AcDbEntity
  8
0
100
AcDbLine
 62
7
  6
CONTINUOUS
 10
7.0311968513
 20
6.049931687
 11
6.9450512375
 21
6.049931687
  0
LINE
  5
372
100
AcDbEntity
  8
0
100
AcDbLine
 62
7
  6
CONTINUOUS
 10
5.3320457505
 20
6.6541870075
 11
5.3482992794
 21
6.635038072
  0
LINE
  5
373
100
AcDbEntity
  8
0
100
AcDbLine
 62
7
  6
CONTINUOUS
 10
5.4702006879
 20
6.8121657356
 11
5.453947159
 21
6.8313146694
  0
LINE
  5
374
100
AcDbEntity
  8
0
100
AcDbLine
 62
7
  6
CONTINUOUS
 10
6.6095366571
 20
5.9733359448
 11
6.5732648082
 21
6.1456763699
  0
LINE
  5
375
100
AcDbEntity
  8
0
100
AcDbLine
 62
7
  6
CONTINUOUS
 10
7.2285726991
 20
3.0882295548
 11
7.2325887726
 21
3.0690806209
  0
LINE
  5
376
100
AcDbEntity
  8
0
100
AcDbLine
 62
7
  6
CONTINUOUS
 10
6.5551288901
 20
6.1025912686
 11
6.5914007391
 21
5.9206763699
  0
LINE
  5
377
100
AcDbEntity
  8
0
100
AcDbLine
 62
7
  6
CONTINUOUS
 10
6.4463133562
 20
6.1456763699
 11
6.4825852019
 21
5.9206763699
  0
LINE
  5
378
100
AcDbEntity
  8
0
100
AcDbLine
 62
7
  6
CONTINUOUS
 10
6.5007211232
 20
5.9733359448
 11
6.4735172397
 21
6.1456763699
  0
LINE
  5
379
100
AcDbEntity
  8
0
100
AcDbLine
 62
7
  6
CONTINUOUS
 10
7.0584007348
 20
6.0930168017
 11
7.0584007348
 21
6.0786550878
  0
LINE
  5
37A
100
AcDbEntity
  8
0
100
AcDbLine
 62
7
  6
CONTINUOUS
 10
7.0639149758
 20
2.9206763699
 11
7.0639149758
 21
2.949399774
  0
LINE
  5
37B
100
AcDbEntity
  8
0
100
AcDbLine
 62
7
  6
CONTINUOUS
 10
7.0856046183
 20
6.0738678544
 11
7.0856046183
 21
6.0930168017
  0
LINE
  5
37C
100
AcDbEntity
  8
0
100
AcDbLine
 62
7
  6
CONTINUOUS
 10
7.0960432874
 20
3.1456763699
 11
7.0960432874
 21
2.9206763699
  0
LINE
  5
37D
100
AcDbEntity
  8
0
100
AcDbLine
 62
7
  6
CONTINUOUS
 10
7.1201395441
 20
2.949399774
 11
7.1201395441
 21
3.116952969
  0
LINE
  5
37E
100
AcDbEntity
  8
0
100
AcDbLine
 62
7
  6
CONTINUOUS
 10
7.1264104435
 20
6.1456763699
 11
7.1264104435
 21
5.9206763699
  0
LINE
  5
37F
100
AcDbEntity
  8
0
100
AcDbLine
 62
7
  6
CONTINUOUS
 10
7.153614327
 20
5.9206763699
 11
7.153614327
 21
6.0978040351
  0
LINE
  5
380
100
AcDbEntity
  8
0
100
AcDbLine
 62
7
  6
CONTINUOUS
 10
7.2325887726
 20
3.0690806209
 11
7.2325887726
 21
2.9972721121
  0
LINE
  5
381
100
AcDbEntity
  8
0
100
AcDbLine
 62
7
  6
CONTINUOUS
 10
7.2566850292
 20
2.9972721121
 11
7.2566850292
 21
3.0690806209
  0
LINE
  5
382
100
AcDbEntity
  8
0
100
AcDbLine
 62
7
  6
CONTINUOUS
 10
6.8831930276
 20
2.9733359448
 11
6.8872090781
 21
2.9972721121
  0
LINE
  5
383
100
AcDbEntity
  8
0
100
AcDbLine
 62
7
  6
CONTINUOUS
 10
6.7506636159
 20
3.0690806209
 11
6.7546796663
 21
3.0882295548
  0
LINE
  5
384
100
AcDbEntity
  8
0
100
AcDbLine
 62
7
  6
CONTINUOUS
 10
6.8631128214
 20
2.9972721121
 11
6.859096771
 21
2.9781231782
  0
LINE
  5
385
100
AcDbEntity
  8
0
100
AcDbLine
 62
7
  6
CONTINUOUS
 10
6.6703427679
 20
2.9781231782
 11
6.666326729
 21
2.9637614778
  0
LINE
  5
386
100
AcDbEntity
  8
0
100
AcDbLine
 62
7
  6
CONTINUOUS
 10
6.5498614845
 20
3.1121657356
 11
6.5418293991
 21
3.0930168017
  0
LINE
  5
387
100
AcDbEntity
  8
0
100
AcDbLine
 62
7
  6
CONTINUOUS
 10
6.7386154875
 20
3.1121657356
 11
6.7305834096
 21
3.0930168017
  0
LINE
  5
388
100
AcDbEntity
  8
0
100
AcDbLine
 62
7
  6
CONTINUOUS
 10
6.5659256547
 20
3.0882295548
 11
6.5739577412
 21
3.1025912686
  0
LINE
  5
389
100
AcDbEntity
  8
0
100
AcDbLine
 62
7
  6
CONTINUOUS
 10
6.7546796663
 20
3.0882295548
 11
6.7627117442
 21
3.1025912686
  0
LINE
  5
38A
100
AcDbEntity
  8
0
100
AcDbLine
 62
7
  6
CONTINUOUS
 10
6.5659256547
 20
3.1313146694
 11
6.5498614845
 21
3.1121657356
  0
LINE
  5
38B
100
AcDbEntity
  8
0
100
AcDbLine
 62
7
  6
CONTINUOUS
 10
6.5739577412
 20
3.1025912686
 11
6.5860058695
 21
3.1121657356
  0
LINE
  5
38C
100
AcDbEntity
  8
0
100
AcDbLine
 62
7
  6
CONTINUOUS
 10
5.264225117
 20
2.2837614778
 11
5.2521368817
 21
2.2741870075
  0
LINE
  5
38D
100
AcDbEntity
  8
0
100
AcDbLine
 62
7
  6
CONTINUOUS
 10
6.5819898277
 20
3.1408891364
 11
6.5659256547
 21
3.1313146694
  0
LINE
  5
38E
100
AcDbEntity
  8
0
100
AcDbLine
 62
7
  6
CONTINUOUS
 10
5.1836368865
 20
2.4608891364
 11
5.1675192376
 21
2.4513146694
  0
LINE
  5
38F
100
AcDbEntity
  8
0
100
AcDbLine
 62
7
  6
CONTINUOUS
 10
6.5860058695
 20
3.1121657356
 11
6.6020700426
 21
3.116952969
  0
LINE
  5
390
100
AcDbEntity
  8
0
100
AcDbLine
 62
7
  6
CONTINUOUS
 10
6.7747598726
 20
3.1121657356
 11
6.7908240514
 21
3.116952969
  0
LINE
  5
391
100
AcDbEntity
  8
0
100
AcDbLine
 62
7
  6
CONTINUOUS
 10
6.6542786006
 20
2.9541870075
 11
6.6382144219
 21
2.949399774
  0
LINE
  5
392
100
AcDbEntity
  8
0
100
AcDbLine
 62
7
  6
CONTINUOUS
 10
6.9450512375
 20
6.1217402025
 11
7.0311968513
 21
6.1217402025
  0
LINE
  5
393
100
AcDbEntity
  8
0
100
AcDbLine
 62
7
  6
CONTINUOUS
 10
7.3440415115
 20
6.1456763699
 11
7.3032356863
 21
6.1456763699
  0
LINE
  5
394
100
AcDbEntity
  8
0
100
AcDbLine
 62
7
  6
CONTINUOUS
 10
7.1672162688
 20
6.1456763699
 11
7.1264104435
 21
6.1456763699
  0
LINE
  5
395
100
AcDbEntity
  8
0
100
AcDbLine
 62
7
  6
CONTINUOUS
 10
7.026662888
 20
6.1456763699
 11
6.917847354
 21
6.1456763699
  0
LINE
  5
396
100
AcDbEntity
  8
0
100
AcDbLine
 62
7
  6
CONTINUOUS
 10
6.8090317941
 20
6.1456763699
 11
6.7727599581
 21
6.1456763699
  0
LINE
  5
397
100
AcDbEntity
  8
0
100
AcDbLine
 62
7
  6
CONTINUOUS
 10
6.6639444241
 20
6.1456763699
 11
6.6367405406
 21
6.1456763699
  0
LINE
  5
398
100
AcDbEntity
  8
0
100
AcDbLine
 62
7
  6
CONTINUOUS
 10
6.5732648082
 20
6.1456763699
 11
6.5369929657
 21
6.1456763699
  0
LINE
  5
399
100
AcDbEntity
  8
0
100
AcDbLine
 62
7
  6
CONTINUOUS
 10
6.4735172397
 20
6.1456763699
 11
6.4463133562
 21
6.1456763699
  0
LINE
  5
39A
100
AcDbEntity
  8
0
100
AcDbLine
 62
7
  6
CONTINUOUS
 10
5.3482992794
 20
6.635038072
 11
5.364552785
 21
6.6254636038
  0
LINE
  5
39B
100
AcDbEntity
  8
0
100
AcDbLine
 62
7
  6
CONTINUOUS
 10
5.3686161731
 20
6.6541870075
 11
5.3564260322
 21
6.6637614778
  0
LINE
  5
39C
100
AcDbEntity
  8
0
100
AcDbLine
 62
7
  6
CONTINUOUS
 10
5.4336302653
 20
6.8121657356
 11
5.4458204062
 21
6.8025912686
  0
LINE
  5
39D
100
AcDbEntity
  8
0
100
AcDbLine
 62
7
  6
CONTINUOUS
 10
6.8815754921
 20
5.9206763699
 11
6.8090317941
 21
6.1456763699
  0
LINE
  5
39E
100
AcDbEntity
  8
0
100
AcDbLine
 62
7
  6
CONTINUOUS
 10
6.8362356776
 20
5.9781231782
 11
6.8543716086
 21
5.9206763699
  0
LINE
  5
39F
100
AcDbEntity
  8
0
100
AcDbLine
 62
7
  6
CONTINUOUS
 10
6.7908958891
 20
6.126527436
 11
6.8317017143
 21
5.9972721121
  0
LINE
  5
3A0
100
AcDbEntity
  8
0
100
AcDbLine
 62
7
  6
CONTINUOUS
 10
7.2566850292
 20
3.0690806209
 11
7.2526689558
 21
3.0930168017
  0
LINE
  5
3A1
100
AcDbEntity
  8
0
100
AcDbLine
 62
7
  6
CONTINUOUS
 10
7.316837628
 20
6.0978040351
 11
7.316837628
 21
5.9206763699
  0
LINE
  5
3A2
100
AcDbEntity
  8
0
100
AcDbLine
 62
7
  6
CONTINUOUS
 10
7.3440415115
 20
5.9206763699
 11
7.3440415115
 21
6.1456763699
  0
LINE
  5
3A3
100
AcDbEntity
  8
0
100
AcDbLine
 62
7
  6
CONTINUOUS
 10
7.2526689558
 20
2.9733359448
 11
7.2566850292
 21
2.9972721121
  0
LINE
  5
3A4
100
AcDbEntity
  8
0
100
AcDbLine
 62
7
  6
CONTINUOUS
 10
7.2325887726
 20
2.9972721121
 11
7.2285726991
 21
2.9781231782
  0
LINE
  5
3A5
100
AcDbEntity
  8
0
100
AcDbLine
 62
7
  6
CONTINUOUS
 10
6.8751609497
 20
2.9541870075
 11
6.8831930276
 21
2.9733359448
  0
LINE
  5
3A6
100
AcDbEntity
  8
0
100
AcDbLine
 62
7
  6
CONTINUOUS
 10
6.859096771
 20
2.9781231782
 11
6.8510646931
 21
2.9637614778
  0
LINE
  5
3A7
100
AcDbEntity
  8
0
100
AcDbLine
 62
7
  6
CONTINUOUS
 10
6.7546796663
 20
3.1313146694
 11
6.7386154875
 21
3.1121657356
  0
LINE
  5
3A8
100
AcDbEntity
  8
0
100
AcDbLine
 62
7
  6
CONTINUOUS
 10
6.6743588069
 20
2.935038072
 11
6.6904229857
 21
2.9541870075
  0
LINE
  5
3A9
100
AcDbEntity
  8
0
100
AcDbLine
 62
7
  6
CONTINUOUS
 10
6.859096771
 20
2.935038072
 11
6.8751609497
 21
2.9541870075
  0
LINE
  5
3AA
100
AcDbEntity
  8
0
100
AcDbLine
 62
7
  6
CONTINUOUS
 10
6.7627117442
 20
3.1025912686
 11
6.7747598726
 21
3.1121657356
  0
LINE
  5
3AB
100
AcDbEntity
  8
0
100
AcDbLine
 62
7
  6
CONTINUOUS
 10
6.666326729
 20
2.9637614778
 11
6.6542786006
 21
2.9541870075
  0
LINE
  5
3AC
100
AcDbEntity
  8
0
100
AcDbLine
 62
7
  6
CONTINUOUS
 10
6.8510646931
 20
2.9637614778
 11
6.8390165647
 21
2.9541870075
  0
LINE
  5
3AD
100
AcDbEntity
  8
0
100
AcDbLine
 62
7
  6
CONTINUOUS
 10
6.7707438451
 20
3.1408891364
 11
6.7546796663
 21
3.1313146694
  0
LINE
  5
3AE
100
AcDbEntity
  8
0
100
AcDbLine
 62
7
  6
CONTINUOUS
 10
6.6582946396
 20
2.9254636038
 11
6.6743588069
 21
2.935038072
  0
LINE
  5
3AF
100
AcDbEntity
  8
0
100
AcDbLine
 62
7
  6
CONTINUOUS
 10
6.8430326152
 20
2.9254636038
 11
6.859096771
 21
2.935038072
  0
LINE
  5
3B0
100
AcDbEntity
  8
0
100
AcDbLine
 62
7
  6
CONTINUOUS
 10
5.2561663012
 20
2.2454636038
 11
5.2722839444
 21
2.255038072
  0
LINE
  5
3B1
100
AcDbEntity
  8
0
100
AcDbLine
 62
7
  6
CONTINUOUS
 10
6.8390165647
 20
2.9541870075
 11
6.8229523859
 21
2.949399774
  0
LINE
  5
3B2
100
AcDbEntity
  8
0
100
AcDbLine
 62
7
  6
CONTINUOUS
 10
7.2084925159
 20
2.9541870075
 11
7.1924283141
 21
2.949399774
  0
LINE
  5
3B3
100
AcDbEntity
  8
0
100
AcDbLine
 62
7
  6
CONTINUOUS
 10
5.1876662973
 20
2.4321657356
 11
5.2037839463
 21
2.436952969
  0
LINE
  5
3B4
100
AcDbEntity
  8
0
100
AcDbLine
 62
7
  6
CONTINUOUS
 10
5.2521368817
 20
2.2741870075
 11
5.2360192385
 21
2.269399774
  0
LINE
  5
3B5
100
AcDbEntity
  8
0
100
AcDbLine
 62
7
  6
CONTINUOUS
 10
5.4173767364
 20
6.6206763699
 11
5.4376936301
 21
6.6254636038
  0
LINE
  5
3B6
100
AcDbEntity
  8
0
100
AcDbLine
 62
7
  6
CONTINUOUS
 10
5.1248133562
 20
6.6206763699
 11
5.1491936379
 21
6.6206763699
  0
LINE
  5
3B7
100
AcDbEntity
  8
0
100
AcDbLine
 62
7
  6
CONTINUOUS
 10
5.2629682819
 20
6.6206763699
 11
5.2873485636
 21
6.6206763699
  0
LINE
  5
3B8
100
AcDbEntity
  8
0
100
AcDbLine
 62
7
  6
CONTINUOUS
 10
5.3848697019
 20
6.6206763699
 11
5.4173767364
 21
6.6206763699
  0
LINE
  5
3B9
100
AcDbEntity
  8
0
100
AcDbLine
 62
7
  6
CONTINUOUS
 10
5.5799119322
 20
6.6206763699
 11
5.6042922139
 21
6.6206763699
  0
LINE
  5
3BA
100
AcDbEntity
  8
0
100
AcDbLine
 62
7
  6
CONTINUOUS
 10
5.4173767364
 20
6.649399774
 11
5.3848697019
 21
6.649399774
  0
LINE
  5
3BB
100
AcDbEntity
  8
0
100
AcDbLine
 62
7
  6
CONTINUOUS
 10
7.0493327563
 20
6.1408891364
 11
7.026662888
 21
6.1456763699
  0
LINE
  5
3BC
100
AcDbEntity
  8
0
100
AcDbLine
 62
7
  6
CONTINUOUS
 10
5.364552785
 20
6.6254636038
 11
5.3848697019
 21
6.6206763699
  0
LINE
  5
3BD
100
AcDbEntity
  8
0
100
AcDbLine
 62
7
  6
CONTINUOUS
 10
5.3848697019
 20
6.649399774
 11
5.3686161731
 21
6.6541870075
  0
LINE
  5
3BE
100
AcDbEntity
  8
0
100
AcDbLine
 62
7
  6
CONTINUOUS
 10
7.0311968513
 20
6.1217402025
 11
7.0447987931
 21
6.116952969
  0
LINE
  5
3BF
100
AcDbEntity
  8
0
100
AcDbLine
 62
7
  6
CONTINUOUS
 10
5.453947159
 20
6.8313146694
 11
5.4376936301
 21
6.8408891364
  0
LINE
  5
3C0
100
AcDbEntity
  8
0
100
AcDbLine
 62
7
  6
CONTINUOUS
 10
7.0901385816
 20
5.9206763699
 11
7.0493327563
 21
6.0307827531
  0
LINE
  5
3C1
100
AcDbEntity
  8
0
100
AcDbLine
 62
7
  6
CONTINUOUS
 10
7.0221288728
 20
6.0212082862
 11
7.0584007348
 21
5.9206763699
  0
LINE
  5
3C2
100
AcDbEntity
  8
0
100
AcDbLine
 62
7
  6
CONTINUOUS
 10
7.153614327
 20
6.0978040351
 11
7.2170900725
 21
5.9206763699
  0
LINE
  5
3C3
100
AcDbEntity
  8
0
100
AcDbLine
 62
7
  6
CONTINUOUS
 10
7.2352259775
 20
5.9446125406
 11
7.1672162688
 21
6.1456763699
  0
LINE
  5
3C4
100
AcDbEntity
  8
0
100
AcDbLine
 62
7
  6
CONTINUOUS
 10
7.0538667715
 20
6.1073785021
 11
7.0584007348
 21
6.0930168017
  0
LINE
  5
3C5
100
AcDbEntity
  8
0
100
AcDbLine
 62
7
  6
CONTINUOUS
 10
7.0856046183
 20
6.0930168017
 11
7.081070655
 21
6.1073785021
  0
LINE
  5
3C6
100
AcDbEntity
  8
0
100
AcDbLine
 62
7
  6
CONTINUOUS
 10
7.2446369009
 20
2.9541870075
 11
7.2526689558
 21
2.9733359448
  0
LINE
  5
3C7
100
AcDbEntity
  8
0
100
AcDbLine
 62
7
  6
CONTINUOUS
 10
7.2285726991
 20
2.9781231782
 11
7.2205406442
 21
2.9637614778
  0
LINE
  5
3C8
100
AcDbEntity
  8
0
100
AcDbLine
 62
7
  6
CONTINUOUS
 10
7.2285726991
 20
2.935038072
 11
7.2446369009
 21
2.9541870075
  0
LINE
  5
3C9
100
AcDbEntity
  8
0
100
AcDbLine
 62
7
  6
CONTINUOUS
 10
7.2205406442
 20
2.9637614778
 11
7.2084925159
 21
2.9541870075
  0
LINE
  5
3CA
100
AcDbEntity
  8
0
100
AcDbLine
 62
7
  6
CONTINUOUS
 10
7.2125085433
 20
2.9254636038
 11
7.2285726991
 21
2.935038072
  0
LINE
  5
3CB
100
AcDbEntity
  8
0
100
AcDbLine
 62
7
  6
CONTINUOUS
 10
5.3848697019
 20
6.8456763699
 11
5.364552785
 21
6.8408891364
  0
LINE
  5
3CC
100
AcDbEntity
  8
0
100
AcDbLine
 62
7
  6
CONTINUOUS
 10
5.1491936379
 20
6.7259955197
 11
5.2629682819
 21
6.7259955197
  0
LINE
  5
3CD
100
AcDbEntity
  8
0
100
AcDbLine
 62
7
  6
CONTINUOUS
 10
5.2629682819
 20
6.7547189205
 11
5.1491936379
 21
6.7547189205
  0
LINE
  5
3CE
100
AcDbEntity
  8
0
100
AcDbLine
 62
7
  6
CONTINUOUS
 10
5.3848697019
 20
6.816952969
 11
5.4173767364
 21
6.816952969
  0
LINE
  5
3CF
100
AcDbEntity
  8
0
100
AcDbLine
 62
7
  6
CONTINUOUS
 10
5.5148978632
 20
6.8217402025
 11
5.5799119322
 21
6.8217402025
  0
LINE
  5
3D0
100
AcDbEntity
  8
0
100
AcDbLine
 62
7
  6
CONTINUOUS
 10
5.6042922139
 20
6.8217402025
 11
5.6693063294
 21
6.8217402025
  0
LINE
  5
3D1
100
AcDbEntity
  8
0
100
AcDbLine
 62
7
  6
CONTINUOUS
 10
5.6693063294
 20
6.8456763699
 11
5.5148978632
 21
6.8456763699
  0
LINE
  5
3D2
100
AcDbEntity
  8
0
100
AcDbLine
 62
7
  6
CONTINUOUS
 10
5.4173767364
 20
6.8456763699
 11
5.3848697019
 21
6.8456763699
  0
LINE
  5
3D3
100
AcDbEntity
  8
0
100
AcDbLine
 62
7
  6
CONTINUOUS
 10
5.2873485636
 20
6.8456763699
 11
5.2629682819
 21
6.8456763699
  0
LINE
  5
3D4
100
AcDbEntity
  8
0
100
AcDbLine
 62
7
  6
CONTINUOUS
 10
5.1491936379
 20
6.8456763699
 11
5.1248133562
 21
6.8456763699
  0
LINE
  5
3D5
100
AcDbEntity
  8
0
100
AcDbLine
 62
7
  6
CONTINUOUS
 10
5.4376936301
 20
6.8408891364
 11
5.4173767364
 21
6.8456763699
  0
LINE
  5
3D6
100
AcDbEntity
  8
0
100
AcDbLine
 62
7
  6
CONTINUOUS
 10
5.4173767364
 20
6.816952969
 11
5.4336302653
 21
6.8121657356
  0
LINE
  5
3D7
100
AcDbEntity
  8
0
100
AcDbLine
 62
7
  6
CONTINUOUS
 10
7.0674687133
 20
6.126527436
 11
7.0493327563
 21
6.1408891364
  0
LINE
  5
3D8
100
AcDbEntity
  8
0
100
AcDbLine
 62
7
  6
CONTINUOUS
 10
7.0447987931
 20
6.116952969
 11
7.0538667715
 21
6.1073785021
  0
LINE
  5
3D9
100
AcDbEntity
  8
0
100
AcDbLine
 62
7
  6
CONTINUOUS
 10
7.081070655
 20
6.1073785021
 11
7.0674687133
 21
6.126527436
  0
ARC
  5
3DA
100
AcDbEntity
  8
0
100
AcDbCircle
 62
7
  6
CONTINUOUS
 10
3.9333133562
 20
4.4281763699
 40
0.02
100
AcDbArc
 50
180.0
 51
270.0
  0
ARC
  5
3DB
100
AcDbEntity
  8
0
100
AcDbCircle
 62
7
  6
CONTINUOUS
 10
5.3083133562
 20
3.0531763699
 40
0.02
100
AcDbArc
 50
180.0
 51
270.0
  0
ARC
  5
3DC
100
AcDbEntity
  8
0
100
AcDbCircle
 62
7
  6
CONTINUOUS
 10
3.9333133562
 20
4.6381763699
 40
0.02
100
AcDbArc
 50
90.0
 51
180.0
  0
ARC
  5
3DD
100
AcDbEntity
  8
0
100
AcDbCircle
 62
7
  6
CONTINUOUS
 10
5.3083133562
 20
6.0131763699
 40
0.02
100
AcDbArc
 50
90.0
 51
180.0
  0
ARC
  5
3DE
100
AcDbEntity
  8
0
100
AcDbCircle
 62
7
  6
CONTINUOUS
 10
6.8933133562
 20
4.4281763699
 40
0.02
100
AcDbArc
 50
270.0
 51
360.0
  0
ARC
  5
3DF
100
AcDbEntity
  8
0
100
AcDbCircle
 62
7
  6
CONTINUOUS
 10
5.5183133562
 20
3.0531763699
 40
0.02
100
AcDbArc
 50
270.0
 51
360.0
  0
CIRCLE
  5
3E0
100
AcDbEntity
  8
0
100
AcDbCircle
 62
7
  6
CONTINUOUS
 10
5.4133133562
 20
4.5331763699
 40
3.25
  0
CIRCLE
  5
3E1
100
AcDbEntity
  8
0
100
AcDbCircle
 62
7
  6
CONTINUOUS
 10
5.4133133562
 20
4.5331763699
 40
3.2115516844
  0
CIRCLE
  5
3E2
100
AcDbEntity
  8
0
100
AcDbCircle
 62
7
  6
CONTINUOUS
 10
5.4133133562
 20
4.5331763699
 40
3.1422181513
  0
CIRCLE
  5
3E3
100
AcDbEntity
  8
0
100
AcDbCircle
 62
7
  6
CONTINUOUS
 10
5.4133133562
 20
4.5331763699
 40
3.0828434898
  0
ARC
  5
3E4
100
AcDbEntity
  8
0
100
AcDbCircle
 62
7
  6
CONTINUOUS
 10
5.4133133562
 20
4.5331763699
 40
1.125
100
AcDbArc
 50
276.3798303607
 51
353.6204950166
  0
ARC
  5
3E5
100
AcDbEntity
  8
0
100
AcDbCircle
 62
7
  6
CONTINUOUS
 10
5.4133133562
 20
4.5331763699
 40
1.125
100
AcDbArc
 50
6.3795049834
 51
83.6201696393
  0
ARC
  5
3E6
100
AcDbEntity
  8
0
100
AcDbCircle
 62
7
  6
CONTINUOUS
 10
5.4133133562
 20
4.5331763699
 40
1.125
100
AcDbArc
 50
96.3798303607
 51
173.6204950166
  0
ARC
  5
3E7
100
AcDbEntity
  8
0
100
AcDbCircle
 62
7
  6
CONTINUOUS
 10
5.4133133562
 20
4.5331763699
 40
1.125
100
AcDbArc
 50
186.3795049834
 51
263.6201696393
  0
ARC
  5
3E8
100
AcDbEntity
  8
0
100
AcDbCircle
 62
7
  6
CONTINUOUS
 10
5.4133133562
 20
4.5331763699
 40
1.0971773741
100
AcDbArc
 50
276.5423303116
 51
353.4576696884
  0
ARC
  5
3E9
100
AcDbEntity
  8
0
100
AcDbCircle
 62
7
  6
CONTINUOUS
 10
5.4133133562
 20
4.5331763699
 40
1.0971773741
100
AcDbArc
 50
6.5423303116
 51
83.4576696884
  0
ARC
  5
3EA
100
AcDbEntity
  8
0
100
AcDbCircle
 62
7
  6
CONTINUOUS
 10
5.4133133562
 20
4.5331763699
 40
1.0971773741
100
AcDbArc
 50
96.5423303116
 51
173.4576696884
  0
ARC
  5
3EB
100
AcDbEntity
  8
0
100
AcDbCircle
 62
7
  6
CONTINUOUS
 10
5.4133133562
 20
4.5331763699
 40
1.0971773741
100
AcDbArc
 50
186.5423303116
 51
263.4576696884
  0
ARC
  5
3EC
100
AcDbEntity
  8
0
100
AcDbCircle
 62
7
  6
CONTINUOUS
 10
5.4133133562
 20
4.5331763699
 40
0.6295658437
100
AcDbArc
 50
11.4532893296
 51
78.5475651272
  0
ARC
  5
3ED
100
AcDbEntity
  8
0
100
AcDbCircle
 62
7
  6
CONTINUOUS
 10
5.4133133562
 20
4.5331763699
 40
0.6295658437
100
AcDbArc
 50
281.4524348728
 51
348.5467106704
  0
ARC
  5
3EE
100
AcDbEntity
  8
0
100
AcDbCircle
 62
7
  6
CONTINUOUS
 10
5.4133133562
 20
4.5331763699
 40
0.6295658437
100
AcDbArc
 50
101.4524348728
 51
168.5467106704
  0
ARC
  5
3EF
100
AcDbEntity
  8
0
100
AcDbCircle
 62
7
  6
CONTINUOUS
 10
5.4133133562
 20
4.5331763699
 40
0.6295658437
100
AcDbArc
 50
191.4532893296
 51
258.5475651272
  0
ARC
  5
3F0
100
AcDbEntity
  8
0
100
AcDbCircle
 62
7
  6
CONTINUOUS
 10
5.4133133562
 20
4.5331763699
 40
0.5018840262
100
AcDbArc
 50
284.4235955152
 51
345.5775086486
  0
ARC
  5
3F1
100
AcDbEntity
  8
0
100
AcDbCircle
 62
7
  6
CONTINUOUS
 10
5.4133133562
 20
4.5331763699
 40
0.5018840262
100
AcDbArc
 50
14.4224913514
 51
75.5764044848
  0
ARC
  5
3F2
100
AcDbEntity
  8
0
100
AcDbCircle
 62
7
  6
CONTINUOUS
 10
5.4133133562
 20
4.5331763699
 40
0.5018840262
100
AcDbArc
 50
104.4235955152
 51
165.5775086486
  0
ARC
  5
3F3
100
AcDbEntity
  8
0
100
AcDbCircle
 62
7
  6
CONTINUOUS
 10
5.4133133562
 20
4.5331763699
 40
0.5018840262
100
AcDbArc
 50
194.4224913514
 51
255.5764044848
  0
ARC
  5
3F4
100
AcDbEntity
  8
0
100
AcDbCircle
 62
7
  6
CONTINUOUS
 10
5.4133133562
 20
4.5331763699
 40
0.5
100
AcDbArc
 50
175.8075437376
 51
178.5674562624
  0
ARC
  5
3F5
100
AcDbEntity
  8
0
100
AcDbCircle
 62
7
  6
CONTINUOUS
 10
5.4133133562
 20
4.5331763699
 40
0.5
100
AcDbArc
 50
170.1825437376
 51
172.9424562624
  0
ARC
  5
3F6
100
AcDbEntity
  8
0
100
AcDbCircle
 62
7
  6
CONTINUOUS
 10
5.4133133562
 20
4.5331763699
 40
0.5
100
AcDbArc
 50
97.0575437376
 51
99.8174562624
  0
ARC
  5
3F7
100
AcDbEntity
  8
0
100
AcDbCircle
 62
7
  6
CONTINUOUS
 10
5.4133133562
 20
4.5331763699
 40
0.5
100
AcDbArc
 50
91.4325437376
 51
94.1924562624
  0
ARC
  5
3F8
100
AcDbEntity
  8
0
100
AcDbCircle
 62
7
  6
CONTINUOUS
 10
5.4133133562
 20
4.5331763699
 40
0.5
100
AcDbArc
 50
85.8075437376
 51
88.5674562624
  0
ARC
  5
3F9
100
AcDbEntity
  8
0
100
AcDbCircle
 62
7
  6
CONTINUOUS
 10
5.4133133562
 20
4.5331763699
 40
0.5
100
AcDbArc
 50
80.1825437376
 51
82.9424562624
  0
ARC
  5
3FA
100
AcDbEntity
  8
0
100
AcDbCircle
 62
7
  6
CONTINUOUS
 10
5.4133133562
 20
4.5331763699
 40
0.5
100
AcDbArc
 50
7.0575437376
 51
9.8174562624
  0
ARC
  5
3FB
100
AcDbEntity
  8
0
100
AcDbCircle
 62
7
  6
CONTINUOUS
 10
5.4133133562
 20
4.5331763699
 40
0.5
100
AcDbArc
 50
1.4325437376
 51
4.1924562624
  0
ARC
  5
3FC
100
AcDbEntity
  8
0
100
AcDbCircle
 62
7
  6
CONTINUOUS
 10
5.4133133562
 20
4.5331763699
 40
0.5
100
AcDbArc
 50
355.8075437376
 51
358.5674562624
  0
ARC
  5
3FD
100
AcDbEntity
  8
0
100
AcDbCircle
 62
7
  6
CONTINUOUS
 10
5.4133133562
 20
4.5331763699
 40
0.5
100
AcDbArc
 50
350.1825437376
 51
352.9424562624
  0
ARC
  5
3FE
100
AcDbEntity
  8
0
100
AcDbCircle
 62
7
  6
CONTINUOUS
 10
5.4133133562
 20
4.5331763699
 40
0.5
100
AcDbArc
 50
277.0575437376
 51
279.8174562624
  0
ARC
  5
3FF
100
AcDbEntity
  8
0
100
AcDbCircle
 62
7
  6
CONTINUOUS
 10
5.4133133562
 20
4.5331763699
 40
0.5
100
AcDbArc
 50
271.4325437376
 51
274.1924562624
  0
ARC
  5
400
100
AcDbEntity
  8
0
100
AcDbCircle
 62
7
  6
CONTINUOUS
 10
5.4133133562
 20
4.5331763699
 40
0.5
100
AcDbArc
 50
265.8075437376
 51
268.5674562624
  0
ARC
  5
401
100
AcDbEntity
  8
0
100
AcDbCircle
 62
7
  6
CONTINUOUS
 10
5.4133133562
 20
4.5331763699
 40
0.5
100
AcDbArc
 50
260.1825437376
 51
262.9424562624
  0
ARC
  5
402
100
AcDbEntity
  8
0
100
AcDbCircle
 62
7
  6
CONTINUOUS
 10
5.4133133562
 20
4.5331763699
 40
0.5
100
AcDbArc
 50
187.0575437376
 51
189.8174562624
  0
ARC
  5
403
100
AcDbEntity
  8
0
100
AcDbCircle
 62
7
  6
CONTINUOUS
 10
5.4133133562
 20
4.5331763699
 40
0.5
100
AcDbArc
 50
181.4325437376
 51
184.1924562624
  0
ARC
  5
404
100
AcDbEntity
  8
0
100
AcDbCircle
 62
7
  6
CONTINUOUS
 10
5.4133133562
 20
4.5331763699
 40
0.5
100
AcDbArc
 50
192.6825437376
 51
257.3174562624
  0
ARC
  5
405
100
AcDbEntity
  8
0
100
AcDbCircle
 62
7
  6
CONTINUOUS
 10
5.4133133562
 20
4.5331763699
 40
0.5
100
AcDbArc
 50
102.6825437376
 51
167.3174562624
  0
ARC
  5
406
100
AcDbEntity
  8
0
100
AcDbCircle
 62
7
  6
CONTINUOUS
 10
5.4133133562
 20
4.5331763699
 40
0.5
100
AcDbArc
 50
12.6825437376
 51
77.3174562624
  0
ARC
  5
407
100
AcDbEntity
  8
0
100
AcDbCircle
 62
7
  6
CONTINUOUS
 10
5.4133133562
 20
4.5331763699
 40
0.5
100
AcDbArc
 50
282.6825437376
 51
347.3174562624
  0
CIRCLE
  5
408
100
AcDbEntity
  8
0
100
AcDbCircle
 62
7
  6
CONTINUOUS
 10
5.4133133562
 20
4.5331763699
 40
0.47
  0
ARC
  5
409
100
AcDbEntity
  8
0
100
AcDbCircle
 62
7
  6
CONTINUOUS
 10
5.5183133562
 20
6.0131763699
 40
0.02
100
AcDbArc
 50
0.0
 51
90.0
  0
ARC
  5
40A
100
AcDbEntity
  8
0
100
AcDbCircle
 62
7
  6
CONTINUOUS
 10
6.8933133562
 20
4.6381763699
 40
0.02
100
AcDbArc
 50
0.0
 51
90.0
  0
ENDSEC
  0
SECTION
  2
OBJECTS
  0
DICTIONARY
  5
C
100
AcDbDictionary
280
0
281
1
  3
ACAD_GROUP
350
D
  3
ACAD_MLINESTYLE
350
17
  3
ACAD_LAYOUT
350
1A
  3
ACAD_PLOTSETTINGS
350
19
  3
ACAD_PLOTSTYLENAME
350
E
  0
DICTIONARY
  5
D
102
{ACAD_REACTORS
330
C
102
}
100
AcDbDictionary
280
0
281
1
  0
ACDBDICTIONARYWDFLT
  5
E
102
{ACAD_REACTORS
330
C
102
}
100
AcDbDictionary
281
1
  3
Normal
350
F
100
AcDbDictionaryWithDefault
340
F
  0
DICTIONARY
  5
17
102
{ACAD_REACTORS
330
C
102
}
100
AcDbDictionary
280
0
281
1
  3
Standard
350
18
  0
DICTIONARY
  5
19
102
{ACAD_REACTORS
330
C
102
}
100
AcDbDictionary
281
1
  0
DICTIONARY
  5
1A
102
{ACAD_REACTORS
330
C
102
}
100
AcDbDictionary
281
1
  3
Model
350
40B
  3
Layout1
350
40C
  0
ACDBPLACEHOLDER
  5
F
102
{ACAD_REACTORS
330
E
102
}
  0
MLINESTYLE
  5
18
102
{ACAD_REACTORS
330
17
102
}
100
AcDbMlineStyle
  2
STANDARD
 70
0
  3

 62
256
 51
90.0
 52
90.0
 71
2
 49
0.5
 62
256
  6
BYLAYER
 49
-0.5
 62
256
  6
BYLAYER
  0
LAYOUT
  5
40B
102
{ACAD_REACTORS
330
1A
102
}
100
AcDbPlotSettings
  1

  2
none_device
  4
ANSI_A_(11.00_x_8.50_Inches)
  6

 40
0.0
 41
0.0
 42
0.0
 43
0.0
 44
279.4
 45
215.9
 46
0.0
 47
0.0
 48
0.0
 49
0.0
140
0.0
141
0.0
142
1.0
143
1.0
 70
1024
 72
0
 73
0
 74
0
  7

 75
0
147
1.0
148
0.0
149
0.0
100
AcDbLayout
  1
Model
 70
0
 71
0
 10
0.0
 20
0.0
 11
11.0
 21
8.5
 12
0.0
 22
0.0
 32
0.0
 14
0.0
 24
0.0
 34
0.0
 15
0.0
 25
0.0
 35
0.0
146
0.0
 13
0.0
 23
0.0
 33
0.0
 16
1.0
 26
0.0
 36
0.0
 17
0.0
 27
1.0
 37
0.0
 76
0
330
203
345
0
346
0
  0
LAYOUT
  5
40C
102
{ACAD_REACTORS
330
1A
102
}
100
AcDbPlotSettings
  1

  2
none_device
  4
ANSI_A_(11.00_x_8.50_Inches)
  6

 40
0.0
 41
0.0
 42
0.0
 43
0.0
 44
279.4
 45
215.9
 46
0.0
 47
0.0
 48
0.0
 49
0.0
140
0.0
141
0.0
142
1.0
143
1.0
 70
0
 72
0
 73
0
 74
0
  7

 75
0
147
1.0
148
0.0
149
0.0
100
AcDbLayout
  1
Layout1
 70
0
 71
1
 10
0.0
 20
0.0
 11
11.0
 21
8.5
 12
0.0
 22
0.0
 32
0.0
 14
0.0
 24
0.0
 34
0.0
 15
0.0
 25
0.0
 35
0.0
146
0.0
 13
0.0
 23
0.0
 33
0.0
 16
1.0
 26
0.0
 36
0.0
 17
0.0
 27
1.0
 37
0.0
 76
0
330
204
345
0
346
0
  0
ENDSEC
  0
EOF
