999
DXF file: 4-3244bp_right.dxf
999
Pro/ENGINEER 2023134 by Parametric Technology Corporation
  0
SECTION
  2
HEADER
  9
$ACADVER
  1
AC1032
  9
$DWGCODEPAGE
  3
ANSI_1252
  9
$EXTMAX
 10
11.0
 20
8.5
 30
0.0
  9
$EXTMIN
 10
0.0
 20
0.0
 30
0.0
  9
$LIMMIN
 10
0.0
 20
0.0
  9
$LIMMAX
 10
11.0
 20
8.5
  9
$VIEWCTR
 10
5.5
 20
4.25
  9
$VIEWSIZE
 40
8.5
  9
$CLAYER
  8
0
  9
$LTSCALE
 40
0.605
  9
$CELTYPE
  6
BYLAYER
  9
$DIMSCALE
 40
1.0
  9
$DIMASZ
 40
0.1
  9
$DIMEXO
 40
0.0625
  9
$DIMDLI
 40
0.418
  9
$DIMEXE
 40
0.125
  9
$DIMCEN
 40
0.099
  9
$DIMLFAC
 40
1.0
  9
$DIMBLK
  1
_FILLED
  9
$DIMALT
 70
1
  9
$DIMALTD
 70
2
  9
$DIMALTTD
 70
2
  9
$DIMALTF
 40
25.4
  9
$DIMTXT
 40
0.08
  9
$DIMTOL
 70
1
  9
$DIMLIM
 70
0
  9
$DIMTFAC
 40
1.0
  9
$DIMTP
 40
0.001
  9
$DIMTM
 40
0.001
  9
$DIMGAP
 40
0.09
  9
$DIMDSEP
 70
46
  9
$AUNITS
 70
0
  9
$PDMODE
 70
3
  9
$PDSIZE
 40
0.3125
  9
$HANDSEED
  5
38B
  9
$TILEMODE
 70
1
  9
$MEASUREMENT
 70
0
  9
$INSUNITS
 70
1
  0
ENDSEC
  0
SECTION
  2
CLASSES
  0
CLASS
  1
ACDBDICTIONARYWDFLT
  2
AcDbDictionaryWithDefault
  3
AutoCAD 2000
 90
0
 91
1
280
0
281
0
  0
CLASS
  1
ACDBPLACEHOLDER
  2
AcDbPlaceHolder
  3
AutoCAD 2000
 90
0
 91
1
280
0
281
0
  0
CLASS
  1
LAYOUT
  2
AcDbLayout
  3
AutoCAD 2000
 90
0
 91
0
280
0
281
0
  0
ENDSEC
  0
SECTION
  2
TABLES
  0
TABLE
  2
VPORT
  5
8
100
AcDbSymbolTable
 70
2
  0
VPORT
  5
1F4
100
AcDbSymbolTableRecord
100
AcDbViewportTableRecord
  2
*ACTIVE
 70
0
 10
0.0
 20
0.0
 11
1.0
 21
1.0
 12
5.5
 22
4.25
 13
0.0
 23
0.0
 14
1.0
 24
1.0
 15
0.0
 25
0.0
 16
0.0
 26
0.0
 36
1.0
 17
0.0
 27
0.0
 37
0.0
 40
8.5
 41
1.2941176471
 42
50.0
 43
0.0
 44
0.0
 50
0.0
 51
0.0
 71
0
 72
100
 73
1
 74
1
 75
0
 76
0
 77
0
 78
0
  0
ENDTAB
  0
TABLE
  2
LTYPE
  5
5
100
AcDbSymbolTable
 70
6
  0
LTYPE
  5
14
100
AcDbSymbolTableRecord
100
AcDbLinetypeTableRecord
  2
BYBLOCK
 70
0
  3

 72
65
 73
0
 40
0.0
  0
LTYPE
  5
15
100
AcDbSymbolTableRecord
100
AcDbLinetypeTableRecord
  2
BYLAYER
 70
0
  3

 72
65
 73
0
 40
0.0
  0
LTYPE
  5
16
100
AcDbSymbolTableRecord
100
AcDbLinetypeTableRecord
  2
CONTINUOUS
 70
64
  3
Solid line
 72
65
 73
0
 40
0.0
  0
LTYPE
  5
1F5
100
AcDbSymbolTableRecord
100
AcDbLinetypeTableRecord
  2
CENTER
 70
64
  3
____ _ ____ _ ____ _ ____ _ ____ _ ____ _ ____
 72
65
 73
4
 40
0.6
 49
0.375
 74
0
 49
-0.075
 74
0
 49
0.075
 74
0
 49
-0.075
 74
0
  0
LTYPE
  5
1F6
100
AcDbSymbolTableRecord
100
AcDbLinetypeTableRecord
  2
HIDDEN
 70
64
  3
- - - - - - - - - - - - - - - - - - - -
 72
65
 73
2
 40
0.2
 49
0.1
 74
0
 49
-0.1
 74
0
  0
LTYPE
  5
1F7
100
AcDbSymbolTableRecord
100
AcDbLinetypeTableRecord
  2
PHANTOM
 70
64
  3
_____ _ _ _____ _ _ _____ _ _ _____
 72
65
 73
6
 40
0.8
 49
0.45
 74
0
 49
-0.05
 74
0
 49
0.1
 74
0
 49
-0.05
 74
0
 49
0.1
 74
0
 49
-0.05
 74
0
  0
LTYPE
  5
1F8
100
AcDbSymbolTableRecord
100
AcDbLinetypeTableRecord
  2
DOT
 70
64
  3
. . . . . . . . . . . . . . . . . . . .
 72
65
 73
2
 40
0.2
 49
0.1
 74
0
 49
-0.1
 74
0
  0
LTYPE
  5
1F9
100
AcDbSymbolTableRecord
100
AcDbLinetypeTableRecord
  2
DASHED
 70
64
  3
- - - - - - - - - - - - - - - - - - - -
 72
65
 73
2
 40
0.2
 49
0.1
 74
0
 49
-0.1
 74
0
  0
ENDTAB
  0
TABLE
  2
LAYER
  5
2
100
AcDbSymbolTable
 70
36
  0
LAYER
  5
10
100
AcDbSymbolTableRecord
100
AcDbLayerTableRecord
  2
0
 70
0
 62
7
  6
CONTINUOUS
370
-3
390
F
  0
LAYER
  5
1FA
100
AcDbSymbolTableRecord
100
AcDbLayerTableRecord
  2
DEFAULT_1
 70
0
 62
7
  6
CENTER
370
-3
390
F
  0
LAYER
  5
1FB
100
AcDbSymbolTableRecord
100
AcDbLayerTableRecord
  2
DEFAULT_2
 70
0
 62
8
  6
HIDDEN
370
-3
390
F
  0
LAYER
  5
1FC
100
AcDbSymbolTableRecord
100
AcDbLayerTableRecord
  2
DEFAULT_3
 70
0
 62
7
  6
PHANTOM
370
-3
390
F
  0
LAYER
  5
1FD
100
AcDbSymbolTableRecord
100
AcDbLayerTableRecord
  2
DEFAULT_COORDINATE_SYSTEM
 70
0
 62
7
  6
CONTINUOUS
370
-3
390
F
  0
LAYER
  5
1FE
100
AcDbSymbolTableRecord
100
AcDbLayerTableRecord
  2
DEFAULT_DATUM_AXES
 70
0
 62
7
  6
CONTINUOUS
370
-3
390
F
  0
LAYER
  5
1FF
100
AcDbSymbolTableRecord
100
AcDbLayerTableRecord
  2
DEFAULT_DATUM_CURVES
 70
0
 62
7
  6
CONTINUOUS
370
-3
390
F
  0
LAYER
  5
200
100
AcDbSymbolTableRecord
100
AcDbLayerTableRecord
  2
DEFAULT_DATUM_PLANES
 70
0
 62
7
  6
CONTINUOUS
370
-3
390
F
  0
ENDTAB
  0
TABLE
  2
STYLE
  5
3
100
AcDbSymbolTable
 70
1
  0
STYLE
  5
11
100
AcDbSymbolTableRecord
100
AcDbTextStyleTableRecord
  2
STANDARD
 70
0
 40
0.0
 41
0.8
 50
0.0
 71
0
 42
0.2
  3
txt
  4

  0
STYLE
  5
201
100
AcDbSymbolTableRecord
100
AcDbTextStyleTableRecord
  2
TEXTSTYLE_1
 70
0
 40
0.0
 41
0.8
 50
0.0
 71
0
 42
0.2
  3
gdt
  4

  0
ENDTAB
  0
TABLE
  2
VIEW
  5
6
100
AcDbSymbolTable
 70
0
  0
ENDTAB
  0
TABLE
  2
UCS
  5
7
100
AcDbSymbolTable
 70
0
  0
ENDTAB
  0
TABLE
  2
APPID
  5
9
100
AcDbSymbolTable
 70
1
  0
APPID
  5
202
100
AcDbSymbolTableRecord
100
AcDbRegAppTableRecord
  2
ACAD
 70
0
  0
ENDTAB
  0
TABLE
  2
BLOCK_RECORD
  5
1
100
AcDbSymbolTable
 70
0
  0
BLOCK_RECORD
  5
203
100
AcDbSymbolTableRecord
100
AcDbBlockTableRecord
  2
*Model_Space
  0
BLOCK_RECORD
  5
204
100
AcDbSymbolTableRecord
100
AcDbBlockTableRecord
  2
*Paper_Space
  0
BLOCK_RECORD
  5
205
100
AcDbSymbolTableRecord
100
AcDbBlockTableRecord
  2
_FILLED
  0
ENDTAB
  0
TABLE
  2
DIMSTYLE
  5
A
100
AcDbSymbolTable
 70
1
100
AcDbDimStyleTable
 71
0
  0
DIMSTYLE
105
206
100
AcDbSymbolTableRecord
100
AcDbDimStyleTableRecord
  2
STANDARD
 70
0
  3

  4

 40
1.0
 41
0.1
 42
0.0625
 43
0.38
 44
0.125
 45
0.0
 46
0.0
 47
0.001
 48
0.001
140
0.08
141
0.09
142
0.0
143
25.4
144
1.0
145
0.0
146
1.0
147
0.09
 71
1
 72
0
 73
1
 74
1
 75
0
 76
0
 77
0
 78
4
 79
1
170
1
171
2
172
0
173
0
174
0
175
0
176
0
177
0
178
0
270
2
179
3
271
3
272
3
273
2
274
2
275
0
280
0
281
0
282
0
283
1
284
4
285
0
286
0
287
3
288
0
340
11
278
46
341
205
342
205
343
205
344
205
  0
ENDTAB
  0
ENDSEC
  0
SECTION
  2
BLOCKS
  0
BLOCK
  5
20
100
AcDbEntity
  8
0
100
AcDbBlockBegin
  2
*Model_Space
 70
0
 10
0.0
 20
0.0
 30
0.0
  3
*Model_Space
  1

  0
ENDBLK
  5
21
100
AcDbEntity
  8
0
100
AcDbBlockEnd
  0
BLOCK
  5
1C
100
AcDbEntity
  8
0
100
AcDbBlockBegin
  2
*Paper_Space
 70
0
 10
0.0
 20
0.0
 30
0.0
  3
*Paper_Space
  1

  0
ENDBLK
  5
1D
100
AcDbEntity
  8
0
100
AcDbBlockEnd
  0
BLOCK
  5
207
100
AcDbEntity
  8
0
100
AcDbBlockBegin
  2
_FILLED
 70
64
 10
0.0
 20
0.0
  3
_FILLED
  1

  0
SOLID
  5
208
100
AcDbEntity
  8
0
  6
BYBLOCK
 62
0
100
AcDbTrace
 10
0.0
 20
0.0
 11
-1.0
 21
0.2
 12
-1.0
 22
-0.2
 13
-1.0
 23
-0.2
  0
ENDBLK
  5
209
100
AcDbEntity
  8
0
  6
BYBLOCK
 62
0
100
AcDbBlockEnd
  0
ENDSEC
  0
SECTION
  2
ENTITIES
  0
MTEXT
  5
20A
100
AcDbEntity
  8
0
100
AcDbMText
 62
2
  6
CONTINUOUS
  7
STANDARD
 71
3
 72
1
 10
5.6293513713
 20
0.4558476027
 30
0.0
 11
1.0
 21
0.0
 31
0.0
 73
2
 44
0.9
  1
SCALE 1.000
 40
0.08
 41
0.704
  0
LINE
  5
20B
100
AcDbEntity
  8
0
100
AcDbLine
 62
7
  6
CONTINUOUS
 10
0.0
 20
0.0
 11
0.0
 21
8.5
  0
LINE
  5
20C
100
AcDbEntity
  8
0
100
AcDbLine
 62
7
  6
CONTINUOUS
 10
0.0
 20
0.0
 11
11.0
 21
0.0
  0
LINE
  5
20D
100
AcDbEntity
  8
0
100
AcDbLine
 62
7
  6
CONTINUOUS
 10
0.0
 20
8.5
 11
11.0
 21
8.5
  0
LINE
  5
20E
100
AcDbEntity
  8
0
100
AcDbLine
 62
7
  6
CONTINUOUS
 10
11.0
 20
0.0
 11
11.0
 21
8.5
  0
LINE
  5
20F
100
AcDbEntity
  8
0
100
AcDbLine
 62
7
  6
CONTINUOUS
 10
7.1703133562
 20
1.2831763699
 11
7.0308500958
 21
1.2831763699
  0
LINE
  5
210
100
AcDbEntity
  8
0
100
AcDbLine
 62
7
  6
CONTINUOUS
 10
3.6563133562
 20
4.0631763699
 11
3.6563133562
 21
5.0031763699
  0
LINE
  5
211
100
AcDbEntity
  8
0
100
AcDbLine
 62
7
  6
CONTINUOUS
 10
3.6863133562
 20
4.0369647427
 11
3.6863133562
 21
4.0404983723
  0
LINE
  5
212
100
AcDbEntity
  8
0
100
AcDbLine
 62
7
  6
CONTINUOUS
 10
3.6863133562
 20
4.0333326443
 11
3.6863133562
 21
4.0345143142
  0
LINE
  5
213
100
AcDbEntity
  8
0
100
AcDbLine
 62
7
  6
CONTINUOUS
 10
3.6863133562
 20
4.0453756303
 11
3.6863133562
 21
4.0512271888
  0
LINE
  5
214
100
AcDbEntity
  8
0
100
AcDbLine
 62
7
  6
CONTINUOUS
 10
3.6863133562
 20
4.0584843058
 11
3.6863133562
 21
4.0665974394
  0
LINE
  5
215
100
AcDbEntity
  8
0
100
AcDbLine
 62
7
  6
CONTINUOUS
 10
3.6863133562
 20
4.0761645253
 11
3.6863133562
 21
4.0864611002
  0
LINE
  5
216
100
AcDbEntity
  8
0
100
AcDbLine
 62
7
  6
CONTINUOUS
 10
3.6863133562
 20
4.0982460186
 11
3.6863133562
 21
4.1106268732
  0
LINE
  5
217
100
AcDbEntity
  8
0
100
AcDbLine
 62
7
  6
CONTINUOUS
 10
3.6863133562
 20
4.1245161291
 11
3.6863133562
 21
4.1388620289
  0
LINE
  5
218
100
AcDbEntity
  8
0
100
AcDbLine
 62
7
  6
CONTINUOUS
 10
3.6863133562
 20
4.154721861
 11
3.6863133562
 21
4.1708946472
  0
LINE
  5
219
100
AcDbEntity
  8
0
100
AcDbLine
 62
7
  6
CONTINUOUS
 10
3.6863133562
 20
4.1885723167
 11
3.6863133562
 21
4.2064162366
  0
LINE
  5
21A
100
AcDbEntity
  8
0
100
AcDbLine
 62
7
  6
CONTINUOUS
 10
3.6863133562
 20
4.2257414979
 11
3.6863133562
 21
4.2450847046
  0
LINE
  5
21B
100
AcDbEntity
  8
0
100
AcDbLine
 62
7
  6
CONTINUOUS
 10
3.6863133562
 20
4.2658714449
 11
3.6863133562
 21
4.2865276529
  0
LINE
  5
21C
100
AcDbEntity
  8
0
100
AcDbLine
 62
7
  6
CONTINUOUS
 10
3.6863133562
 20
4.3085756845
 11
3.6863133562
 21
4.3303459632
  0
LINE
  5
21D
100
AcDbEntity
  8
0
100
AcDbLine
 62
7
  6
CONTINUOUS
 10
3.6863133562
 20
4.3534429515
 11
3.6863133562
 21
4.3761176411
  0
LINE
  5
21E
100
AcDbEntity
  8
0
100
AcDbLine
 62
7
  6
CONTINUOUS
 10
3.6863133562
 20
4.4000411495
 11
3.6863133562
 21
4.4234018805
  0
LINE
  5
21F
100
AcDbEntity
  8
0
100
AcDbLine
 62
7
  6
CONTINUOUS
 10
3.6863133562
 20
4.4479215125
 11
3.6863133562
 21
4.4717433082
  0
LINE
  5
220
100
AcDbEntity
  8
0
100
AcDbLine
 62
7
  6
CONTINUOUS
 10
3.6863133562
 20
4.4966229264
 11
3.6863133562
 21
4.5206763699
  0
LINE
  5
221
100
AcDbEntity
  8
0
100
AcDbLine
 62
7
  6
CONTINUOUS
 10
3.6863133562
 20
4.5456763699
 11
3.6863133562
 21
4.5697298134
  0
LINE
  5
222
100
AcDbEntity
  8
0
100
AcDbLine
 62
7
  6
CONTINUOUS
 10
3.6863133562
 20
4.5946094315
 11
3.6863133562
 21
4.6184312272
  0
LINE
  5
223
100
AcDbEntity
  8
0
100
AcDbLine
 62
7
  6
CONTINUOUS
 10
3.6863133562
 20
4.6429508592
 11
3.6863133562
 21
4.6663115902
  0
LINE
  5
224
100
AcDbEntity
  8
0
100
AcDbLine
 62
7
  6
CONTINUOUS
 10
3.6863133562
 20
4.6902350986
 11
3.6863133562
 21
4.7129097883
  0
LINE
  5
225
100
AcDbEntity
  8
0
100
AcDbLine
 62
7
  6
CONTINUOUS
 10
3.6863133562
 20
4.7360067766
 11
3.6863133562
 21
4.7577770552
  0
LINE
  5
226
100
AcDbEntity
  8
0
100
AcDbLine
 62
7
  6
CONTINUOUS
 10
3.6863133562
 20
4.7798250868
 11
3.6863133562
 21
4.8004812948
  0
LINE
  5
227
100
AcDbEntity
  8
0
100
AcDbLine
 62
7
  6
CONTINUOUS
 10
3.6863133562
 20
4.8212680351
 11
3.6863133562
 21
4.8406112418
  0
LINE
  5
228
100
AcDbEntity
  8
0
100
AcDbLine
 62
7
  6
CONTINUOUS
 10
3.6863133562
 20
4.8599365032
 11
3.6863133562
 21
4.877780423
  0
LINE
  5
229
100
AcDbEntity
  8
0
100
AcDbLine
 62
7
  6
CONTINUOUS
 10
3.6863133562
 20
4.8954580925
 11
3.6863133562
 21
4.9116308787
  0
LINE
  5
22A
100
AcDbEntity
  8
0
100
AcDbLine
 62
7
  6
CONTINUOUS
 10
3.6863133562
 20
4.9274907108
 11
3.6863133562
 21
4.9418366107
  0
LINE
  5
22B
100
AcDbEntity
  8
0
100
AcDbLine
 62
7
  6
CONTINUOUS
 10
3.6863133562
 20
4.9557258665
 11
3.6863133562
 21
4.9681067211
  0
LINE
  5
22C
100
AcDbEntity
  8
0
100
AcDbLine
 62
7
  6
CONTINUOUS
 10
3.6863133562
 20
4.9798916395
 11
3.6863133562
 21
4.9901882145
  0
LINE
  5
22D
100
AcDbEntity
  8
0
100
AcDbLine
 62
7
  6
CONTINUOUS
 10
3.6863133562
 20
4.9997553003
 11
3.6863133562
 21
5.007868434
  0
LINE
  5
22E
100
AcDbEntity
  8
0
100
AcDbLine
 62
7
  6
CONTINUOUS
 10
3.6863133562
 20
5.0151255509
 11
3.6863133562
 21
5.0209771094
  0
LINE
  5
22F
100
AcDbEntity
  8
0
100
AcDbLine
 62
7
  6
CONTINUOUS
 10
3.6863133562
 20
5.0258543674
 11
3.6863133562
 21
5.029387997
  0
LINE
  5
230
100
AcDbEntity
  8
0
100
AcDbLine
 62
7
  6
CONTINUOUS
 10
3.6863133562
 20
5.0318384255
 11
3.6863133562
 21
5.0330200954
  0
LINE
  5
231
100
AcDbEntity
  8
0
100
AcDbLine
 62
7
  6
CONTINUOUS
 10
3.7113133562
 20
3.0531763699
 11
3.7113133562
 21
4.0453756303
  0
LINE
  5
232
100
AcDbEntity
  8
0
100
AcDbLine
 62
7
  6
CONTINUOUS
 10
3.7113133562
 20
4.4281763699
 11
3.7113133562
 21
4.6381763699
  0
LINE
  5
233
100
AcDbEntity
  8
0
100
AcDbLine
 62
7
  6
CONTINUOUS
 10
3.7113133562
 20
5.0209771094
 11
3.7113133562
 21
6.0131763699
  0
LINE
  5
234
100
AcDbEntity
  8
0
100
AcDbLine
 62
7
  6
CONTINUOUS
 10
3.7313133562
 20
3.0331763699
 11
3.7313133562
 21
4.0490534516
  0
LINE
  5
235
100
AcDbEntity
  8
0
100
AcDbLine
 62
7
  6
CONTINUOUS
 10
3.7313133562
 20
4.4081763699
 11
3.7313133562
 21
4.6581763699
  0
LINE
  5
236
100
AcDbEntity
  8
0
100
AcDbLine
 62
7
  6
CONTINUOUS
 10
3.7313133562
 20
5.0172992881
 11
3.7313133562
 21
6.0331763699
  0
LINE
  5
237
100
AcDbEntity
  8
0
100
AcDbLine
 62
7
  6
CONTINUOUS
 10
3.7313133562
 20
3.0331763699
 11
4.3413133562
 21
3.0331763699
  0
LINE
  5
238
100
AcDbEntity
  8
0
100
AcDbLine
 62
7
  6
CONTINUOUS
 10
3.7113133562
 20
3.0531763699
 11
4.3613133562
 21
3.0531763699
  0
LINE
  5
239
100
AcDbEntity
  8
0
100
AcDbLine
 62
7
  6
CONTINUOUS
 10
4.3413133562
 20
6.0331763699
 11
4.3413133562
 21
5.0172992881
  0
LINE
  5
23A
100
AcDbEntity
  8
0
100
AcDbLine
 62
7
  6
CONTINUOUS
 10
4.3413133562
 20
4.6581763699
 11
4.3413133562
 21
4.4081763699
  0
LINE
  5
23B
100
AcDbEntity
  8
0
100
AcDbLine
 62
7
  6
CONTINUOUS
 10
4.3413133562
 20
4.0490534516
 11
4.3413133562
 21
3.0331763699
  0
LINE
  5
23C
100
AcDbEntity
  8
0
100
AcDbLine
 62
7
  6
CONTINUOUS
 10
4.3613133562
 20
6.0131763699
 11
4.3613133562
 21
5.0209771094
  0
LINE
  5
23D
100
AcDbEntity
  8
0
100
AcDbLine
 62
7
  6
CONTINUOUS
 10
4.3613133562
 20
4.6381763699
 11
4.3613133562
 21
4.4281763699
  0
LINE
  5
23E
100
AcDbEntity
  8
0
100
AcDbLine
 62
7
  6
CONTINUOUS
 10
4.3613133562
 20
4.0453756303
 11
4.3613133562
 21
3.0531763699
  0
LINE
  5
23F
100
AcDbEntity
  8
0
100
AcDbLine
 62
7
  6
CONTINUOUS
 10
6.8573133562
 20
3.4081763699
 11
6.6353654833
 21
3.4081763699
  0
LINE
  5
240
100
AcDbEntity
  8
0
100
AcDbLine
 62
7
  6
CONTINUOUS
 10
4.5563133562
 20
5.0330200954
 11
4.5563133562
 21
5.0318384255
  0
LINE
  5
241
100
AcDbEntity
  8
0
100
AcDbLine
 62
7
  6
CONTINUOUS
 10
4.5563133562
 20
5.029387997
 11
4.5563133562
 21
5.0258543674
  0
LINE
  5
242
100
AcDbEntity
  8
0
100
AcDbLine
 62
7
  6
CONTINUOUS
 10
4.5563133562
 20
5.0209771094
 11
4.5563133562
 21
5.0151255509
  0
LINE
  5
243
100
AcDbEntity
  8
0
100
AcDbLine
 62
7
  6
CONTINUOUS
 10
4.5563133562
 20
5.007868434
 11
4.5563133562
 21
4.9997553003
  0
LINE
  5
244
100
AcDbEntity
  8
0
100
AcDbLine
 62
7
  6
CONTINUOUS
 10
4.5563133562
 20
4.9901882145
 11
4.5563133562
 21
4.9798916395
  0
LINE
  5
245
100
AcDbEntity
  8
0
100
AcDbLine
 62
7
  6
CONTINUOUS
 10
4.5563133562
 20
4.9681067211
 11
4.5563133562
 21
4.9557258665
  0
LINE
  5
246
100
AcDbEntity
  8
0
100
AcDbLine
 62
7
  6
CONTINUOUS
 10
4.5563133562
 20
4.9418366107
 11
4.5563133562
 21
4.9274907108
  0
LINE
  5
247
100
AcDbEntity
  8
0
100
AcDbLine
 62
7
  6
CONTINUOUS
 10
4.5563133562
 20
4.9116308787
 11
4.5563133562
 21
4.8954580925
  0
LINE
  5
248
100
AcDbEntity
  8
0
100
AcDbLine
 62
7
  6
CONTINUOUS
 10
4.5563133562
 20
4.877780423
 11
4.5563133562
 21
4.8599365032
  0
LINE
  5
249
100
AcDbEntity
  8
0
100
AcDbLine
 62
7
  6
CONTINUOUS
 10
4.5563133562
 20
4.8406112418
 11
4.5563133562
 21
4.8212680351
  0
LINE
  5
24A
100
AcDbEntity
  8
0
100
AcDbLine
 62
7
  6
CONTINUOUS
 10
4.5563133562
 20
4.8004812948
 11
4.5563133562
 21
4.7798250868
  0
LINE
  5
24B
100
AcDbEntity
  8
0
100
AcDbLine
 62
7
  6
CONTINUOUS
 10
4.5563133562
 20
4.7577770552
 11
4.5563133562
 21
4.7360067766
  0
LINE
  5
24C
100
AcDbEntity
  8
0
100
AcDbLine
 62
7
  6
CONTINUOUS
 10
4.5563133562
 20
4.7129097883
 11
4.5563133562
 21
4.6902350986
  0
LINE
  5
24D
100
AcDbEntity
  8
0
100
AcDbLine
 62
7
  6
CONTINUOUS
 10
4.5563133562
 20
4.6663115902
 11
4.5563133562
 21
4.6429508592
  0
LINE
  5
24E
100
AcDbEntity
  8
0
100
AcDbLine
 62
7
  6
CONTINUOUS
 10
4.5563133562
 20
4.6184312272
 11
4.5563133562
 21
4.5946094315
  0
LINE
  5
24F
100
AcDbEntity
  8
0
100
AcDbLine
 62
7
  6
CONTINUOUS
 10
4.5563133562
 20
4.5697298134
 11
4.5563133562
 21
4.5456763699
  0
LINE
  5
250
100
AcDbEntity
  8
0
100
AcDbLine
 62
7
  6
CONTINUOUS
 10
4.5563133562
 20
4.5206763699
 11
4.5563133562
 21
4.4966229264
  0
LINE
  5
251
100
AcDbEntity
  8
0
100
AcDbLine
 62
7
  6
CONTINUOUS
 10
4.5563133562
 20
4.4717433082
 11
4.5563133562
 21
4.4479215125
  0
LINE
  5
252
100
AcDbEntity
  8
0
100
AcDbLine
 62
7
  6
CONTINUOUS
 10
4.5563133562
 20
4.4234018805
 11
4.5563133562
 21
4.4000411495
  0
LINE
  5
253
100
AcDbEntity
  8
0
100
AcDbLine
 62
7
  6
CONTINUOUS
 10
4.5563133562
 20
4.3761176411
 11
4.5563133562
 21
4.3534429515
  0
LINE
  5
254
100
AcDbEntity
  8
0
100
AcDbLine
 62
7
  6
CONTINUOUS
 10
4.5563133562
 20
4.3303459632
 11
4.5563133562
 21
4.3085756845
  0
LINE
  5
255
100
AcDbEntity
  8
0
100
AcDbLine
 62
7
  6
CONTINUOUS
 10
4.5563133562
 20
4.2865276529
 11
4.5563133562
 21
4.2658714449
  0
LINE
  5
256
100
AcDbEntity
  8
0
100
AcDbLine
 62
7
  6
CONTINUOUS
 10
4.5563133562
 20
4.2450847046
 11
4.5563133562
 21
4.2257414979
  0
LINE
  5
257
100
AcDbEntity
  8
0
100
AcDbLine
 62
7
  6
CONTINUOUS
 10
4.5563133562
 20
4.2064162366
 11
4.5563133562
 21
4.1885723167
  0
LINE
  5
258
100
AcDbEntity
  8
0
100
AcDbLine
 62
7
  6
CONTINUOUS
 10
4.5563133562
 20
4.1708946472
 11
4.5563133562
 21
4.154721861
  0
LINE
  5
259
100
AcDbEntity
  8
0
100
AcDbLine
 62
7
  6
CONTINUOUS
 10
4.5563133562
 20
4.1388620289
 11
4.5563133562
 21
4.1245161291
  0
LINE
  5
25A
100
AcDbEntity
  8
0
100
AcDbLine
 62
7
  6
CONTINUOUS
 10
4.5563133562
 20
4.1106268732
 11
4.5563133562
 21
4.0982460186
  0
LINE
  5
25B
100
AcDbEntity
  8
0
100
AcDbLine
 62
7
  6
CONTINUOUS
 10
4.5563133562
 20
4.0864611002
 11
4.5563133562
 21
4.0761645253
  0
LINE
  5
25C
100
AcDbEntity
  8
0
100
AcDbLine
 62
7
  6
CONTINUOUS
 10
4.5563133562
 20
4.0665974394
 11
4.5563133562
 21
4.0584843058
  0
LINE
  5
25D
100
AcDbEntity
  8
0
100
AcDbLine
 62
7
  6
CONTINUOUS
 10
4.5563133562
 20
4.0512271888
 11
4.5563133562
 21
4.0453756303
  0
LINE
  5
25E
100
AcDbEntity
  8
0
100
AcDbLine
 62
7
  6
CONTINUOUS
 10
4.5563133562
 20
4.0404983723
 11
4.5563133562
 21
4.0369647427
  0
LINE
  5
25F
100
AcDbEntity
  8
0
100
AcDbLine
 62
7
  6
CONTINUOUS
 10
4.5563133562
 20
4.0345143142
 11
4.5563133562
 21
4.0333326443
  0
LINE
  5
260
100
AcDbEntity
  8
0
100
AcDbLine
 62
7
  6
CONTINUOUS
 10
4.5863133562
 20
5.0031763699
 11
4.5863133562
 21
4.0631763699
  0
LINE
  5
261
100
AcDbEntity
  8
0
100
AcDbLine
 62
7
  6
CONTINUOUS
 10
4.6173133562
 20
4.0631763699
 11
4.6173133562
 21
5.0031763699
  0
LINE
  5
262
100
AcDbEntity
  8
0
100
AcDbLine
 62
7
  6
CONTINUOUS
 10
4.6473133562
 20
4.0331763699
 11
4.6473133562
 21
5.0331763699
  0
LINE
  5
263
100
AcDbEntity
  8
0
100
AcDbLine
 62
7
  6
CONTINUOUS
 10
6.3173133562
 20
4.0331763699
 11
4.6473133562
 21
4.0331763699
  0
LINE
  5
264
100
AcDbEntity
  8
0
100
AcDbLine
 62
7
  6
CONTINUOUS
 10
4.5563133562
 20
4.0333326443
 11
4.3613133562
 21
4.0333326443
  0
LINE
  5
265
100
AcDbEntity
  8
0
100
AcDbLine
 62
7
  6
CONTINUOUS
 10
3.7113133562
 20
4.0333326443
 11
3.6863133562
 21
4.0333326443
  0
LINE
  5
266
100
AcDbEntity
  8
0
100
AcDbLine
 62
7
  6
CONTINUOUS
 10
4.5563133562
 20
4.0345143142
 11
4.3613133562
 21
4.0345143142
  0
LINE
  5
267
100
AcDbEntity
  8
0
100
AcDbLine
 62
7
  6
CONTINUOUS
 10
3.7113133562
 20
4.0345143142
 11
3.6863133562
 21
4.0345143142
  0
LINE
  5
268
100
AcDbEntity
  8
0
100
AcDbLine
 62
7
  6
CONTINUOUS
 10
4.5563133562
 20
4.0369647427
 11
4.3613133562
 21
4.0369647427
  0
LINE
  5
269
100
AcDbEntity
  8
0
100
AcDbLine
 62
7
  6
CONTINUOUS
 10
3.7113133562
 20
4.0369647427
 11
3.6863133562
 21
4.0369647427
  0
LINE
  5
26A
100
AcDbEntity
  8
0
100
AcDbLine
 62
7
  6
CONTINUOUS
 10
4.5563133562
 20
4.0404983723
 11
4.3613133562
 21
4.0404983723
  0
LINE
  5
26B
100
AcDbEntity
  8
0
100
AcDbLine
 62
7
  6
CONTINUOUS
 10
3.7113133562
 20
4.0404983723
 11
3.6863133562
 21
4.0404983723
  0
LINE
  5
26C
100
AcDbEntity
  8
0
100
AcDbLine
 62
7
  6
CONTINUOUS
 10
4.5563133562
 20
4.0453756303
 11
4.360735103
 21
4.0453756303
  0
LINE
  5
26D
100
AcDbEntity
  8
0
100
AcDbLine
 62
7
  6
CONTINUOUS
 10
3.7118916093
 20
4.0453756303
 11
3.6863133562
 21
4.0453756303
  0
LINE
  5
26E
100
AcDbEntity
  8
0
100
AcDbLine
 62
7
  6
CONTINUOUS
 10
4.3413133562
 20
4.0490534516
 11
3.7313133562
 21
4.0490534516
  0
LINE
  5
26F
100
AcDbEntity
  8
0
100
AcDbLine
 62
7
  6
CONTINUOUS
 10
4.5563133562
 20
4.0512271888
 11
3.6863133562
 21
4.0512271888
  0
LINE
  5
270
100
AcDbEntity
  8
0
100
AcDbLine
 62
7
  6
CONTINUOUS
 10
4.5563133562
 20
4.0584843058
 11
3.6863133562
 21
4.0584843058
  0
LINE
  5
271
100
AcDbEntity
  8
0
100
AcDbLine
 62
7
  6
CONTINUOUS
 10
4.5563133562
 20
4.0665974394
 11
3.6863133562
 21
4.0665974394
  0
LINE
  5
272
100
AcDbEntity
  8
0
100
AcDbLine
 62
7
  6
CONTINUOUS
 10
4.5563133562
 20
4.0761645253
 11
3.6863133562
 21
4.0761645253
  0
LINE
  5
273
100
AcDbEntity
  8
0
100
AcDbLine
 62
7
  6
CONTINUOUS
 10
4.5563133562
 20
4.0864611002
 11
3.6863133562
 21
4.0864611002
  0
LINE
  5
274
100
AcDbEntity
  8
0
100
AcDbLine
 62
7
  6
CONTINUOUS
 10
4.5563133562
 20
4.0982460186
 11
3.6863133562
 21
4.0982460186
  0
LINE
  5
275
100
AcDbEntity
  8
0
100
AcDbLine
 62
7
  6
CONTINUOUS
 10
6.3473133562
 20
4.1081763699
 11
6.3573133562
 21
4.1081763699
  0
LINE
  5
276
100
AcDbEntity
  8
0
100
AcDbLine
 62
7
  6
CONTINUOUS
 10
4.5563133562
 20
4.1106268732
 11
3.6863133562
 21
4.1106268732
  0
LINE
  5
277
100
AcDbEntity
  8
0
100
AcDbLine
 62
7
  6
CONTINUOUS
 10
4.5563133562
 20
4.1245161291
 11
3.6863133562
 21
4.1245161291
  0
LINE
  5
278
100
AcDbEntity
  8
0
100
AcDbLine
 62
7
  6
CONTINUOUS
 10
4.5563133562
 20
4.1388620289
 11
3.6863133562
 21
4.1388620289
  0
LINE
  5
279
100
AcDbEntity
  8
0
100
AcDbLine
 62
7
  6
CONTINUOUS
 10
4.5563133562
 20
4.154721861
 11
3.6863133562
 21
4.154721861
  0
LINE
  5
27A
100
AcDbEntity
  8
0
100
AcDbLine
 62
7
  6
CONTINUOUS
 10
4.5563133562
 20
4.1708946472
 11
3.6863133562
 21
4.1708946472
  0
LINE
  5
27B
100
AcDbEntity
  8
0
100
AcDbLine
 62
7
  6
CONTINUOUS
 10
4.5563133562
 20
4.1885723167
 11
3.6863133562
 21
4.1885723167
  0
LINE
  5
27C
100
AcDbEntity
  8
0
100
AcDbLine
 62
7
  6
CONTINUOUS
 10
4.5563133562
 20
4.2064162366
 11
3.6863133562
 21
4.2064162366
  0
LINE
  5
27D
100
AcDbEntity
  8
0
100
AcDbLine
 62
7
  6
CONTINUOUS
 10
4.5823247575
 20
4.2255293732
 11
3.6603019548
 21
4.2255293732
  0
LINE
  5
27E
100
AcDbEntity
  8
0
100
AcDbLine
 62
7
  6
CONTINUOUS
 10
4.5563133562
 20
4.2257414979
 11
3.6863133562
 21
4.2257414979
  0
LINE
  5
27F
100
AcDbEntity
  8
0
100
AcDbLine
 62
7
  6
CONTINUOUS
 10
4.5563133562
 20
4.2450847046
 11
3.6863133562
 21
4.2450847046
  0
LINE
  5
280
100
AcDbEntity
  8
0
100
AcDbLine
 62
7
  6
CONTINUOUS
 10
4.5823247575
 20
4.26375436
 11
3.6603019548
 21
4.26375436
  0
LINE
  5
281
100
AcDbEntity
  8
0
100
AcDbLine
 62
7
  6
CONTINUOUS
 10
4.5563133562
 20
4.2658714449
 11
3.6863133562
 21
4.2658714449
  0
LINE
  5
282
100
AcDbEntity
  8
0
100
AcDbLine
 62
7
  6
CONTINUOUS
 10
4.5863133562
 20
4.2731763699
 11
4.6173133562
 21
4.2731763699
  0
LINE
  5
283
100
AcDbEntity
  8
0
100
AcDbLine
 62
7
  6
CONTINUOUS
 10
4.5563133562
 20
4.2865276529
 11
3.6863133562
 21
4.2865276529
  0
LINE
  5
284
100
AcDbEntity
  8
0
100
AcDbLine
 62
7
  6
CONTINUOUS
 10
4.5823247575
 20
4.3045740281
 11
3.6603019548
 21
4.3045740281
  0
LINE
  5
285
100
AcDbEntity
  8
0
100
AcDbLine
 62
7
  6
CONTINUOUS
 10
4.5563133562
 20
4.3085756845
 11
3.6863133562
 21
4.3085756845
  0
LINE
  5
286
100
AcDbEntity
  8
0
100
AcDbLine
 62
7
  6
CONTINUOUS
 10
4.5563133562
 20
4.3303459632
 11
3.6863133562
 21
4.3303459632
  0
LINE
  5
287
100
AcDbEntity
  8
0
100
AcDbLine
 62
7
  6
CONTINUOUS
 10
4.5823247575
 20
4.3475952618
 11
3.6603019548
 21
4.3475952618
  0
LINE
  5
288
100
AcDbEntity
  8
0
100
AcDbLine
 62
7
  6
CONTINUOUS
 10
4.5563133562
 20
4.3534429515
 11
3.6863133562
 21
4.3534429515
  0
LINE
  5
289
100
AcDbEntity
  8
0
100
AcDbLine
 62
7
  6
CONTINUOUS
 10
4.5563133562
 20
4.3761176411
 11
3.6863133562
 21
4.3761176411
  0
LINE
  5
28A
100
AcDbEntity
  8
0
100
AcDbLine
 62
7
  6
CONTINUOUS
 10
4.5823247575
 20
4.3924037429
 11
3.6603019548
 21
4.3924037429
  0
LINE
  5
28B
100
AcDbEntity
  8
0
100
AcDbLine
 62
7
  6
CONTINUOUS
 10
4.5563133562
 20
4.4000411495
 11
3.6863133562
 21
4.4000411495
  0
LINE
  5
28C
100
AcDbEntity
  8
0
100
AcDbLine
 62
7
  6
CONTINUOUS
 10
3.7313133562
 20
4.4081763699
 11
4.3413133562
 21
4.4081763699
  0
LINE
  5
28D
100
AcDbEntity
  8
0
100
AcDbLine
 62
7
  6
CONTINUOUS
 10
4.5563133562
 20
4.4234018805
 11
4.360735103
 21
4.4234018805
  0
LINE
  5
28E
100
AcDbEntity
  8
0
100
AcDbLine
 62
7
  6
CONTINUOUS
 10
3.7118916093
 20
4.4234018805
 11
3.6863133562
 21
4.4234018805
  0
LINE
  5
28F
100
AcDbEntity
  8
0
100
AcDbLine
 62
7
  6
CONTINUOUS
 10
3.7113133562
 20
4.4281763699
 11
4.3613133562
 21
4.4281763699
  0
LINE
  5
290
100
AcDbEntity
  8
0
100
AcDbLine
 62
7
  6
CONTINUOUS
 10
4.5823247575
 20
4.4385679414
 11
4.3613133562
 21
4.4385679414
  0
LINE
  5
291
100
AcDbEntity
  8
0
100
AcDbLine
 62
7
  6
CONTINUOUS
 10
3.7113133562
 20
4.4385679414
 11
3.6603019548
 21
4.4385679414
  0
LINE
  5
292
100
AcDbEntity
  8
0
100
AcDbLine
 62
7
  6
CONTINUOUS
 10
4.5563133562
 20
4.4479215125
 11
4.3613133562
 21
4.4479215125
  0
LINE
  5
293
100
AcDbEntity
  8
0
100
AcDbLine
 62
7
  6
CONTINUOUS
 10
3.7113133562
 20
4.4479215125
 11
3.6863133562
 21
4.4479215125
  0
LINE
  5
294
100
AcDbEntity
  8
0
100
AcDbLine
 62
7
  6
CONTINUOUS
 10
4.5563133562
 20
4.4717433082
 11
4.3613133562
 21
4.4717433082
  0
LINE
  5
295
100
AcDbEntity
  8
0
100
AcDbLine
 62
7
  6
CONTINUOUS
 10
3.7113133562
 20
4.4717433082
 11
3.6863133562
 21
4.4717433082
  0
LINE
  5
296
100
AcDbEntity
  8
0
100
AcDbLine
 62
7
  6
CONTINUOUS
 10
4.5823247575
 20
4.4856432708
 11
4.3613133562
 21
4.4856432708
  0
LINE
  5
297
100
AcDbEntity
  8
0
100
AcDbLine
 62
7
  6
CONTINUOUS
 10
3.7113133562
 20
4.4856432708
 11
3.6603019548
 21
4.4856432708
  0
LINE
  5
298
100
AcDbEntity
  8
0
100
AcDbLine
 62
7
  6
CONTINUOUS
 10
4.5563133562
 20
4.4966229264
 11
4.3613133562
 21
4.4966229264
  0
LINE
  5
299
100
AcDbEntity
  8
0
100
AcDbLine
 62
7
  6
CONTINUOUS
 10
3.7113133562
 20
4.4966229264
 11
3.6863133562
 21
4.4966229264
  0
LINE
  5
29A
100
AcDbEntity
  8
0
100
AcDbLine
 62
7
  6
CONTINUOUS
 10
4.5563133562
 20
4.5206763699
 11
4.3613133562
 21
4.5206763699
  0
LINE
  5
29B
100
AcDbEntity
  8
0
100
AcDbLine
 62
7
  6
CONTINUOUS
 10
3.7113133562
 20
4.5206763699
 11
3.6863133562
 21
4.5206763699
  0
LINE
  5
29C
100
AcDbEntity
  8
0
100
AcDbLine
 62
7
  6
CONTINUOUS
 10
4.5823247575
 20
4.5331763699
 11
4.3613133562
 21
4.5331763699
  0
LINE
  5
29D
100
AcDbEntity
  8
0
100
AcDbLine
 62
7
  6
CONTINUOUS
 10
3.7113133562
 20
4.5331763699
 11
3.6603019548
 21
4.5331763699
  0
LINE
  5
29E
100
AcDbEntity
  8
0
100
AcDbLine
 62
7
  6
CONTINUOUS
 10
4.5563133562
 20
4.5456763699
 11
4.3613133562
 21
4.5456763699
  0
LINE
  5
29F
100
AcDbEntity
  8
0
100
AcDbLine
 62
7
  6
CONTINUOUS
 10
3.7113133562
 20
4.5456763699
 11
3.6863133562
 21
4.5456763699
  0
LINE
  5
2A0
100
AcDbEntity
  8
0
100
AcDbLine
 62
7
  6
CONTINUOUS
 10
4.5563133562
 20
4.5697298134
 11
4.3613133562
 21
4.5697298134
  0
LINE
  5
2A1
100
AcDbEntity
  8
0
100
AcDbLine
 62
7
  6
CONTINUOUS
 10
3.7113133562
 20
4.5697298134
 11
3.6863133562
 21
4.5697298134
  0
LINE
  5
2A2
100
AcDbEntity
  8
0
100
AcDbLine
 62
7
  6
CONTINUOUS
 10
4.5823247575
 20
4.580709469
 11
4.3613133562
 21
4.580709469
  0
LINE
  5
2A3
100
AcDbEntity
  8
0
100
AcDbLine
 62
7
  6
CONTINUOUS
 10
3.7113133562
 20
4.580709469
 11
3.6603019548
 21
4.580709469
  0
LINE
  5
2A4
100
AcDbEntity
  8
0
100
AcDbLine
 62
7
  6
CONTINUOUS
 10
4.5563133562
 20
4.5946094315
 11
4.3613133562
 21
4.5946094315
  0
LINE
  5
2A5
100
AcDbEntity
  8
0
100
AcDbLine
 62
7
  6
CONTINUOUS
 10
3.7113133562
 20
4.5946094315
 11
3.6863133562
 21
4.5946094315
  0
LINE
  5
2A6
100
AcDbEntity
  8
0
100
AcDbLine
 62
7
  6
CONTINUOUS
 10
4.5563133562
 20
4.6184312272
 11
4.3613133562
 21
4.6184312272
  0
LINE
  5
2A7
100
AcDbEntity
  8
0
100
AcDbLine
 62
7
  6
CONTINUOUS
 10
3.7113133562
 20
4.6184312272
 11
3.6863133562
 21
4.6184312272
  0
LINE
  5
2A8
100
AcDbEntity
  8
0
100
AcDbLine
 62
7
  6
CONTINUOUS
 10
4.5823247575
 20
4.6277847983
 11
4.3613133562
 21
4.6277847983
  0
LINE
  5
2A9
100
AcDbEntity
  8
0
100
AcDbLine
 62
7
  6
CONTINUOUS
 10
3.7113133562
 20
4.6277847983
 11
3.6603019548
 21
4.6277847983
  0
LINE
  5
2AA
100
AcDbEntity
  8
0
100
AcDbLine
 62
7
  6
CONTINUOUS
 10
3.7113133562
 20
4.6381763699
 11
4.3613133562
 21
4.6381763699
  0
LINE
  5
2AB
100
AcDbEntity
  8
0
100
AcDbLine
 62
7
  6
CONTINUOUS
 10
4.5563133562
 20
4.6429508592
 11
4.360735103
 21
4.6429508592
  0
LINE
  5
2AC
100
AcDbEntity
  8
0
100
AcDbLine
 62
7
  6
CONTINUOUS
 10
3.7118916093
 20
4.6429508592
 11
3.6863133562
 21
4.6429508592
  0
LINE
  5
2AD
100
AcDbEntity
  8
0
100
AcDbLine
 62
7
  6
CONTINUOUS
 10
3.7313133562
 20
4.6581763699
 11
4.3413133562
 21
4.6581763699
  0
LINE
  5
2AE
100
AcDbEntity
  8
0
100
AcDbLine
 62
7
  6
CONTINUOUS
 10
4.5563133562
 20
4.6663115902
 11
3.6863133562
 21
4.6663115902
  0
LINE
  5
2AF
100
AcDbEntity
  8
0
100
AcDbLine
 62
7
  6
CONTINUOUS
 10
4.5823247575
 20
4.6739489968
 11
3.6603019548
 21
4.6739489968
  0
LINE
  5
2B0
100
AcDbEntity
  8
0
100
AcDbLine
 62
7
  6
CONTINUOUS
 10
4.5563133562
 20
4.6902350986
 11
3.6863133562
 21
4.6902350986
  0
LINE
  5
2B1
100
AcDbEntity
  8
0
100
AcDbLine
 62
7
  6
CONTINUOUS
 10
4.5563133562
 20
4.7129097883
 11
3.6863133562
 21
4.7129097883
  0
LINE
  5
2B2
100
AcDbEntity
  8
0
100
AcDbLine
 62
7
  6
CONTINUOUS
 10
4.5823247575
 20
4.718757478
 11
3.6603019548
 21
4.718757478
  0
LINE
  5
2B3
100
AcDbEntity
  8
0
100
AcDbLine
 62
7
  6
CONTINUOUS
 10
4.5563133562
 20
4.7360067766
 11
3.6863133562
 21
4.7360067766
  0
LINE
  5
2B4
100
AcDbEntity
  8
0
100
AcDbLine
 62
7
  6
CONTINUOUS
 10
4.5563133562
 20
4.7577770552
 11
3.6863133562
 21
4.7577770552
  0
LINE
  5
2B5
100
AcDbEntity
  8
0
100
AcDbLine
 62
7
  6
CONTINUOUS
 10
4.5823247575
 20
4.7617787116
 11
3.6603019548
 21
4.7617787116
  0
LINE
  5
2B6
100
AcDbEntity
  8
0
100
AcDbLine
 62
7
  6
CONTINUOUS
 10
4.5563133562
 20
4.7798250868
 11
3.6863133562
 21
4.7798250868
  0
LINE
  5
2B7
100
AcDbEntity
  8
0
100
AcDbLine
 62
7
  6
CONTINUOUS
 10
4.5863133562
 20
4.7931763699
 11
4.6173133562
 21
4.7931763699
  0
LINE
  5
2B8
100
AcDbEntity
  8
0
100
AcDbLine
 62
7
  6
CONTINUOUS
 10
4.5563133562
 20
4.8004812948
 11
3.6863133562
 21
4.8004812948
  0
LINE
  5
2B9
100
AcDbEntity
  8
0
100
AcDbLine
 62
7
  6
CONTINUOUS
 10
4.5823247575
 20
4.8025983797
 11
3.6603019548
 21
4.8025983797
  0
LINE
  5
2BA
100
AcDbEntity
  8
0
100
AcDbLine
 62
7
  6
CONTINUOUS
 10
4.5563133562
 20
4.8212680351
 11
3.6863133562
 21
4.8212680351
  0
LINE
  5
2BB
100
AcDbEntity
  8
0
100
AcDbLine
 62
7
  6
CONTINUOUS
 10
4.5563133562
 20
4.8406112418
 11
3.6863133562
 21
4.8406112418
  0
LINE
  5
2BC
100
AcDbEntity
  8
0
100
AcDbLine
 62
7
  6
CONTINUOUS
 10
4.5823247575
 20
4.8408233666
 11
3.6603019548
 21
4.8408233666
  0
LINE
  5
2BD
100
AcDbEntity
  8
0
100
AcDbLine
 62
7
  6
CONTINUOUS
 10
4.5563133562
 20
4.8599365032
 11
3.6863133562
 21
4.8599365032
  0
LINE
  5
2BE
100
AcDbEntity
  8
0
100
AcDbLine
 62
7
  6
CONTINUOUS
 10
4.5563133562
 20
4.877780423
 11
3.6863133562
 21
4.877780423
  0
LINE
  5
2BF
100
AcDbEntity
  8
0
100
AcDbLine
 62
7
  6
CONTINUOUS
 10
4.5563133562
 20
4.8954580925
 11
3.6863133562
 21
4.8954580925
  0
LINE
  5
2C0
100
AcDbEntity
  8
0
100
AcDbLine
 62
7
  6
CONTINUOUS
 10
4.5563133562
 20
4.9116308787
 11
3.6863133562
 21
4.9116308787
  0
LINE
  5
2C1
100
AcDbEntity
  8
0
100
AcDbLine
 62
7
  6
CONTINUOUS
 10
4.5563133562
 20
4.9274907108
 11
3.6863133562
 21
4.9274907108
  0
LINE
  5
2C2
100
AcDbEntity
  8
0
100
AcDbLine
 62
7
  6
CONTINUOUS
 10
4.5563133562
 20
4.9418366107
 11
3.6863133562
 21
4.9418366107
  0
LINE
  5
2C3
100
AcDbEntity
  8
0
100
AcDbLine
 62
7
  6
CONTINUOUS
 10
4.5563133562
 20
4.9557258665
 11
3.6863133562
 21
4.9557258665
  0
LINE
  5
2C4
100
AcDbEntity
  8
0
100
AcDbLine
 62
7
  6
CONTINUOUS
 10
6.3473133562
 20
4.9581763699
 11
6.3573133562
 21
4.9581763699
  0
LINE
  5
2C5
100
AcDbEntity
  8
0
100
AcDbLine
 62
7
  6
CONTINUOUS
 10
4.5563133562
 20
4.9681067211
 11
3.6863133562
 21
4.9681067211
  0
LINE
  5
2C6
100
AcDbEntity
  8
0
100
AcDbLine
 62
7
  6
CONTINUOUS
 10
4.5563133562
 20
4.9798916395
 11
3.6863133562
 21
4.9798916395
  0
LINE
  5
2C7
100
AcDbEntity
  8
0
100
AcDbLine
 62
7
  6
CONTINUOUS
 10
4.5563133562
 20
4.9901882145
 11
3.6863133562
 21
4.9901882145
  0
LINE
  5
2C8
100
AcDbEntity
  8
0
100
AcDbLine
 62
7
  6
CONTINUOUS
 10
4.5563133562
 20
4.9997553003
 11
3.6863133562
 21
4.9997553003
  0
LINE
  5
2C9
100
AcDbEntity
  8
0
100
AcDbLine
 62
7
  6
CONTINUOUS
 10
4.5563133562
 20
5.007868434
 11
3.6863133562
 21
5.007868434
  0
LINE
  5
2CA
100
AcDbEntity
  8
0
100
AcDbLine
 62
7
  6
CONTINUOUS
 10
4.5563133562
 20
5.0151255509
 11
3.6863133562
 21
5.0151255509
  0
LINE
  5
2CB
100
AcDbEntity
  8
0
100
AcDbLine
 62
7
  6
CONTINUOUS
 10
4.3413133562
 20
5.0172992881
 11
3.7313133562
 21
5.0172992881
  0
LINE
  5
2CC
100
AcDbEntity
  8
0
100
AcDbLine
 62
7
  6
CONTINUOUS
 10
4.5563133562
 20
5.0209771094
 11
4.360735103
 21
5.0209771094
  0
LINE
  5
2CD
100
AcDbEntity
  8
0
100
AcDbLine
 62
7
  6
CONTINUOUS
 10
3.7118916093
 20
5.0209771094
 11
3.6863133562
 21
5.0209771094
  0
LINE
  5
2CE
100
AcDbEntity
  8
0
100
AcDbLine
 62
7
  6
CONTINUOUS
 10
4.5563133562
 20
5.0258543674
 11
4.3613133562
 21
5.0258543674
  0
LINE
  5
2CF
100
AcDbEntity
  8
0
100
AcDbLine
 62
7
  6
CONTINUOUS
 10
3.7113133562
 20
5.0258543674
 11
3.6863133562
 21
5.0258543674
  0
LINE
  5
2D0
100
AcDbEntity
  8
0
100
AcDbLine
 62
7
  6
CONTINUOUS
 10
4.5563133562
 20
5.029387997
 11
4.3613133562
 21
5.029387997
  0
LINE
  5
2D1
100
AcDbEntity
  8
0
100
AcDbLine
 62
7
  6
CONTINUOUS
 10
3.7113133562
 20
5.029387997
 11
3.6863133562
 21
5.029387997
  0
LINE
  5
2D2
100
AcDbEntity
  8
0
100
AcDbLine
 62
7
  6
CONTINUOUS
 10
4.5563133562
 20
5.0318384255
 11
4.3613133562
 21
5.0318384255
  0
LINE
  5
2D3
100
AcDbEntity
  8
0
100
AcDbLine
 62
7
  6
CONTINUOUS
 10
3.7113133562
 20
5.0318384255
 11
3.6863133562
 21
5.0318384255
  0
LINE
  5
2D4
100
AcDbEntity
  8
0
100
AcDbLine
 62
7
  6
CONTINUOUS
 10
4.5563133562
 20
5.0330200954
 11
4.3613133562
 21
5.0330200954
  0
LINE
  5
2D5
100
AcDbEntity
  8
0
100
AcDbLine
 62
7
  6
CONTINUOUS
 10
3.7113133562
 20
5.0330200954
 11
3.6863133562
 21
5.0330200954
  0
LINE
  5
2D6
100
AcDbEntity
  8
0
100
AcDbLine
 62
7
  6
CONTINUOUS
 10
6.3173133562
 20
5.0331763699
 11
4.6473133562
 21
5.0331763699
  0
LINE
  5
2D7
100
AcDbEntity
  8
0
100
AcDbLine
 62
7
  6
CONTINUOUS
 10
6.3173133562
 20
5.0331763699
 11
6.3173133562
 21
4.0331763699
  0
LINE
  5
2D8
100
AcDbEntity
  8
0
100
AcDbLine
 62
7
  6
CONTINUOUS
 10
6.3473133562
 20
5.0031763699
 11
6.3473133562
 21
4.0631763699
  0
LINE
  5
2D9
100
AcDbEntity
  8
0
100
AcDbLine
 62
7
  6
CONTINUOUS
 10
6.3573133562
 20
4.0609693678
 11
6.3573133562
 21
5.005383372
  0
LINE
  5
2DA
100
AcDbEntity
  8
0
100
AcDbLine
 62
7
  6
CONTINUOUS
 10
6.3829231123
 20
4.0312923437
 11
6.3829231123
 21
5.035060396
  0
LINE
  5
2DB
100
AcDbEntity
  8
0
100
AcDbLine
 62
7
  6
CONTINUOUS
 10
6.5263125794
 20
5.1627422136
 11
6.5263125794
 21
3.9036105261
  0
LINE
  5
2DC
100
AcDbEntity
  8
0
100
AcDbLine
 62
7
  6
CONTINUOUS
 10
6.6054446036
 20
3.4359989957
 11
6.6054446036
 21
5.630353744
  0
LINE
  5
2DD
100
AcDbEntity
  8
0
100
AcDbLine
 62
7
  6
CONTINUOUS
 10
6.6353654833
 20
3.4081763699
 11
6.6353654833
 21
5.6581763699
  0
LINE
  5
2DE
100
AcDbEntity
  8
0
100
AcDbLine
 62
7
  6
CONTINUOUS
 10
6.8573133562
 20
5.6581763699
 11
6.6353654833
 21
5.6581763699
  0
LINE
  5
2DF
100
AcDbEntity
  8
0
100
AcDbLine
 62
7
  6
CONTINUOUS
 10
6.8573133562
 20
1.4503328801
 11
6.8573133562
 21
7.6160198596
  0
LINE
  5
2E0
100
AcDbEntity
  8
0
100
AcDbLine
 62
7
  6
CONTINUOUS
 10
6.8992503659
 20
1.3909582185
 11
6.8992503659
 21
7.6753945212
  0
LINE
  5
2E1
100
AcDbEntity
  8
0
100
AcDbLine
 62
7
  6
CONTINUOUS
 10
3.7113133562
 20
6.0131763699
 11
4.3613133562
 21
6.0131763699
  0
LINE
  5
2E2
100
AcDbEntity
  8
0
100
AcDbLine
 62
7
  6
CONTINUOUS
 10
3.7313133562
 20
6.0331763699
 11
4.3413133562
 21
6.0331763699
  0
LINE
  5
2E3
100
AcDbEntity
  8
0
100
AcDbLine
 62
7
  6
CONTINUOUS
 10
6.9728310059
 20
1.3216246855
 11
6.9728310059
 21
7.7447280542
  0
LINE
  5
2E4
100
AcDbEntity
  8
0
100
AcDbLine
 62
7
  6
CONTINUOUS
 10
7.0308500958
 20
1.2831763699
 11
7.0308500958
 21
7.7831763699
  0
LINE
  5
2E5
100
AcDbEntity
  8
0
100
AcDbLine
 62
7
  6
CONTINUOUS
 10
7.1703133562
 20
7.7831763699
 11
7.1703133562
 21
1.2831763699
  0
LINE
  5
2E6
100
AcDbEntity
  8
0
100
AcDbLine
 62
7
  6
CONTINUOUS
 10
7.1703133562
 20
7.7831763699
 11
7.0308500958
 21
7.7831763699
  0
ARC
  5
2E7
100
AcDbEntity
  8
0
100
AcDbCircle
 62
7
  6
CONTINUOUS
 10
4.1120379621
 20
5.8118015888
 40
2.5
100
AcDbArc
 50
344.9522620167
 51
355.8378620776
  0
ARC
  5
2E8
100
AcDbEntity
  8
0
100
AcDbCircle
 62
7
  6
CONTINUOUS
 10
4.1120379621
 20
3.254551151
 40
2.5
100
AcDbArc
 50
4.1621379224
 51
15.0477379833
  0
ARC
  5
2E9
100
AcDbEntity
  8
0
100
AcDbCircle
 62
7
  6
CONTINUOUS
 10
6.3573133562
 20
3.8581763699
 40
0.175
100
AcDbArc
 50
15.0477379833
 51
81.5850319153
  0
ARC
  5
2EA
100
AcDbEntity
  8
0
100
AcDbCircle
 62
7
  6
CONTINUOUS
 10
6.3573133562
 20
5.2081763699
 40
0.175
100
AcDbArc
 50
278.4149680847
 51
344.9522620167
  0
ARC
  5
2EB
100
AcDbEntity
  8
0
100
AcDbCircle
 62
7
  6
CONTINUOUS
 10
6.8573133562
 20
1.2727415873
 40
0.1254347826
100
AcDbArc
 50
22.9364108859
 51
70.4680059554
  0
ARC
  5
2EC
100
AcDbEntity
  8
0
100
AcDbCircle
 62
7
  6
CONTINUOUS
 10
6.8573133562
 20
7.7936111525
 40
0.1254347826
100
AcDbArc
 50
289.5319940446
 51
337.0635891141
  0
ARC
  5
2ED
100
AcDbEntity
  8
0
100
AcDbCircle
 62
7
  6
CONTINUOUS
 10
6.9203133562
 20
7.6160198596
 40
0.063
100
AcDbArc
 50
109.5319940456
 51
180.0
  0
ARC
  5
2EE
100
AcDbEntity
  8
0
100
AcDbCircle
 62
7
  6
CONTINUOUS
 10
6.9203133562
 20
1.4503328801
 40
0.063
100
AcDbArc
 50
180.0
 51
250.4680059544
  0
ARC
  5
2EF
100
AcDbEntity
  8
0
100
AcDbCircle
 62
7
  6
CONTINUOUS
 10
7.0308500958
 20
7.7201763699
 40
0.063
100
AcDbArc
 50
90.0
 51
157.0635891141
  0
ARC
  5
2F0
100
AcDbEntity
  8
0
100
AcDbCircle
 62
7
  6
CONTINUOUS
 10
7.0308500958
 20
1.3461763699
 40
0.063
100
AcDbArc
 50
202.9364108859
 51
270.0
  0
ARC
  5
2F1
100
AcDbEntity
  8
0
100
AcDbCircle
 62
7
  6
CONTINUOUS
 10
4.5563133562
 20
4.0631763699
 40
0.03
100
AcDbArc
 50
330.1172410133
 51
360.0
  0
ARC
  5
2F2
100
AcDbEntity
  8
0
100
AcDbCircle
 62
7
  6
CONTINUOUS
 10
4.5563133562
 20
5.0031763699
 40
0.03
100
AcDbArc
 50
0.0
 51
29.8827589867
  0
ARC
  5
2F3
100
AcDbEntity
  8
0
100
AcDbCircle
 62
7
  6
CONTINUOUS
 10
3.6863133562
 20
5.0031763699
 40
0.03
100
AcDbArc
 50
150.1172410361
 51
180.0
  0
ARC
  5
2F4
100
AcDbEntity
  8
0
100
AcDbCircle
 62
7
  6
CONTINUOUS
 10
6.6353654833
 20
3.4381763699
 40
0.03
100
AcDbArc
 50
184.1621379224
 51
270.0
  0
ARC
  5
2F5
100
AcDbEntity
  8
0
100
AcDbCircle
 62
7
  6
CONTINUOUS
 10
6.6353654833
 20
5.6281763699
 40
0.03
100
AcDbArc
 50
90.0
 51
175.8378620776
  0
ARC
  5
2F6
100
AcDbEntity
  8
0
100
AcDbCircle
 62
7
  6
CONTINUOUS
 10
6.3873133562
 20
4.0609693678
 40
0.03
100
AcDbArc
 50
180.0
 51
261.5850319153
  0
ARC
  5
2F7
100
AcDbEntity
  8
0
100
AcDbCircle
 62
7
  6
CONTINUOUS
 10
6.3873133562
 20
5.005383372
 40
0.03
100
AcDbArc
 50
98.4149680847
 51
180.0
  0
ARC
  5
2F8
100
AcDbEntity
  8
0
100
AcDbCircle
 62
7
  6
CONTINUOUS
 10
4.6473133562
 20
4.0631763699
 40
0.03
100
AcDbArc
 50
180.0
 51
270.0
  0
ARC
  5
2F9
100
AcDbEntity
  8
0
100
AcDbCircle
 62
7
  6
CONTINUOUS
 10
4.6473133562
 20
5.0031763699
 40
0.03
100
AcDbArc
 50
90.0
 51
180.0
  0
ARC
  5
2FA
100
AcDbEntity
  8
0
100
AcDbCircle
 62
7
  6
CONTINUOUS
 10
6.3173133562
 20
5.0031763699
 40
0.03
100
AcDbArc
 50
0.0
 51
90.0
  0
ARC
  5
2FB
100
AcDbEntity
  8
0
100
AcDbCircle
 62
7
  6
CONTINUOUS
 10
6.3173133562
 20
4.0631763699
 40
0.03
100
AcDbArc
 50
270.0
 51
360.0
  0
ARC
  5
2FC
100
AcDbEntity
  8
0
100
AcDbCircle
 62
7
  6
CONTINUOUS
 10
3.6863133562
 20
4.0631763699
 40
0.03
100
AcDbArc
 50
180.0
 51
209.8827589639
  0
ARC
  5
2FD
100
AcDbEntity
  8
0
100
AcDbCircle
 62
7
  6
CONTINUOUS
 10
4.3413133562
 20
6.0131763699
 40
0.02
100
AcDbArc
 50
0.0
 51
90.0
  0
ARC
  5
2FE
100
AcDbEntity
  8
0
100
AcDbCircle
 62
7
  6
CONTINUOUS
 10
3.7313133562
 20
6.0131763699
 40
0.02
100
AcDbArc
 50
90.0
 51
180.0
  0
ARC
  5
2FF
100
AcDbEntity
  8
0
100
AcDbCircle
 62
7
  6
CONTINUOUS
 10
4.3413133562
 20
4.6381763699
 40
0.02
100
AcDbArc
 50
0.0
 51
90.0
  0
ARC
  5
300
100
AcDbEntity
  8
0
100
AcDbCircle
 62
7
  6
CONTINUOUS
 10
4.3413133562
 20
4.4281763699
 40
0.02
100
AcDbArc
 50
270.0
 51
360.0
  0
ARC
  5
301
100
AcDbEntity
  8
0
100
AcDbCircle
 62
7
  6
CONTINUOUS
 10
3.7313133562
 20
4.4281763699
 40
0.02
100
AcDbArc
 50
180.0
 51
270.0
  0
ARC
  5
302
100
AcDbEntity
  8
0
100
AcDbCircle
 62
7
  6
CONTINUOUS
 10
3.7313133562
 20
4.6381763699
 40
0.02
100
AcDbArc
 50
90.0
 51
180.0
  0
ARC
  5
303
100
AcDbEntity
  8
0
100
AcDbCircle
 62
7
  6
CONTINUOUS
 10
4.3413133562
 20
3.0531763699
 40
0.02
100
AcDbArc
 50
270.0
 51
360.0
  0
ARC
  5
304
100
AcDbEntity
  8
0
100
AcDbCircle
 62
7
  6
CONTINUOUS
 10
3.7313133562
 20
3.0531763699
 40
0.02
100
AcDbArc
 50
180.0
 51
270.0
  0
SPLINE
  5
305
100
AcDbEntity
  8
0
100
AcDbSpline
 62
7
  6
CONTINUOUS
 70
0
 71
3
 72
17
 73
13
 74
0
 42
0.0000001
 43
0.0000001
 44
0.0000000001
 40
0.0
 40
0.0
 40
0.0
 40
0.0
 40
0.1120450851
 40
0.2273214586
 40
0.3463199708
 40
0.4074035651
 40
0.4695627125
 40
0.5970633997
 40
0.728612837
 40
0.7957009287
 40
0.8634485653
 40
1.0
 40
1.0
 40
1.0
 40
1.0
 10
4.5823247575
 20
5.0181231755
 30
0.0
 10
4.5817408369
 20
5.0191393522
 30
0.0
 10
4.5804317337
 20
5.0211323599
 30
0.0
 10
4.5780854772
 20
5.023903594
 30
0.0
 10
4.5758036991
 20
5.0259999671
 30
0.0
 10
4.573781471
 20
5.0275292372
 30
0.0
 10
4.5715896083
 20
5.0289726604
 30
0.0
 10
4.5686037757
 20
5.0305363492
 30
0.0
 10
4.565385193
 20
5.0317007229
 30
0.0
 10
4.5626795909
 20
5.0323753179
 30
0.0
 10
4.5598826499
 20
5.0328700321
 30
0.0
 10
4.5577416914
 20
5.0330200954
 30
0.0
 10
4.5563133562
 20
5.0330200954
 30
0.0
  0
SPLINE
  5
306
100
AcDbEntity
  8
0
100
AcDbSpline
 62
7
  6
CONTINUOUS
 70
0
 71
3
 72
15
 73
11
 74
0
 42
0.0000001
 43
0.0000001
 44
0.0000000001
 40
0.0
 40
0.0
 40
0.0
 40
0.0
 40
0.108006107
 40
0.2203357757
 40
0.3376170512
 40
0.4603804915
 40
0.5887589677
 40
0.7223473147
 40
0.860031451
 40
1.0
 40
1.0
 40
1.0
 40
1.0
 10
4.5823247575
 20
5.0157880241
 30
0.0
 10
4.5817378847
 20
5.0167204213
 30
0.0
 10
4.5804201664
 20
5.0185494617
 30
0.0
 10
4.5780707764
 20
5.0210791359
 30
0.0
 10
4.5753079491
 20
5.0233932616
 30
0.0
 10
4.5721389252
 20
5.0254317327
 30
0.0
 10
4.5685877797
 20
5.0271267333
 30
0.0
 10
4.5647056361
 20
5.0284069377
 30
0.0
 10
4.5605766936
 20
5.0292068934
 30
0.0
 10
4.5577411086
 20
5.029387997
 30
0.0
 10
4.5563133562
 20
5.029387997
 30
0.0
  0
SPLINE
  5
307
100
AcDbEntity
  8
0
100
AcDbSpline
 62
7
  6
CONTINUOUS
 70
0
 71
3
 72
16
 73
12
 74
0
 42
0.0000001
 43
0.0000001
 44
0.0000000001
 40
0.0
 40
0.0
 40
0.0
 40
0.0
 40
0.1033959587
 40
0.2124132283
 40
0.3278036701
 40
0.4501448359
 40
0.579523375
 40
0.6467378948
 40
0.7154237254
 40
0.8563120444
 40
1.0
 40
1.0
 40
1.0
 40
1.0
 10
4.5823247575
 20
5.0088050586
 30
0.0
 10
4.5817339887
 20
5.009645099
 30
0.0
 10
4.5804054261
 20
5.0112926957
 30
0.0
 10
4.5780532376
 20
5.01355551
 30
0.0
 10
4.5752888295
 20
5.0156243006
 30
0.0
 10
4.5721201254
 20
5.0174454964
 30
0.0
 10
4.5691989943
 20
5.0186913644
 30
0.0
 10
4.5666939303
 20
5.0195121012
 30
0.0
 10
4.5640348778
 20
5.0202158195
 30
0.0
 10
4.5605695907
 20
5.0208156493
 30
0.0
 10
4.5577405279
 20
5.0209771094
 30
0.0
 10
4.5563133562
 20
5.0209771094
 30
0.0
  0
SPLINE
  5
308
100
AcDbEntity
  8
0
100
AcDbSpline
 62
7
  6
CONTINUOUS
 70
0
 71
3
 72
15
 73
11
 74
0
 42
0.0000001
 43
0.0000001
 44
0.0000000001
 40
0.0
 40
0.0
 40
0.0
 40
0.0
 40
0.0983188727
 40
0.2037702099
 40
0.3171949826
 40
0.4391745294
 40
0.5697063321
 40
0.7080133418
 40
0.8523435695
 40
1.0
 40
1.0
 40
1.0
 40
1.0
 10
4.5823247575
 20
4.9972415289
 30
0.0
 10
4.5817288561
 20
4.9979813047
 30
0.0
 10
4.5803869825
 20
4.9994309086
 30
0.0
 10
4.5780326008
 20
5.0014041424
 30
0.0
 10
4.5752677002
 20
5.0032071403
 30
0.0
 10
4.5721000452
 20
5.0047937341
 30
0.0
 10
4.5685539953
 20
5.006111833
 30
0.0
 10
4.5646806324
 20
5.0071066573
 30
0.0
 10
4.5605631452
 20
5.0077279632
 30
0.0
 10
4.5577399719
 20
5.007868434
 30
0.0
 10
4.5563133562
 20
5.007868434
 30
0.0
  0
SPLINE
  5
309
100
AcDbEntity
  8
0
100
AcDbSpline
 62
7
  6
CONTINUOUS
 70
0
 71
3
 72
15
 73
11
 74
0
 42
0.0000001
 43
0.0000001
 44
0.0000000001
 40
0.0
 40
0.0
 40
0.0
 40
0.0
 40
0.092901457
 40
0.1946432329
 40
0.3060939298
 40
0.4277804981
 40
0.5595651066
 40
0.7004363903
 40
0.8482969583
 40
1.0
 40
1.0
 40
1.0
 40
1.0
 10
4.5823247575
 20
4.981208798
 30
0.0
 10
4.5817221517
 20
4.9818409191
 30
0.0
 10
4.5803644589
 20
4.9830767151
 30
0.0
 10
4.5780092186
 20
4.9847405407
 30
0.0
 10
4.5752452238
 20
4.9862602994
 30
0.0
 10
4.572079973
 20
4.9875974115
 30
0.0
 10
4.5685376148
 20
4.9887081416
 30
0.0
 10
4.5646690478
 20
4.9895464073
 30
0.0
 10
4.5605570396
 20
4.9900699144
 30
0.0
 10
4.5577394619
 20
4.9901882145
 30
0.0
 10
4.5563133562
 20
4.9901882145
 30
0.0
  0
SPLINE
  5
30A
100
AcDbEntity
  8
0
100
AcDbSpline
 62
7
  6
CONTINUOUS
 70
0
 71
3
 72
15
 73
11
 74
0
 42
0.0000001
 43
0.0000001
 44
0.0000000001
 40
0.0
 40
0.0
 40
0.0
 40
0.0
 40
0.0874040164
 40
0.1854940608
 40
0.2950800117
 40
0.4165700261
 40
0.5496513853
 40
0.693063249
 40
0.8443699639
 40
1.0
 40
1.0
 40
1.0
 40
1.0
 10
4.5823247575
 20
4.9608612699
 30
0.0
 10
4.5817136152
 20
4.9613785511
 30
0.0
 10
4.5803381617
 20
4.9623852495
 30
0.0
 10
4.5779841285
 20
4.9637234543
 30
0.0
 10
4.5752227078
 20
4.9649459331
 30
0.0
 10
4.5720609138
 20
4.9660217229
 30
0.0
 10
4.5685226704
 20
4.9669155365
 30
0.0
 10
4.5646587647
 20
4.9675901844
 30
0.0
 10
4.560551707
 20
4.9680115414
 30
0.0
 10
4.5577390176
 20
4.9681067211
 30
0.0
 10
4.5563133562
 20
4.9681067211
 30
0.0
  0
SPLINE
  5
30B
100
AcDbEntity
  8
0
100
AcDbSpline
 62
7
  6
CONTINUOUS
 70
0
 71
3
 72
15
 73
11
 74
0
 42
0.0000001
 43
0.0000001
 44
0.0000000001
 40
0.0
 40
0.0
 40
0.0
 40
0.0
 40
0.0822245794
 40
0.1769878829
 40
0.2849476384
 40
0.4063408239
 40
0.540660386
 40
0.6864045433
 40
0.8408322919
 40
1.0
 40
1.0
 40
1.0
 40
1.0
 10
4.5823247575
 20
4.9363949024
 30
0.0
 10
4.5817033863
 20
4.9367899098
 30
0.0
 10
4.5803098275
 20
4.9375529091
 30
0.0
 10
4.5779593845
 20
4.9385537075
 30
0.0
 10
4.5752019581
 20
4.9394686324
 30
0.0
 10
4.5720441986
 20
4.9402742826
 30
0.0
 10
4.5685100219
 20
4.9409439191
 30
0.0
 10
4.5646502649
 20
4.9414494905
 30
0.0
 10
4.5605473592
 20
4.9417652942
 30
0.0
 10
4.557738656
 20
4.9418366107
 30
0.0
 10
4.5563133562
 20
4.9418366107
 30
0.0
  0
SPLINE
  5
30C
100
AcDbEntity
  8
0
100
AcDbSpline
 62
7
  6
CONTINUOUS
 70
0
 71
3
 72
16
 73
12
 74
0
 42
0.0000001
 43
0.0000001
 44
0.0000000001
 40
0.0
 40
0.0
 40
0.0
 40
0.0
 40
0.0372282632
 40
0.0779246393
 40
0.1700061761
 40
0.2767077926
 40
0.398080427
 40
0.5334369624
 40
0.6810735435
 40
0.8380057661
 40
1.0
 40
1.0
 40
1.0
 40
1.0
 10
4.5823247575
 20
4.90804532
 30
0.0
 10
4.582022695
 20
4.9081718439
 30
0.0
 10
4.581383693
 20
4.9084207595
 30
0.0
 10
4.5799683504
 20
4.908904869
 30
0.0
 10
4.577937912
 20
4.9094728996
 30
0.0
 10
4.5751851988
 20
4.9100737734
 30
0.0
 10
4.5720311839
 20
4.9106032977
 30
0.0
 10
4.5685004732
 20
4.9110436494
 30
0.0
 10
4.5646439614
 20
4.911376206
 30
0.0
 10
4.5605441705
 20
4.9115839692
 30
0.0
 10
4.5577383912
 20
4.9116308787
 30
0.0
 10
4.5563133562
 20
4.9116308787
 30
0.0
  0
SPLINE
  5
30D
100
AcDbEntity
  8
0
100
AcDbSpline
 62
7
  6
CONTINUOUS
 70
0
 71
3
 72
15
 73
11
 74
0
 42
0.0000001
 43
0.0000001
 44
0.0000000001
 40
0.0
 40
0.0
 40
0.0
 40
0.0
 40
0.0750754679
 40
0.1654478753
 40
0.2713761068
 40
0.3927681087
 40
0.5288111672
 40
0.6776691773
 40
0.8362036417
 40
1.0
 40
1.0
 40
1.0
 40
1.0
 10
4.5823247575
 20
4.8760855447
 30
0.0
 10
4.581684107
 20
4.8762123912
 30
0.0
 10
4.5802645141
 20
4.8764527853
 30
0.0
 10
4.5779238018
 20
4.8767620107
 30
0.0
 10
4.5751743987
 20
4.8770453261
 30
0.0
 10
4.5720231274
 20
4.8772952332
 30
0.0
 10
4.5684946543
 20
4.8775031188
 30
0.0
 10
4.5646401761
 20
4.8776601546
 30
0.0
 10
4.5605422676
 20
4.8777582718
 30
0.0
 10
4.5577382334
 20
4.877780423
 30
0.0
 10
4.5563133562
 20
4.877780423
 30
0.0
  0
SPLINE
  5
30E
100
AcDbEntity
  8
0
100
AcDbSpline
 62
7
  6
CONTINUOUS
 70
0
 71
3
 72
15
 73
11
 74
0
 42
0.0000001
 43
0.0000001
 44
0.0000000001
 40
0.0
 40
0.0
 40
0.0
 40
0.0
 40
0.1637963274
 40
0.3223307472
 40
0.4711886964
 40
0.6072318284
 40
0.7286238748
 40
0.8345521088
 40
0.9249245225
 40
1.0
 40
1.0
 40
1.0
 40
1.0
 10
4.5563133562
 20
4.1885723167
 30
0.0
 10
4.5577382331
 20
4.1885723167
 30
0.0
 10
4.5605422666
 20
4.1885944679
 30
0.0
 10
4.564640174
 20
4.1886925851
 30
0.0
 10
4.5684946519
 20
4.1888496208
 30
0.0
 10
4.5720231255
 20
4.1890575064
 30
0.0
 10
4.5751743979
 20
4.1893074135
 30
0.0
 10
4.5779238014
 20
4.189590729
 30
0.0
 10
4.5802645139
 20
4.1898999544
 30
0.0
 10
4.581684107
 20
4.1901403485
 30
0.0
 10
4.5823247575
 20
4.1902671951
 30
0.0
  0
SPLINE
  5
30F
100
AcDbEntity
  8
0
100
AcDbSpline
 62
7
  6
CONTINUOUS
 70
0
 71
3
 72
16
 73
12
 74
0
 42
0.0000001
 43
0.0000001
 44
0.0000000001
 40
0.0
 40
0.0
 40
0.0
 40
0.0
 40
0.1619942034
 40
0.3189263818
 40
0.4665629021
 40
0.6019195103
 40
0.7232921889
 40
0.8299938079
 40
0.922075351
 40
0.9627717336
 40
1.0
 40
1.0
 40
1.0
 40
1.0
 10
4.5563133562
 20
4.154721861
 30
0.0
 10
4.5577383909
 20
4.154721861
 30
0.0
 10
4.5605441695
 20
4.1547687705
 30
0.0
 10
4.5646439593
 20
4.1549765336
 30
0.0
 10
4.5685004708
 20
4.1553090901
 30
0.0
 10
4.572031182
 20
4.1557494417
 30
0.0
 10
4.575185198
 20
4.1562789662
 30
0.0
 10
4.5779379116
 20
4.1568798401
 30
0.0
 10
4.5799683501
 20
4.1574478706
 30
0.0
 10
4.5813836929
 20
4.1579319802
 30
0.0
 10
4.582022695
 20
4.1581808958
 30
0.0
 10
4.5823247575
 20
4.1583074198
 30
0.0
  0
SPLINE
  5
310
100
AcDbEntity
  8
0
100
AcDbSpline
 62
7
  6
CONTINUOUS
 70
0
 71
3
 72
15
 73
11
 74
0
 42
0.0000001
 43
0.0000001
 44
0.0000000001
 40
0.0
 40
0.0
 40
0.0
 40
0.0
 40
0.1591676781
 40
0.3135953831
 40
0.4593394798
 40
0.5936591137
 40
0.7150523429
 40
0.8230121007
 40
0.9177754105
 40
1.0
 40
1.0
 40
1.0
 40
1.0
 10
4.5563133562
 20
4.1245161291
 30
0.0
 10
4.5577386557
 20
4.1245161291
 30
0.0
 10
4.5605473583
 20
4.1245874455
 30
0.0
 10
4.5646502628
 20
4.124903249
 30
0.0
 10
4.5685100195
 20
4.1254088203
 30
0.0
 10
4.5720441967
 20
4.1260784567
 30
0.0
 10
4.5752019573
 20
4.1268841071
 30
0.0
 10
4.5779593841
 20
4.127799032
 30
0.0
 10
4.5803098273
 20
4.1287998305
 30
0.0
 10
4.5817033862
 20
4.1295628299
 30
0.0
 10
4.5823247575
 20
4.1299578374
 30
0.0
  0
SPLINE
  5
311
100
AcDbEntity
  8
0
100
AcDbSpline
 62
7
  6
CONTINUOUS
 70
0
 71
3
 72
15
 73
11
 74
0
 42
0.0000001
 43
0.0000001
 44
0.0000000001
 40
0.0
 40
0.0
 40
0.0
 40
0.0
 40
0.1556300068
 40
0.3069366788
 40
0.4503484823
 40
0.5834299118
 40
0.7049199694
 40
0.8145059225
 40
0.9125959732
 40
1.0
 40
1.0
 40
1.0
 40
1.0
 10
4.5563133562
 20
4.0982460186
 30
0.0
 10
4.5577390173
 20
4.0982460186
 30
0.0
 10
4.5605517061
 20
4.0983411983
 30
0.0
 10
4.5646587626
 20
4.0987625551
 30
0.0
 10
4.568522668
 20
4.0994372027
 30
0.0
 10
4.5720609119
 20
4.1003310162
 30
0.0
 10
4.575222707
 20
4.1014068063
 30
0.0
 10
4.5779841281
 20
4.1026292852
 30
0.0
 10
4.5803381615
 20
4.1039674901
 30
0.0
 10
4.5817136151
 20
4.1049741886
 30
0.0
 10
4.5823247575
 20
4.1054914699
 30
0.0
  0
SPLINE
  5
312
100
AcDbEntity
  8
0
100
AcDbSpline
 62
7
  6
CONTINUOUS
 70
0
 71
3
 72
15
 73
11
 74
0
 42
0.0000001
 43
0.0000001
 44
0.0000000001
 40
0.0
 40
0.0
 40
0.0
 40
0.0
 40
0.151703013
 40
0.299563539
 40
0.4404347628
 40
0.5722194401
 40
0.693906051
 40
0.8053567499
 40
0.9070985322
 40
1.0
 40
1.0
 40
1.0
 40
1.0
 10
4.5563133562
 20
4.0761645253
 30
0.0
 10
4.5577394616
 20
4.0761645253
 30
0.0
 10
4.5605570387
 20
4.0762828252
 30
0.0
 10
4.5646690456
 20
4.0768063321
 30
0.0
 10
4.5685376125
 20
4.0776445975
 30
0.0
 10
4.5720799711
 20
4.0787553275
 30
0.0
 10
4.575245223
 20
4.0800924399
 30
0.0
 10
4.5780092182
 20
4.0816121988
 30
0.0
 10
4.5803644587
 20
4.0832760245
 30
0.0
 10
4.5817221516
 20
4.0845118205
 30
0.0
 10
4.5823247575
 20
4.0851439417
 30
0.0
  0
SPLINE
  5
313
100
AcDbEntity
  8
0
100
AcDbSpline
 62
7
  6
CONTINUOUS
 70
0
 71
3
 72
15
 73
11
 74
0
 42
0.0000001
 43
0.0000001
 44
0.0000000001
 40
0.0
 40
0.0
 40
0.0
 40
0.0
 40
0.1476564026
 40
0.291986589
 40
0.4302935392
 40
0.5608254092
 40
0.6828049981
 40
0.7962297725
 40
0.901681116
 40
1.0
 40
1.0
 40
1.0
 40
1.0
 10
4.5563133562
 20
4.0584843058
 30
0.0
 10
4.5577399717
 20
4.0584843058
 30
0.0
 10
4.5605631442
 20
4.0586247765
 30
0.0
 10
4.5646806302
 20
4.0592460821
 30
0.0
 10
4.5685539929
 20
4.0602409059
 30
0.0
 10
4.5721000434
 20
4.0615590048
 30
0.0
 10
4.5752676994
 20
4.0631455989
 30
0.0
 10
4.5780326005
 20
4.064948597
 30
0.0
 10
4.5803869823
 20
4.0669218309
 30
0.0
 10
4.581728856
 20
4.068371435
 30
0.0
 10
4.5823247575
 20
4.0691112108
 30
0.0
  0
SPLINE
  5
314
100
AcDbEntity
  8
0
100
AcDbSpline
 62
7
  6
CONTINUOUS
 70
0
 71
3
 72
16
 73
12
 74
0
 42
0.0000001
 43
0.0000001
 44
0.0000000001
 40
0.0
 40
0.0
 40
0.0
 40
0.0
 40
0.1436879284
 40
0.2845762069
 40
0.3532620084
 40
0.4204764981
 40
0.5498551029
 40
0.6721963103
 40
0.7875867537
 40
0.8966040296
 40
1.0
 40
1.0
 40
1.0
 40
1.0
 10
4.5563133562
 20
4.0453756303
 30
0.0
 10
4.5577405277
 20
4.0453756303
 30
0.0
 10
4.5605695898
 20
4.0455370903
 30
0.0
 10
4.5640348759
 20
4.04613692
 30
0.0
 10
4.5666939276
 20
4.0468406375
 30
0.0
 10
4.5691989916
 20
4.0476613744
 30
0.0
 10
4.5721201236
 20
4.0489072424
 30
0.0
 10
4.5752888287
 20
4.0507284385
 30
0.0
 10
4.5780532372
 20
4.0527972294
 30
0.0
 10
4.5804054259
 20
4.0550600438
 30
0.0
 10
4.5817339887
 20
4.0567076406
 30
0.0
 10
4.5823247575
 20
4.0575476811
 30
0.0
  0
SPLINE
  5
315
100
AcDbEntity
  8
0
100
AcDbSpline
 62
7
  6
CONTINUOUS
 70
0
 71
3
 72
15
 73
11
 74
0
 42
0.0000001
 43
0.0000001
 44
0.0000000001
 40
0.0
 40
0.0
 40
0.0
 40
0.0
 40
0.1399685225
 40
0.277652619
 40
0.4112409068
 40
0.5396194475
 40
0.6623829289
 40
0.7796642059
 40
0.891993881
 40
1.0
 40
1.0
 40
1.0
 40
1.0
 10
4.5563133562
 20
4.0369647427
 30
0.0
 10
4.5577411083
 20
4.0369647427
 30
0.0
 10
4.5605766927
 20
4.0371458462
 30
0.0
 10
4.564705634
 20
4.0379458016
 30
0.0
 10
4.5685877773
 20
4.0392260054
 30
0.0
 10
4.5721389234
 20
4.0409210059
 30
0.0
 10
4.5753079484
 20
4.0429594774
 30
0.0
 10
4.578070776
 20
4.0452736034
 30
0.0
 10
4.5804201662
 20
4.0478032778
 30
0.0
 10
4.5817378846
 20
4.0496323183
 30
0.0
 10
4.5823247575
 20
4.0505647156
 30
0.0
  0
SPLINE
  5
316
100
AcDbEntity
  8
0
100
AcDbSpline
 62
7
  6
CONTINUOUS
 70
0
 71
3
 72
17
 73
13
 74
0
 42
0.0000001
 43
0.0000001
 44
0.0000000001
 40
0.0
 40
0.0
 40
0.0
 40
0.0
 40
0.1365514088
 40
0.2042990286
 40
0.2713870979
 40
0.4029364761
 40
0.5304372265
 40
0.5925964002
 40
0.653680009
 40
0.7726785226
 40
0.8879549025
 40
1.0
 40
1.0
 40
1.0
 40
1.0
 10
4.5563133562
 20
4.0333326443
 30
0.0
 10
4.5577416912
 20
4.0333326443
 30
0.0
 10
4.5598826492
 20
4.0334827075
 30
0.0
 10
4.5626795895
 20
4.0339774216
 30
0.0
 10
4.5653851906
 20
4.0346520161
 30
0.0
 10
4.5686037733
 20
4.0358163894
 30
0.0
 10
4.5715896063
 20
4.0373800782
 30
0.0
 10
4.57378147
 20
4.0388235018
 30
0.0
 10
4.5758036985
 20
4.0403527721
 30
0.0
 10
4.5780854768
 20
4.0424491454
 30
0.0
 10
4.5804317335
 20
4.0452203796
 30
0.0
 10
4.5817408368
 20
4.0472133875
 30
0.0
 10
4.5823247575
 20
4.0482295642
 30
0.0
  0
SPLINE
  5
317
100
AcDbEntity
  8
0
100
AcDbSpline
 62
7
  6
CONTINUOUS
 70
0
 71
3
 72
15
 73
11
 74
0
 42
0.0000001
 43
0.0000001
 44
0.0000000001
 40
0.0
 40
0.0
 40
0.0
 40
0.0
 40
0.1080061113
 40
0.2203357807
 40
0.3376170565
 40
0.4603805105
 40
0.5887590032
 40
0.7223473265
 40
0.8600314509
 40
1.0
 40
1.0
 40
1.0
 40
1.0
 10
3.6603019548
 20
4.0505647156
 30
0.0
 10
3.6608888277
 20
4.0496323184
 30
0.0
 10
3.662206546
 20
4.0478032779
 30
0.0
 10
3.664555936
 20
4.0452736037
 30
0.0
 10
3.6673187634
 20
4.0429594779
 30
0.0
 10
3.6704877876
 20
4.0409210067
 30
0.0
 10
3.6740389332
 20
4.0392260062
 30
0.0
 10
3.6779210767
 20
4.0379458019
 30
0.0
 10
3.6820500188
 20
4.0371458463
 30
0.0
 10
3.6848856038
 20
4.0369647427
 30
0.0
 10
3.6863133562
 20
4.0369647427
 30
0.0
  0
SPLINE
  5
318
100
AcDbEntity
  8
0
100
AcDbSpline
 62
7
  6
CONTINUOUS
 70
0
 71
3
 72
16
 73
12
 74
0
 42
0.0000001
 43
0.0000001
 44
0.0000000001
 40
0.0
 40
0.0
 40
0.0
 40
0.0
 40
0.1033959629
 40
0.2124132331
 40
0.3278036753
 40
0.450144855
 40
0.5795234109
 40
0.6467379187
 40
0.7154237374
 40
0.8563120443
 40
1.0
 40
1.0
 40
1.0
 40
1.0
 10
3.6603019548
 20
4.0575476811
 30
0.0
 10
3.6608927236
 20
4.0567076407
 30
0.0
 10
3.6622212863
 20
4.055060044
 30
0.0
 10
3.6645734748
 20
4.0527972296
 30
0.0
 10
3.6673378831
 20
4.0507284389
 30
0.0
 10
3.6705065875
 20
4.0489072431
 30
0.0
 10
3.6734277188
 20
4.0476613751
 30
0.0
 10
3.6759327826
 20
4.0468406382
 30
0.0
 10
3.6785918349
 20
4.0461369202
 30
0.0
 10
3.6820571217
 20
4.0455370904
 30
0.0
 10
3.6848861844
 20
4.0453756303
 30
0.0
 10
3.6863133562
 20
4.0453756303
 30
0.0
  0
SPLINE
  5
319
100
AcDbEntity
  8
0
100
AcDbSpline
 62
7
  6
CONTINUOUS
 70
0
 71
3
 72
15
 73
11
 74
0
 42
0.0000001
 43
0.0000001
 44
0.0000000001
 40
0.0
 40
0.0
 40
0.0
 40
0.0
 40
0.0983188768
 40
0.2037702146
 40
0.3171949877
 40
0.4391745485
 40
0.5697063685
 40
0.7080133541
 40
0.8523435694
 40
1.0
 40
1.0
 40
1.0
 40
1.0
 10
3.6603019548
 20
4.0691112108
 30
0.0
 10
3.6608978563
 20
4.068371435
 30
0.0
 10
3.6622397299
 20
4.0669218311
 30
0.0
 10
3.6645941116
 20
4.0649485972
 30
0.0
 10
3.6673590123
 20
4.0631455993
 30
0.0
 10
3.6705266676
 20
4.0615590053
 30
0.0
 10
3.6740727177
 20
4.0602409065
 30
0.0
 10
3.6779460804
 20
4.0592460824
 30
0.0
 10
3.6820635673
 20
4.0586247765
 30
0.0
 10
3.6848867404
 20
4.0584843058
 30
0.0
 10
3.6863133562
 20
4.0584843058
 30
0.0
  0
SPLINE
  5
31A
100
AcDbEntity
  8
0
100
AcDbSpline
 62
7
  6
CONTINUOUS
 70
0
 71
3
 72
15
 73
11
 74
0
 42
0.0000001
 43
0.0000001
 44
0.0000000001
 40
0.0
 40
0.0
 40
0.0
 40
0.0
 40
0.0929014608
 40
0.1946432375
 40
0.306093935
 40
0.4277805174
 40
0.5595651435
 40
0.7004364028
 40
0.8482969582
 40
1.0
 40
1.0
 40
1.0
 40
1.0
 10
3.6603019548
 20
4.0851439417
 30
0.0
 10
3.6609045606
 20
4.0845118206
 30
0.0
 10
3.6622622535
 20
4.0832760246
 30
0.0
 10
3.6646174938
 20
4.081612199
 30
0.0
 10
3.6673814888
 20
4.0800924402
 30
0.0
 10
3.6705467399
 20
4.078755328
 30
0.0
 10
3.6740890981
 20
4.077644598
 30
0.0
 10
3.677957665
 20
4.0768063323
 30
0.0
 10
3.6820696728
 20
4.0762828253
 30
0.0
 10
3.6848872504
 20
4.0761645253
 30
0.0
 10
3.6863133562
 20
4.0761645253
 30
0.0
  0
SPLINE
  5
31B
100
AcDbEntity
  8
0
100
AcDbSpline
 62
7
  6
CONTINUOUS
 70
0
 71
3
 72
15
 73
11
 74
0
 42
0.0000001
 43
0.0000001
 44
0.0000000001
 40
0.0
 40
0.0
 40
0.0
 40
0.0
 40
0.0874040202
 40
0.1854940652
 40
0.2950800167
 40
0.4165700455
 40
0.5496514228
 40
0.6930632618
 40
0.8443699637
 40
1.0
 40
1.0
 40
1.0
 40
1.0
 10
3.6603019548
 20
4.1054914699
 30
0.0
 10
3.6609130972
 20
4.1049741886
 30
0.0
 10
3.6622885507
 20
4.1039674902
 30
0.0
 10
3.6646425839
 20
4.1026292853
 30
0.0
 10
3.6674040047
 20
4.1014068065
 30
0.0
 10
3.6705657991
 20
4.1003310167
 30
0.0
 10
3.6741040426
 20
4.0994372031
 30
0.0
 10
3.6779679481
 20
4.0987625553
 30
0.0
 10
3.6820750054
 20
4.0983411983
 30
0.0
 10
3.6848876948
 20
4.0982460186
 30
0.0
 10
3.6863133562
 20
4.0982460186
 30
0.0
  0
SPLINE
  5
31C
100
AcDbEntity
  8
0
100
AcDbSpline
 62
7
  6
CONTINUOUS
 70
0
 71
3
 72
15
 73
11
 74
0
 42
0.0000001
 43
0.0000001
 44
0.0000000001
 40
0.0
 40
0.0
 40
0.0
 40
0.0
 40
0.082224583
 40
0.1769878873
 40
0.2849476434
 40
0.4063408433
 40
0.540660424
 40
0.6864045563
 40
0.8408322918
 40
1.0
 40
1.0
 40
1.0
 40
1.0
 10
3.6603019548
 20
4.1299578374
 30
0.0
 10
3.660923326
 20
4.1295628299
 30
0.0
 10
3.6623168849
 20
4.1287998306
 30
0.0
 10
3.664667328
 20
4.1277990321
 30
0.0
 10
3.6674247544
 20
4.1268841073
 30
0.0
 10
3.6705825143
 20
4.126078457
 30
0.0
 10
3.674116691
 20
4.1254088206
 30
0.0
 10
3.6779764479
 20
4.1249032492
 30
0.0
 10
3.6820793533
 20
4.1245874456
 30
0.0
 10
3.6848880563
 20
4.1245161291
 30
0.0
 10
3.6863133562
 20
4.1245161291
 30
0.0
  0
SPLINE
  5
31D
100
AcDbEntity
  8
0
100
AcDbSpline
 62
7
  6
CONTINUOUS
 70
0
 71
3
 72
16
 73
12
 74
0
 42
0.0000001
 43
0.0000001
 44
0.0000000001
 40
0.0
 40
0.0
 40
0.0
 40
0.0
 40
0.0372282644
 40
0.0779246428
 40
0.1700061803
 40
0.2767077976
 40
0.3980804465
 40
0.5334370007
 40
0.6810735567
 40
0.8380057659
 40
1.0
 40
1.0
 40
1.0
 40
1.0
 10
3.6603019548
 20
4.1583074198
 30
0.0
 10
3.6606040173
 20
4.1581808959
 30
0.0
 10
3.6612430194
 20
4.1579319802
 30
0.0
 10
3.662658362
 20
4.1574478707
 30
0.0
 10
3.6646888004
 20
4.1568798401
 30
0.0
 10
3.6674415138
 20
4.1562789663
 30
0.0
 10
3.670595529
 20
4.1557494419
 30
0.0
 10
3.6741262398
 20
4.1553090903
 30
0.0
 10
3.6779827513
 20
4.1549765337
 30
0.0
 10
3.682082542
 20
4.1547687705
 30
0.0
 10
3.6848883211
 20
4.154721861
 30
0.0
 10
3.6863133562
 20
4.154721861
 30
0.0
  0
SPLINE
  5
31E
100
AcDbEntity
  8
0
100
AcDbSpline
 62
7
  6
CONTINUOUS
 70
0
 71
3
 72
15
 73
11
 74
0
 42
0.0000001
 43
0.0000001
 44
0.0000000001
 40
0.0
 40
0.0
 40
0.0
 40
0.0
 40
0.0750754714
 40
0.1654478795
 40
0.2713761118
 40
0.3927681283
 40
0.5288112058
 40
0.6776691907
 40
0.8362036415
 40
1.0
 40
1.0
 40
1.0
 40
1.0
 10
3.6603019548
 20
4.1902671951
 30
0.0
 10
3.6609426053
 20
4.1901403485
 30
0.0
 10
3.6623621983
 20
4.1898999544
 30
0.0
 10
3.6647029106
 20
4.189590729
 30
0.0
 10
3.6674523139
 20
4.1893074136
 30
0.0
 10
3.6706035855
 20
4.1890575065
 30
0.0
 10
3.6741320587
 20
4.1888496209
 30
0.0
 10
3.6779865366
 20
4.1886925851
 30
0.0
 10
3.6820844449
 20
4.1885944679
 30
0.0
 10
3.6848884789
 20
4.1885723167
 30
0.0
 10
3.6863133562
 20
4.1885723167
 30
0.0
  0
SPLINE
  5
31F
100
AcDbEntity
  8
0
100
AcDbSpline
 62
7
  6
CONTINUOUS
 70
0
 71
3
 72
17
 73
13
 74
0
 42
0.0000001
 43
0.0000001
 44
0.0000000001
 40
0.0
 40
0.0
 40
0.0
 40
0.0
 40
0.1120450895
 40
0.2273214636
 40
0.3463199762
 40
0.407403576
 40
0.4695627315
 40
0.5970634348
 40
0.7286128486
 40
0.7957009319
 40
0.8634485651
 40
1.0
 40
1.0
 40
1.0
 40
1.0
 10
3.6603019548
 20
4.0482295642
 30
0.0
 10
3.6608858755
 20
4.0472133875
 30
0.0
 10
3.6621949787
 20
4.0452203798
 30
0.0
 10
3.6645412352
 20
4.0424491456
 30
0.0
 10
3.6668230134
 20
4.0403527725
 30
0.0
 10
3.6688452416
 20
4.0388235023
 30
0.0
 10
3.6710371046
 20
4.037380079
 30
0.0
 10
3.6740229373
 20
4.0358163903
 30
0.0
 10
3.6772415199
 20
4.0346520167
 30
0.0
 10
3.6799471216
 20
4.0339774218
 30
0.0
 10
3.6827440625
 20
4.0334827076
 30
0.0
 10
3.6848850209
 20
4.0333326443
 30
0.0
 10
3.6863133562
 20
4.0333326443
 30
0.0
  0
SPLINE
  5
320
100
AcDbEntity
  8
0
100
AcDbSpline
 62
7
  6
CONTINUOUS
 70
0
 71
3
 72
17
 73
13
 74
0
 42
0.0000001
 43
0.0000001
 44
0.0000000001
 40
0.0
 40
0.0
 40
0.0
 40
0.0
 40
0.1365513867
 40
0.2042990031
 40
0.2713870781
 40
0.4029364686
 40
0.5304372243
 40
0.5925963982
 40
0.6536800064
 40
0.7726785205
 40
0.8879549026
 40
1.0
 40
1.0
 40
1.0
 40
1.0
 10
3.6863133562
 20
5.0330200954
 30
0.0
 10
3.6848850214
 20
5.0330200954
 30
0.0
 10
3.6827440636
 20
5.0328700323
 30
0.0
 10
3.6799471235
 20
5.0323753183
 30
0.0
 10
3.6772415222
 20
5.0317007238
 30
0.0
 10
3.6740229393
 20
5.0305363504
 30
0.0
 10
3.6710371061
 20
5.0289726616
 30
0.0
 10
3.6688452423
 20
5.027529238
 30
0.0
 10
3.6668230139
 20
5.0259999677
 30
0.0
 10
3.6645412355
 20
5.0239035944
 30
0.0
 10
3.6621949789
 20
5.0211323602
 30
0.0
 10
3.6608858755
 20
5.0191393523
 30
0.0
 10
3.6603019548
 20
5.0181231755
 30
0.0
  0
SPLINE
  5
321
100
AcDbEntity
  8
0
100
AcDbSpline
 62
7
  6
CONTINUOUS
 70
0
 71
3
 72
15
 73
11
 74
0
 42
0.0000001
 43
0.0000001
 44
0.0000000001
 40
0.0
 40
0.0
 40
0.0
 40
0.0
 40
0.1399684998
 40
0.2776525989
 40
0.4112408993
 40
0.5396194453
 40
0.6623829263
 40
0.7796642038
 40
0.8919938811
 40
1.0
 40
1.0
 40
1.0
 40
1.0
 10
3.6863133562
 20
5.029387997
 30
0.0
 10
3.6848856043
 20
5.029387997
 30
0.0
 10
3.6820500201
 20
5.0292068936
 30
0.0
 10
3.6779210789
 20
5.0284069383
 30
0.0
 10
3.6740389353
 20
5.0271267344
 30
0.0
 10
3.670487789
 20
5.0254317338
 30
0.0
 10
3.667318764
 20
5.0233932623
 30
0.0
 10
3.6645559363
 20
5.0210791363
 30
0.0
 10
3.6622065462
 20
5.018549462
 30
0.0
 10
3.6608888277
 20
5.0167204214
 30
0.0
 10
3.6603019548
 20
5.0157880241
 30
0.0
  0
SPLINE
  5
322
100
AcDbEntity
  8
0
100
AcDbSpline
 62
7
  6
CONTINUOUS
 70
0
 71
3
 72
16
 73
12
 74
0
 42
0.0000001
 43
0.0000001
 44
0.0000000001
 40
0.0
 40
0.0
 40
0.0
 40
0.0
 40
0.1436879051
 40
0.2845761864
 40
0.3532619951
 40
0.4204764905
 40
0.5498551007
 40
0.6721963077
 40
0.7875867517
 40
0.8966040297
 40
1.0
 40
1.0
 40
1.0
 40
1.0
 10
3.6863133562
 20
5.0209771094
 30
0.0
 10
3.6848861849
 20
5.0209771094
 30
0.0
 10
3.682057123
 20
5.0208156495
 30
0.0
 10
3.678591837
 20
5.0202158199
 30
0.0
 10
3.6759327851
 20
5.0195121023
 30
0.0
 10
3.673427721
 20
5.0186913654
 30
0.0
 10
3.6705065889
 20
5.0174454974
 30
0.0
 10
3.6673378837
 20
5.0156243013
 30
0.0
 10
3.6645734751
 20
5.0135555104
 30
0.0
 10
3.6622212864
 20
5.0112926959
 30
0.0
 10
3.6608927237
 20
5.0096450991
 30
0.0
 10
3.6603019548
 20
5.0088050586
 30
0.0
  0
SPLINE
  5
323
100
AcDbEntity
  8
0
100
AcDbSpline
 62
7
  6
CONTINUOUS
 70
0
 71
3
 72
15
 73
11
 74
0
 42
0.0000001
 43
0.0000001
 44
0.0000000001
 40
0.0
 40
0.0
 40
0.0
 40
0.0
 40
0.1476563787
 40
0.291986568
 40
0.4302935314
 40
0.560825407
 40
0.6828049955
 40
0.7962297705
 40
0.9016811161
 40
1.0
 40
1.0
 40
1.0
 40
1.0
 10
3.6863133562
 20
5.007868434
 30
0.0
 10
3.6848867409
 20
5.007868434
 30
0.0
 10
3.6820635685
 20
5.0077279633
 30
0.0
 10
3.6779460826
 20
5.0071066577
 30
0.0
 10
3.6740727197
 20
5.0061118339
 30
0.0
 10
3.6705266691
 20
5.004793735
 30
0.0
 10
3.6673590129
 20
5.0032071408
 30
0.0
 10
3.6645941119
 20
5.0014041427
 30
0.0
 10
3.6622397301
 20
4.9994309088
 30
0.0
 10
3.6608978563
 20
4.9979813048
 30
0.0
 10
3.6603019548
 20
4.9972415289
 30
0.0
  0
SPLINE
  5
324
100
AcDbEntity
  8
0
100
AcDbSpline
 62
7
  6
CONTINUOUS
 70
0
 71
3
 72
15
 73
11
 74
0
 42
0.0000001
 43
0.0000001
 44
0.0000000001
 40
0.0
 40
0.0
 40
0.0
 40
0.0
 40
0.1517029885
 40
0.2995635175
 40
0.440434755
 40
0.5722194379
 40
0.6939060486
 40
0.805356748
 40
0.9070985323
 40
1.0
 40
1.0
 40
1.0
 40
1.0
 10
3.6863133562
 20
4.9901882145
 30
0.0
 10
3.6848872509
 20
4.9901882145
 30
0.0
 10
3.6820696741
 20
4.9900699145
 30
0.0
 10
3.6779576672
 20
4.9895464077
 30
0.0
 10
3.6740891002
 20
4.9887081423
 30
0.0
 10
3.6705467413
 20
4.9875974123
 30
0.0
 10
3.6673814894
 20
4.9862602999
 30
0.0
 10
3.6646174941
 20
4.984740541
 30
0.0
 10
3.6622622536
 20
4.9830767153
 30
0.0
 10
3.6609045607
 20
4.9818409192
 30
0.0
 10
3.6603019548
 20
4.981208798
 30
0.0
  0
SPLINE
  5
325
100
AcDbEntity
  8
0
100
AcDbSpline
 62
7
  6
CONTINUOUS
 70
0
 71
3
 72
15
 73
11
 74
0
 42
0.0000001
 43
0.0000001
 44
0.0000000001
 40
0.0
 40
0.0
 40
0.0
 40
0.0
 40
0.1556299816
 40
0.3069366568
 40
0.4503484743
 40
0.5834299096
 40
0.704919967
 40
0.8145059206
 40
0.9125959733
 40
1.0
 40
1.0
 40
1.0
 40
1.0
 10
3.6863133562
 20
4.9681067211
 30
0.0
 10
3.6848876953
 20
4.9681067211
 30
0.0
 10
3.6820750067
 20
4.9680115415
 30
0.0
 10
3.6779679503
 20
4.9675901847
 30
0.0
 10
3.6741040446
 20
4.9669155371
 30
0.0
 10
3.6705658005
 20
4.9660217235
 30
0.0
 10
3.6674040054
 20
4.9649459335
 30
0.0
 10
3.6646425843
 20
4.9637234545
 30
0.0
 10
3.6622885508
 20
4.9623852496
 30
0.0
 10
3.6609130972
 20
4.9613785511
 30
0.0
 10
3.6603019548
 20
4.9608612699
 30
0.0
  0
SPLINE
  5
326
100
AcDbEntity
  8
0
100
AcDbSpline
 62
7
  6
CONTINUOUS
 70
0
 71
3
 72
15
 73
11
 74
0
 42
0.0000001
 43
0.0000001
 44
0.0000000001
 40
0.0
 40
0.0
 40
0.0
 40
0.0
 40
0.1591676524
 40
0.3135953607
 40
0.4593394718
 40
0.5936591115
 40
0.7150523405
 40
0.8230120988
 40
0.9177754107
 40
1.0
 40
1.0
 40
1.0
 40
1.0
 10
3.6863133562
 20
4.9418366107
 30
0.0
 10
3.6848880568
 20
4.9418366107
 30
0.0
 10
3.6820793545
 20
4.9417652942
 30
0.0
 10
3.67797645
 20
4.9414494907
 30
0.0
 10
3.6741166931
 20
4.9409439195
 30
0.0
 10
3.6705825157
 20
4.940274283
 30
0.0
 10
3.6674247551
 20
4.9394686327
 30
0.0
 10
3.6646673283
 20
4.9385537077
 30
0.0
 10
3.662316885
 20
4.9375529092
 30
0.0
 10
3.6609233261
 20
4.9367899098
 30
0.0
 10
3.6603019548
 20
4.9363949024
 30
0.0
  0
SPLINE
  5
327
100
AcDbEntity
  8
0
100
AcDbSpline
 62
7
  6
CONTINUOUS
 70
0
 71
3
 72
16
 73
12
 74
0
 42
0.0000001
 43
0.0000001
 44
0.0000000001
 40
0.0
 40
0.0
 40
0.0
 40
0.0
 40
0.1619941772
 40
0.3189263591
 40
0.4665628939
 40
0.6019195081
 40
0.7232921865
 40
0.829993806
 40
0.9220753512
 40
0.9627717338
 40
1.0
 40
1.0
 40
1.0
 40
1.0
 10
3.6863133562
 20
4.9116308787
 30
0.0
 10
3.6848883216
 20
4.9116308787
 30
0.0
 10
3.6820825432
 20
4.9115839693
 30
0.0
 10
3.6779827535
 20
4.9113762061
 30
0.0
 10
3.6741262418
 20
4.9110436497
 30
0.0
 10
3.6705955305
 20
4.910603298
 30
0.0
 10
3.6674415144
 20
4.9100737736
 30
0.0
 10
3.6646888007
 20
4.9094728997
 30
0.0
 10
3.6626583622
 20
4.9089048691
 30
0.0
 10
3.6612430195
 20
4.9084207595
 30
0.0
 10
3.6606040173
 20
4.9081718439
 30
0.0
 10
3.6603019548
 20
4.90804532
 30
0.0
  0
SPLINE
  5
328
100
AcDbEntity
  8
0
100
AcDbSpline
 62
7
  6
CONTINUOUS
 70
0
 71
3
 72
15
 73
11
 74
0
 42
0.0000001
 43
0.0000001
 44
0.0000000001
 40
0.0
 40
0.0
 40
0.0
 40
0.0
 40
0.163796301
 40
0.3223307243
 40
0.4711886882
 40
0.6072318262
 40
0.7286238724
 40
0.834552107
 40
0.9249245227
 40
1.0
 40
1.0
 40
1.0
 40
1.0
 10
3.6863133562
 20
4.877780423
 30
0.0
 10
3.6848884794
 20
4.877780423
 30
0.0
 10
3.6820844461
 20
4.8777582718
 30
0.0
 10
3.6779865388
 20
4.8776601547
 30
0.0
 10
3.6741320607
 20
4.8775031189
 30
0.0
 10
3.6706035869
 20
4.8772952333
 30
0.0
 10
3.6674523145
 20
4.8770453262
 30
0.0
 10
3.6647029109
 20
4.8767620107
 30
0.0
 10
3.6623621985
 20
4.8764527854
 30
0.0
 10
3.6609426054
 20
4.8762123912
 30
0.0
 10
3.6603019548
 20
4.8760855447
 30
0.0
  0
SPLINE
  5
329
100
AcDbEntity
  8
0
100
AcDbSpline
 62
7
  6
CONTINUOUS
 70
0
 71
3
 72
19
 73
15
 74
0
 42
0.0000001
 43
0.0000001
 44
0.0000000001
 40
0.0
 40
0.0
 40
0.0
 40
0.0
 40
0.0289981711
 40
0.0631761581
 40
0.1026639168
 40
0.1474511345
 40
0.1974410267
 40
0.2524411662
 40
0.3122076228
 40
0.3764311713
 40
0.5167995961
 40
0.6702308259
 40
0.8327717972
 40
1.0
 40
1.0
 40
1.0
 40
1.0
 10
3.7118916093
 20
5.0209771094
 30
0.0
 10
3.7120343188
 20
5.0208464702
 30
0.0
 10
3.7123708007
 20
5.0205897556
 30
0.0
 10
3.7129606896
 20
5.0202398082
 30
0.0
 10
3.7136735796
 20
5.0198967574
 30
0.0
 10
3.7145055727
 20
5.0195633168
 30
0.0
 10
3.7154523473
 20
5.0192422956
 30
0.0
 10
3.7165085291
 20
5.0189364869
 30
0.0
 10
3.7176678807
 20
5.0186489258
 30
0.0
 10
3.7193935006
 20
5.0182826235
 30
0.0
 10
3.7217521162
 20
5.0178958371
 30
0.0
 10
3.7247790066
 20
5.0175568506
 30
0.0
 10
3.7279970991
 20
5.0173465902
 30
0.0
 10
3.7301976138
 20
5.0172992881
 30
0.0
 10
3.7313133562
 20
5.0172992881
 30
0.0
  0
SPLINE
  5
32A
100
AcDbEntity
  8
0
100
AcDbSpline
 62
7
  6
CONTINUOUS
 70
0
 71
3
 72
19
 73
15
 74
0
 42
0.0000001
 43
0.0000001
 44
0.0000000001
 40
0.0
 40
0.0
 40
0.0
 40
0.0
 40
0.0289981711
 40
0.0631761581
 40
0.1026639168
 40
0.1474511345
 40
0.1974410267
 40
0.2524411662
 40
0.3122076228
 40
0.3764311713
 40
0.5167995961
 40
0.6702308259
 40
0.8327717972
 40
1.0
 40
1.0
 40
1.0
 40
1.0
 10
4.360735103
 20
4.0453756303
 30
0.0
 10
4.3605923935
 20
4.0455062695
 30
0.0
 10
4.3602559117
 20
4.0457629841
 30
0.0
 10
4.3596660227
 20
4.0461129315
 30
0.0
 10
4.3589531327
 20
4.0464559823
 30
0.0
 10
4.3581211397
 20
4.0467894229
 30
0.0
 10
4.357174365
 20
4.0471104441
 30
0.0
 10
4.3561181833
 20
4.0474162528
 30
0.0
 10
4.3549588316
 20
4.0477038139
 30
0.0
 10
4.3532332118
 20
4.0480701162
 30
0.0
 10
4.3508745961
 20
4.0484569026
 30
0.0
 10
4.3478477057
 20
4.0487958891
 30
0.0
 10
4.3446296132
 20
4.0490061496
 30
0.0
 10
4.3424290985
 20
4.0490534516
 30
0.0
 10
4.3413133562
 20
4.0490534516
 30
0.0
  0
SPLINE
  5
32B
100
AcDbEntity
  8
0
100
AcDbSpline
 62
7
  6
CONTINUOUS
 70
0
 71
3
 72
19
 73
15
 74
0
 42
0.0000001
 43
0.0000001
 44
0.0000000001
 40
0.0
 40
0.0
 40
0.0
 40
0.0
 40
0.1672282028
 40
0.3297691741
 40
0.4832004039
 40
0.6235688287
 40
0.6877923772
 40
0.7475588338
 40
0.8025589733
 40
0.8525488655
 40
0.8973360832
 40
0.9368238419
 40
0.9710018289
 40
1.0
 40
1.0
 40
1.0
 40
1.0
 10
3.7313133562
 20
4.0490534516
 30
0.0
 10
3.7301976138
 20
4.0490534516
 30
0.0
 10
3.7279970991
 20
4.0490061496
 30
0.0
 10
3.7247790066
 20
4.0487958891
 30
0.0
 10
3.7217521162
 20
4.0484569026
 30
0.0
 10
3.7193935006
 20
4.0480701162
 30
0.0
 10
3.7176678807
 20
4.0477038139
 30
0.0
 10
3.7165085291
 20
4.0474162528
 30
0.0
 10
3.7154523473
 20
4.0471104441
 30
0.0
 10
3.7145055727
 20
4.0467894229
 30
0.0
 10
3.7136735796
 20
4.0464559823
 30
0.0
 10
3.7129606896
 20
4.0461129315
 30
0.0
 10
3.7123708007
 20
4.0457629841
 30
0.0
 10
3.7120343188
 20
4.0455062695
 30
0.0
 10
3.7118916093
 20
4.0453756303
 30
0.0
  0
SPLINE
  5
32C
100
AcDbEntity
  8
0
100
AcDbSpline
 62
7
  6
CONTINUOUS
 70
0
 71
3
 72
15
 73
11
 74
0
 42
0.0000001
 43
0.0000001
 44
0.0000000001
 40
0.0
 40
0.0
 40
0.0
 40
0.0
 40
0.1335667563
 40
0.2657817682
 40
0.3955984421
 40
0.5224042738
 40
0.6460213692
 40
0.7665817594
 40
0.8844560713
 40
1.0
 40
1.0
 40
1.0
 40
1.0
 10
4.5563133562
 20
5.0318384255
 30
0.0
 10
4.5577422539
 20
5.0318384255
 30
0.0
 10
4.5605902656
 20
5.0316230964
 30
0.0
 10
4.564729742
 20
5.0306735201
 30
0.0
 10
4.5686184409
 20
5.0291554361
 30
0.0
 10
4.572171523
 20
5.0271479919
 30
0.0
 10
4.5753387043
 20
5.0247368444
 30
0.0
 10
4.5780971384
 20
5.0220028151
 30
0.0
 10
4.5804408256
 20
5.0190170127
 30
0.0
 10
4.581743072
 20
5.0168786932
 30
0.0
 10
4.5823247575
 20
5.0157880241
 30
0.0
  0
SPLINE
  5
32D
100
AcDbEntity
  8
0
100
AcDbSpline
 62
7
  6
CONTINUOUS
 70
0
 71
3
 72
15
 73
11
 74
0
 42
0.0000001
 43
0.0000001
 44
0.0000000001
 40
0.0
 40
0.0
 40
0.0
 40
0.0
 40
0.130991108
 40
0.2610236217
 40
0.3893645912
 40
0.5155928075
 40
0.6395991605
 40
0.7614887257
 40
0.8815449578
 40
1.0
 40
1.0
 40
1.0
 40
1.0
 10
4.5563133562
 20
5.0258543674
 30
0.0
 10
4.5577427749
 20
5.0258543674
 30
0.0
 10
4.5605964106
 20
5.0256248638
 30
0.0
 10
4.5647403574
 20
5.0246136286
 30
0.0
 10
4.5686313836
 20
5.0229979509
 30
0.0
 10
4.5721845786
 20
5.0208628916
 30
0.0
 10
4.5753503323
 20
5.0183000245
 30
0.0
 10
4.5781065408
 20
5.0153953333
 30
0.0
 10
4.5804477987
 20
5.0122241982
 30
0.0
 10
4.5817447569
 20
5.0099602506
 30
0.0
 10
4.5823247575
 20
5.0088050586
 30
0.0
  0
SPLINE
  5
32E
100
AcDbEntity
  8
0
100
AcDbSpline
 62
7
  6
CONTINUOUS
 70
0
 71
3
 72
15
 73
11
 74
0
 42
0.0000001
 43
0.0000001
 44
0.0000000001
 40
0.0
 40
0.0
 40
0.0
 40
0.0
 40
0.1288643831
 40
0.2571029379
 40
0.3842438997
 40
0.51001865
 40
0.6343647126
 40
0.7573542135
 40
0.8791905845
 40
1.0
 40
1.0
 40
1.0
 40
1.0
 10
4.5563133562
 20
5.0151255509
 30
0.0
 10
4.5577432343
 20
5.0151255509
 30
0.0
 10
4.5606018135
 20
5.0148840944
 30
0.0
 10
4.5647495404
 20
5.0138210292
 30
0.0
 10
4.5686423167
 20
5.0121235533
 30
0.0
 10
4.5721953006
 20
5.0098818091
 30
0.0
 10
4.575359607
 20
5.0071923044
 30
0.0
 10
4.5781138337
 20
5.004145241
 30
0.0
 10
4.5804530739
 20
5.0008194716
 30
0.0
 10
4.5817460107
 20
4.998450658
 30
0.0
 10
4.5823247575
 20
4.9972415289
 30
0.0
  0
SPLINE
  5
32F
100
AcDbEntity
  8
0
100
AcDbSpline
 62
7
  6
CONTINUOUS
 70
0
 71
3
 72
16
 73
12
 74
0
 42
0.0000001
 43
0.0000001
 44
0.0000000001
 40
0.0
 40
0.0
 40
0.0
 40
0.0
 40
0.1271816556
 40
0.1907190587
 40
0.2541169055
 40
0.3803141061
 40
0.5057336754
 40
0.6303432007
 40
0.7541825035
 40
0.8773877236
 40
1.0
 40
1.0
 40
1.0
 40
1.0
 10
4.5563133562
 20
4.9997553003
 30
0.0
 10
4.5577436144
 20
4.9997553003
 30
0.0
 10
4.559894386
 20
4.9995665376
 30
0.0
 10
4.5626874101
 20
4.998950488
 30
0.0
 10
4.5654087955
 20
4.9981047782
 30
0.0
 10
4.5686513255
 20
4.9966372421
 30
0.0
 10
4.5722035887
 20
4.9943109421
 30
0.0
 10
4.5753666959
 20
4.9915210045
 30
0.0
 10
4.5781192684
 20
4.9883611061
 30
0.0
 10
4.580456937
 20
4.9849127443
 30
0.0
 10
4.5817469177
 20
4.982460752
 30
0.0
 10
4.5823247575
 20
4.981208798
 30
0.0
  0
SPLINE
  5
330
100
AcDbEntity
  8
0
100
AcDbSpline
 62
7
  6
CONTINUOUS
 70
0
 71
3
 72
16
 73
12
 74
0
 42
0.0000001
 43
0.0000001
 44
0.0000000001
 40
0.0
 40
0.0
 40
0.0
 40
0.0
 40
0.1259747627
 40
0.1889734627
 40
0.2519029109
 40
0.3774340552
 40
0.5026145305
 40
0.6274300565
 40
0.7518937043
 40
0.8760907394
 40
1.0
 40
1.0
 40
1.0
 40
1.0
 10
4.5563133562
 20
4.9798916395
 30
0.0
 10
4.5577439007
 20
4.9798916395
 30
0.0
 10
4.5598961191
 20
4.9796976574
 30
0.0
 10
4.5626885431
 20
4.9790655224
 30
0.0
 10
4.565412156
 20
4.9781968921
 30
0.0
 10
4.5686577305
 20
4.976688646
 30
0.0
 10
4.5722096013
 20
4.9743005104
 30
0.0
 10
4.5753716964
 20
4.9714373045
 30
0.0
 10
4.5781230551
 20
4.9681950698
 30
0.0
 10
4.5804595894
 20
4.96465724
 30
0.0
 10
4.5817475353
 20
4.9621445135
 30
0.0
 10
4.5823247575
 20
4.9608612699
 30
0.0
  0
SPLINE
  5
331
100
AcDbEntity
  8
0
100
AcDbSpline
 62
7
  6
CONTINUOUS
 70
0
 71
3
 72
16
 73
12
 74
0
 42
0.0000001
 43
0.0000001
 44
0.0000000001
 40
0.0
 40
0.0
 40
0.0
 40
0.0
 40
0.125230425
 40
0.1878973274
 40
0.2505387361
 40
0.3756618732
 40
0.5006982222
 40
0.6256431709
 40
0.7504919146
 40
0.8752974794
 40
1.0
 40
1.0
 40
1.0
 40
1.0
 10
4.5563133562
 20
4.9557258665
 30
0.0
 10
4.5577440822
 20
4.9557258665
 30
0.0
 10
4.5598972161
 20
4.9555286307
 30
0.0
 10
4.5626892576
 20
4.9548865033
 30
0.0
 10
4.5654142667
 20
4.9540036061
 30
0.0
 10
4.568661713
 20
4.9524700112
 30
0.0
 10
4.5722132951
 20
4.9500434664
 30
0.0
 10
4.5753747334
 20
4.9471347726
 30
0.0
 10
4.5781253311
 20
4.9438414224
 30
0.0
 10
4.5804611697
 20
4.9402480399
 30
0.0
 10
4.5817479013
 20
4.937697589
 30
0.0
 10
4.5823247575
 20
4.9363949024
 30
0.0
  0
SPLINE
  5
332
100
AcDbEntity
  8
0
100
AcDbSpline
 62
7
  6
CONTINUOUS
 70
0
 71
3
 72
16
 73
12
 74
0
 42
0.0000001
 43
0.0000001
 44
0.0000000001
 40
0.0
 40
0.0
 40
0.0
 40
0.0
 40
0.1249482055
 40
0.1874893943
 40
0.2500217607
 40
0.3749907563
 40
0.4999731217
 40
0.6249676072
 40
0.7499623611
 40
0.8749980216
 40
1.0
 40
1.0
 40
1.0
 40
1.0
 10
4.5563133562
 20
4.9274907108
 30
0.0
 10
4.557744152
 20
4.9274907108
 30
0.0
 10
4.5598976377
 20
4.9272922342
 30
0.0
 10
4.5626895317
 20
4.9266463031
 30
0.0
 10
4.5654150747
 20
4.9257579694
 30
0.0
 10
4.5686632293
 20
4.9242147133
 30
0.0
 10
4.5722146926
 20
4.9217735489
 30
0.0
 10
4.5753758755
 20
4.9188475451
 30
0.0
 10
4.5781261824
 20
4.9155347436
 30
0.0
 10
4.5804617581
 20
4.9119202194
 30
0.0
 10
4.5817480372
 20
4.9093554089
 30
0.0
 10
4.5823247575
 20
4.90804532
 30
0.0
  0
SPLINE
  5
333
100
AcDbEntity
  8
0
100
AcDbSpline
 62
7
  6
CONTINUOUS
 70
0
 71
3
 72
16
 73
12
 74
0
 42
0.0000001
 43
0.0000001
 44
0.0000000001
 40
0.0
 40
0.0
 40
0.0
 40
0.0
 40
0.1251277913
 40
0.1877489701
 40
0.250350713
 40
0.3754177585
 40
0.5004344334
 40
0.6253973676
 40
0.7502992106
 40
0.8751884936
 40
1.0
 40
1.0
 40
1.0
 40
1.0
 10
4.5563133562
 20
4.8954580925
 30
0.0
 10
4.5577441075
 20
4.8954580925
 30
0.0
 10
4.5598973691
 20
4.895260406
 30
0.0
 10
4.5626893571
 20
4.8946168962
 30
0.0
 10
4.56541456
 20
4.8937320237
 30
0.0
 10
4.568662264
 20
4.8921949186
 30
0.0
 10
4.5722138036
 20
4.8897630608
 30
0.0
 10
4.5753751493
 20
4.886848076
 30
0.0
 10
4.5781256414
 20
4.8835476566
 30
0.0
 10
4.5804613843
 20
4.8799465907
 30
0.0
 10
4.5817479509
 20
4.8773909213
 30
0.0
 10
4.5823247575
 20
4.8760855447
 30
0.0
  0
SPLINE
  5
334
100
AcDbEntity
  8
0
100
AcDbSpline
 62
7
  6
CONTINUOUS
 70
0
 71
3
 72
16
 73
12
 74
0
 42
0.0000001
 43
0.0000001
 44
0.0000000001
 40
0.0
 40
0.0
 40
0.0
 40
0.0
 40
0.1257693906
 40
0.1886765096
 40
0.2515264196
 40
0.3769447774
 40
0.5020852331
 40
0.6269362894
 40
0.7515061891
 40
0.8758713663
 40
1.0
 40
1.0
 40
1.0
 40
1.0
 10
4.5563133562
 20
4.8599365032
 30
0.0
 10
4.5577439504
 20
4.8599365032
 30
0.0
 10
4.5598964196
 20
4.8597416261
 30
0.0
 10
4.5626887391
 20
4.8591067397
 30
0.0
 10
4.5654127354
 20
4.8582341832
 30
0.0
 10
4.5686588269
 20
4.8567189619
 30
0.0
 10
4.5722106216
 20
4.85432025
 30
0.0
 10
4.5753725379
 20
4.851444517
 30
0.0
 10
4.5781236876
 20
4.8481882054
 30
0.0
 10
4.5804600296
 20
4.8446350774
 30
0.0
 10
4.5817476374
 20
4.8421119633
 30
0.0
 10
4.5823247575
 20
4.8408233666
 30
0.0
  0
LINE
  5
335
100
AcDbEntity
  8
0
100
AcDbLine
 62
7
  6
CONTINUOUS
 10
4.5823247575
 20
4.8408233666
 11
4.5563133562
 21
4.8406112418
  0
SPLINE
  5
336
100
AcDbEntity
  8
0
100
AcDbSpline
 62
7
  6
CONTINUOUS
 70
0
 71
3
 72
16
 73
12
 74
0
 42
0.0000001
 43
0.0000001
 44
0.0000000001
 40
0.0
 40
0.0
 40
0.0
 40
0.0
 40
0.1268734818
 40
0.1902732464
 40
0.2535513311
 40
0.3795779304
 40
0.5049358113
 40
0.6295974794
 40
0.7535961921
 40
0.8770552692
 40
1.0
 40
1.0
 40
1.0
 40
1.0
 10
4.5563133562
 20
4.8212680351
 30
0.0
 10
4.5577436865
 20
4.8212680351
 30
0.0
 10
4.5598948233
 20
4.8210779461
 30
0.0
 10
4.5626876964
 20
4.8204578024
 30
0.0
 10
4.5654096463
 20
4.8196062642
 30
0.0
 10
4.5686529547
 20
4.8181283778
 30
0.0
 10
4.5722051266
 20
4.8157863387
 30
0.0
 10
4.5753679818
 20
4.8129777476
 30
0.0
 10
4.5781202468
 20
4.8097968866
 30
0.0
 10
4.5804576252
 20
4.8063257481
 30
0.0
 10
4.5817470783
 20
4.8038582966
 30
0.0
 10
4.5823247575
 20
4.8025983797
 30
0.0
  0
SPLINE
  5
337
100
AcDbEntity
  8
0
100
AcDbSpline
 62
7
  6
CONTINUOUS
 70
0
 71
3
 72
15
 73
11
 74
0
 42
0.0000001
 43
0.0000001
 44
0.0000000001
 40
0.0
 40
0.0
 40
0.0
 40
0.0
 40
0.0755471141
 40
0.1662015141
 40
0.2722560543
 40
0.3936436061
 40
0.5295727183
 40
0.6782292403
 40
0.8364999911
 40
1.0
 40
1.0
 40
1.0
 40
1.0
 10
4.5823247575
 20
4.8025983797
 30
0.0
 10
4.5816856212
 20
4.8024403092
 30
0.0
 10
4.5802677311
 20
4.8021402322
 30
0.0
 10
4.5779261924
 20
4.8017537436
 30
0.0
 10
4.5751761699
 20
4.801399704
 30
0.0
 10
4.5720244463
 20
4.8010874594
 30
0.0
 10
4.5684955977
 20
4.8008277336
 30
0.0
 10
4.5646407882
 20
4.800631546
 30
0.0
 10
4.5605425744
 20
4.8005089686
 30
0.0
 10
4.5577382589
 20
4.8004812948
 30
0.0
 10
4.5563133562
 20
4.8004812948
 30
0.0
  0
SPLINE
  5
338
100
AcDbEntity
  8
0
100
AcDbSpline
 62
7
  6
CONTINUOUS
 70
0
 71
3
 72
15
 73
11
 74
0
 42
0.0000001
 43
0.0000001
 44
0.0000000001
 40
0.0
 40
0.0
 40
0.0
 40
0.0
 40
0.1284538352
 40
0.2563469485
 40
0.3832582059
 40
0.5089478452
 40
0.633361322
 40
0.7565633296
 40
0.8787410932
 40
1.0
 40
1.0
 40
1.0
 40
1.0
 10
4.5563133562
 20
4.7798250868
 30
0.0
 10
4.5577433262
 20
4.7798250868
 30
0.0
 10
4.5606028925
 20
4.7795812935
 30
0.0
 10
4.5647513577
 20
4.7785081145
 30
0.0
 10
4.568644452
 20
4.7767947045
 30
0.0
 10
4.5721973629
 20
4.774532208
 30
0.0
 10
4.5753613634
 20
4.7718180891
 30
0.0
 10
4.5781151948
 20
4.768743359
 30
0.0
 10
4.5804540458
 20
4.7653875358
 30
0.0
 10
4.5817462399
 20
4.7629983342
 30
0.0
 10
4.5823247575
 20
4.7617787116
 30
0.0
  0
SPLINE
  5
339
100
AcDbEntity
  8
0
100
AcDbSpline
 62
7
  6
CONTINUOUS
 70
0
 71
3
 72
16
 73
12
 74
0
 42
0.0000001
 43
0.0000001
 44
0.0000000001
 40
0.0
 40
0.0
 40
0.0
 40
0.0
 40
0.0377009731
 40
0.0787802555
 40
0.1713840141
 40
0.2783262804
 40
0.3996978205
 40
0.5348482395
 40
0.6821135935
 40
0.8385567536
 40
1.0
 40
1.0
 40
1.0
 40
1.0
 10
4.5823247575
 20
4.7617787116
 30
0.0
 10
4.5820232801
 20
4.7616377784
 30
0.0
 10
4.5813852526
 20
4.7613603347
 30
0.0
 10
4.5799715622
 20
4.7608205681
 30
0.0
 10
4.5779421435
 20
4.760186594
 30
0.0
 10
4.5751884874
 20
4.7595155515
 30
0.0
 10
4.5720336824
 20
4.7589242789
 30
0.0
 10
4.5685022933
 20
4.7584326373
 30
0.0
 10
4.5646451537
 20
4.758061367
 30
0.0
 10
4.5605447718
 20
4.7578294256
 30
0.0
 10
4.5577384411
 20
4.7577770552
 30
0.0
 10
4.5563133562
 20
4.7577770552
 30
0.0
  0
SPLINE
  5
33A
100
AcDbEntity
  8
0
100
AcDbSpline
 62
7
  6
CONTINUOUS
 70
0
 71
3
 72
15
 73
11
 74
0
 42
0.0000001
 43
0.0000001
 44
0.0000000001
 40
0.0
 40
0.0
 40
0.0
 40
0.0
 40
0.1304792469
 40
0.2600793071
 40
0.3881299196
 40
0.5142470639
 40
0.6383336997
 40
0.7604878363
 40
0.8809742948
 40
1.0
 40
1.0
 40
1.0
 40
1.0
 10
4.5563133562
 20
4.7360067766
 30
0.0
 10
4.557742883
 20
4.7360067766
 30
0.0
 10
4.560597683
 20
4.7357744184
 30
0.0
 10
4.5647425325
 20
4.7347507907
 30
0.0
 10
4.568633995
 20
4.7331155345
 30
0.0
 10
4.5721871647
 20
4.7309549169
 30
0.0
 10
4.5753525916
 20
4.7283616957
 30
0.0
 10
4.5781083339
 20
4.7254228738
 30
0.0
 10
4.5804491063
 20
4.7222146711
 30
0.0
 10
4.5817450693
 20
4.7199255908
 30
0.0
 10
4.5823247575
 20
4.718757478
 30
0.0
  0
SPLINE
  5
33B
100
AcDbEntity
  8
0
100
AcDbSpline
 62
7
  6
CONTINUOUS
 70
0
 71
3
 72
15
 73
11
 74
0
 42
0.0000001
 43
0.0000001
 44
0.0000000001
 40
0.0
 40
0.0
 40
0.0
 40
0.0
 40
0.0833221551
 40
0.1787806971
 40
0.2870743351
 40
0.4084811058
 40
0.5425372738
 40
0.6877923748
 40
0.8415689488
 40
1.0
 40
1.0
 40
1.0
 40
1.0
 10
4.5823247575
 20
4.718757478
 30
0.0
 10
4.5817057686
 20
4.7183346283
 30
0.0
 10
4.5803161373
 20
4.7175162736
 30
0.0
 10
4.5779647088
 20
4.716439727
 30
0.0
 10
4.5752063083
 20
4.715455765
 30
0.0
 10
4.5720476392
 20
4.7145894727
 30
0.0
 10
4.5685125916
 20
4.7138695046
 30
0.0
 10
4.5646519771
 20
4.7133259682
 30
0.0
 10
4.5605482307
 20
4.7129864616
 30
0.0
 10
4.5577387284
 20
4.7129097883
 30
0.0
 10
4.5563133562
 20
4.7129097883
 30
0.0
  0
SPLINE
  5
33C
100
AcDbEntity
  8
0
100
AcDbSpline
 62
7
  6
CONTINUOUS
 70
0
 71
3
 72
15
 73
11
 74
0
 42
0.0000001
 43
0.0000001
 44
0.0000000001
 40
0.0
 40
0.0
 40
0.0
 40
0.0
 40
0.1329564294
 40
0.2646533217
 40
0.3941181344
 40
0.5207842075
 40
0.6444912576
 40
0.7653662549
 40
0.8837601776
 40
1.0
 40
1.0
 40
1.0
 40
1.0
 10
4.5563133562
 20
4.6902350986
 30
0.0
 10
4.5577423743
 20
4.6902350986
 30
0.0
 10
4.5605916848
 20
4.6900164371
 30
0.0
 10
4.5647322103
 20
4.6890523471
 30
0.0
 10
4.5686214795
 20
4.6875112651
 30
0.0
 10
4.5721746238
 20
4.6854737173
 30
0.0
 10
4.5753414995
 20
4.6830267557
 30
0.0
 10
4.5780994254
 20
4.6802524298
 30
0.0
 10
4.5804425399
 20
4.6772228675
 30
0.0
 10
4.5817434892
 20
4.6750548888
 30
0.0
 10
4.5823247575
 20
4.6739489968
 30
0.0
  0
SPLINE
  5
33D
100
AcDbEntity
  8
0
100
AcDbSpline
 62
7
  6
CONTINUOUS
 70
0
 71
3
 72
15
 73
11
 74
0
 42
0.0000001
 43
0.0000001
 44
0.0000000001
 40
0.0
 40
0.0
 40
0.0
 40
0.0
 40
0.0886146521
 40
0.1874985871
 40
0.2974830337
 40
0.4190078695
 40
0.5518018603
 40
0.6946598314
 40
0.8452194364
 40
1.0
 40
1.0
 40
1.0
 40
1.0
 10
4.5823247575
 20
4.6739489968
 30
0.0
 10
4.5817156741
 20
4.6734055694
 30
0.0
 10
4.5803442728
 20
4.6723466658
 30
0.0
 10
4.5779897639
 20
4.6709349146
 30
0.0
 10
4.5752276299
 20
4.6696453504
 30
0.0
 10
4.5720649954
 20
4.6685106214
 30
0.0
 10
4.5685258229
 20
4.6675678977
 30
0.0
 10
4.5646609119
 20
4.6668563632
 30
0.0
 10
4.5605528139
 20
4.6664119791
 30
0.0
 10
4.5577391097
 20
4.6663115902
 30
0.0
 10
4.5563133562
 20
4.6663115902
 30
0.0
  0
SPLINE
  5
33E
100
AcDbEntity
  8
0
100
AcDbSpline
 62
7
  6
CONTINUOUS
 70
0
 71
3
 72
17
 73
13
 74
0
 42
0.0000001
 43
0.0000001
 44
0.0000000001
 40
0.0
 40
0.0
 40
0.0
 40
0.0
 40
0.1358478488
 40
0.2032776326
 40
0.2700853052
 40
0.4012213698
 40
0.5285508573
 40
0.5907242981
 40
0.6518895111
 40
0.7712483352
 40
0.8871317576
 40
1.0
 40
1.0
 40
1.0
 40
1.0
 10
4.5563133562
 20
4.6429508592
 30
0.0
 10
4.5577418187
 20
4.6429508592
 30
0.0
 10
4.5598834331
 20
4.6427979794
 30
0.0
 10
4.5626801193
 20
4.6422943183
 30
0.0
 10
4.5653868168
 20
4.6416072053
 30
0.0
 10
4.5686071695
 20
4.6404207464
 30
0.0
 10
4.5715916812
 20
4.6388289845
 30
0.0
 10
4.5737823428
 20
4.6373601713
 30
0.0
 10
4.57580564
 20
4.6358023326
 30
0.0
 10
4.5780883305
 20
4.6336666158
 30
0.0
 10
4.5804339462
 20
4.63084531
 30
0.0
 10
4.5817413888
 20
4.6288183563
 30
0.0
 10
4.5823247575
 20
4.6277847983
 30
0.0
  0
SPLINE
  5
33F
100
AcDbEntity
  8
0
100
AcDbSpline
 62
7
  6
CONTINUOUS
 70
0
 71
3
 72
14
 73
10
 74
0
 42
0.0000001
 43
0.0000001
 44
0.0000000001
 40
0.0
 40
0.0
 40
0.0
 40
0.0
 40
0.1963859299
 40
0.3083128175
 40
0.4301031297
 40
0.561652909
 40
0.7020044699
 40
0.8491365959
 40
1.0
 40
1.0
 40
1.0
 40
1.0
 10
4.5823247575
 20
4.6277847983
 30
0.0
 10
4.5810713392
 20
4.6264152027
 30
0.0
 10
4.5787820195
 20
4.6245485083
 30
0.0
 10
4.5752510282
 20
4.6225258839
 30
0.0
 10
4.5720841628
 20
4.6211314666
 30
0.0
 10
4.5685412286
 20
4.6199739684
 30
0.0
 10
4.5646715079
 20
4.619100179
 30
0.0
 10
4.5605583436
 20
4.618554548
 30
0.0
 10
4.5577395702
 20
4.6184312272
 30
0.0
 10
4.5563133562
 20
4.6184312272
 30
0.0
  0
SPLINE
  5
340
100
AcDbEntity
  8
0
100
AcDbSpline
 62
7
  6
CONTINUOUS
 70
0
 71
3
 72
15
 73
11
 74
0
 42
0.0000001
 43
0.0000001
 44
0.0000000001
 40
0.0
 40
0.0
 40
0.0
 40
0.0
 40
0.1391823898
 40
0.2761915885
 40
0.4093088874
 40
0.5374836494
 40
0.6603426922
 40
0.7780241045
 40
0.8910438437
 40
1.0
 40
1.0
 40
1.0
 40
1.0
 10
4.5563133562
 20
4.5946094315
 30
0.0
 10
4.5577412384
 20
4.5946094315
 30
0.0
 10
4.5605782385
 20
4.5944241767
 30
0.0
 10
4.5647084265
 20
4.5936060251
 30
0.0
 10
4.5685914226
 20
4.5922968237
 30
0.0
 10
4.5721429273
 20
4.5905636397
 30
0.0
 10
4.5753118652
 20
4.5884795274
 30
0.0
 10
4.5780742603
 20
4.5861139084
 30
0.0
 10
4.5804229954
 20
4.5835282715
 30
0.0
 10
4.5817386132
 20
4.5816612501
 30
0.0
 10
4.5823247575
 20
4.580709469
 30
0.0
  0
SPLINE
  5
341
100
AcDbEntity
  8
0
100
AcDbSpline
 62
7
  6
CONTINUOUS
 70
0
 71
3
 72
15
 73
11
 74
0
 42
0.0000001
 43
0.0000001
 44
0.0000000001
 40
0.0
 40
0.0
 40
0.0
 40
0.0
 40
0.0994838673
 40
0.2057463752
 40
0.3196130274
 40
0.4416689037
 40
0.5719352972
 40
0.7096835019
 40
0.8532371064
 40
1.0
 40
1.0
 40
1.0
 40
1.0
 10
4.5823247575
 20
4.580709469
 30
0.0
 10
4.5817301206
 20
4.5799467589
 30
0.0
 10
4.5803914272
 20
4.5784517684
 30
0.0
 10
4.5780374434
 20
4.5764123573
 30
0.0
 10
4.5752725508
 20
4.5745486782
 30
0.0
 10
4.5721045237
 20
4.5729085528
 30
0.0
 10
4.5685577445
 20
4.5715459026
 30
0.0
 10
4.5646833318
 20
4.5705174112
 30
0.0
 10
4.5605645831
 20
4.5698750607
 30
0.0
 10
4.5577400922
 20
4.5697298134
 30
0.0
 10
4.5563133562
 20
4.5697298134
 30
0.0
  0
SPLINE
  5
342
100
AcDbEntity
  8
0
100
AcDbSpline
 62
7
  6
CONTINUOUS
 70
0
 71
3
 72
16
 73
12
 74
0
 42
0.0000001
 43
0.0000001
 44
0.0000000001
 40
0.0
 40
0.0
 40
0.0
 40
0.0
 40
0.1428350588
 40
0.2829866137
 40
0.3513807188
 40
0.4183672382
 40
0.5475090894
 40
0.6699393316
 40
0.7857583358
 40
0.8955363967
 40
1.0
 40
1.0
 40
1.0
 40
1.0
 10
4.5563133562
 20
4.5456763699
 30
0.0
 10
4.5577406554
 20
4.5456763699
 30
0.0
 10
4.5605711037
 20
4.5455104259
 30
0.0
 10
4.5640364401
 20
4.5448941903
 30
0.0
 10
4.5666947605
 20
4.5441716386
 30
0.0
 10
4.569201231
 20
4.5433282453
 30
0.0
 10
4.5721244518
 20
4.5420474216
 30
0.0
 10
4.5752932657
 20
4.5401763637
 30
0.0
 10
4.5780574051
 20
4.5380511895
 30
0.0
 10
4.5804090021
 20
4.5357270182
 30
0.0
 10
4.58173495
 20
4.5340376396
 30
0.0
 10
4.5823247575
 20
4.5331763699
 30
0.0
  0
SPLINE
  5
343
100
AcDbEntity
  8
0
100
AcDbSpline
 62
7
  6
CONTINUOUS
 70
0
 71
3
 72
16
 73
12
 74
0
 42
0.0000001
 43
0.0000001
 44
0.0000000001
 40
0.0
 40
0.0
 40
0.0
 40
0.0
 40
0.1044635916
 40
0.2142416462
 40
0.3300606487
 40
0.4524908495
 40
0.5816326353
 40
0.6486191848
 40
0.7170133189
 40
0.8571649142
 40
1.0
 40
1.0
 40
1.0
 40
1.0
 10
4.5823247575
 20
4.5331763699
 30
0.0
 10
4.5817349501
 20
4.5323151002
 30
0.0
 10
4.5804090023
 20
4.5306257217
 30
0.0
 10
4.5780574054
 20
4.5283015506
 30
0.0
 10
4.5752932664
 20
4.5261763767
 30
0.0
 10
4.5721244536
 20
4.5243053192
 30
0.0
 10
4.5692012337
 20
4.5230244954
 30
0.0
 10
4.5666947632
 20
4.5221811022
 30
0.0
 10
4.564036442
 20
4.5214585497
 30
0.0
 10
4.5605711046
 20
4.5208423139
 30
0.0
 10
4.5577406556
 20
4.5206763699
 30
0.0
 10
4.5563133562
 20
4.5206763699
 30
0.0
  0
SPLINE
  5
344
100
AcDbEntity
  8
0
100
AcDbSpline
 62
7
  6
CONTINUOUS
 70
0
 71
3
 72
15
 73
11
 74
0
 42
0.0000001
 43
0.0000001
 44
0.0000000001
 40
0.0
 40
0.0
 40
0.0
 40
0.0
 40
0.1467628659
 40
0.2903164293
 40
0.4280645745
 40
0.5583310349
 40
0.6803869531
 40
0.7942536071
 40
0.9005161213
 40
1.0
 40
1.0
 40
1.0
 40
1.0
 10
4.5563133562
 20
4.4966229264
 30
0.0
 10
4.557740092
 20
4.4966229264
 30
0.0
 10
4.5605645822
 20
4.4964776791
 30
0.0
 10
4.5646833297
 20
4.4958353288
 30
0.0
 10
4.5685577421
 20
4.4948068379
 30
0.0
 10
4.5721045218
 20
4.4934441878
 30
0.0
 10
4.57527255
 20
4.4918040621
 30
0.0
 10
4.578037443
 20
4.4899403827
 30
0.0
 10
4.580391427
 20
4.4879009715
 30
0.0
 10
4.5817301205
 20
4.4864059809
 30
0.0
 10
4.5823247575
 20
4.4856432708
 30
0.0
  0
SPLINE
  5
345
100
AcDbEntity
  8
0
100
AcDbSpline
 62
7
  6
CONTINUOUS
 70
0
 71
3
 72
15
 73
11
 74
0
 42
0.0000001
 43
0.0000001
 44
0.0000000001
 40
0.0
 40
0.0
 40
0.0
 40
0.0
 40
0.1089561442
 40
0.221975877
 40
0.3396572878
 40
0.4625162896
 40
0.5906909875
 40
0.7238083455
 40
0.8608175838
 40
1.0
 40
1.0
 40
1.0
 40
1.0
 10
4.5823247575
 20
4.4856432708
 30
0.0
 10
4.5817386132
 20
4.4846914897
 30
0.0
 10
4.5804229956
 20
4.4828244685
 30
0.0
 10
4.5780742607
 20
4.4802388317
 30
0.0
 10
4.5753118659
 20
4.477873213
 30
0.0
 10
4.5721429292
 20
4.4757891011
 30
0.0
 10
4.568591425
 20
4.4740559171
 30
0.0
 10
4.5647084287
 20
4.4727467151
 30
0.0
 10
4.5605782395
 20
4.4719285631
 30
0.0
 10
4.5577412387
 20
4.4717433082
 30
0.0
 10
4.5563133562
 20
4.4717433082
 30
0.0
  0
SPLINE
  5
346
100
AcDbEntity
  8
0
100
AcDbSpline
 62
7
  6
CONTINUOUS
 70
0
 71
3
 72
14
 73
10
 74
0
 42
0.0000001
 43
0.0000001
 44
0.0000000001
 40
0.0
 40
0.0
 40
0.0
 40
0.0
 40
0.1508633756
 40
0.2979954597
 40
0.4383469608
 40
0.5698968086
 40
0.6916871634
 40
0.8036140529
 40
1.0
 40
1.0
 40
1.0
 40
1.0
 10
4.5563133562
 20
4.4479215125
 30
0.0
 10
4.55773957
 20
4.4479215125
 30
0.0
 10
4.5605583426
 20
4.4477981918
 30
0.0
 10
4.5646715058
 20
4.447252561
 30
0.0
 10
4.5685412263
 20
4.446378772
 30
0.0
 10
4.5720841609
 20
4.4452212738
 30
0.0
 10
4.5752510274
 20
4.4438268563
 30
0.0
 10
4.5787820192
 20
4.4418042317
 30
0.0
 10
4.5810713391
 20
4.4399375372
 30
0.0
 10
4.5823247575
 20
4.4385679414
 30
0.0
  0
SPLINE
  5
347
100
AcDbEntity
  8
0
100
AcDbSpline
 62
7
  6
CONTINUOUS
 70
0
 71
3
 72
17
 73
13
 74
0
 42
0.0000001
 43
0.0000001
 44
0.0000000001
 40
0.0
 40
0.0
 40
0.0
 40
0.0
 40
0.11286823
 40
0.2287516459
 40
0.3481104686
 40
0.4092756672
 40
0.4714490817
 40
0.5987785063
 40
0.7299146299
 40
0.7967223248
 40
0.8641521254
 40
1.0
 40
1.0
 40
1.0
 40
1.0
 10
4.5823247575
 20
4.4385679414
 30
0.0
 10
4.5817413888
 20
4.4375343835
 30
0.0
 10
4.5804339464
 20
4.43550743
 30
0.0
 10
4.5780883309
 20
4.4326861243
 30
0.0
 10
4.5758056406
 20
4.4305504076
 30
0.0
 10
4.5737823437
 20
4.4289925692
 30
0.0
 10
4.5715916832
 20
4.4275237564
 30
0.0
 10
4.5686071719
 20
4.4259319945
 30
0.0
 10
4.5653868192
 20
4.4247455351
 30
0.0
 10
4.5626801207
 20
4.4240584217
 30
0.0
 10
4.5598834338
 20
4.4235547605
 30
0.0
 10
4.557741819
 20
4.4234018805
 30
0.0
 10
4.5563133562
 20
4.4234018805
 30
0.0
  0
SPLINE
  5
348
100
AcDbEntity
  8
0
100
AcDbSpline
 62
7
  6
CONTINUOUS
 70
0
 71
3
 72
15
 73
11
 74
0
 42
0.0000001
 43
0.0000001
 44
0.0000000001
 40
0.0
 40
0.0
 40
0.0
 40
0.0
 40
0.1547805344
 40
0.3053400967
 40
0.4481980077
 40
0.5809920685
 40
0.7025169474
 40
0.8125013961
 40
0.9113853374
 40
1.0
 40
1.0
 40
1.0
 40
1.0
 10
4.5563133562
 20
4.4000411495
 30
0.0
 10
4.5577391094
 20
4.4000411495
 30
0.0
 10
4.5605528129
 20
4.3999407607
 30
0.0
 10
4.5646609097
 20
4.3994963768
 30
0.0
 10
4.5685258205
 20
4.3987848426
 30
0.0
 10
4.5720649935
 20
4.397842119
 30
0.0
 10
4.5752276291
 20
4.3967073897
 30
0.0
 10
4.5779897635
 20
4.3954178253
 30
0.0
 10
4.5803442726
 20
4.394006074
 30
0.0
 10
4.5817156741
 20
4.3929471704
 30
0.0
 10
4.5823247575
 20
4.3924037429
 30
0.0
  0
SPLINE
  5
349
100
AcDbEntity
  8
0
100
AcDbSpline
 62
7
  6
CONTINUOUS
 70
0
 71
3
 72
15
 73
11
 74
0
 42
0.0000001
 43
0.0000001
 44
0.0000000001
 40
0.0
 40
0.0
 40
0.0
 40
0.0
 40
0.1162398242
 40
0.2346337496
 40
0.3555087472
 40
0.4792158037
 40
0.6058818918
 40
0.7353466971
 40
0.8670435819
 40
1.0
 40
1.0
 40
1.0
 40
1.0
 10
4.5823247575
 20
4.3924037429
 30
0.0
 10
4.5817434892
 20
4.3912978509
 30
0.0
 10
4.5804425398
 20
4.3891298722
 30
0.0
 10
4.5780994253
 20
4.3861003098
 30
0.0
 10
4.5753414993
 20
4.3833259838
 30
0.0
 10
4.5721746234
 20
4.3808790222
 30
0.0
 10
4.5686214789
 20
4.3788414744
 30
0.0
 10
4.5647322097
 20
4.3773003924
 30
0.0
 10
4.5605916845
 20
4.3763363026
 30
0.0
 10
4.5577423742
 20
4.3761176411
 30
0.0
 10
4.5563133562
 20
4.3761176411
 30
0.0
  0
SPLINE
  5
34A
100
AcDbEntity
  8
0
100
AcDbSpline
 62
7
  6
CONTINUOUS
 70
0
 71
3
 72
15
 73
11
 74
0
 42
0.0000001
 43
0.0000001
 44
0.0000000001
 40
0.0
 40
0.0
 40
0.0
 40
0.0
 40
0.1584310213
 40
0.3122075519
 40
0.4574625925
 40
0.5915188318
 40
0.7129256462
 40
0.8212192865
 40
0.9166778348
 40
1.0
 40
1.0
 40
1.0
 40
1.0
 10
4.5563133562
 20
4.3534429515
 30
0.0
 10
4.5577387281
 20
4.3534429515
 30
0.0
 10
4.5605482298
 20
4.3533662782
 30
0.0
 10
4.5646519749
 20
4.3530267717
 30
0.0
 10
4.5685125892
 20
4.3524832356
 30
0.0
 10
4.5720476373
 20
4.3517632675
 30
0.0
 10
4.5752063075
 20
4.350896975
 30
0.0
 10
4.5779647084
 20
4.3499130128
 30
0.0
 10
4.5803161371
 20
4.3488364662
 30
0.0
 10
4.5817057686
 20
4.3480181115
 30
0.0
 10
4.5823247575
 20
4.3475952618
 30
0.0
  0
SPLINE
  5
34B
100
AcDbEntity
  8
0
100
AcDbSpline
 62
7
  6
CONTINUOUS
 70
0
 71
3
 72
15
 73
11
 74
0
 42
0.0000001
 43
0.0000001
 44
0.0000000001
 40
0.0
 40
0.0
 40
0.0
 40
0.0
 40
0.1190256922
 40
0.2395121442
 40
0.3616662797
 40
0.4857528754
 40
0.6118699586
 40
0.7399206301
 40
0.8695207284
 40
1.0
 40
1.0
 40
1.0
 40
1.0
 10
4.5823247575
 20
4.3475952618
 30
0.0
 10
4.5817450694
 20
4.3464271491
 30
0.0
 10
4.5804491065
 20
4.3441380689
 30
0.0
 10
4.5781083342
 20
4.3409298664
 30
0.0
 10
4.5753525923
 20
4.3379910449
 30
0.0
 10
4.5721871665
 20
4.3353978241
 30
0.0
 10
4.5686339974
 20
4.3332372065
 30
0.0
 10
4.5647425348
 20
4.3316019496
 30
0.0
 10
4.560597684
 20
4.3305783215
 30
0.0
 10
4.5577428833
 20
4.3303459632
 30
0.0
 10
4.5563133562
 20
4.3303459632
 30
0.0
  0
SPLINE
  5
34C
100
AcDbEntity
  8
0
100
AcDbSpline
 62
7
  6
CONTINUOUS
 70
0
 71
3
 72
16
 73
12
 74
0
 42
0.0000001
 43
0.0000001
 44
0.0000000001
 40
0.0
 40
0.0
 40
0.0
 40
0.0
 40
0.161443216
 40
0.317886332
 40
0.4651516252
 40
0.6003021168
 40
0.7216737011
 40
0.8286159698
 40
0.9212197348
 40
0.9622990237
 40
1.0
 40
1.0
 40
1.0
 40
1.0
 10
4.5563133562
 20
4.3085756845
 30
0.0
 10
4.5577384408
 20
4.3085756845
 30
0.0
 10
4.5605447709
 20
4.3085233142
 30
0.0
 10
4.5646451516
 20
4.3082913729
 30
0.0
 10
4.5685022909
 20
4.3079201027
 30
0.0
 10
4.5720336805
 20
4.3074284611
 30
0.0
 10
4.5751884866
 20
4.3068371885
 30
0.0
 10
4.5779421431
 20
4.3061661458
 30
0.0
 10
4.579971562
 20
4.3055321717
 30
0.0
 10
4.5813852525
 20
4.3049924051
 30
0.0
 10
4.5820232801
 20
4.3047149614
 30
0.0
 10
4.5823247575
 20
4.3045740281
 30
0.0
  0
SPLINE
  5
34D
100
AcDbEntity
  8
0
100
AcDbSpline
 62
7
  6
CONTINUOUS
 70
0
 71
3
 72
15
 73
11
 74
0
 42
0.0000001
 43
0.0000001
 44
0.0000000001
 40
0.0
 40
0.0
 40
0.0
 40
0.0
 40
0.1212588936
 40
0.2434366507
 40
0.3666386573
 40
0.4910520941
 40
0.6167416732
 40
0.7436529894
 40
0.8715461404
 40
1.0
 40
1.0
 40
1.0
 40
1.0
 10
4.5823247575
 20
4.3045740281
 30
0.0
 10
4.5817462399
 20
4.3033544056
 30
0.0
 10
4.580454046
 20
4.3009652042
 30
0.0
 10
4.5781151951
 20
4.2976093812
 30
0.0
 10
4.5753613642
 20
4.2945346515
 30
0.0
 10
4.5721973647
 20
4.2918205331
 30
0.0
 10
4.5686444544
 20
4.2895580366
 30
0.0
 10
4.5647513599
 20
4.2878446258
 30
0.0
 10
4.5606028935
 20
4.2867714463
 30
0.0
 10
4.5577433264
 20
4.2865276529
 30
0.0
 10
4.5563133562
 20
4.2865276529
 30
0.0
  0
SPLINE
  5
34E
100
AcDbEntity
  8
0
100
AcDbSpline
 62
7
  6
CONTINUOUS
 70
0
 71
3
 72
15
 73
11
 74
0
 42
0.0000001
 43
0.0000001
 44
0.0000000001
 40
0.0
 40
0.0
 40
0.0
 40
0.0
 40
0.1634999781
 40
0.3217706844
 40
0.4704271454
 40
0.6063563311
 40
0.7277439273
 40
0.83379847
 40
0.9244528763
 40
1.0
 40
1.0
 40
1.0
 40
1.0
 10
4.5563133562
 20
4.2658714449
 30
0.0
 10
4.5577382586
 20
4.2658714449
 30
0.0
 10
4.5605425734
 20
4.2658437711
 30
0.0
 10
4.5646407861
 20
4.2657211938
 30
0.0
 10
4.5684955953
 20
4.2655250063
 30
0.0
 10
4.5720244444
 20
4.2652652805
 30
0.0
 10
4.575176169
 20
4.2649530358
 30
0.0
 10
4.577926192
 20
4.2645989962
 30
0.0
 10
4.5802677308
 20
4.2642125076
 30
0.0
 10
4.5816856211
 20
4.2639124305
 30
0.0
 10
4.5823247575
 20
4.26375436
 30
0.0
  0
SPLINE
  5
34F
100
AcDbEntity
  8
0
100
AcDbSpline
 62
7
  6
CONTINUOUS
 70
0
 71
3
 72
16
 73
12
 74
0
 42
0.0000001
 43
0.0000001
 44
0.0000000001
 40
0.0
 40
0.0
 40
0.0
 40
0.0
 40
0.1229447174
 40
0.246403788
 40
0.3704024996
 40
0.495064128
 40
0.6204219491
 40
0.7464486073
 40
0.8097267136
 40
0.8731264941
 40
1.0
 40
1.0
 40
1.0
 40
1.0
 10
4.5823247575
 20
4.26375436
 30
0.0
 10
4.5817470784
 20
4.2624944433
 30
0.0
 10
4.5804576254
 20
4.2600269919
 30
0.0
 10
4.5781202472
 20
4.2565558536
 30
0.0
 10
4.5753679825
 20
4.253374993
 30
0.0
 10
4.5722051284
 20
4.2505664025
 30
0.0
 10
4.5686529571
 20
4.2482243633
 30
0.0
 10
4.5654096487
 20
4.2467464764
 30
0.0
 10
4.5626876978
 20
4.2458949377
 30
0.0
 10
4.559894824
 20
4.2452747937
 30
0.0
 10
4.5577436868
 20
4.2450847046
 30
0.0
 10
4.5563133562
 20
4.2450847046
 30
0.0
  0
LINE
  5
350
100
AcDbEntity
  8
0
100
AcDbLine
 62
7
  6
CONTINUOUS
 10
4.5563133562
 20
4.2257414979
 11
4.5823247575
 21
4.2255293732
  0
SPLINE
  5
351
100
AcDbEntity
  8
0
100
AcDbSpline
 62
7
  6
CONTINUOUS
 70
0
 71
3
 72
16
 73
12
 74
0
 42
0.0000001
 43
0.0000001
 44
0.0000000001
 40
0.0
 40
0.0
 40
0.0
 40
0.0
 40
0.1241286202
 40
0.2484937908
 40
0.3730636896
 40
0.4979147062
 40
0.6230551024
 40
0.7484735191
 40
0.8113234507
 40
0.8742305855
 40
1.0
 40
1.0
 40
1.0
 40
1.0
 10
4.5823247575
 20
4.2255293732
 30
0.0
 10
4.5817476375
 20
4.2242407766
 30
0.0
 10
4.5804600298
 20
4.2217176627
 30
0.0
 10
4.5781236879
 20
4.2181645348
 30
0.0
 10
4.5753725387
 20
4.2149082236
 30
0.0
 10
4.5722106234
 20
4.2120324912
 30
0.0
 10
4.5686588293
 20
4.2096337793
 30
0.0
 10
4.5654127378
 20
4.2081185574
 30
0.0
 10
4.5626887405
 20
4.2072460004
 30
0.0
 10
4.5598964203
 20
4.2066111138
 30
0.0
 10
4.5577439506
 20
4.2064162366
 30
0.0
 10
4.5563133562
 20
4.2064162366
 30
0.0
  0
SPLINE
  5
352
100
AcDbEntity
  8
0
100
AcDbSpline
 62
7
  6
CONTINUOUS
 70
0
 71
3
 72
16
 73
12
 74
0
 42
0.0000001
 43
0.0000001
 44
0.0000000001
 40
0.0
 40
0.0
 40
0.0
 40
0.0
 40
0.1248114929
 40
0.2497007694
 40
0.3746026113
 40
0.4995655059
 40
0.6245821215
 40
0.749649226
 40
0.8122509904
 40
0.8748721849
 40
1.0
 40
1.0
 40
1.0
 40
1.0
 10
4.5823247575
 20
4.1902671951
 30
0.0
 10
4.581747951
 20
4.1889618186
 30
0.0
 10
4.5804613845
 20
4.1864061494
 30
0.0
 10
4.5781256418
 20
4.1828050837
 30
0.0
 10
4.57537515
 20
4.1795046646
 30
0.0
 10
4.5722138053
 20
4.1765896804
 30
0.0
 10
4.5686622664
 20
4.1741578226
 30
0.0
 10
4.5654145624
 20
4.1726207169
 30
0.0
 10
4.5626893585
 20
4.1717358438
 30
0.0
 10
4.5598973698
 20
4.1710923339
 30
0.0
 10
4.5577441078
 20
4.1708946472
 30
0.0
 10
4.5563133562
 20
4.1708946472
 30
0.0
  0
SPLINE
  5
353
100
AcDbEntity
  8
0
100
AcDbSpline
 62
7
  6
CONTINUOUS
 70
0
 71
3
 72
16
 73
12
 74
0
 42
0.0000001
 43
0.0000001
 44
0.0000000001
 40
0.0
 40
0.0
 40
0.0
 40
0.0
 40
0.1250019649
 40
0.2500376188
 40
0.3750323717
 40
0.5000268177
 40
0.6250091238
 40
0.7499781784
 40
0.8125105663
 40
0.8750517707
 40
1.0
 40
1.0
 40
1.0
 40
1.0
 10
4.5823247575
 20
4.1583074198
 30
0.0
 10
4.5817480373
 20
4.156997331
 30
0.0
 10
4.5804617583
 20
4.1544325206
 30
0.0
 10
4.5781261828
 20
4.1508179966
 30
0.0
 10
4.5753758762
 20
4.1475051955
 30
0.0
 10
4.5722146944
 20
4.1445791923
 30
0.0
 10
4.5686632316
 20
4.1421380279
 30
0.0
 10
4.5654150771
 20
4.1405947713
 30
0.0
 10
4.5626895331
 20
4.139706437
 30
0.0
 10
4.5598976385
 20
4.1390605056
 30
0.0
 10
4.5577441523
 20
4.1388620289
 30
0.0
 10
4.5563133562
 20
4.1388620289
 30
0.0
  0
SPLINE
  5
354
100
AcDbEntity
  8
0
100
AcDbSpline
 62
7
  6
CONTINUOUS
 70
0
 71
3
 72
16
 73
12
 74
0
 42
0.0000001
 43
0.0000001
 44
0.0000000001
 40
0.0
 40
0.0
 40
0.0
 40
0.0
 40
0.1247025071
 40
0.2495080653
 40
0.374356808
 40
0.4993017171
 40
0.6243380069
 40
0.7494612029
 40
0.8121026331
 40
0.8747695512
 40
1.0
 40
1.0
 40
1.0
 40
1.0
 10
4.5823247575
 20
4.1299578374
 30
0.0
 10
4.5817479014
 20
4.1286551509
 30
0.0
 10
4.5804611699
 20
4.1261047002
 30
0.0
 10
4.5781253315
 20
4.1225113179
 30
0.0
 10
4.5753747341
 20
4.119217968
 30
0.0
 10
4.5722132969
 20
4.1163092748
 30
0.0
 10
4.5686617154
 20
4.11388273
 30
0.0
 10
4.5654142691
 20
4.1123491345
 30
0.0
 10
4.562689259
 20
4.1114662367
 30
0.0
 10
4.5598972168
 20
4.1108241091
 30
0.0
 10
4.5577440825
 20
4.1106268732
 30
0.0
 10
4.5563133562
 20
4.1106268732
 30
0.0
  0
SPLINE
  5
355
100
AcDbEntity
  8
0
100
AcDbSpline
 62
7
  6
CONTINUOUS
 70
0
 71
3
 72
19
 73
15
 74
0
 42
0.0000001
 43
0.0000001
 44
0.0000000001
 40
0.0
 40
0.0
 40
0.0
 40
0.0
 40
0.1672282028
 40
0.3297691741
 40
0.4832004039
 40
0.6235688287
 40
0.6877923772
 40
0.7475588338
 40
0.8025589733
 40
0.8525488655
 40
0.8973360832
 40
0.9368238419
 40
0.9710018289
 40
1.0
 40
1.0
 40
1.0
 40
1.0
 10
4.3413133562
 20
5.0172992881
 30
0.0
 10
4.3424290985
 20
5.0172992881
 30
0.0
 10
4.3446296132
 20
5.0173465902
 30
0.0
 10
4.3478477057
 20
5.0175568506
 30
0.0
 10
4.3508745961
 20
5.0178958371
 30
0.0
 10
4.3532332118
 20
5.0182826235
 30
0.0
 10
4.3549588316
 20
5.0186489258
 30
0.0
 10
4.3561181833
 20
5.0189364869
 30
0.0
 10
4.357174365
 20
5.0192422956
 30
0.0
 10
4.3581211397
 20
5.0195633168
 30
0.0
 10
4.3589531327
 20
5.0198967574
 30
0.0
 10
4.3596660227
 20
5.0202398082
 30
0.0
 10
4.3602559117
 20
5.0205897556
 30
0.0
 10
4.3605923935
 20
5.0208464702
 30
0.0
 10
4.360735103
 20
5.0209771094
 30
0.0
  0
SPLINE
  5
356
100
AcDbEntity
  8
0
100
AcDbSpline
 62
7
  6
CONTINUOUS
 70
0
 71
3
 72
16
 73
12
 74
0
 42
0.0000001
 43
0.0000001
 44
0.0000000001
 40
0.0
 40
0.0
 40
0.0
 40
0.0
 40
0.1239092472
 40
0.2481062757
 40
0.3725699225
 40
0.4973854088
 40
0.6225658246
 40
0.7480970278
 40
0.8110264975
 40
0.8740252134
 40
1.0
 40
1.0
 40
1.0
 40
1.0
 10
4.5823247575
 20
4.1054914699
 30
0.0
 10
4.5817475354
 20
4.1042082264
 30
0.0
 10
4.5804595896
 20
4.1016955001
 30
0.0
 10
4.5781230555
 20
4.0981576704
 30
0.0
 10
4.5753716972
 20
4.0949154361
 30
0.0
 10
4.5722096031
 20
4.0920522308
 30
0.0
 10
4.5686577329
 20
4.0896640951
 30
0.0
 10
4.5654121583
 20
4.0881558485
 30
0.0
 10
4.5626885445
 20
4.0872872176
 30
0.0
 10
4.5598961198
 20
4.0866550824
 30
0.0
 10
4.5577439009
 20
4.0864611002
 30
0.0
 10
4.5563133562
 20
4.0864611002
 30
0.0
  0
SPLINE
  5
357
100
AcDbEntity
  8
0
100
AcDbSpline
 62
7
  6
CONTINUOUS
 70
0
 71
3
 72
16
 73
12
 74
0
 42
0.0000001
 43
0.0000001
 44
0.0000000001
 40
0.0
 40
0.0
 40
0.0
 40
0.0
 40
0.1226122631
 40
0.2458174767
 40
0.3696567784
 40
0.4942662639
 40
0.6196857733
 40
0.7458830327
 40
0.8092809012
 40
0.8728183202
 40
1.0
 40
1.0
 40
1.0
 40
1.0
 10
4.5823247575
 20
4.0851439417
 30
0.0
 10
4.5817469177
 20
4.0838919878
 30
0.0
 10
4.5804569372
 20
4.0814399957
 30
0.0
 10
4.5781192688
 20
4.0779916341
 30
0.0
 10
4.5753666967
 20
4.0748317361
 30
0.0
 10
4.5722035905
 20
4.072041799
 30
0.0
 10
4.5686513279
 20
4.069715499
 30
0.0
 10
4.5654087978
 20
4.0682479623
 30
0.0
 10
4.5626874115
 20
4.0674022521
 30
0.0
 10
4.5598943867
 20
4.0667862022
 30
0.0
 10
4.5577436147
 20
4.0665974394
 30
0.0
 10
4.5563133562
 20
4.0665974394
 30
0.0
  0
SPLINE
  5
358
100
AcDbEntity
  8
0
100
AcDbSpline
 62
7
  6
CONTINUOUS
 70
0
 71
3
 72
15
 73
11
 74
0
 42
0.0000001
 43
0.0000001
 44
0.0000000001
 40
0.0
 40
0.0
 40
0.0
 40
0.0
 40
0.1208094023
 40
0.2426457669
 40
0.3656352667
 40
0.4899812893
 40
0.6157559791
 40
0.7428969999
 40
0.8711355924
 40
1.0
 40
1.0
 40
1.0
 40
1.0
 10
4.5823247575
 20
4.0691112108
 30
0.0
 10
4.5817460108
 20
4.0679020819
 30
0.0
 10
4.5804530741
 20
4.0655332684
 30
0.0
 10
4.5781138341
 20
4.0622074992
 30
0.0
 10
4.5753596078
 20
4.0591604362
 30
0.0
 10
4.5721953024
 20
4.056470932
 30
0.0
 10
4.568642319
 20
4.0542291877
 30
0.0
 10
4.5647495426
 20
4.0525317112
 30
0.0
 10
4.5606018145
 20
4.0514686455
 30
0.0
 10
4.5577432346
 20
4.0512271888
 30
0.0
 10
4.5563133562
 20
4.0512271888
 30
0.0
  0
SPLINE
  5
359
100
AcDbEntity
  8
0
100
AcDbSpline
 62
7
  6
CONTINUOUS
 70
0
 71
3
 72
15
 73
11
 74
0
 42
0.0000001
 43
0.0000001
 44
0.0000000001
 40
0.0
 40
0.0
 40
0.0
 40
0.0
 40
0.1184550292
 40
0.2385112549
 40
0.3604008189
 40
0.4844071317
 40
0.6106352868
 40
0.7389763154
 40
0.8690088671
 40
1.0
 40
1.0
 40
1.0
 40
1.0
 10
4.5823247575
 20
4.0575476811
 30
0.0
 10
4.5817447569
 20
4.0563924893
 30
0.0
 10
4.5804477989
 20
4.0541285418
 30
0.0
 10
4.5781065412
 20
4.0509574068
 30
0.0
 10
4.5753503331
 20
4.0480527161
 30
0.0
 10
4.5721845804
 20
4.0454898494
 30
0.0
 10
4.568631386
 20
4.0433547901
 30
0.0
 10
4.5647403596
 20
4.0417391117
 30
0.0
 10
4.5605964116
 20
4.040727876
 30
0.0
 10
4.5577427752
 20
4.0404983723
 30
0.0
 10
4.5563133562
 20
4.0404983723
 30
0.0
  0
SPLINE
  5
35A
100
AcDbEntity
  8
0
100
AcDbSpline
 62
7
  6
CONTINUOUS
 70
0
 71
3
 72
15
 73
11
 74
0
 42
0.0000001
 43
0.0000001
 44
0.0000000001
 40
0.0
 40
0.0
 40
0.0
 40
0.0
 40
0.115543916
 40
0.2334182214
 40
0.3539786104
 40
0.4775956654
 40
0.604401435
 40
0.7342181679
 40
0.8664332184
 40
1.0
 40
1.0
 40
1.0
 40
1.0
 10
4.5823247575
 20
4.0505647156
 30
0.0
 10
4.5817430721
 20
4.0494740466
 30
0.0
 10
4.5804408258
 20
4.0473357273
 30
0.0
 10
4.5780971388
 20
4.044349925
 30
0.0
 10
4.575338705
 20
4.0416158961
 30
0.0
 10
4.5721715248
 20
4.039204749
 30
0.0
 10
4.5686184432
 20
4.0371973048
 30
0.0
 10
4.5647297443
 20
4.0356792202
 30
0.0
 10
4.5605902665
 20
4.0347296435
 30
0.0
 10
4.5577422542
 20
4.0345143142
 30
0.0
 10
4.5563133562
 20
4.0345143142
 30
0.0
  0
SPLINE
  5
35B
100
AcDbEntity
  8
0
100
AcDbSpline
 62
7
  6
CONTINUOUS
 70
0
 71
3
 72
15
 73
11
 74
0
 42
0.0000001
 43
0.0000001
 44
0.0000000001
 40
0.0
 40
0.0
 40
0.0
 40
0.0
 40
0.1335667346
 40
0.2657817488
 40
0.3955984347
 40
0.5224042716
 40
0.6460213665
 40
0.7665817573
 40
0.8844560714
 40
1.0
 40
1.0
 40
1.0
 40
1.0
 10
3.6863133562
 20
4.0345143142
 30
0.0
 10
3.6848844586
 20
4.0345143142
 30
0.0
 10
3.6820364472
 20
4.0347296433
 30
0.0
 10
3.6778969708
 20
4.0356792195
 30
0.0
 10
3.6740082717
 20
4.0371973034
 30
0.0
 10
3.6704551894
 20
4.0392047477
 30
0.0
 10
3.6672880081
 20
4.0416158953
 30
0.0
 10
3.664529574
 20
4.0443499246
 30
0.0
 10
3.6621858868
 20
4.047335727
 30
0.0
 10
3.6608836403
 20
4.0494740465
 30
0.0
 10
3.6603019548
 20
4.0505647156
 30
0.0
  0
SPLINE
  5
35C
100
AcDbEntity
  8
0
100
AcDbSpline
 62
7
  6
CONTINUOUS
 70
0
 71
3
 72
15
 73
11
 74
0
 42
0.0000001
 43
0.0000001
 44
0.0000000001
 40
0.0
 40
0.0
 40
0.0
 40
0.0
 40
0.1309910867
 40
0.2610236026
 40
0.3893645839
 40
0.5155928054
 40
0.6395991579
 40
0.7614887236
 40
0.8815449579
 40
1.0
 40
1.0
 40
1.0
 40
1.0
 10
3.6863133562
 20
4.0404983723
 30
0.0
 10
3.6848839376
 20
4.0404983723
 30
0.0
 10
3.6820303021
 20
4.0407278758
 30
0.0
 10
3.6778863554
 20
4.0417391109
 30
0.0
 10
3.673995329
 20
4.0433547886
 30
0.0
 10
3.6704421338
 20
4.045489848
 30
0.0
 10
3.6672763801
 20
4.0480527152
 30
0.0
 10
3.6645201716
 20
4.0509574063
 30
0.0
 10
3.6621789136
 20
4.0541285415
 30
0.0
 10
3.6608819555
 20
4.0563924892
 30
0.0
 10
3.6603019548
 20
4.0575476811
 30
0.0
  0
SPLINE
  5
35D
100
AcDbEntity
  8
0
100
AcDbSpline
 62
7
  6
CONTINUOUS
 70
0
 71
3
 72
15
 73
11
 74
0
 42
0.0000001
 43
0.0000001
 44
0.0000000001
 40
0.0
 40
0.0
 40
0.0
 40
0.0
 40
0.1288643622
 40
0.257102919
 40
0.3842438924
 40
0.5100186479
 40
0.6343647099
 40
0.7573542113
 40
0.8791905846
 40
1.0
 40
1.0
 40
1.0
 40
1.0
 10
3.6863133562
 20
4.0512271888
 30
0.0
 10
3.6848834783
 20
4.0512271888
 30
0.0
 10
3.6820248992
 20
4.0514686453
 30
0.0
 10
3.6778771724
 20
4.0525317104
 30
0.0
 10
3.6739843959
 20
4.0542291862
 30
0.0
 10
3.6704314119
 20
4.0564709305
 30
0.0
 10
3.6672671053
 20
4.0591604353
 30
0.0
 10
3.6645128787
 20
4.0622074987
 30
0.0
 10
3.6621736385
 20
4.0655332681
 30
0.0
 10
3.6608807016
 20
4.0679020817
 30
0.0
 10
3.6603019548
 20
4.0691112108
 30
0.0
  0
SPLINE
  5
35E
100
AcDbEntity
  8
0
100
AcDbSpline
 62
7
  6
CONTINUOUS
 70
0
 71
3
 72
16
 73
12
 74
0
 42
0.0000001
 43
0.0000001
 44
0.0000000001
 40
0.0
 40
0.0
 40
0.0
 40
0.0
 40
0.1271816349
 40
0.1907190348
 40
0.2541168868
 40
0.3803140988
 40
0.5057336732
 40
0.630343198
 40
0.7541825013
 40
0.8773877237
 40
1.0
 40
1.0
 40
1.0
 40
1.0
 10
3.6863133562
 20
4.0665974394
 30
0.0
 10
3.6848830982
 20
4.0665974394
 30
0.0
 10
3.6827323268
 20
4.066786202
 30
0.0
 10
3.679939303
 20
4.0674022516
 30
0.0
 10
3.6772179174
 20
4.0682479612
 30
0.0
 10
3.6739753871
 20
4.0697154974
 30
0.0
 10
3.6704231237
 20
4.0720417975
 30
0.0
 10
3.6672600164
 20
4.0748317352
 30
0.0
 10
3.664507444
 20
4.0779916336
 30
0.0
 10
3.6621697753
 20
4.0814399954
 30
0.0
 10
3.6608797947
 20
4.0838919877
 30
0.0
 10
3.6603019548
 20
4.0851439417
 30
0.0
  0
SPLINE
  5
35F
100
AcDbEntity
  8
0
100
AcDbSpline
 62
7
  6
CONTINUOUS
 70
0
 71
3
 72
16
 73
12
 74
0
 42
0.0000001
 43
0.0000001
 44
0.0000000001
 40
0.0
 40
0.0
 40
0.0
 40
0.0
 40
0.1259747422
 40
0.1889734391
 40
0.2519028923
 40
0.3774340479
 40
0.5026145283
 40
0.6274300538
 40
0.7518937021
 40
0.8760907395
 40
1.0
 40
1.0
 40
1.0
 40
1.0
 10
3.6863133562
 20
4.0864611002
 30
0.0
 10
3.6848828119
 20
4.0864611002
 30
0.0
 10
3.6827305937
 20
4.0866550822
 30
0.0
 10
3.6799381699
 20
4.0872872172
 30
0.0
 10
3.6772145569
 20
4.0881558474
 30
0.0
 10
3.6739689821
 20
4.0896640935
 30
0.0
 10
3.6704171112
 20
4.0920522293
 30
0.0
 10
3.667255016
 20
4.0949154352
 30
0.0
 10
3.6645036572
 20
4.0981576699
 30
0.0
 10
3.6621671229
 20
4.1016954997
 30
0.0
 10
3.660879177
 20
4.1042082262
 30
0.0
 10
3.6603019548
 20
4.1054914699
 30
0.0
  0
SPLINE
  5
360
100
AcDbEntity
  8
0
100
AcDbSpline
 62
7
  6
CONTINUOUS
 70
0
 71
3
 72
16
 73
12
 74
0
 42
0.0000001
 43
0.0000001
 44
0.0000000001
 40
0.0
 40
0.0
 40
0.0
 40
0.0
 40
0.1252304046
 40
0.1878973038
 40
0.2505387176
 40
0.3756618659
 40
0.50069822
 40
0.6256431682
 40
0.7504919124
 40
0.8752974795
 40
1.0
 40
1.0
 40
1.0
 40
1.0
 10
3.6863133562
 20
4.1106268732
 30
0.0
 10
3.6848826304
 20
4.1106268732
 30
0.0
 10
3.6827294968
 20
4.1108241089
 30
0.0
 10
3.6799374554
 20
4.1114662363
 30
0.0
 10
3.6772124462
 20
4.1123491333
 30
0.0
 10
3.6739649996
 20
4.1138827284
 30
0.0
 10
3.6704134173
 20
4.1163092732
 30
0.0
 10
3.667251979
 20
4.119217967
 30
0.0
 10
3.6645013813
 20
4.1225113173
 30
0.0
 10
3.6621655427
 20
4.1261046998
 30
0.0
 10
3.660878811
 20
4.1286551508
 30
0.0
 10
3.6603019548
 20
4.1299578374
 30
0.0
  0
SPLINE
  5
361
100
AcDbEntity
  8
0
100
AcDbSpline
 62
7
  6
CONTINUOUS
 70
0
 71
3
 72
16
 73
12
 74
0
 42
0.0000001
 43
0.0000001
 44
0.0000000001
 40
0.0
 40
0.0
 40
0.0
 40
0.0
 40
0.1249481852
 40
0.1874893708
 40
0.2500217422
 40
0.374990749
 40
0.4999731194
 40
0.6249676045
 40
0.7499623589
 40
0.8749980217
 40
1.0
 40
1.0
 40
1.0
 40
1.0
 10
3.6863133562
 20
4.1388620289
 30
0.0
 10
3.6848825605
 20
4.1388620289
 30
0.0
 10
3.6827290751
 20
4.1390605054
 30
0.0
 10
3.6799371813
 20
4.1397064365
 30
0.0
 10
3.6772116382
 20
4.1405947701
 30
0.0
 10
3.6739634833
 20
4.1421380263
 30
0.0
 10
3.6704120198
 20
4.1445791908
 30
0.0
 10
3.6672508369
 20
4.1475051945
 30
0.0
 10
3.66450053
 20
4.1508179961
 30
0.0
 10
3.6621649542
 20
4.1544325203
 30
0.0
 10
3.6608786751
 20
4.1569973308
 30
0.0
 10
3.6603019548
 20
4.1583074198
 30
0.0
  0
SPLINE
  5
362
100
AcDbEntity
  8
0
100
AcDbSpline
 62
7
  6
CONTINUOUS
 70
0
 71
3
 72
16
 73
12
 74
0
 42
0.0000001
 43
0.0000001
 44
0.0000000001
 40
0.0
 40
0.0
 40
0.0
 40
0.0
 40
0.1251277709
 40
0.1877489466
 40
0.2503506945
 40
0.3754177513
 40
0.5004344312
 40
0.6253973648
 40
0.7502992083
 40
0.8751884937
 40
1.0
 40
1.0
 40
1.0
 40
1.0
 10
3.6863133562
 20
4.1708946472
 30
0.0
 10
3.684882605
 20
4.1708946472
 30
0.0
 10
3.6827293438
 20
4.1710923337
 30
0.0
 10
3.6799373559
 20
4.1717358434
 30
0.0
 10
3.6772121528
 20
4.1726207158
 30
0.0
 10
3.6739644486
 20
4.174157821
 30
0.0
 10
3.6704129089
 20
4.1765896788
 30
0.0
 10
3.6672515631
 20
4.1795046636
 30
0.0
 10
3.664501071
 20
4.1828050831
 30
0.0
 10
3.662165328
 20
4.186406149
 30
0.0
 10
3.6608787614
 20
4.1889618185
 30
0.0
 10
3.6603019548
 20
4.1902671951
 30
0.0
  0
SPLINE
  5
363
100
AcDbEntity
  8
0
100
AcDbSpline
 62
7
  6
CONTINUOUS
 70
0
 71
3
 72
16
 73
12
 74
0
 42
0.0000001
 43
0.0000001
 44
0.0000000001
 40
0.0
 40
0.0
 40
0.0
 40
0.0
 40
0.1257693701
 40
0.188676486
 40
0.2515264011
 40
0.3769447701
 40
0.5020852308
 40
0.6269362867
 40
0.7515061869
 40
0.8758713664
 40
1.0
 40
1.0
 40
1.0
 40
1.0
 10
3.6863133562
 20
4.2064162366
 30
0.0
 10
3.6848827622
 20
4.2064162366
 30
0.0
 10
3.6827302932
 20
4.2066111136
 30
0.0
 10
3.679937974
 20
4.2072459999
 30
0.0
 10
3.6772139774
 20
4.2081185563
 30
0.0
 10
3.6739678857
 20
4.2096337777
 30
0.0
 10
3.6704160909
 20
4.2120324896
 30
0.0
 10
3.6672541744
 20
4.2149082226
 30
0.0
 10
3.6645030248
 20
4.2181645343
 30
0.0
 10
3.6621666827
 20
4.2217176623
 30
0.0
 10
3.6608790749
 20
4.2242407764
 30
0.0
 10
3.6603019548
 20
4.2255293732
 30
0.0
  0
LINE
  5
364
100
AcDbEntity
  8
0
100
AcDbLine
 62
7
  6
CONTINUOUS
 10
3.6603019548
 20
4.2255293732
 11
3.6863133562
 21
4.2257414979
  0
SPLINE
  5
365
100
AcDbEntity
  8
0
100
AcDbSpline
 62
7
  6
CONTINUOUS
 70
0
 71
3
 72
16
 73
12
 74
0
 42
0.0000001
 43
0.0000001
 44
0.0000000001
 40
0.0
 40
0.0
 40
0.0
 40
0.0
 40
0.1268734612
 40
0.1902732226
 40
0.2535513124
 40
0.379577923
 40
0.5049358091
 40
0.6295974767
 40
0.7535961899
 40
0.8770552693
 40
1.0
 40
1.0
 40
1.0
 40
1.0
 10
3.6863133562
 20
4.2450847046
 30
0.0
 10
3.684883026
 20
4.2450847046
 30
0.0
 10
3.6827318896
 20
4.2452747935
 30
0.0
 10
3.6799390166
 20
4.2458949372
 30
0.0
 10
3.6772170665
 20
4.2467464753
 30
0.0
 10
3.6739737579
 20
4.2482243618
 30
0.0
 10
3.6704215858
 20
4.2505664009
 30
0.0
 10
3.6672587306
 20
4.253374992
 30
0.0
 10
3.6645064655
 20
4.2565558531
 30
0.0
 10
3.6621690872
 20
4.2600269916
 30
0.0
 10
3.660879634
 20
4.2624944431
 30
0.0
 10
3.6603019548
 20
4.26375436
 30
0.0
  0
SPLINE
  5
366
100
AcDbEntity
  8
0
100
AcDbSpline
 62
7
  6
CONTINUOUS
 70
0
 71
3
 72
15
 73
11
 74
0
 42
0.0000001
 43
0.0000001
 44
0.0000000001
 40
0.0
 40
0.0
 40
0.0
 40
0.0
 40
0.0755471176
 40
0.1662015183
 40
0.2722560592
 40
0.3936436257
 40
0.5295727569
 40
0.6782292537
 40
0.836499991
 40
1.0
 40
1.0
 40
1.0
 40
1.0
 10
3.6603019548
 20
4.26375436
 30
0.0
 10
3.6609410912
 20
4.2639124305
 30
0.0
 10
3.6623589813
 20
4.2642125076
 30
0.0
 10
3.66470052
 20
4.2645989962
 30
0.0
 10
3.6674505427
 20
4.2649530358
 30
0.0
 10
3.6706022666
 20
4.2652652803
 30
0.0
 10
3.6741311153
 20
4.2655250061
 30
0.0
 10
3.6779859245
 20
4.2657211938
 30
0.0
 10
3.6820841381
 20
4.2658437711
 30
0.0
 10
3.6848884535
 20
4.2658714449
 30
0.0
 10
3.6863133562
 20
4.2658714449
 30
0.0
  0
SPLINE
  5
367
100
AcDbEntity
  8
0
100
AcDbSpline
 62
7
  6
CONTINUOUS
 70
0
 71
3
 72
15
 73
11
 74
0
 42
0.0000001
 43
0.0000001
 44
0.0000000001
 40
0.0
 40
0.0
 40
0.0
 40
0.0
 40
0.1284538143
 40
0.2563469297
 40
0.3832581985
 40
0.508947843
 40
0.6333613193
 40
0.7565633275
 40
0.8787410933
 40
1.0
 40
1.0
 40
1.0
 40
1.0
 10
3.6863133562
 20
4.2865276529
 30
0.0
 10
3.6848833864
 20
4.2865276529
 30
0.0
 10
3.6820238203
 20
4.2867714461
 30
0.0
 10
3.6778753552
 20
4.287844625
 30
0.0
 10
3.6739822606
 20
4.289558035
 30
0.0
 10
3.6704293496
 20
4.2918205317
 30
0.0
 10
3.667265349
 20
4.2945346506
 30
0.0
 10
3.6645115176
 20
4.2976093807
 30
0.0
 10
3.6621726665
 20
4.3009652039
 30
0.0
 10
3.6608804725
 20
4.3033544055
 30
0.0
 10
3.6603019548
 20
4.3045740281
 30
0.0
  0
SPLINE
  5
368
100
AcDbEntity
  8
0
100
AcDbSpline
 62
7
  6
CONTINUOUS
 70
0
 71
3
 72
16
 73
12
 74
0
 42
0.0000001
 43
0.0000001
 44
0.0000000001
 40
0.0
 40
0.0
 40
0.0
 40
0.0
 40
0.0377009743
 40
0.078780259
 40
0.1713840184
 40
0.2783262854
 40
0.3996978401
 40
0.5348482778
 40
0.6821136067
 40
0.8385567534
 40
1.0
 40
1.0
 40
1.0
 40
1.0
 10
3.6603019548
 20
4.3045740281
 30
0.0
 10
3.6606034322
 20
4.3047149614
 30
0.0
 10
3.6612414597
 20
4.3049924051
 30
0.0
 10
3.6626551502
 20
4.3055321717
 30
0.0
 10
3.664684569
 20
4.3061661458
 30
0.0
 10
3.6674382252
 20
4.3068371883
 30
0.0
 10
3.6705930305
 20
4.3074284609
 30
0.0
 10
3.6741244197
 20
4.3079201025
 30
0.0
 10
3.6779815591
 20
4.3082913728
 30
0.0
 10
3.6820819407
 20
4.3085233142
 30
0.0
 10
3.6848882712
 20
4.3085756845
 30
0.0
 10
3.6863133562
 20
4.3085756845
 30
0.0
  0
SPLINE
  5
369
100
AcDbEntity
  8
0
100
AcDbSpline
 62
7
  6
CONTINUOUS
 70
0
 71
3
 72
15
 73
11
 74
0
 42
0.0000001
 43
0.0000001
 44
0.0000000001
 40
0.0
 40
0.0
 40
0.0
 40
0.0
 40
0.1304792256
 40
0.260079288
 40
0.3881299123
 40
0.5142470617
 40
0.638333697
 40
0.7604878342
 40
0.8809742949
 40
1.0
 40
1.0
 40
1.0
 40
1.0
 10
3.6863133562
 20
4.3303459632
 30
0.0
 10
3.6848838295
 20
4.3303459632
 30
0.0
 10
3.6820290298
 20
4.3305783213
 30
0.0
 10
3.6778841803
 20
4.3316019488
 30
0.0
 10
3.6739927176
 20
4.333237205
 30
0.0
 10
3.6704395477
 20
4.3353978227
 30
0.0
 10
3.6672741208
 20
4.337991044
 30
0.0
 10
3.6645183785
 20
4.3409298659
 30
0.0
 10
3.662177606
 20
4.3441380686
 30
0.0
 10
3.660881643
 20
4.3464271489
 30
0.0
 10
3.6603019548
 20
4.3475952618
 30
0.0
  0
SPLINE
  5
36A
100
AcDbEntity
  8
0
100
AcDbSpline
 62
7
  6
CONTINUOUS
 70
0
 71
3
 72
15
 73
11
 74
0
 42
0.0000001
 43
0.0000001
 44
0.0000000001
 40
0.0
 40
0.0
 40
0.0
 40
0.0
 40
0.0833221588
 40
0.1787807014
 40
0.2870743401
 40
0.4084811253
 40
0.5425373116
 40
0.6877923878
 40
0.8415689486
 40
1.0
 40
1.0
 40
1.0
 40
1.0
 10
3.6603019548
 20
4.3475952618
 30
0.0
 10
3.6609209437
 20
4.3480181115
 30
0.0
 10
3.6623105751
 20
4.3488364661
 30
0.0
 10
3.6646620037
 20
4.3499130127
 30
0.0
 10
3.6674204042
 20
4.3508969748
 30
0.0
 10
3.6705790737
 20
4.3517632672
 30
0.0
 10
3.6741141213
 20
4.3524832353
 30
0.0
 10
3.6779747357
 20
4.3530267716
 30
0.0
 10
3.6820784817
 20
4.3533662781
 30
0.0
 10
3.6848879839
 20
4.3534429515
 30
0.0
 10
3.6863133562
 20
4.3534429515
 30
0.0
  0
SPLINE
  5
36B
100
AcDbEntity
  8
0
100
AcDbSpline
 62
7
  6
CONTINUOUS
 70
0
 71
3
 72
15
 73
11
 74
0
 42
0.0000001
 43
0.0000001
 44
0.0000000001
 40
0.0
 40
0.0
 40
0.0
 40
0.0
 40
0.1329564158
 40
0.2646532998
 40
0.3941181044
 40
0.5207841944
 40
0.644491252
 40
0.7653662497
 40
0.8837601754
 40
1.0
 40
1.0
 40
1.0
 40
1.0
 10
3.6863133562
 20
4.3761176411
 30
0.0
 10
3.6848843381
 20
4.3761176411
 30
0.0
 10
3.6820350279
 20
4.3763363026
 30
0.0
 10
3.6778945027
 20
4.3773003924
 30
0.0
 10
3.6740052335
 20
4.3788414743
 30
0.0
 10
3.670452089
 20
4.3808790222
 30
0.0
 10
3.667285213
 20
4.3833259838
 30
0.0
 10
3.664527287
 20
4.3861003098
 30
0.0
 10
3.6621841725
 20
4.3891298722
 30
0.0
 10
3.6608832232
 20
4.3912978509
 30
0.0
 10
3.6603019548
 20
4.3924037429
 30
0.0
  0
SPLINE
  5
36C
100
AcDbEntity
  8
0
100
AcDbSpline
 62
7
  6
CONTINUOUS
 70
0
 71
3
 72
15
 73
11
 74
0
 42
0.0000001
 43
0.0000001
 44
0.0000000001
 40
0.0
 40
0.0
 40
0.0
 40
0.0
 40
0.0886146559
 40
0.1874985916
 40
0.2974830387
 40
0.4190078889
 40
0.5518018976
 40
0.6946598442
 40
0.8452194362
 40
1.0
 40
1.0
 40
1.0
 40
1.0
 10
3.6603019548
 20
4.3924037429
 30
0.0
 10
3.6609110382
 20
4.3929471703
 30
0.0
 10
3.6622824396
 20
4.3940060739
 30
0.0
 10
3.6646369485
 20
4.3954178252
 30
0.0
 10
3.6673990826
 20
4.3967073895
 30
0.0
 10
3.6705617175
 20
4.3978421185
 30
0.0
 10
3.6741008901
 20
4.3987848422
 30
0.0
 10
3.6779658009
 20
4.3994963766
 30
0.0
 10
3.6820738986
 20
4.3999407606
 30
0.0
 10
3.6848876026
 20
4.4000411495
 30
0.0
 10
3.6863133562
 20
4.4000411495
 30
0.0
  0
SPLINE
  5
36D
100
AcDbEntity
  8
0
100
AcDbSpline
 62
7
  6
CONTINUOUS
 70
0
 71
3
 72
17
 73
13
 74
0
 42
0.0000001
 43
0.0000001
 44
0.0000000001
 40
0.0
 40
0.0
 40
0.0
 40
0.0
 40
0.1358478268
 40
0.2032776073
 40
0.2700852856
 40
0.4012213623
 40
0.5285508551
 40
0.5907242961
 40
0.6518895085
 40
0.7712483331
 40
0.8871317577
 40
1.0
 40
1.0
 40
1.0
 40
1.0
 10
3.6863133562
 20
4.4234018805
 30
0.0
 10
3.6848848938
 20
4.4234018805
 30
0.0
 10
3.6827432797
 20
4.4235547603
 30
0.0
 10
3.6799465937
 20
4.4240584213
 30
0.0
 10
3.677239896
 20
4.4247455342
 30
0.0
 10
3.6740195431
 20
4.4259319932
 30
0.0
 10
3.6710350312
 20
4.4275237551
 30
0.0
 10
3.6688443696
 20
4.4289925684
 30
0.0
 10
3.6668210724
 20
4.430550407
 30
0.0
 10
3.6645383818
 20
4.4326861239
 30
0.0
 10
3.6621927661
 20
4.4355074297
 30
0.0
 10
3.6608853236
 20
4.4375343834
 30
0.0
 10
3.6603019548
 20
4.4385679414
 30
0.0
  0
SPLINE
  5
36E
100
AcDbEntity
  8
0
100
AcDbSpline
 62
7
  6
CONTINUOUS
 70
0
 71
3
 72
14
 73
10
 74
0
 42
0.0000001
 43
0.0000001
 44
0.0000000001
 40
0.0
 40
0.0
 40
0.0
 40
0.0
 40
0.1963859345
 40
0.3083128226
 40
0.430103149
 40
0.5616529459
 40
0.7020044824
 40
0.8491365958
 40
1.0
 40
1.0
 40
1.0
 40
1.0
 10
3.6603019548
 20
4.4385679414
 30
0.0
 10
3.6615553732
 20
4.4399375371
 30
0.0
 10
3.6638446929
 20
4.4418042315
 30
0.0
 10
3.6673756843
 20
4.4438268559
 30
0.0
 10
3.6705425501
 20
4.4452212733
 30
0.0
 10
3.6740854843
 20
4.4463787715
 30
0.0
 10
3.6779552049
 20
4.4472525608
 30
0.0
 10
3.6820683689
 20
4.4477981917
 30
0.0
 10
3.6848871421
 20
4.4479215125
 30
0.0
 10
3.6863133562
 20
4.4479215125
 30
0.0
  0
SPLINE
  5
36F
100
AcDbEntity
  8
0
100
AcDbSpline
 62
7
  6
CONTINUOUS
 70
0
 71
3
 72
15
 73
11
 74
0
 42
0.0000001
 43
0.0000001
 44
0.0000000001
 40
0.0
 40
0.0
 40
0.0
 40
0.0
 40
0.1155439205
 40
0.2334182266
 40
0.3539786158
 40
0.4775956844
 40
0.6044014698
 40
0.7342181792
 40
0.8664332182
 40
1.0
 40
1.0
 40
1.0
 40
1.0
 10
3.6603019548
 20
5.0157880241
 30
0.0
 10
3.6608836403
 20
5.0168786932
 30
0.0
 10
3.6621858866
 20
5.0190170125
 30
0.0
 10
3.6645295736
 20
5.0220028148
 30
0.0
 10
3.6672880075
 20
5.0247368439
 30
0.0
 10
3.670455188
 20
5.0271479911
 30
0.0
 10
3.6740082697
 20
5.0291554352
 30
0.0
 10
3.6778969685
 20
5.0306735196
 30
0.0
 10
3.6820364459
 20
5.0316230963
 30
0.0
 10
3.6848844581
 20
5.0318384255
 30
0.0
 10
3.6863133562
 20
5.0318384255
 30
0.0
  0
SPLINE
  5
370
100
AcDbEntity
  8
0
100
AcDbSpline
 62
7
  6
CONTINUOUS
 70
0
 71
3
 72
15
 73
11
 74
0
 42
0.0000001
 43
0.0000001
 44
0.0000000001
 40
0.0
 40
0.0
 40
0.0
 40
0.0
 40
0.1184550338
 40
0.2385112601
 40
0.3604008243
 40
0.4844071507
 40
0.6106353213
 40
0.7389763266
 40
0.869008867
 40
1.0
 40
1.0
 40
1.0
 40
1.0
 10
3.6603019548
 20
5.0088050586
 30
0.0
 10
3.6608819554
 20
5.0099602505
 30
0.0
 10
3.6621789135
 20
5.012224198
 30
0.0
 10
3.6645201713
 20
5.015395333
 30
0.0
 10
3.6672763795
 20
5.0183000239
 30
0.0
 10
3.6704421324
 20
5.0208628907
 30
0.0
 10
3.673995327
 20
5.02299795
 30
0.0
 10
3.6778863532
 20
5.0246136282
 30
0.0
 10
3.6820303009
 20
5.0256248637
 30
0.0
 10
3.6848839371
 20
5.0258543674
 30
0.0
 10
3.6863133562
 20
5.0258543674
 30
0.0
  0
SPLINE
  5
371
100
AcDbEntity
  8
0
100
AcDbSpline
 62
7
  6
CONTINUOUS
 70
0
 71
3
 72
15
 73
11
 74
0
 42
0.0000001
 43
0.0000001
 44
0.0000000001
 40
0.0
 40
0.0
 40
0.0
 40
0.0
 40
0.120809407
 40
0.2426457722
 40
0.3656352722
 40
0.4899813082
 40
0.6157560134
 40
0.742897011
 40
0.8711355922
 40
1.0
 40
1.0
 40
1.0
 40
1.0
 10
3.6603019548
 20
4.9972415289
 30
0.0
 10
3.6608807016
 20
4.9984506579
 30
0.0
 10
3.6621736383
 20
5.0008194714
 30
0.0
 10
3.6645128784
 20
5.0041452407
 30
0.0
 10
3.6672671048
 20
5.0071923038
 30
0.0
 10
3.6704314105
 20
5.0098818082
 30
0.0
 10
3.6739843939
 20
5.0121235523
 30
0.0
 10
3.6778771702
 20
5.0138210287
 30
0.0
 10
3.682024898
 20
5.0148840943
 30
0.0
 10
3.6848834778
 20
5.0151255509
 30
0.0
 10
3.6863133562
 20
5.0151255509
 30
0.0
  0
SPLINE
  5
372
100
AcDbEntity
  8
0
100
AcDbSpline
 62
7
  6
CONTINUOUS
 70
0
 71
3
 72
16
 73
12
 74
0
 42
0.0000001
 43
0.0000001
 44
0.0000000001
 40
0.0
 40
0.0
 40
0.0
 40
0.0
 40
0.1226122678
 40
0.245817482
 40
0.3696567839
 40
0.4942662828
 40
0.6196858074
 40
0.7458830437
 40
0.8092809042
 40
0.8728183201
 40
1.0
 40
1.0
 40
1.0
 40
1.0
 10
3.6603019548
 20
4.981208798
 30
0.0
 10
3.6608797946
 20
4.9824607519
 30
0.0
 10
3.6621697752
 20
4.9849127441
 30
0.0
 10
3.6645074436
 20
4.9883611057
 30
0.0
 10
3.6672600159
 20
4.9915210039
 30
0.0
 10
3.6704231223
 20
4.9943109411
 30
0.0
 10
3.6739753851
 20
4.9966372411
 30
0.0
 10
3.677217915
 20
4.9981047776
 30
0.0
 10
3.679939301
 20
4.9989504877
 30
0.0
 10
3.6827323256
 20
4.9995665375
 30
0.0
 10
3.6848830977
 20
4.9997553003
 30
0.0
 10
3.6863133562
 20
4.9997553003
 30
0.0
  0
SPLINE
  5
373
100
AcDbEntity
  8
0
100
AcDbSpline
 62
7
  6
CONTINUOUS
 70
0
 71
3
 72
16
 73
12
 74
0
 42
0.0000001
 43
0.0000001
 44
0.0000000001
 40
0.0
 40
0.0
 40
0.0
 40
0.0
 40
0.1239092519
 40
0.2481062811
 40
0.372569928
 40
0.4973854277
 40
0.6225658586
 40
0.7480970387
 40
0.8110265005
 40
0.8740252132
 40
1.0
 40
1.0
 40
1.0
 40
1.0
 10
3.6603019548
 20
4.9608612699
 30
0.0
 10
3.660879177
 20
4.9621445134
 30
0.0
 10
3.6621671228
 20
4.9646572398
 30
0.0
 10
3.6645036569
 20
4.9681950695
 30
0.0
 10
3.6672550154
 20
4.9714373038
 30
0.0
 10
3.6704171098
 20
4.9743005093
 30
0.0
 10
3.6739689801
 20
4.976688645
 30
0.0
 10
3.6772145545
 20
4.9781968914
 30
0.0
 10
3.679938168
 20
4.9790655221
 30
0.0
 10
3.6827305926
 20
4.9796976573
 30
0.0
 10
3.6848828114
 20
4.9798916395
 30
0.0
 10
3.6863133562
 20
4.9798916395
 30
0.0
  0
SPLINE
  5
374
100
AcDbEntity
  8
0
100
AcDbSpline
 62
7
  6
CONTINUOUS
 70
0
 71
3
 72
16
 73
12
 74
0
 42
0.0000001
 43
0.0000001
 44
0.0000000001
 40
0.0
 40
0.0
 40
0.0
 40
0.0
 40
0.1247025119
 40
0.2495080707
 40
0.3743568136
 40
0.499301736
 40
0.6243380408
 40
0.7494612137
 40
0.8121026361
 40
0.8747695511
 40
1.0
 40
1.0
 40
1.0
 40
1.0
 10
3.6603019548
 20
4.9363949024
 30
0.0
 10
3.660878811
 20
4.9376975889
 30
0.0
 10
3.6621655425
 20
4.9402480397
 30
0.0
 10
3.664501381
 20
4.943841422
 30
0.0
 10
3.6672519785
 20
4.947134772
 30
0.0
 10
3.6704134159
 20
4.9500434654
 30
0.0
 10
3.6739649976
 20
4.9524700101
 30
0.0
 10
3.6772124438
 20
4.9540036054
 30
0.0
 10
3.6799374534
 20
4.954886503
 30
0.0
 10
3.6827294956
 20
4.9555286306
 30
0.0
 10
3.6848826299
 20
4.9557258665
 30
0.0
 10
3.6863133562
 20
4.9557258665
 30
0.0
  0
SPLINE
  5
375
100
AcDbEntity
  8
0
100
AcDbSpline
 62
7
  6
CONTINUOUS
 70
0
 71
3
 72
16
 73
12
 74
0
 42
0.0000001
 43
0.0000001
 44
0.0000000001
 40
0.0
 40
0.0
 40
0.0
 40
0.0
 40
0.1250019697
 40
0.2500376242
 40
0.3750323773
 40
0.5000268366
 40
0.6250091577
 40
0.7499781892
 40
0.8125105692
 40
0.8750517706
 40
1.0
 40
1.0
 40
1.0
 40
1.0
 10
3.6603019548
 20
4.90804532
 30
0.0
 10
3.660878675
 20
4.9093554088
 30
0.0
 10
3.6621649541
 20
4.9119202192
 30
0.0
 10
3.6645005296
 20
4.9155347433
 30
0.0
 10
3.6672508363
 20
4.9188475445
 30
0.0
 10
3.6704120184
 20
4.9217735478
 30
0.0
 10
3.6739634813
 20
4.9242147122
 30
0.0
 10
3.6772116358
 20
4.9257579687
 30
0.0
 10
3.6799371793
 20
4.9266463028
 30
0.0
 10
3.6827290739
 20
4.9272922341
 30
0.0
 10
3.68488256
 20
4.9274907108
 30
0.0
 10
3.6863133562
 20
4.9274907108
 30
0.0
  0
SPLINE
  5
376
100
AcDbEntity
  8
0
100
AcDbSpline
 62
7
  6
CONTINUOUS
 70
0
 71
3
 72
16
 73
12
 74
0
 42
0.0000001
 43
0.0000001
 44
0.0000000001
 40
0.0
 40
0.0
 40
0.0
 40
0.0
 40
0.1248114977
 40
0.2497007748
 40
0.3746026169
 40
0.4995655248
 40
0.6245821555
 40
0.7496492368
 40
0.8122509934
 40
0.8748721848
 40
1.0
 40
1.0
 40
1.0
 40
1.0
 10
3.6603019548
 20
4.8760855447
 30
0.0
 10
3.6608787613
 20
4.8773909212
 30
0.0
 10
3.6621653278
 20
4.8799465904
 30
0.0
 10
3.6645010706
 20
4.8835476562
 30
0.0
 10
3.6672515625
 20
4.8868480754
 30
0.0
 10
3.6704129075
 20
4.8897630598
 30
0.0
 10
3.6739644466
 20
4.8921949175
 30
0.0
 10
3.6772121504
 20
4.893732023
 30
0.0
 10
3.679937354
 20
4.894616896
 30
0.0
 10
3.6827293426
 20
4.8952604058
 30
0.0
 10
3.6848826045
 20
4.8954580925
 30
0.0
 10
3.6863133562
 20
4.8954580925
 30
0.0
  0
SPLINE
  5
377
100
AcDbEntity
  8
0
100
AcDbSpline
 62
7
  6
CONTINUOUS
 70
0
 71
3
 72
16
 73
12
 74
0
 42
0.0000001
 43
0.0000001
 44
0.0000000001
 40
0.0
 40
0.0
 40
0.0
 40
0.0
 40
0.124128625
 40
0.2484937963
 40
0.3730636951
 40
0.4979147252
 40
0.6230551364
 40
0.74847353
 40
0.8113234537
 40
0.8742305854
 40
1.0
 40
1.0
 40
1.0
 40
1.0
 10
3.6603019548
 20
4.8408233666
 30
0.0
 10
3.6608790749
 20
4.8421119632
 30
0.0
 10
3.6621666826
 20
4.8446350772
 30
0.0
 10
3.6645030245
 20
4.8481882051
 30
0.0
 10
3.6672541739
 20
4.8514445164
 30
0.0
 10
3.6704160895
 20
4.854320249
 30
0.0
 10
3.6739678837
 20
4.8567189608
 30
0.0
 10
3.6772139751
 20
4.8582341825
 30
0.0
 10
3.679937972
 20
4.8591067394
 30
0.0
 10
3.6827302921
 20
4.859741626
 30
0.0
 10
3.6848827617
 20
4.8599365032
 30
0.0
 10
3.6863133562
 20
4.8599365032
 30
0.0
  0
LINE
  5
378
100
AcDbEntity
  8
0
100
AcDbLine
 62
7
  6
CONTINUOUS
 10
3.6863133562
 20
4.8406112418
 11
3.6603019548
 21
4.8408233666
  0
SPLINE
  5
379
100
AcDbEntity
  8
0
100
AcDbSpline
 62
7
  6
CONTINUOUS
 70
0
 71
3
 72
16
 73
12
 74
0
 42
0.0000001
 43
0.0000001
 44
0.0000000001
 40
0.0
 40
0.0
 40
0.0
 40
0.0
 40
0.1229447222
 40
0.2464037934
 40
0.3704025052
 40
0.4950641469
 40
0.6204219832
 40
0.7464486183
 40
0.8097267166
 40
0.873126494
 40
1.0
 40
1.0
 40
1.0
 40
1.0
 10
3.6603019548
 20
4.8025983797
 30
0.0
 10
3.660879634
 20
4.8038582965
 30
0.0
 10
3.662169087
 20
4.8063257479
 30
0.0
 10
3.6645064652
 20
4.8097968862
 30
0.0
 10
3.66725873
 20
4.812977747
 30
0.0
 10
3.6704215844
 20
4.8157863377
 30
0.0
 10
3.6739737559
 20
4.8181283768
 30
0.0
 10
3.6772170642
 20
4.8196062635
 30
0.0
 10
3.6799390147
 20
4.8204578021
 30
0.0
 10
3.6827318884
 20
4.821077946
 30
0.0
 10
3.6848830255
 20
4.8212680351
 30
0.0
 10
3.6863133562
 20
4.8212680351
 30
0.0
  0
SPLINE
  5
37A
100
AcDbEntity
  8
0
100
AcDbSpline
 62
7
  6
CONTINUOUS
 70
0
 71
3
 72
15
 73
11
 74
0
 42
0.0000001
 43
0.0000001
 44
0.0000000001
 40
0.0
 40
0.0
 40
0.0
 40
0.0
 40
0.1634999517
 40
0.3217706614
 40
0.4704271372
 40
0.6063563288
 40
0.7277439249
 40
0.8337984681
 40
0.9244528765
 40
1.0
 40
1.0
 40
1.0
 40
1.0
 10
3.6863133562
 20
4.8004812948
 30
0.0
 10
3.684888454
 20
4.8004812948
 30
0.0
 10
3.6820841393
 20
4.8005089686
 30
0.0
 10
3.6779859267
 20
4.8006315459
 30
0.0
 10
3.6741311173
 20
4.8008277334
 30
0.0
 10
3.670602268
 20
4.8010874593
 30
0.0
 10
3.6674505433
 20
4.8013997039
 30
0.0
 10
3.6647005203
 20
4.8017537435
 30
0.0
 10
3.6623589815
 20
4.8021402321
 30
0.0
 10
3.6609410912
 20
4.8024403092
 30
0.0
 10
3.6603019548
 20
4.8025983797
 30
0.0
  0
SPLINE
  5
37B
100
AcDbEntity
  8
0
100
AcDbSpline
 62
7
  6
CONTINUOUS
 70
0
 71
3
 72
15
 73
11
 74
0
 42
0.0000001
 43
0.0000001
 44
0.0000000001
 40
0.0
 40
0.0
 40
0.0
 40
0.0
 40
0.1212588983
 40
0.243436656
 40
0.3666386627
 40
0.491052113
 40
0.6167417074
 40
0.7436530005
 40
0.8715461403
 40
1.0
 40
1.0
 40
1.0
 40
1.0
 10
3.6603019548
 20
4.7617787116
 30
0.0
 10
3.6608804724
 20
4.7629983342
 30
0.0
 10
3.6621726664
 20
4.7653875356
 30
0.0
 10
3.6645115173
 20
4.7687433586
 30
0.0
 10
3.6672653484
 20
4.7718180885
 30
0.0
 10
3.6704293482
 20
4.774532207
 30
0.0
 10
3.6739822586
 20
4.7767947035
 30
0.0
 10
3.6778753529
 20
4.778508114
 30
0.0
 10
3.682023819
 20
4.7795812934
 30
0.0
 10
3.6848833859
 20
4.7798250868
 30
0.0
 10
3.6863133562
 20
4.7798250868
 30
0.0
  0
SPLINE
  5
37C
100
AcDbEntity
  8
0
100
AcDbSpline
 62
7
  6
CONTINUOUS
 70
0
 71
3
 72
16
 73
12
 74
0
 42
0.0000001
 43
0.0000001
 44
0.0000000001
 40
0.0
 40
0.0
 40
0.0
 40
0.0
 40
0.1614431899
 40
0.3178863094
 40
0.4651516171
 40
0.6003021146
 40
0.7216736987
 40
0.8286159679
 40
0.9212197349
 40
0.9622990238
 40
1.0
 40
1.0
 40
1.0
 40
1.0
 10
3.6863133562
 20
4.7577770552
 30
0.0
 10
3.6848882717
 20
4.7577770552
 30
0.0
 10
3.6820819419
 20
4.7578294255
 30
0.0
 10
3.6779815612
 20
4.7580613668
 30
0.0
 10
3.6741244218
 20
4.758432637
 30
0.0
 10
3.6705930319
 20
4.7589242786
 30
0.0
 10
3.6674382258
 20
4.7595155512
 30
0.0
 10
3.6646845693
 20
4.7601865939
 30
0.0
 10
3.6626551504
 20
4.760820568
 30
0.0
 10
3.6612414598
 20
4.7613603346
 30
0.0
 10
3.6606034322
 20
4.7616377783
 30
0.0
 10
3.6603019548
 20
4.7617787116
 30
0.0
  0
SPLINE
  5
37D
100
AcDbEntity
  8
0
100
AcDbSpline
 62
7
  6
CONTINUOUS
 70
0
 71
3
 72
15
 73
11
 74
0
 42
0.0000001
 43
0.0000001
 44
0.0000000001
 40
0.0
 40
0.0
 40
0.0
 40
0.0
 40
0.1190256968
 40
0.2395121495
 40
0.3616662851
 40
0.4857528944
 40
0.6118699931
 40
0.7399206413
 40
0.8695207282
 40
1.0
 40
1.0
 40
1.0
 40
1.0
 10
3.6603019548
 20
4.718757478
 30
0.0
 10
3.660881643
 20
4.7199255907
 30
0.0
 10
3.6621776059
 20
4.7222146709
 30
0.0
 10
3.6645183782
 20
4.7254228735
 30
0.0
 10
3.6672741202
 20
4.7283616951
 30
0.0
 10
3.6704395464
 20
4.730954916
 30
0.0
 10
3.6739927155
 20
4.7331155336
 30
0.0
 10
3.6778841781
 20
4.7347507903
 30
0.0
 10
3.6820290285
 20
4.7357744182
 30
0.0
 10
3.684883829
 20
4.7360067766
 30
0.0
 10
3.6863133562
 20
4.7360067766
 30
0.0
  0
SPLINE
  5
37E
100
AcDbEntity
  8
0
100
AcDbSpline
 62
7
  6
CONTINUOUS
 70
0
 71
3
 72
15
 73
11
 74
0
 42
0.0000001
 43
0.0000001
 44
0.0000000001
 40
0.0
 40
0.0
 40
0.0
 40
0.0
 40
0.1584309958
 40
0.3122075296
 40
0.4574625844
 40
0.5915188296
 40
0.7129256438
 40
0.8212192846
 40
0.9166778349
 40
1.0
 40
1.0
 40
1.0
 40
1.0
 10
3.6863133562
 20
4.7129097883
 30
0.0
 10
3.6848879844
 20
4.7129097883
 30
0.0
 10
3.682078483
 20
4.7129864615
 30
0.0
 10
3.6779747379
 20
4.713325968
 30
0.0
 10
3.6741141234
 20
4.7138695041
 30
0.0
 10
3.6705790752
 20
4.7145894722
 30
0.0
 10
3.6674204049
 20
4.7154557647
 30
0.0
 10
3.664662004
 20
4.7164397269
 30
0.0
 10
3.6623105753
 20
4.7175162735
 30
0.0
 10
3.6609209438
 20
4.7183346282
 30
0.0
 10
3.6603019548
 20
4.718757478
 30
0.0
  0
SPLINE
  5
37F
100
AcDbEntity
  8
0
100
AcDbSpline
 62
7
  6
CONTINUOUS
 70
0
 71
3
 72
15
 73
11
 74
0
 42
0.0000001
 43
0.0000001
 44
0.0000000001
 40
0.0
 40
0.0
 40
0.0
 40
0.0
 40
0.1162398228
 40
0.2346337458
 40
0.3555087433
 40
0.4792157944
 40
0.6058818694
 40
0.7353466817
 40
0.8670435733
 40
1.0
 40
1.0
 40
1.0
 40
1.0
 10
3.6603019548
 20
4.6739489968
 30
0.0
 10
3.6608832232
 20
4.6750548888
 30
0.0
 10
3.6621841725
 20
4.6772228675
 30
0.0
 10
3.6645272869
 20
4.6802524298
 30
0.0
 10
3.6672852129
 20
4.6830267558
 30
0.0
 10
3.6704520886
 20
4.6854737173
 30
0.0
 10
3.6740052329
 20
4.6875112651
 30
0.0
 10
3.6778945022
 20
4.6890523472
 30
0.0
 10
3.6820350276
 20
4.6900164371
 30
0.0
 10
3.684884338
 20
4.6902350986
 30
0.0
 10
3.6863133562
 20
4.6902350986
 30
0.0
  0
SPLINE
  5
380
100
AcDbEntity
  8
0
100
AcDbSpline
 62
7
  6
CONTINUOUS
 70
0
 71
3
 72
15
 73
11
 74
0
 42
0.0000001
 43
0.0000001
 44
0.0000000001
 40
0.0
 40
0.0
 40
0.0
 40
0.0
 40
0.1547805094
 40
0.3053400748
 40
0.4481979998
 40
0.5809920662
 40
0.7025169449
 40
0.8125013942
 40
0.9113853375
 40
1.0
 40
1.0
 40
1.0
 40
1.0
 10
3.6863133562
 20
4.6663115902
 30
0.0
 10
3.6848876031
 20
4.6663115902
 30
0.0
 10
3.6820738998
 20
4.666411979
 30
0.0
 10
3.6779658031
 20
4.6668563628
 30
0.0
 10
3.6741008921
 20
4.667567897
 30
0.0
 10
3.6705617189
 20
4.6685106207
 30
0.0
 10
3.6673990833
 20
4.66964535
 30
0.0
 10
3.6646369488
 20
4.6709349144
 30
0.0
 10
3.6622824397
 20
4.6723466657
 30
0.0
 10
3.6609110383
 20
4.6734055694
 30
0.0
 10
3.6603019548
 20
4.6739489968
 30
0.0
  0
SPLINE
  5
381
100
AcDbEntity
  8
0
100
AcDbSpline
 62
7
  6
CONTINUOUS
 70
0
 71
3
 72
17
 73
13
 74
0
 42
0.0000001
 43
0.0000001
 44
0.0000000001
 40
0.0
 40
0.0
 40
0.0
 40
0.0
 40
0.1128682344
 40
0.228751651
 40
0.348110474
 40
0.409275678
 40
0.4714491007
 40
0.5987785413
 40
0.7299146414
 40
0.796722328
 40
0.8641521253
 40
1.0
 40
1.0
 40
1.0
 40
1.0
 10
3.6603019548
 20
4.6277847983
 30
0.0
 10
3.6608853235
 20
4.6288183562
 30
0.0
 10
3.662192766
 20
4.6308453098
 30
0.0
 10
3.6645383815
 20
4.6336666155
 30
0.0
 10
3.6668210719
 20
4.6358023323
 30
0.0
 10
3.6688443689
 20
4.6373601707
 30
0.0
 10
3.6710350297
 20
4.6388289837
 30
0.0
 10
3.6740195411
 20
4.6404207455
 30
0.0
 10
3.6772398937
 20
4.6416072048
 30
0.0
 10
3.6799465918
 20
4.6422943181
 30
0.0
 10
3.6827432786
 20
4.6427979793
 30
0.0
 10
3.6848848933
 20
4.6429508592
 30
0.0
 10
3.6863133562
 20
4.6429508592
 30
0.0
  0
SPLINE
  5
382
100
AcDbEntity
  8
0
100
AcDbSpline
 62
7
  6
CONTINUOUS
 70
0
 71
3
 72
14
 73
10
 74
0
 42
0.0000001
 43
0.0000001
 44
0.0000000001
 40
0.0
 40
0.0
 40
0.0
 40
0.0
 40
0.1508633512
 40
0.2979954383
 40
0.438346953
 40
0.5698968064
 40
0.6916871609
 40
0.8036140509
 40
1.0
 40
1.0
 40
1.0
 40
1.0
 10
3.6863133562
 20
4.6184312272
 30
0.0
 10
3.6848871426
 20
4.6184312272
 30
0.0
 10
3.6820683701
 20
4.6185545479
 30
0.0
 10
3.6779552071
 20
4.6191001786
 30
0.0
 10
3.6740854864
 20
4.6199739676
 30
0.0
 10
3.6705425515
 20
4.6211314658
 30
0.0
 10
3.667375685
 20
4.6225258834
 30
0.0
 10
3.6638446931
 20
4.624548508
 30
0.0
 10
3.6615553733
 20
4.6264152025
 30
0.0
 10
3.6603019548
 20
4.6277847983
 30
0.0
  0
SPLINE
  5
383
100
AcDbEntity
  8
0
100
AcDbSpline
 62
7
  6
CONTINUOUS
 70
0
 71
3
 72
15
 73
11
 74
0
 42
0.0000001
 43
0.0000001
 44
0.0000000001
 40
0.0
 40
0.0
 40
0.0
 40
0.0
 40
0.1089561485
 40
0.221975882
 40
0.3396572931
 40
0.4625163086
 40
0.5906910229
 40
0.7238083572
 40
0.8608175837
 40
1.0
 40
1.0
 40
1.0
 40
1.0
 10
3.6603019548
 20
4.580709469
 30
0.0
 10
3.6608880991
 20
4.58166125
 30
0.0
 10
3.6622037168
 20
4.5835282713
 30
0.0
 10
3.6645524517
 20
4.5861139082
 30
0.0
 10
3.6673148466
 20
4.5884795269
 30
0.0
 10
3.6704837837
 20
4.5905636389
 30
0.0
 10
3.674035288
 20
4.5922968229
 30
0.0
 10
3.6779182841
 20
4.5936060247
 30
0.0
 10
3.682048473
 20
4.5944241767
 30
0.0
 10
3.6848854736
 20
4.5946094315
 30
0.0
 10
3.6863133562
 20
4.5946094315
 30
0.0
  0
SPLINE
  5
384
100
AcDbEntity
  8
0
100
AcDbSpline
 62
7
  6
CONTINUOUS
 70
0
 71
3
 72
15
 73
11
 74
0
 42
0.0000001
 43
0.0000001
 44
0.0000000001
 40
0.0
 40
0.0
 40
0.0
 40
0.0
 40
0.1467628421
 40
0.2903164083
 40
0.4280645668
 40
0.5583310327
 40
0.6803869506
 40
0.7942536051
 40
0.9005161214
 40
1.0
 40
1.0
 40
1.0
 40
1.0
 10
3.6863133562
 20
4.5697298134
 30
0.0
 10
3.6848866206
 20
4.5697298134
 30
0.0
 10
3.6820621306
 20
4.5698750605
 30
0.0
 10
3.6779433832
 20
4.5705174108
 30
0.0
 10
3.6740689705
 20
4.5715459017
 30
0.0
 10
3.6705221906
 20
4.5729085519
 30
0.0
 10
3.6673541624
 20
4.5745486776
 30
0.0
 10
3.6645892694
 20
4.576412357
 30
0.0
 10
3.6622352853
 20
4.5784517682
 30
0.0
 10
3.6608965918
 20
4.5799467588
 30
0.0
 10
3.6603019548
 20
4.580709469
 30
0.0
  0
SPLINE
  5
385
100
AcDbEntity
  8
0
100
AcDbSpline
 62
7
  6
CONTINUOUS
 70
0
 71
3
 72
16
 73
12
 74
0
 42
0.0000001
 43
0.0000001
 44
0.0000000001
 40
0.0
 40
0.0
 40
0.0
 40
0.0
 40
0.1044635958
 40
0.214241651
 40
0.330060654
 40
0.4524908685
 40
0.5816326711
 40
0.6486192086
 40
0.7170133309
 40
0.857164914
 40
1.0
 40
1.0
 40
1.0
 40
1.0
 10
3.6603019548
 20
4.5331763699
 30
0.0
 10
3.6608917623
 20
4.5340376396
 30
0.0
 10
3.6622177101
 20
4.5357270181
 30
0.0
 10
3.664569307
 20
4.5380511893
 30
0.0
 10
3.6673334461
 20
4.5401763632
 30
0.0
 10
3.6705022593
 20
4.5420474209
 30
0.0
 10
3.6734254794
 20
4.5433282446
 30
0.0
 10
3.6759319498
 20
4.5441716378
 30
0.0
 10
3.6785902707
 20
4.54489419
 30
0.0
 10
3.6820556078
 20
4.5455104258
 30
0.0
 10
3.6848860567
 20
4.5456763699
 30
0.0
 10
3.6863133562
 20
4.5456763699
 30
0.0
  0
SPLINE
  5
386
100
AcDbEntity
  8
0
100
AcDbSpline
 62
7
  6
CONTINUOUS
 70
0
 71
3
 72
16
 73
12
 74
0
 42
0.0000001
 43
0.0000001
 44
0.0000000001
 40
0.0
 40
0.0
 40
0.0
 40
0.0
 40
0.1428350356
 40
0.2829865932
 40
0.3513807055
 40
0.4183672305
 40
0.5475090872
 40
0.6699393291
 40
0.7857583337
 40
0.8955363968
 40
1.0
 40
1.0
 40
1.0
 40
1.0
 10
3.6863133562
 20
4.5206763699
 30
0.0
 10
3.6848860572
 20
4.5206763699
 30
0.0
 10
3.6820556091
 20
4.5208423138
 30
0.0
 10
3.6785902728
 20
4.5214585494
 30
0.0
 10
3.6759319522
 20
4.5221811011
 30
0.0
 10
3.6734254815
 20
4.5230244943
 30
0.0
 10
3.6705022607
 20
4.5243053181
 30
0.0
 10
3.6673334467
 20
4.526176376
 30
0.0
 10
3.6645693073
 20
4.5283015502
 30
0.0
 10
3.6622177103
 20
4.5306257215
 30
0.0
 10
3.6608917623
 20
4.5323151001
 30
0.0
 10
3.6603019548
 20
4.5331763699
 30
0.0
  0
SPLINE
  5
387
100
AcDbEntity
  8
0
100
AcDbSpline
 62
7
  6
CONTINUOUS
 70
0
 71
3
 72
15
 73
11
 74
0
 42
0.0000001
 43
0.0000001
 44
0.0000000001
 40
0.0
 40
0.0
 40
0.0
 40
0.0
 40
0.0994838714
 40
0.2057463799
 40
0.3196130326
 40
0.4416689228
 40
0.5719353335
 40
0.7096835141
 40
0.8532371062
 40
1.0
 40
1.0
 40
1.0
 40
1.0
 10
3.6603019548
 20
4.4856432708
 30
0.0
 10
3.6608965918
 20
4.4864059808
 30
0.0
 10
3.6622352852
 20
4.4879009714
 30
0.0
 10
3.6645892691
 20
4.4899403825
 30
0.0
 10
3.6673541618
 20
4.4918040617
 30
0.0
 10
3.6705221892
 20
4.4934441872
 30
0.0
 10
3.6740689684
 20
4.4948068373
 30
0.0
 10
3.677943381
 20
4.4958353286
 30
0.0
 10
3.6820621293
 20
4.4964776791
 30
0.0
 10
3.6848866201
 20
4.4966229264
 30
0.0
 10
3.6863133562
 20
4.4966229264
 30
0.0
  0
SPLINE
  5
388
100
AcDbEntity
  8
0
100
AcDbSpline
 62
7
  6
CONTINUOUS
 70
0
 71
3
 72
15
 73
11
 74
0
 42
0.0000001
 43
0.0000001
 44
0.0000000001
 40
0.0
 40
0.0
 40
0.0
 40
0.0
 40
0.1391823673
 40
0.2761915685
 40
0.4093088798
 40
0.5374836472
 40
0.6603426896
 40
0.7780241024
 40
0.8910438438
 40
1.0
 40
1.0
 40
1.0
 40
1.0
 10
3.6863133562
 20
4.4717433082
 30
0.0
 10
3.6848854741
 20
4.4717433082
 30
0.0
 10
3.6820484742
 20
4.4719285629
 30
0.0
 10
3.6779182863
 20
4.4727467145
 30
0.0
 10
3.67403529
 20
4.4740559159
 30
0.0
 10
3.6704837851
 20
4.4757891
 30
0.0
 10
3.6673148472
 20
4.4778732123
 30
0.0
 10
3.6645524521
 20
4.4802388313
 30
0.0
 10
3.662203717
 20
4.4828244682
 30
0.0
 10
3.6608880992
 20
4.4846914896
 30
0.0
 10
3.6603019548
 20
4.4856432708
 30
0.0
  0
ENDSEC
  0
SECTION
  2
OBJECTS
  0
DICTIONARY
  5
C
100
AcDbDictionary
280
0
281
1
  3
ACAD_GROUP
350
D
  3
ACAD_MLINESTYLE
350
17
  3
ACAD_LAYOUT
350
1A
  3
ACAD_PLOTSETTINGS
350
19
  3
ACAD_PLOTSTYLENAME
350
E
  0
DICTIONARY
  5
D
102
{ACAD_REACTORS
330
C
102
}
100
AcDbDictionary
280
0
281
1
  0
ACDBDICTIONARYWDFLT
  5
E
102
{ACAD_REACTORS
330
C
102
}
100
AcDbDictionary
281
1
  3
Normal
350
F
100
AcDbDictionaryWithDefault
340
F
  0
DICTIONARY
  5
17
102
{ACAD_REACTORS
330
C
102
}
100
AcDbDictionary
280
0
281
1
  3
Standard
350
18
  0
DICTIONARY
  5
19
102
{ACAD_REACTORS
330
C
102
}
100
AcDbDictionary
281
1
  0
DICTIONARY
  5
1A
102
{ACAD_REACTORS
330
C
102
}
100
AcDbDictionary
281
1
  3
Model
350
389
  3
Layout1
350
38A
  0
ACDBPLACEHOLDER
  5
F
102
{ACAD_REACTORS
330
E
102
}
  0
MLINESTYLE
  5
18
102
{ACAD_REACTORS
330
17
102
}
100
AcDbMlineStyle
  2
STANDARD
 70
0
  3

 62
256
 51
90.0
 52
90.0
 71
2
 49
0.5
 62
256
  6
BYLAYER
 49
-0.5
 62
256
  6
BYLAYER
  0
LAYOUT
  5
389
102
{ACAD_REACTORS
330
1A
102
}
100
AcDbPlotSettings
  1

  2
none_device
  4
ANSI_A_(11.00_x_8.50_Inches)
  6

 40
0.0
 41
0.0
 42
0.0
 43
0.0
 44
279.4
 45
215.9
 46
0.0
 47
0.0
 48
0.0
 49
0.0
140
0.0
141
0.0
142
1.0
143
1.0
 70
1024
 72
0
 73
0
 74
0
  7

 75
0
147
1.0
148
0.0
149
0.0
100
AcDbLayout
  1
Model
 70
0
 71
0
 10
0.0
 20
0.0
 11
11.0
 21
8.5
 12
0.0
 22
0.0
 32
0.0
 14
0.0
 24
0.0
 34
0.0
 15
0.0
 25
0.0
 35
0.0
146
0.0
 13
0.0
 23
0.0
 33
0.0
 16
1.0
 26
0.0
 36
0.0
 17
0.0
 27
1.0
 37
0.0
 76
0
330
203
345
0
346
0
  0
LAYOUT
  5
38A
102
{ACAD_REACTORS
330
1A
102
}
100
AcDbPlotSettings
  1

  2
none_device
  4
ANSI_A_(11.00_x_8.50_Inches)
  6

 40
0.0
 41
0.0
 42
0.0
 43
0.0
 44
279.4
 45
215.9
 46
0.0
 47
0.0
 48
0.0
 49
0.0
140
0.0
141
0.0
142
1.0
143
1.0
 70
0
 72
0
 73
0
 74
0
  7

 75
0
147
1.0
148
0.0
149
0.0
100
AcDbLayout
  1
Layout1
 70
0
 71
1
 10
0.0
 20
0.0
 11
11.0
 21
8.5
 12
0.0
 22
0.0
 32
0.0
 14
0.0
 24
0.0
 34
0.0
 15
0.0
 25
0.0
 35
0.0
146
0.0
 13
0.0
 23
0.0
 33
0.0
 16
1.0
 26
0.0
 36
0.0
 17
0.0
 27
1.0
 37
0.0
 76
0
330
204
345
0
346
0
  0
ENDSEC
  0
EOF
