999
DXF file: 4-3244bp_top.dxf
999
Pro/ENGINEER 2023134 by Parametric Technology Corporation
  0
SECTION
  2
HEADER
  9
$ACADVER
  1
AC1032
  9
$DWGCODEPAGE
  3
ANSI_1252
  9
$EXTMAX
 10
11.0
 20
8.5
 30
0.0
  9
$EXTMIN
 10
0.0
 20
0.0
 30
0.0
  9
$LIMMIN
 10
0.0
 20
0.0
  9
$LIMMAX
 10
11.0
 20
8.5
  9
$VIEWCTR
 10
5.5
 20
4.25
  9
$VIEWSIZE
 40
8.5
  9
$CLAYER
  8
0
  9
$LTSCALE
 40
0.605
  9
$CELTYPE
  6
BYLAYER
  9
$DIMSCALE
 40
1.0
  9
$DIMASZ
 40
0.1
  9
$DIMEXO
 40
0.0625
  9
$DIMDLI
 40
0.418
  9
$DIMEXE
 40
0.125
  9
$DIMCEN
 40
0.099
  9
$DIMLFAC
 40
1.0
  9
$DIMBLK
  1
_FILLED
  9
$DIMALT
 70
1
  9
$DIMALTD
 70
2
  9
$DIMALTTD
 70
2
  9
$DIMALTF
 40
25.4
  9
$DIMTXT
 40
0.08
  9
$DIMTOL
 70
1
  9
$DIMLIM
 70
0
  9
$DIMTFAC
 40
1.0
  9
$DIMTP
 40
0.001
  9
$DIMTM
 40
0.001
  9
$DIMGAP
 40
0.09
  9
$DIMDSEP
 70
46
  9
$AUNITS
 70
0
  9
$PDMODE
 70
3
  9
$PDSIZE
 40
0.3125
  9
$HANDSEED
  5
38F
  9
$TILEMODE
 70
1
  9
$MEASUREMENT
 70
0
  9
$INSUNITS
 70
1
  0
ENDSEC
  0
SECTION
  2
CLASSES
  0
CLASS
  1
ACDBDICTIONARYWDFLT
  2
AcDbDictionaryWithDefault
  3
AutoCAD 2000
 90
0
 91
1
280
0
281
0
  0
CLASS
  1
ACDBPLACEHOLDER
  2
AcDbPlaceHolder
  3
AutoCAD 2000
 90
0
 91
1
280
0
281
0
  0
CLASS
  1
LAYOUT
  2
AcDbLayout
  3
AutoCAD 2000
 90
0
 91
0
280
0
281
0
  0
ENDSEC
  0
SECTION
  2
TABLES
  0
TABLE
  2
VPORT
  5
8
100
AcDbSymbolTable
 70
2
  0
VPORT
  5
1F4
100
AcDbSymbolTableRecord
100
AcDbViewportTableRecord
  2
*ACTIVE
 70
0
 10
0.0
 20
0.0
 11
1.0
 21
1.0
 12
5.5
 22
4.25
 13
0.0
 23
0.0
 14
1.0
 24
1.0
 15
0.0
 25
0.0
 16
0.0
 26
0.0
 36
1.0
 17
0.0
 27
0.0
 37
0.0
 40
8.5
 41
1.2941176471
 42
50.0
 43
0.0
 44
0.0
 50
0.0
 51
0.0
 71
0
 72
100
 73
1
 74
1
 75
0
 76
0
 77
0
 78
0
  0
ENDTAB
  0
TABLE
  2
LTYPE
  5
5
100
AcDbSymbolTable
 70
6
  0
LTYPE
  5
14
100
AcDbSymbolTableRecord
100
AcDbLinetypeTableRecord
  2
BYBLOCK
 70
0
  3

 72
65
 73
0
 40
0.0
  0
LTYPE
  5
15
100
AcDbSymbolTableRecord
100
AcDbLinetypeTableRecord
  2
BYLAYER
 70
0
  3

 72
65
 73
0
 40
0.0
  0
LTYPE
  5
16
100
AcDbSymbolTableRecord
100
AcDbLinetypeTableRecord
  2
CONTINUOUS
 70
64
  3
Solid line
 72
65
 73
0
 40
0.0
  0
LTYPE
  5
1F5
100
AcDbSymbolTableRecord
100
AcDbLinetypeTableRecord
  2
CENTER
 70
64
  3
____ _ ____ _ ____ _ ____ _ ____ _ ____ _ ____
 72
65
 73
4
 40
0.6
 49
0.375
 74
0
 49
-0.075
 74
0
 49
0.075
 74
0
 49
-0.075
 74
0
  0
LTYPE
  5
1F6
100
AcDbSymbolTableRecord
100
AcDbLinetypeTableRecord
  2
HIDDEN
 70
64
  3
- - - - - - - - - - - - - - - - - - - -
 72
65
 73
2
 40
0.2
 49
0.1
 74
0
 49
-0.1
 74
0
  0
LTYPE
  5
1F7
100
AcDbSymbolTableRecord
100
AcDbLinetypeTableRecord
  2
PHANTOM
 70
64
  3
_____ _ _ _____ _ _ _____ _ _ _____
 72
65
 73
6
 40
0.8
 49
0.45
 74
0
 49
-0.05
 74
0
 49
0.1
 74
0
 49
-0.05
 74
0
 49
0.1
 74
0
 49
-0.05
 74
0
  0
LTYPE
  5
1F8
100
AcDbSymbolTableRecord
100
AcDbLinetypeTableRecord
  2
DOT
 70
64
  3
. . . . . . . . . . . . . . . . . . . .
 72
65
 73
2
 40
0.2
 49
0.1
 74
0
 49
-0.1
 74
0
  0
LTYPE
  5
1F9
100
AcDbSymbolTableRecord
100
AcDbLinetypeTableRecord
  2
DASHED
 70
64
  3
- - - - - - - - - - - - - - - - - - - -
 72
65
 73
2
 40
0.2
 49
0.1
 74
0
 49
-0.1
 74
0
  0
ENDTAB
  0
TABLE
  2
LAYER
  5
2
100
AcDbSymbolTable
 70
36
  0
LAYER
  5
10
100
AcDbSymbolTableRecord
100
AcDbLayerTableRecord
  2
0
 70
0
 62
7
  6
CONTINUOUS
370
-3
390
F
  0
LAYER
  5
1FA
100
AcDbSymbolTableRecord
100
AcDbLayerTableRecord
  2
DEFAULT_1
 70
0
 62
7
  6
CENTER
370
-3
390
F
  0
LAYER
  5
1FB
100
AcDbSymbolTableRecord
100
AcDbLayerTableRecord
  2
DEFAULT_2
 70
0
 62
8
  6
HIDDEN
370
-3
390
F
  0
LAYER
  5
1FC
100
AcDbSymbolTableRecord
100
AcDbLayerTableRecord
  2
DEFAULT_3
 70
0
 62
7
  6
PHANTOM
370
-3
390
F
  0
LAYER
  5
1FD
100
AcDbSymbolTableRecord
100
AcDbLayerTableRecord
  2
DEFAULT_COORDINATE_SYSTEM
 70
0
 62
7
  6
CONTINUOUS
370
-3
390
F
  0
LAYER
  5
1FE
100
AcDbSymbolTableRecord
100
AcDbLayerTableRecord
  2
DEFAULT_DATUM_AXES
 70
0
 62
7
  6
CONTINUOUS
370
-3
390
F
  0
LAYER
  5
1FF
100
AcDbSymbolTableRecord
100
AcDbLayerTableRecord
  2
DEFAULT_DATUM_CURVES
 70
0
 62
7
  6
CONTINUOUS
370
-3
390
F
  0
LAYER
  5
200
100
AcDbSymbolTableRecord
100
AcDbLayerTableRecord
  2
DEFAULT_DATUM_PLANES
 70
0
 62
7
  6
CONTINUOUS
370
-3
390
F
  0
ENDTAB
  0
TABLE
  2
STYLE
  5
3
100
AcDbSymbolTable
 70
1
  0
STYLE
  5
11
100
AcDbSymbolTableRecord
100
AcDbTextStyleTableRecord
  2
STANDARD
 70
0
 40
0.0
 41
0.8
 50
0.0
 71
0
 42
0.2
  3
txt
  4

  0
STYLE
  5
201
100
AcDbSymbolTableRecord
100
AcDbTextStyleTableRecord
  2
TEXTSTYLE_1
 70
0
 40
0.0
 41
0.8
 50
0.0
 71
0
 42
0.2
  3
gdt
  4

  0
ENDTAB
  0
TABLE
  2
VIEW
  5
6
100
AcDbSymbolTable
 70
0
  0
ENDTAB
  0
TABLE
  2
UCS
  5
7
100
AcDbSymbolTable
 70
0
  0
ENDTAB
  0
TABLE
  2
APPID
  5
9
100
AcDbSymbolTable
 70
1
  0
APPID
  5
202
100
AcDbSymbolTableRecord
100
AcDbRegAppTableRecord
  2
ACAD
 70
0
  0
ENDTAB
  0
TABLE
  2
BLOCK_RECORD
  5
1
100
AcDbSymbolTable
 70
0
  0
BLOCK_RECORD
  5
203
100
AcDbSymbolTableRecord
100
AcDbBlockTableRecord
  2
*Model_Space
  0
BLOCK_RECORD
  5
204
100
AcDbSymbolTableRecord
100
AcDbBlockTableRecord
  2
*Paper_Space
  0
BLOCK_RECORD
  5
205
100
AcDbSymbolTableRecord
100
AcDbBlockTableRecord
  2
_FILLED
  0
ENDTAB
  0
TABLE
  2
DIMSTYLE
  5
A
100
AcDbSymbolTable
 70
1
100
AcDbDimStyleTable
 71
0
  0
DIMSTYLE
105
206
100
AcDbSymbolTableRecord
100
AcDbDimStyleTableRecord
  2
STANDARD
 70
0
  3

  4

 40
1.0
 41
0.1
 42
0.0625
 43
0.38
 44
0.125
 45
0.0
 46
0.0
 47
0.001
 48
0.001
140
0.08
141
0.09
142
0.0
143
25.4
144
1.0
145
0.0
146
1.0
147
0.09
 71
1
 72
0
 73
1
 74
1
 75
0
 76
0
 77
0
 78
4
 79
1
170
1
171
2
172
0
173
0
174
0
175
0
176
0
177
0
178
0
270
2
179
3
271
3
272
3
273
2
274
2
275
0
280
0
281
0
282
0
283
1
284
4
285
0
286
0
287
3
288
0
340
11
278
46
341
205
342
205
343
205
344
205
  0
ENDTAB
  0
ENDSEC
  0
SECTION
  2
BLOCKS
  0
BLOCK
  5
20
100
AcDbEntity
  8
0
100
AcDbBlockBegin
  2
*Model_Space
 70
0
 10
0.0
 20
0.0
 30
0.0
  3
*Model_Space
  1

  0
ENDBLK
  5
21
100
AcDbEntity
  8
0
100
AcDbBlockEnd
  0
BLOCK
  5
1C
100
AcDbEntity
  8
0
100
AcDbBlockBegin
  2
*Paper_Space
 70
0
 10
0.0
 20
0.0
 30
0.0
  3
*Paper_Space
  1

  0
ENDBLK
  5
1D
100
AcDbEntity
  8
0
100
AcDbBlockEnd
  0
BLOCK
  5
207
100
AcDbEntity
  8
0
100
AcDbBlockBegin
  2
_FILLED
 70
64
 10
0.0
 20
0.0
  3
_FILLED
  1

  0
SOLID
  5
208
100
AcDbEntity
  8
0
  6
BYBLOCK
 62
0
100
AcDbTrace
 10
0.0
 20
0.0
 11
-1.0
 21
0.2
 12
-1.0
 22
-0.2
 13
-1.0
 23
-0.2
  0
ENDBLK
  5
209
100
AcDbEntity
  8
0
  6
BYBLOCK
 62
0
100
AcDbBlockEnd
  0
ENDSEC
  0
SECTION
  2
ENTITIES
  0
MTEXT
  5
20A
100
AcDbEntity
  8
0
100
AcDbMText
 62
2
  6
CONTINUOUS
  7
STANDARD
 71
3
 72
1
 10
5.812765411
 20
1.9488476027
 30
0.0
 11
1.0
 21
0.0
 31
0.0
 73
2
 44
0.9
  1
SCALE 1.000
 40
0.08
 41
0.704
  0
LINE
  5
20B
100
AcDbEntity
  8
0
100
AcDbLine
 62
7
  6
CONTINUOUS
 10
0.0
 20
0.0
 11
0.0
 21
8.5
  0
LINE
  5
20C
100
AcDbEntity
  8
0
100
AcDbLine
 62
7
  6
CONTINUOUS
 10
0.0
 20
0.0
 11
11.0
 21
0.0
  0
LINE
  5
20D
100
AcDbEntity
  8
0
100
AcDbLine
 62
7
  6
CONTINUOUS
 10
0.0
 20
8.5
 11
11.0
 21
8.5
  0
LINE
  5
20E
100
AcDbEntity
  8
0
100
AcDbLine
 62
7
  6
CONTINUOUS
 10
11.0
 20
0.0
 11
11.0
 21
8.5
  0
LINE
  5
20F
100
AcDbEntity
  8
0
100
AcDbLine
 62
7
  6
CONTINUOUS
 10
2.1633133562
 20
6.1507131095
 11
2.1633133562
 21
6.2901763699
  0
LINE
  5
210
100
AcDbEntity
  8
0
100
AcDbLine
 62
7
  6
CONTINUOUS
 10
5.8833133562
 20
2.7761763699
 11
4.9433133562
 21
2.7761763699
  0
LINE
  5
211
100
AcDbEntity
  8
0
100
AcDbLine
 62
7
  6
CONTINUOUS
 10
5.9131570817
 20
2.8061763699
 11
5.9119754118
 21
2.8061763699
  0
LINE
  5
212
100
AcDbEntity
  8
0
100
AcDbLine
 62
7
  6
CONTINUOUS
 10
5.9095249833
 20
2.8061763699
 11
5.9059913537
 21
2.8061763699
  0
LINE
  5
213
100
AcDbEntity
  8
0
100
AcDbLine
 62
7
  6
CONTINUOUS
 10
5.9011140957
 20
2.8061763699
 11
5.8952625372
 21
2.8061763699
  0
LINE
  5
214
100
AcDbEntity
  8
0
100
AcDbLine
 62
7
  6
CONTINUOUS
 10
5.8880054203
 20
2.8061763699
 11
5.8798922866
 21
2.8061763699
  0
LINE
  5
215
100
AcDbEntity
  8
0
100
AcDbLine
 62
7
  6
CONTINUOUS
 10
5.8703252008
 20
2.8061763699
 11
5.8600286258
 21
2.8061763699
  0
LINE
  5
216
100
AcDbEntity
  8
0
100
AcDbLine
 62
7
  6
CONTINUOUS
 10
5.8482437074
 20
2.8061763699
 11
5.8358628528
 21
2.8061763699
  0
LINE
  5
217
100
AcDbEntity
  8
0
100
AcDbLine
 62
7
  6
CONTINUOUS
 10
5.821973597
 20
2.8061763699
 11
5.8076276971
 21
2.8061763699
  0
LINE
  5
218
100
AcDbEntity
  8
0
100
AcDbLine
 62
7
  6
CONTINUOUS
 10
5.791767865
 20
2.8061763699
 11
5.7755950788
 21
2.8061763699
  0
LINE
  5
219
100
AcDbEntity
  8
0
100
AcDbLine
 62
7
  6
CONTINUOUS
 10
5.7579174093
 20
2.8061763699
 11
5.7400734895
 21
2.8061763699
  0
LINE
  5
21A
100
AcDbEntity
  8
0
100
AcDbLine
 62
7
  6
CONTINUOUS
 10
5.7207482281
 20
2.8061763699
 11
5.7014050214
 21
2.8061763699
  0
LINE
  5
21B
100
AcDbEntity
  8
0
100
AcDbLine
 62
7
  6
CONTINUOUS
 10
5.6806182811
 20
2.8061763699
 11
5.6599620731
 21
2.8061763699
  0
LINE
  5
21C
100
AcDbEntity
  8
0
100
AcDbLine
 62
7
  6
CONTINUOUS
 10
5.6379140415
 20
2.8061763699
 11
5.6161437629
 21
2.8061763699
  0
LINE
  5
21D
100
AcDbEntity
  8
0
100
AcDbLine
 62
7
  6
CONTINUOUS
 10
5.5930467746
 20
2.8061763699
 11
5.5703720849
 21
2.8061763699
  0
LINE
  5
21E
100
AcDbEntity
  8
0
100
AcDbLine
 62
7
  6
CONTINUOUS
 10
5.5464485765
 20
2.8061763699
 11
5.5230878456
 21
2.8061763699
  0
LINE
  5
21F
100
AcDbEntity
  8
0
100
AcDbLine
 62
7
  6
CONTINUOUS
 10
5.4985682135
 20
2.8061763699
 11
5.4747464178
 21
2.8061763699
  0
LINE
  5
220
100
AcDbEntity
  8
0
100
AcDbLine
 62
7
  6
CONTINUOUS
 10
5.4498667997
 20
2.8061763699
 11
5.4258133562
 21
2.8061763699
  0
LINE
  5
221
100
AcDbEntity
  8
0
100
AcDbLine
 62
7
  6
CONTINUOUS
 10
5.4008133562
 20
2.8061763699
 11
5.3767599127
 21
2.8061763699
  0
LINE
  5
222
100
AcDbEntity
  8
0
100
AcDbLine
 62
7
  6
CONTINUOUS
 10
5.3518802945
 20
2.8061763699
 11
5.3280584988
 21
2.8061763699
  0
LINE
  5
223
100
AcDbEntity
  8
0
100
AcDbLine
 62
7
  6
CONTINUOUS
 10
5.3035388668
 20
2.8061763699
 11
5.2801781358
 21
2.8061763699
  0
LINE
  5
224
100
AcDbEntity
  8
0
100
AcDbLine
 62
7
  6
CONTINUOUS
 10
5.2562546274
 20
2.8061763699
 11
5.2335799378
 21
2.8061763699
  0
LINE
  5
225
100
AcDbEntity
  8
0
100
AcDbLine
 62
7
  6
CONTINUOUS
 10
5.2104829495
 20
2.8061763699
 11
5.1887126708
 21
2.8061763699
  0
LINE
  5
226
100
AcDbEntity
  8
0
100
AcDbLine
 62
7
  6
CONTINUOUS
 10
5.1666646392
 20
2.8061763699
 11
5.1460084312
 21
2.8061763699
  0
LINE
  5
227
100
AcDbEntity
  8
0
100
AcDbLine
 62
7
  6
CONTINUOUS
 10
5.1252216909
 20
2.8061763699
 11
5.1058784842
 21
2.8061763699
  0
LINE
  5
228
100
AcDbEntity
  8
0
100
AcDbLine
 62
7
  6
CONTINUOUS
 10
5.0865532229
 20
2.8061763699
 11
5.068709303
 21
2.8061763699
  0
LINE
  5
229
100
AcDbEntity
  8
0
100
AcDbLine
 62
7
  6
CONTINUOUS
 10
5.0510316335
 20
2.8061763699
 11
5.0348588473
 21
2.8061763699
  0
LINE
  5
22A
100
AcDbEntity
  8
0
100
AcDbLine
 62
7
  6
CONTINUOUS
 10
5.0189990152
 20
2.8061763699
 11
5.0046531154
 21
2.8061763699
  0
LINE
  5
22B
100
AcDbEntity
  8
0
100
AcDbLine
 62
7
  6
CONTINUOUS
 10
4.9907638595
 20
2.8061763699
 11
4.9783830049
 21
2.8061763699
  0
LINE
  5
22C
100
AcDbEntity
  8
0
100
AcDbLine
 62
7
  6
CONTINUOUS
 10
4.9665980865
 20
2.8061763699
 11
4.9563015116
 21
2.8061763699
  0
LINE
  5
22D
100
AcDbEntity
  8
0
100
AcDbLine
 62
7
  6
CONTINUOUS
 10
4.9467344257
 20
2.8061763699
 11
4.9386212921
 21
2.8061763699
  0
LINE
  5
22E
100
AcDbEntity
  8
0
100
AcDbLine
 62
7
  6
CONTINUOUS
 10
4.9206353586
 20
2.8061763699
 11
4.917101729
 21
2.8061763699
  0
LINE
  5
22F
100
AcDbEntity
  8
0
100
AcDbLine
 62
7
  6
CONTINUOUS
 10
4.9313641751
 20
2.8061763699
 11
4.9255126166
 21
2.8061763699
  0
LINE
  5
230
100
AcDbEntity
  8
0
100
AcDbLine
 62
7
  6
CONTINUOUS
 10
4.9146513005
 20
2.8061763699
 11
4.9134696306
 21
2.8061763699
  0
LINE
  5
231
100
AcDbEntity
  8
0
100
AcDbLine
 62
7
  6
CONTINUOUS
 10
6.8933133562
 20
2.8311763699
 11
5.9011140957
 21
2.8311763699
  0
LINE
  5
232
100
AcDbEntity
  8
0
100
AcDbLine
 62
7
  6
CONTINUOUS
 10
5.5183133562
 20
2.8311763699
 11
5.3083133562
 21
2.8311763699
  0
LINE
  5
233
100
AcDbEntity
  8
0
100
AcDbLine
 62
7
  6
CONTINUOUS
 10
4.9255126166
 20
2.8311763699
 11
3.9333133562
 21
2.8311763699
  0
LINE
  5
234
100
AcDbEntity
  8
0
100
AcDbLine
 62
7
  6
CONTINUOUS
 10
3.9133133562
 20
2.8511763699
 11
3.9133133562
 21
3.4611763699
  0
LINE
  5
235
100
AcDbEntity
  8
0
100
AcDbLine
 62
7
  6
CONTINUOUS
 10
3.9333133562
 20
2.8311763699
 11
3.9333133562
 21
3.4811763699
  0
LINE
  5
236
100
AcDbEntity
  8
0
100
AcDbLine
 62
7
  6
CONTINUOUS
 10
6.9133133562
 20
2.8511763699
 11
5.8974362744
 21
2.8511763699
  0
LINE
  5
237
100
AcDbEntity
  8
0
100
AcDbLine
 62
7
  6
CONTINUOUS
 10
5.5383133562
 20
2.8511763699
 11
5.2883133562
 21
2.8511763699
  0
LINE
  5
238
100
AcDbEntity
  8
0
100
AcDbLine
 62
7
  6
CONTINUOUS
 10
4.9291904379
 20
2.8511763699
 11
3.9133133562
 21
2.8511763699
  0
LINE
  5
239
100
AcDbEntity
  8
0
100
AcDbLine
 62
7
  6
CONTINUOUS
 10
4.2883133562
 20
5.755228497
 11
4.2883133562
 21
5.9771763699
  0
LINE
  5
23A
100
AcDbEntity
  8
0
100
AcDbLine
 62
7
  6
CONTINUOUS
 10
3.9133133562
 20
3.4611763699
 11
4.9291904379
 21
3.4611763699
  0
LINE
  5
23B
100
AcDbEntity
  8
0
100
AcDbLine
 62
7
  6
CONTINUOUS
 10
5.2883133562
 20
3.4611763699
 11
5.5383133562
 21
3.4611763699
  0
LINE
  5
23C
100
AcDbEntity
  8
0
100
AcDbLine
 62
7
  6
CONTINUOUS
 10
5.8974362744
 20
3.4611763699
 11
6.9133133562
 21
3.4611763699
  0
LINE
  5
23D
100
AcDbEntity
  8
0
100
AcDbLine
 62
7
  6
CONTINUOUS
 10
3.9333133562
 20
3.4811763699
 11
4.9255126166
 21
3.4811763699
  0
LINE
  5
23E
100
AcDbEntity
  8
0
100
AcDbLine
 62
7
  6
CONTINUOUS
 10
5.3083133562
 20
3.4811763699
 11
5.5183133562
 21
3.4811763699
  0
LINE
  5
23F
100
AcDbEntity
  8
0
100
AcDbLine
 62
7
  6
CONTINUOUS
 10
5.9011140957
 20
3.4811763699
 11
6.8933133562
 21
3.4811763699
  0
LINE
  5
240
100
AcDbEntity
  8
0
100
AcDbLine
 62
7
  6
CONTINUOUS
 10
4.9134696306
 20
3.6761763699
 11
4.9146513005
 21
3.6761763699
  0
LINE
  5
241
100
AcDbEntity
  8
0
100
AcDbLine
 62
7
  6
CONTINUOUS
 10
4.917101729
 20
3.6761763699
 11
4.9206353586
 21
3.6761763699
  0
LINE
  5
242
100
AcDbEntity
  8
0
100
AcDbLine
 62
7
  6
CONTINUOUS
 10
4.9255126166
 20
3.6761763699
 11
4.9313641751
 21
3.6761763699
  0
LINE
  5
243
100
AcDbEntity
  8
0
100
AcDbLine
 62
7
  6
CONTINUOUS
 10
4.9386212921
 20
3.6761763699
 11
4.9467344257
 21
3.6761763699
  0
LINE
  5
244
100
AcDbEntity
  8
0
100
AcDbLine
 62
7
  6
CONTINUOUS
 10
4.9563015116
 20
3.6761763699
 11
4.9665980865
 21
3.6761763699
  0
LINE
  5
245
100
AcDbEntity
  8
0
100
AcDbLine
 62
7
  6
CONTINUOUS
 10
4.9783830049
 20
3.6761763699
 11
4.9907638595
 21
3.6761763699
  0
LINE
  5
246
100
AcDbEntity
  8
0
100
AcDbLine
 62
7
  6
CONTINUOUS
 10
5.0046531154
 20
3.6761763699
 11
5.0189990152
 21
3.6761763699
  0
LINE
  5
247
100
AcDbEntity
  8
0
100
AcDbLine
 62
7
  6
CONTINUOUS
 10
5.0348588473
 20
3.6761763699
 11
5.0510316335
 21
3.6761763699
  0
LINE
  5
248
100
AcDbEntity
  8
0
100
AcDbLine
 62
7
  6
CONTINUOUS
 10
5.068709303
 20
3.6761763699
 11
5.0865532229
 21
3.6761763699
  0
LINE
  5
249
100
AcDbEntity
  8
0
100
AcDbLine
 62
7
  6
CONTINUOUS
 10
5.1058784842
 20
3.6761763699
 11
5.1252216909
 21
3.6761763699
  0
LINE
  5
24A
100
AcDbEntity
  8
0
100
AcDbLine
 62
7
  6
CONTINUOUS
 10
5.1460084312
 20
3.6761763699
 11
5.1666646392
 21
3.6761763699
  0
LINE
  5
24B
100
AcDbEntity
  8
0
100
AcDbLine
 62
7
  6
CONTINUOUS
 10
5.1887126708
 20
3.6761763699
 11
5.2104829495
 21
3.6761763699
  0
LINE
  5
24C
100
AcDbEntity
  8
0
100
AcDbLine
 62
7
  6
CONTINUOUS
 10
5.2335799378
 20
3.6761763699
 11
5.2562546274
 21
3.6761763699
  0
LINE
  5
24D
100
AcDbEntity
  8
0
100
AcDbLine
 62
7
  6
CONTINUOUS
 10
5.2801781358
 20
3.6761763699
 11
5.3035388668
 21
3.6761763699
  0
LINE
  5
24E
100
AcDbEntity
  8
0
100
AcDbLine
 62
7
  6
CONTINUOUS
 10
5.3280584988
 20
3.6761763699
 11
5.3518802945
 21
3.6761763699
  0
LINE
  5
24F
100
AcDbEntity
  8
0
100
AcDbLine
 62
7
  6
CONTINUOUS
 10
5.3767599127
 20
3.6761763699
 11
5.4008133562
 21
3.6761763699
  0
LINE
  5
250
100
AcDbEntity
  8
0
100
AcDbLine
 62
7
  6
CONTINUOUS
 10
5.4258133562
 20
3.6761763699
 11
5.4498667997
 21
3.6761763699
  0
LINE
  5
251
100
AcDbEntity
  8
0
100
AcDbLine
 62
7
  6
CONTINUOUS
 10
5.4747464178
 20
3.6761763699
 11
5.4985682135
 21
3.6761763699
  0
LINE
  5
252
100
AcDbEntity
  8
0
100
AcDbLine
 62
7
  6
CONTINUOUS
 10
5.5230878456
 20
3.6761763699
 11
5.5464485765
 21
3.6761763699
  0
LINE
  5
253
100
AcDbEntity
  8
0
100
AcDbLine
 62
7
  6
CONTINUOUS
 10
5.5703720849
 20
3.6761763699
 11
5.5930467746
 21
3.6761763699
  0
LINE
  5
254
100
AcDbEntity
  8
0
100
AcDbLine
 62
7
  6
CONTINUOUS
 10
5.6161437629
 20
3.6761763699
 11
5.6379140415
 21
3.6761763699
  0
LINE
  5
255
100
AcDbEntity
  8
0
100
AcDbLine
 62
7
  6
CONTINUOUS
 10
5.6599620731
 20
3.6761763699
 11
5.6806182811
 21
3.6761763699
  0
LINE
  5
256
100
AcDbEntity
  8
0
100
AcDbLine
 62
7
  6
CONTINUOUS
 10
5.7014050214
 20
3.6761763699
 11
5.7207482281
 21
3.6761763699
  0
LINE
  5
257
100
AcDbEntity
  8
0
100
AcDbLine
 62
7
  6
CONTINUOUS
 10
5.7400734895
 20
3.6761763699
 11
5.7579174093
 21
3.6761763699
  0
LINE
  5
258
100
AcDbEntity
  8
0
100
AcDbLine
 62
7
  6
CONTINUOUS
 10
5.7755950788
 20
3.6761763699
 11
5.791767865
 21
3.6761763699
  0
LINE
  5
259
100
AcDbEntity
  8
0
100
AcDbLine
 62
7
  6
CONTINUOUS
 10
5.8076276971
 20
3.6761763699
 11
5.821973597
 21
3.6761763699
  0
LINE
  5
25A
100
AcDbEntity
  8
0
100
AcDbLine
 62
7
  6
CONTINUOUS
 10
5.8358628528
 20
3.6761763699
 11
5.8482437074
 21
3.6761763699
  0
LINE
  5
25B
100
AcDbEntity
  8
0
100
AcDbLine
 62
7
  6
CONTINUOUS
 10
5.8600286258
 20
3.6761763699
 11
5.8703252008
 21
3.6761763699
  0
LINE
  5
25C
100
AcDbEntity
  8
0
100
AcDbLine
 62
7
  6
CONTINUOUS
 10
5.8798922866
 20
3.6761763699
 11
5.8880054203
 21
3.6761763699
  0
LINE
  5
25D
100
AcDbEntity
  8
0
100
AcDbLine
 62
7
  6
CONTINUOUS
 10
5.8952625372
 20
3.6761763699
 11
5.9011140957
 21
3.6761763699
  0
LINE
  5
25E
100
AcDbEntity
  8
0
100
AcDbLine
 62
7
  6
CONTINUOUS
 10
5.9059913537
 20
3.6761763699
 11
5.9095249833
 21
3.6761763699
  0
LINE
  5
25F
100
AcDbEntity
  8
0
100
AcDbLine
 62
7
  6
CONTINUOUS
 10
5.9119754118
 20
3.6761763699
 11
5.9131570817
 21
3.6761763699
  0
LINE
  5
260
100
AcDbEntity
  8
0
100
AcDbLine
 62
7
  6
CONTINUOUS
 10
5.8833133562
 20
3.7061763699
 11
4.9433133562
 21
3.7061763699
  0
LINE
  5
261
100
AcDbEntity
  8
0
100
AcDbLine
 62
7
  6
CONTINUOUS
 10
5.8833133562
 20
3.7371763699
 11
4.9433133562
 21
3.7371763699
  0
LINE
  5
262
100
AcDbEntity
  8
0
100
AcDbLine
 62
7
  6
CONTINUOUS
 10
5.9133133562
 20
3.7671763699
 11
4.9133133562
 21
3.7671763699
  0
LINE
  5
263
100
AcDbEntity
  8
0
100
AcDbLine
 62
7
  6
CONTINUOUS
 10
4.9133133562
 20
5.4371763699
 11
4.9133133562
 21
3.7671763699
  0
LINE
  5
264
100
AcDbEntity
  8
0
100
AcDbLine
 62
7
  6
CONTINUOUS
 10
4.9134696306
 20
3.6761764321
 11
4.9134696306
 21
3.4811763699
  0
LINE
  5
265
100
AcDbEntity
  8
0
100
AcDbLine
 62
7
  6
CONTINUOUS
 10
4.9134696306
 20
2.8311763699
 11
4.9134696306
 21
2.8061763711
  0
LINE
  5
266
100
AcDbEntity
  8
0
100
AcDbLine
 62
7
  6
CONTINUOUS
 10
4.9146513005
 20
3.6761763699
 11
4.9146513005
 21
3.4811763699
  0
LINE
  5
267
100
AcDbEntity
  8
0
100
AcDbLine
 62
7
  6
CONTINUOUS
 10
4.9146513005
 20
2.8311763699
 11
4.9146513005
 21
2.8061763699
  0
LINE
  5
268
100
AcDbEntity
  8
0
100
AcDbLine
 62
7
  6
CONTINUOUS
 10
4.917101729
 20
3.6761763699
 11
4.917101729
 21
3.4811763699
  0
LINE
  5
269
100
AcDbEntity
  8
0
100
AcDbLine
 62
7
  6
CONTINUOUS
 10
4.917101729
 20
2.8311763699
 11
4.917101729
 21
2.8061763699
  0
LINE
  5
26A
100
AcDbEntity
  8
0
100
AcDbLine
 62
7
  6
CONTINUOUS
 10
4.9206353586
 20
3.6761763699
 11
4.9206353586
 21
3.4811763699
  0
LINE
  5
26B
100
AcDbEntity
  8
0
100
AcDbLine
 62
7
  6
CONTINUOUS
 10
4.9206353586
 20
2.8311763699
 11
4.9206353586
 21
2.8061763699
  0
LINE
  5
26C
100
AcDbEntity
  8
0
100
AcDbLine
 62
7
  6
CONTINUOUS
 10
4.9255126166
 20
3.6761763699
 11
4.9255126166
 21
3.4805981167
  0
LINE
  5
26D
100
AcDbEntity
  8
0
100
AcDbLine
 62
7
  6
CONTINUOUS
 10
4.9255126166
 20
2.831754623
 11
4.9255126166
 21
2.8061763699
  0
LINE
  5
26E
100
AcDbEntity
  8
0
100
AcDbLine
 62
7
  6
CONTINUOUS
 10
4.9291904379
 20
3.4611763699
 11
4.9291904379
 21
2.8511763699
  0
LINE
  5
26F
100
AcDbEntity
  8
0
100
AcDbLine
 62
7
  6
CONTINUOUS
 10
4.9313641751
 20
3.6761763699
 11
4.9313641751
 21
2.8061763699
  0
LINE
  5
270
100
AcDbEntity
  8
0
100
AcDbLine
 62
7
  6
CONTINUOUS
 10
4.9386212921
 20
3.6761763699
 11
4.9386212921
 21
2.8061763699
  0
LINE
  5
271
100
AcDbEntity
  8
0
100
AcDbLine
 62
7
  6
CONTINUOUS
 10
4.9467344257
 20
3.6761763699
 11
4.9467344257
 21
2.8061763699
  0
LINE
  5
272
100
AcDbEntity
  8
0
100
AcDbLine
 62
7
  6
CONTINUOUS
 10
4.9563015116
 20
3.6761763699
 11
4.9563015116
 21
2.8061763699
  0
LINE
  5
273
100
AcDbEntity
  8
0
100
AcDbLine
 62
7
  6
CONTINUOUS
 10
4.9665980865
 20
3.6761763699
 11
4.9665980865
 21
2.8061763699
  0
LINE
  5
274
100
AcDbEntity
  8
0
100
AcDbLine
 62
7
  6
CONTINUOUS
 10
4.9783830049
 20
3.6761763699
 11
4.9783830049
 21
2.8061763699
  0
LINE
  5
275
100
AcDbEntity
  8
0
100
AcDbLine
 62
7
  6
CONTINUOUS
 10
4.9883133562
 20
5.4671763699
 11
4.9883133562
 21
5.4771763699
  0
LINE
  5
276
100
AcDbEntity
  8
0
100
AcDbLine
 62
7
  6
CONTINUOUS
 10
4.9907638595
 20
3.6761763699
 11
4.9907638595
 21
2.8061763699
  0
LINE
  5
277
100
AcDbEntity
  8
0
100
AcDbLine
 62
7
  6
CONTINUOUS
 10
5.0046531154
 20
3.6761763699
 11
5.0046531154
 21
2.8061763699
  0
LINE
  5
278
100
AcDbEntity
  8
0
100
AcDbLine
 62
7
  6
CONTINUOUS
 10
5.0189990152
 20
3.6761763699
 11
5.0189990152
 21
2.8061763699
  0
LINE
  5
279
100
AcDbEntity
  8
0
100
AcDbLine
 62
7
  6
CONTINUOUS
 10
5.0348588473
 20
3.6761763699
 11
5.0348588473
 21
2.8061763699
  0
LINE
  5
27A
100
AcDbEntity
  8
0
100
AcDbLine
 62
7
  6
CONTINUOUS
 10
5.0510316335
 20
3.6761763699
 11
5.0510316335
 21
2.8061763699
  0
LINE
  5
27B
100
AcDbEntity
  8
0
100
AcDbLine
 62
7
  6
CONTINUOUS
 10
5.068709303
 20
3.6761763699
 11
5.068709303
 21
2.8061763699
  0
LINE
  5
27C
100
AcDbEntity
  8
0
100
AcDbLine
 62
7
  6
CONTINUOUS
 10
5.0865532229
 20
3.6761763699
 11
5.0865532229
 21
2.8061763699
  0
LINE
  5
27D
100
AcDbEntity
  8
0
100
AcDbLine
 62
7
  6
CONTINUOUS
 10
5.1056663595
 20
3.7021877712
 11
5.1056663595
 21
2.7801649685
  0
LINE
  5
27E
100
AcDbEntity
  8
0
100
AcDbLine
 62
7
  6
CONTINUOUS
 10
5.1058784842
 20
3.6761763699
 11
5.1058784842
 21
2.8061763699
  0
LINE
  5
27F
100
AcDbEntity
  8
0
100
AcDbLine
 62
7
  6
CONTINUOUS
 10
5.1252216909
 20
3.6761763699
 11
5.1252216909
 21
2.8061763699
  0
LINE
  5
280
100
AcDbEntity
  8
0
100
AcDbLine
 62
7
  6
CONTINUOUS
 10
5.1438913463
 20
3.7021877712
 11
5.1438913463
 21
2.7801649685
  0
LINE
  5
281
100
AcDbEntity
  8
0
100
AcDbLine
 62
7
  6
CONTINUOUS
 10
5.1460084312
 20
3.6761763699
 11
5.1460084312
 21
2.8061763699
  0
LINE
  5
282
100
AcDbEntity
  8
0
100
AcDbLine
 62
7
  6
CONTINUOUS
 10
5.1533133562
 20
3.7061763699
 11
5.1533133562
 21
3.7371763699
  0
LINE
  5
283
100
AcDbEntity
  8
0
100
AcDbLine
 62
7
  6
CONTINUOUS
 10
5.1666646392
 20
3.6761763699
 11
5.1666646392
 21
2.8061763699
  0
LINE
  5
284
100
AcDbEntity
  8
0
100
AcDbLine
 62
7
  6
CONTINUOUS
 10
5.1847110144
 20
3.7021877712
 11
5.1847110144
 21
2.7801649685
  0
LINE
  5
285
100
AcDbEntity
  8
0
100
AcDbLine
 62
7
  6
CONTINUOUS
 10
5.1887126708
 20
3.6761763699
 11
5.1887126708
 21
2.8061763699
  0
LINE
  5
286
100
AcDbEntity
  8
0
100
AcDbLine
 62
7
  6
CONTINUOUS
 10
5.2104829495
 20
3.6761763699
 11
5.2104829495
 21
2.8061763699
  0
LINE
  5
287
100
AcDbEntity
  8
0
100
AcDbLine
 62
7
  6
CONTINUOUS
 10
5.2277322481
 20
3.7021877712
 11
5.2277322481
 21
2.7801649685
  0
LINE
  5
288
100
AcDbEntity
  8
0
100
AcDbLine
 62
7
  6
CONTINUOUS
 10
5.2335799378
 20
3.6761763699
 11
5.2335799378
 21
2.8061763699
  0
LINE
  5
289
100
AcDbEntity
  8
0
100
AcDbLine
 62
7
  6
CONTINUOUS
 10
5.2562546274
 20
3.6761763699
 11
5.2562546274
 21
2.8061763699
  0
LINE
  5
28A
100
AcDbEntity
  8
0
100
AcDbLine
 62
7
  6
CONTINUOUS
 10
5.2725407292
 20
3.7021877712
 11
5.2725407292
 21
2.7801649685
  0
LINE
  5
28B
100
AcDbEntity
  8
0
100
AcDbLine
 62
7
  6
CONTINUOUS
 10
5.2801781358
 20
3.6761763699
 11
5.2801781358
 21
2.8061763699
  0
LINE
  5
28C
100
AcDbEntity
  8
0
100
AcDbLine
 62
7
  6
CONTINUOUS
 10
5.2883133562
 20
2.8511763699
 11
5.2883133562
 21
3.4611763699
  0
LINE
  5
28D
100
AcDbEntity
  8
0
100
AcDbLine
 62
7
  6
CONTINUOUS
 10
5.3035388668
 20
3.6761763699
 11
5.3035388668
 21
3.4805981167
  0
LINE
  5
28E
100
AcDbEntity
  8
0
100
AcDbLine
 62
7
  6
CONTINUOUS
 10
5.3035388668
 20
2.831754623
 11
5.3035388668
 21
2.8061763699
  0
LINE
  5
28F
100
AcDbEntity
  8
0
100
AcDbLine
 62
7
  6
CONTINUOUS
 10
5.3083133562
 20
2.8311763699
 11
5.3083133562
 21
3.4811763699
  0
LINE
  5
290
100
AcDbEntity
  8
0
100
AcDbLine
 62
7
  6
CONTINUOUS
 10
5.3187049277
 20
3.7021877712
 11
5.3187049277
 21
3.4811763699
  0
LINE
  5
291
100
AcDbEntity
  8
0
100
AcDbLine
 62
7
  6
CONTINUOUS
 10
5.3187049277
 20
2.8311763699
 11
5.3187049277
 21
2.7801649685
  0
LINE
  5
292
100
AcDbEntity
  8
0
100
AcDbLine
 62
7
  6
CONTINUOUS
 10
5.3280584988
 20
3.6761763699
 11
5.3280584988
 21
3.4811763699
  0
LINE
  5
293
100
AcDbEntity
  8
0
100
AcDbLine
 62
7
  6
CONTINUOUS
 10
5.3280584988
 20
2.8311763699
 11
5.3280584988
 21
2.8061763699
  0
LINE
  5
294
100
AcDbEntity
  8
0
100
AcDbLine
 62
7
  6
CONTINUOUS
 10
5.3518802945
 20
3.6761763699
 11
5.3518802945
 21
3.4811763699
  0
LINE
  5
295
100
AcDbEntity
  8
0
100
AcDbLine
 62
7
  6
CONTINUOUS
 10
5.3518802945
 20
2.8311763699
 11
5.3518802945
 21
2.8061763699
  0
LINE
  5
296
100
AcDbEntity
  8
0
100
AcDbLine
 62
7
  6
CONTINUOUS
 10
5.3657802571
 20
3.7021877712
 11
5.3657802571
 21
3.4811763699
  0
LINE
  5
297
100
AcDbEntity
  8
0
100
AcDbLine
 62
7
  6
CONTINUOUS
 10
5.3657802571
 20
2.8311763699
 11
5.3657802571
 21
2.7801649685
  0
LINE
  5
298
100
AcDbEntity
  8
0
100
AcDbLine
 62
7
  6
CONTINUOUS
 10
5.3767599127
 20
3.6761763699
 11
5.3767599127
 21
3.4811763699
  0
LINE
  5
299
100
AcDbEntity
  8
0
100
AcDbLine
 62
7
  6
CONTINUOUS
 10
5.3767599127
 20
2.8311763699
 11
5.3767599127
 21
2.8061763699
  0
LINE
  5
29A
100
AcDbEntity
  8
0
100
AcDbLine
 62
7
  6
CONTINUOUS
 10
5.4008133562
 20
3.6761763699
 11
5.4008133562
 21
3.4811763699
  0
LINE
  5
29B
100
AcDbEntity
  8
0
100
AcDbLine
 62
7
  6
CONTINUOUS
 10
5.4008133562
 20
2.8311763699
 11
5.4008133562
 21
2.8061763699
  0
LINE
  5
29C
100
AcDbEntity
  8
0
100
AcDbLine
 62
7
  6
CONTINUOUS
 10
5.4133133562
 20
3.7021877712
 11
5.4133133562
 21
3.4811763699
  0
LINE
  5
29D
100
AcDbEntity
  8
0
100
AcDbLine
 62
7
  6
CONTINUOUS
 10
5.4133133562
 20
2.8311763699
 11
5.4133133562
 21
2.7801649685
  0
LINE
  5
29E
100
AcDbEntity
  8
0
100
AcDbLine
 62
7
  6
CONTINUOUS
 10
5.4258133562
 20
3.6761763699
 11
5.4258133562
 21
3.4811763699
  0
LINE
  5
29F
100
AcDbEntity
  8
0
100
AcDbLine
 62
7
  6
CONTINUOUS
 10
5.4258133562
 20
2.8311763699
 11
5.4258133562
 21
2.8061763699
  0
LINE
  5
2A0
100
AcDbEntity
  8
0
100
AcDbLine
 62
7
  6
CONTINUOUS
 10
5.4498667997
 20
3.6761763699
 11
5.4498667997
 21
3.4811763699
  0
LINE
  5
2A1
100
AcDbEntity
  8
0
100
AcDbLine
 62
7
  6
CONTINUOUS
 10
5.4498667997
 20
2.8311763699
 11
5.4498667997
 21
2.8061763699
  0
LINE
  5
2A2
100
AcDbEntity
  8
0
100
AcDbLine
 62
7
  6
CONTINUOUS
 10
5.4608464553
 20
3.7021877712
 11
5.4608464553
 21
3.4811763699
  0
LINE
  5
2A3
100
AcDbEntity
  8
0
100
AcDbLine
 62
7
  6
CONTINUOUS
 10
5.4608464553
 20
2.8311763699
 11
5.4608464553
 21
2.7801649685
  0
LINE
  5
2A4
100
AcDbEntity
  8
0
100
AcDbLine
 62
7
  6
CONTINUOUS
 10
5.4747464178
 20
3.6761763699
 11
5.4747464178
 21
3.4811763699
  0
LINE
  5
2A5
100
AcDbEntity
  8
0
100
AcDbLine
 62
7
  6
CONTINUOUS
 10
5.4747464178
 20
2.8311763699
 11
5.4747464178
 21
2.8061763699
  0
LINE
  5
2A6
100
AcDbEntity
  8
0
100
AcDbLine
 62
7
  6
CONTINUOUS
 10
5.4985682135
 20
3.6761763699
 11
5.4985682135
 21
3.4811763699
  0
LINE
  5
2A7
100
AcDbEntity
  8
0
100
AcDbLine
 62
7
  6
CONTINUOUS
 10
5.4985682135
 20
2.8311763699
 11
5.4985682135
 21
2.8061763699
  0
LINE
  5
2A8
100
AcDbEntity
  8
0
100
AcDbLine
 62
7
  6
CONTINUOUS
 10
5.5079217846
 20
3.7021877712
 11
5.5079217846
 21
3.4811763699
  0
LINE
  5
2A9
100
AcDbEntity
  8
0
100
AcDbLine
 62
7
  6
CONTINUOUS
 10
5.5079217846
 20
2.8311763699
 11
5.5079217846
 21
2.7801649685
  0
LINE
  5
2AA
100
AcDbEntity
  8
0
100
AcDbLine
 62
7
  6
CONTINUOUS
 10
5.5183133562
 20
2.8311763699
 11
5.5183133562
 21
3.4811763699
  0
LINE
  5
2AB
100
AcDbEntity
  8
0
100
AcDbLine
 62
7
  6
CONTINUOUS
 10
5.5230878456
 20
3.6761763699
 11
5.5230878456
 21
3.4805981167
  0
LINE
  5
2AC
100
AcDbEntity
  8
0
100
AcDbLine
 62
7
  6
CONTINUOUS
 10
5.5230878456
 20
2.831754623
 11
5.5230878456
 21
2.8061763699
  0
LINE
  5
2AD
100
AcDbEntity
  8
0
100
AcDbLine
 62
7
  6
CONTINUOUS
 10
5.5383133562
 20
2.8511763699
 11
5.5383133562
 21
3.4611763699
  0
LINE
  5
2AE
100
AcDbEntity
  8
0
100
AcDbLine
 62
7
  6
CONTINUOUS
 10
5.5464485765
 20
3.6761763699
 11
5.5464485765
 21
2.8061763699
  0
LINE
  5
2AF
100
AcDbEntity
  8
0
100
AcDbLine
 62
7
  6
CONTINUOUS
 10
5.5540859831
 20
3.7021877712
 11
5.5540859831
 21
2.7801649685
  0
LINE
  5
2B0
100
AcDbEntity
  8
0
100
AcDbLine
 62
7
  6
CONTINUOUS
 10
5.5703720849
 20
3.6761763699
 11
5.5703720849
 21
2.8061763699
  0
LINE
  5
2B1
100
AcDbEntity
  8
0
100
AcDbLine
 62
7
  6
CONTINUOUS
 10
5.5930467746
 20
3.6761763699
 11
5.5930467746
 21
2.8061763699
  0
LINE
  5
2B2
100
AcDbEntity
  8
0
100
AcDbLine
 62
7
  6
CONTINUOUS
 10
5.5988944643
 20
3.7021877712
 11
5.5988944643
 21
2.7801649685
  0
LINE
  5
2B3
100
AcDbEntity
  8
0
100
AcDbLine
 62
7
  6
CONTINUOUS
 10
5.6161437629
 20
3.6761763699
 11
5.6161437629
 21
2.8061763699
  0
LINE
  5
2B4
100
AcDbEntity
  8
0
100
AcDbLine
 62
7
  6
CONTINUOUS
 10
5.6379140415
 20
3.6761763699
 11
5.6379140415
 21
2.8061763699
  0
LINE
  5
2B5
100
AcDbEntity
  8
0
100
AcDbLine
 62
7
  6
CONTINUOUS
 10
5.6419156979
 20
3.7021877712
 11
5.6419156979
 21
2.7801649685
  0
LINE
  5
2B6
100
AcDbEntity
  8
0
100
AcDbLine
 62
7
  6
CONTINUOUS
 10
5.6599620731
 20
3.6761763699
 11
5.6599620731
 21
2.8061763699
  0
LINE
  5
2B7
100
AcDbEntity
  8
0
100
AcDbLine
 62
7
  6
CONTINUOUS
 10
5.6733133562
 20
3.7061763699
 11
5.6733133562
 21
3.7371763699
  0
LINE
  5
2B8
100
AcDbEntity
  8
0
100
AcDbLine
 62
7
  6
CONTINUOUS
 10
5.6806182811
 20
3.6761763699
 11
5.6806182811
 21
2.8061763699
  0
LINE
  5
2B9
100
AcDbEntity
  8
0
100
AcDbLine
 62
7
  6
CONTINUOUS
 10
5.682735366
 20
3.7021877712
 11
5.682735366
 21
2.7801649685
  0
LINE
  5
2BA
100
AcDbEntity
  8
0
100
AcDbLine
 62
7
  6
CONTINUOUS
 10
5.7014050214
 20
3.6761763699
 11
5.7014050214
 21
2.8061763699
  0
LINE
  5
2BB
100
AcDbEntity
  8
0
100
AcDbLine
 62
7
  6
CONTINUOUS
 10
5.7207482281
 20
3.6761763699
 11
5.7207482281
 21
2.8061763699
  0
LINE
  5
2BC
100
AcDbEntity
  8
0
100
AcDbLine
 62
7
  6
CONTINUOUS
 10
5.7209603529
 20
3.7021877712
 11
5.7209603529
 21
2.7801649685
  0
LINE
  5
2BD
100
AcDbEntity
  8
0
100
AcDbLine
 62
7
  6
CONTINUOUS
 10
5.7400734895
 20
3.6761763699
 11
5.7400734895
 21
2.8061763699
  0
LINE
  5
2BE
100
AcDbEntity
  8
0
100
AcDbLine
 62
7
  6
CONTINUOUS
 10
5.7579174093
 20
3.6761763699
 11
5.7579174093
 21
2.8061763699
  0
LINE
  5
2BF
100
AcDbEntity
  8
0
100
AcDbLine
 62
7
  6
CONTINUOUS
 10
5.7755950788
 20
3.6761763699
 11
5.7755950788
 21
2.8061763699
  0
LINE
  5
2C0
100
AcDbEntity
  8
0
100
AcDbLine
 62
7
  6
CONTINUOUS
 10
5.791767865
 20
3.6761763699
 11
5.791767865
 21
2.8061763699
  0
LINE
  5
2C1
100
AcDbEntity
  8
0
100
AcDbLine
 62
7
  6
CONTINUOUS
 10
5.8076276971
 20
3.6761763699
 11
5.8076276971
 21
2.8061763699
  0
LINE
  5
2C2
100
AcDbEntity
  8
0
100
AcDbLine
 62
7
  6
CONTINUOUS
 10
5.821973597
 20
3.6761763699
 11
5.821973597
 21
2.8061763699
  0
LINE
  5
2C3
100
AcDbEntity
  8
0
100
AcDbLine
 62
7
  6
CONTINUOUS
 10
5.8358628528
 20
3.6761763699
 11
5.8358628528
 21
2.8061763699
  0
LINE
  5
2C4
100
AcDbEntity
  8
0
100
AcDbLine
 62
7
  6
CONTINUOUS
 10
5.8383133562
 20
5.4671763699
 11
5.8383133562
 21
5.4771763699
  0
LINE
  5
2C5
100
AcDbEntity
  8
0
100
AcDbLine
 62
7
  6
CONTINUOUS
 10
5.8482437074
 20
3.6761763699
 11
5.8482437074
 21
2.8061763699
  0
LINE
  5
2C6
100
AcDbEntity
  8
0
100
AcDbLine
 62
7
  6
CONTINUOUS
 10
5.8600286258
 20
3.6761763699
 11
5.8600286258
 21
2.8061763699
  0
LINE
  5
2C7
100
AcDbEntity
  8
0
100
AcDbLine
 62
7
  6
CONTINUOUS
 10
5.8703252008
 20
3.6761763699
 11
5.8703252008
 21
2.8061763699
  0
LINE
  5
2C8
100
AcDbEntity
  8
0
100
AcDbLine
 62
7
  6
CONTINUOUS
 10
5.8798922866
 20
3.6761763699
 11
5.8798922866
 21
2.8061763699
  0
LINE
  5
2C9
100
AcDbEntity
  8
0
100
AcDbLine
 62
7
  6
CONTINUOUS
 10
5.8880054203
 20
3.6761763699
 11
5.8880054203
 21
2.8061763699
  0
LINE
  5
2CA
100
AcDbEntity
  8
0
100
AcDbLine
 62
7
  6
CONTINUOUS
 10
5.8952625372
 20
3.6761763699
 11
5.8952625372
 21
2.8061763699
  0
LINE
  5
2CB
100
AcDbEntity
  8
0
100
AcDbLine
 62
7
  6
CONTINUOUS
 10
5.8974362744
 20
3.4611763699
 11
5.8974362744
 21
2.8511763699
  0
LINE
  5
2CC
100
AcDbEntity
  8
0
100
AcDbLine
 62
7
  6
CONTINUOUS
 10
5.9011140957
 20
3.6761763699
 11
5.9011140957
 21
3.4805981167
  0
LINE
  5
2CD
100
AcDbEntity
  8
0
100
AcDbLine
 62
7
  6
CONTINUOUS
 10
5.9011140957
 20
2.831754623
 11
5.9011140957
 21
2.8061763699
  0
LINE
  5
2CE
100
AcDbEntity
  8
0
100
AcDbLine
 62
7
  6
CONTINUOUS
 10
5.9059913537
 20
3.6761763699
 11
5.9059913537
 21
3.4811763699
  0
LINE
  5
2CF
100
AcDbEntity
  8
0
100
AcDbLine
 62
7
  6
CONTINUOUS
 10
5.9059913537
 20
2.8311763699
 11
5.9059913537
 21
2.8061763699
  0
LINE
  5
2D0
100
AcDbEntity
  8
0
100
AcDbLine
 62
7
  6
CONTINUOUS
 10
5.9095249833
 20
3.6761763699
 11
5.9095249833
 21
3.4811763699
  0
LINE
  5
2D1
100
AcDbEntity
  8
0
100
AcDbLine
 62
7
  6
CONTINUOUS
 10
5.9095249833
 20
2.8311763699
 11
5.9095249833
 21
2.8061763699
  0
LINE
  5
2D2
100
AcDbEntity
  8
0
100
AcDbLine
 62
7
  6
CONTINUOUS
 10
5.9119754118
 20
3.6761763699
 11
5.9119754118
 21
3.4811763699
  0
LINE
  5
2D3
100
AcDbEntity
  8
0
100
AcDbLine
 62
7
  6
CONTINUOUS
 10
5.9119754118
 20
2.8311763699
 11
5.9119754118
 21
2.8061763699
  0
LINE
  5
2D4
100
AcDbEntity
  8
0
100
AcDbLine
 62
7
  6
CONTINUOUS
 10
5.9131570817
 20
3.6761763699
 11
5.9131570817
 21
3.4811763699
  0
LINE
  5
2D5
100
AcDbEntity
  8
0
100
AcDbLine
 62
7
  6
CONTINUOUS
 10
5.9131570817
 20
2.8311763699
 11
5.9131570817
 21
2.8061763699
  0
LINE
  5
2D6
100
AcDbEntity
  8
0
100
AcDbLine
 62
7
  6
CONTINUOUS
 10
5.9133133562
 20
5.4371763699
 11
5.9133133562
 21
3.7671763699
  0
LINE
  5
2D7
100
AcDbEntity
  8
0
100
AcDbLine
 62
7
  6
CONTINUOUS
 10
4.9133133562
 20
5.4371763699
 11
5.9133133562
 21
5.4371763699
  0
LINE
  5
2D8
100
AcDbEntity
  8
0
100
AcDbLine
 62
7
  6
CONTINUOUS
 10
5.8833133562
 20
5.4671763699
 11
4.9433133562
 21
5.4671763699
  0
LINE
  5
2D9
100
AcDbEntity
  8
0
100
AcDbLine
 62
7
  6
CONTINUOUS
 10
5.8855203583
 20
5.4771763699
 11
4.9411063541
 21
5.4771763699
  0
LINE
  5
2DA
100
AcDbEntity
  8
0
100
AcDbLine
 62
7
  6
CONTINUOUS
 10
5.9151973823
 20
5.502786126
 11
4.91142933
 21
5.502786126
  0
LINE
  5
2DB
100
AcDbEntity
  8
0
100
AcDbLine
 62
7
  6
CONTINUOUS
 10
6.5383133562
 20
5.755228497
 11
6.5383133562
 21
5.9771763699
  0
LINE
  5
2DC
100
AcDbEntity
  8
0
100
AcDbLine
 62
7
  6
CONTINUOUS
 10
4.7837475124
 20
5.6461755931
 11
6.0428791999
 21
5.6461755931
  0
LINE
  5
2DD
100
AcDbEntity
  8
0
100
AcDbLine
 62
7
  6
CONTINUOUS
 10
6.5104907303
 20
5.7253076173
 11
4.316135982
 21
5.7253076173
  0
LINE
  5
2DE
100
AcDbEntity
  8
0
100
AcDbLine
 62
7
  6
CONTINUOUS
 10
6.5383133562
 20
5.755228497
 11
4.2883133562
 21
5.755228497
  0
LINE
  5
2DF
100
AcDbEntity
  8
0
100
AcDbLine
 62
7
  6
CONTINUOUS
 10
6.8933133562
 20
2.8311763699
 11
6.8933133562
 21
3.4811763699
  0
LINE
  5
2E0
100
AcDbEntity
  8
0
100
AcDbLine
 62
7
  6
CONTINUOUS
 10
6.9133133562
 20
2.8511763699
 11
6.9133133562
 21
3.4611763699
  0
LINE
  5
2E1
100
AcDbEntity
  8
0
100
AcDbLine
 62
7
  6
CONTINUOUS
 10
8.4961568459
 20
5.9771763699
 11
2.3304698664
 21
5.9771763699
  0
LINE
  5
2E2
100
AcDbEntity
  8
0
100
AcDbLine
 62
7
  6
CONTINUOUS
 10
8.5555315075
 20
6.0191133796
 11
2.2710952048
 21
6.0191133796
  0
LINE
  5
2E3
100
AcDbEntity
  8
0
100
AcDbLine
 62
7
  6
CONTINUOUS
 10
8.6248650405
 20
6.0926940196
 11
2.2017616718
 21
6.0926940196
  0
LINE
  5
2E4
100
AcDbEntity
  8
0
100
AcDbLine
 62
7
  6
CONTINUOUS
 10
8.6633133562
 20
6.1507131095
 11
2.1633133562
 21
6.1507131095
  0
LINE
  5
2E5
100
AcDbEntity
  8
0
100
AcDbLine
 62
7
  6
CONTINUOUS
 10
2.1633133562
 20
6.2901763699
 11
8.6633133562
 21
6.2901763699
  0
LINE
  5
2E6
100
AcDbEntity
  8
0
100
AcDbLine
 62
7
  6
CONTINUOUS
 10
8.6633133562
 20
6.1507131095
 11
8.6633133562
 21
6.2901763699
  0
ARC
  5
2E7
100
AcDbEntity
  8
0
100
AcDbCircle
 62
7
  6
CONTINUOUS
 10
4.1346881373
 20
3.2319009758
 40
2.5
100
AcDbArc
 50
74.9522620167
 51
85.8378620776
  0
ARC
  5
2E8
100
AcDbEntity
  8
0
100
AcDbCircle
 62
7
  6
CONTINUOUS
 10
4.9433133562
 20
3.6761763699
 40
0.03
100
AcDbArc
 50
90.0
 51
119.8827588896
  0
ARC
  5
2E9
100
AcDbEntity
  8
0
100
AcDbCircle
 62
7
  6
CONTINUOUS
 10
4.9433133562
 20
2.8061763699
 40
0.03
100
AcDbArc
 50
240.1172411104
 51
270.0
  0
ARC
  5
2EA
100
AcDbEntity
  8
0
100
AcDbCircle
 62
7
  6
CONTINUOUS
 10
4.9433133562
 20
3.7671763699
 40
0.03
100
AcDbArc
 50
180.0
 51
270.0
  0
ARC
  5
2EB
100
AcDbEntity
  8
0
100
AcDbCircle
 62
7
  6
CONTINUOUS
 10
4.9430303459
 20
3.6766655767
 40
0.0294348316
100
AcDbArc
 50
119.8795526303
 51
129.7066106039
  0
ARC
  5
2EC
100
AcDbEntity
  8
0
100
AcDbCircle
 62
7
  6
CONTINUOUS
 10
4.9430303445
 20
2.8056871611
 40
0.0294348292
100
AcDbArc
 50
230.2932837075
 51
240.1204477878
  0
ARC
  5
2ED
100
AcDbEntity
  8
0
100
AcDbCircle
 62
7
  6
CONTINUOUS
 10
3.9333133562
 20
3.4611763699
 40
0.02
100
AcDbArc
 50
90.0
 51
180.0
  0
ARC
  5
2EE
100
AcDbEntity
  8
0
100
AcDbCircle
 62
7
  6
CONTINUOUS
 10
3.9333133562
 20
2.8511763699
 40
0.02
100
AcDbArc
 50
180.0
 51
270.0
  0
ARC
  5
2EF
100
AcDbEntity
  8
0
100
AcDbCircle
 62
7
  6
CONTINUOUS
 10
5.3083133562
 20
3.4611763699
 40
0.02
100
AcDbArc
 50
90.0
 51
180.0
  0
ARC
  5
2F0
100
AcDbEntity
  8
0
100
AcDbCircle
 62
7
  6
CONTINUOUS
 10
5.3083133562
 20
2.8511763699
 40
0.02
100
AcDbArc
 50
180.0
 51
270.0
  0
ARC
  5
2F1
100
AcDbEntity
  8
0
100
AcDbCircle
 62
7
  6
CONTINUOUS
 10
4.7383133562
 20
5.4771763699
 40
0.175
100
AcDbArc
 50
8.4149680847
 51
74.9522620167
  0
ARC
  5
2F2
100
AcDbEntity
  8
0
100
AcDbCircle
 62
7
  6
CONTINUOUS
 10
2.1528785736
 20
5.9771763699
 40
0.1254347826
100
AcDbArc
 50
19.5319940446
 51
67.0635891141
  0
ARC
  5
2F3
100
AcDbEntity
  8
0
100
AcDbCircle
 62
7
  6
CONTINUOUS
 10
2.2263133562
 20
6.1507131095
 40
0.063
100
AcDbArc
 50
180.0
 51
247.0635891141
  0
ARC
  5
2F4
100
AcDbEntity
  8
0
100
AcDbCircle
 62
7
  6
CONTINUOUS
 10
2.3304698664
 20
6.0401763699
 40
0.063
100
AcDbArc
 50
199.5319940446
 51
270.0
  0
ARC
  5
2F5
100
AcDbEntity
  8
0
100
AcDbCircle
 62
7
  6
CONTINUOUS
 10
4.9433133562
 20
5.4371763699
 40
0.03
100
AcDbArc
 50
90.0
 51
180.0
  0
ARC
  5
2F6
100
AcDbEntity
  8
0
100
AcDbCircle
 62
7
  6
CONTINUOUS
 10
4.9411063541
 20
5.5071763699
 40
0.03
100
AcDbArc
 50
188.4149680847
 51
270.0
  0
ARC
  5
2F7
100
AcDbEntity
  8
0
100
AcDbCircle
 62
7
  6
CONTINUOUS
 10
4.3183133562
 20
5.755228497
 40
0.03
100
AcDbArc
 50
180.0
 51
265.8378620776
  0
ARC
  5
2F8
100
AcDbEntity
  8
0
100
AcDbCircle
 62
7
  6
CONTINUOUS
 10
6.6919385751
 20
3.2319009758
 40
2.5
100
AcDbArc
 50
94.1621379224
 51
105.0477379833
  0
ARC
  5
2F9
100
AcDbEntity
  8
0
100
AcDbCircle
 62
7
  6
CONTINUOUS
 10
5.8833133562
 20
3.6761763699
 40
0.03
100
AcDbArc
 50
60.1172411104
 51
90.0
  0
ARC
  5
2FA
100
AcDbEntity
  8
0
100
AcDbCircle
 62
7
  6
CONTINUOUS
 10
5.8833133562
 20
2.8061763699
 40
0.03
100
AcDbArc
 50
270.0
 51
299.8827588896
  0
ARC
  5
2FB
100
AcDbEntity
  8
0
100
AcDbCircle
 62
7
  6
CONTINUOUS
 10
5.8833133562
 20
3.7671763699
 40
0.03
100
AcDbArc
 50
270.0
 51
360.0
  0
ARC
  5
2FC
100
AcDbEntity
  8
0
100
AcDbCircle
 62
7
  6
CONTINUOUS
 10
5.8835963671
 20
2.8056871621
 40
0.0294348304
100
AcDbArc
 50
299.8795524649
 51
309.7067250113
  0
ARC
  5
2FD
100
AcDbEntity
  8
0
100
AcDbCircle
 62
7
  6
CONTINUOUS
 10
5.8835963685
 20
3.6766655795
 40
0.0294348281
100
AcDbArc
 50
50.2933798225
 51
60.1204480247
  0
ARC
  5
2FE
100
AcDbEntity
  8
0
100
AcDbCircle
 62
7
  6
CONTINUOUS
 10
5.5183133562
 20
3.4611763699
 40
0.02
100
AcDbArc
 50
0.0
 51
90.0
  0
ARC
  5
2FF
100
AcDbEntity
  8
0
100
AcDbCircle
 62
7
  6
CONTINUOUS
 10
5.5183133562
 20
2.8511763699
 40
0.02
100
AcDbArc
 50
270.0
 51
360.0
  0
ARC
  5
300
100
AcDbEntity
  8
0
100
AcDbCircle
 62
7
  6
CONTINUOUS
 10
6.8933133562
 20
3.4611763699
 40
0.02
100
AcDbArc
 50
0.0
 51
90.0
  0
ARC
  5
301
100
AcDbEntity
  8
0
100
AcDbCircle
 62
7
  6
CONTINUOUS
 10
6.8933133562
 20
2.8511763699
 40
0.02
100
AcDbArc
 50
270.0
 51
360.0
  0
ARC
  5
302
100
AcDbEntity
  8
0
100
AcDbCircle
 62
7
  6
CONTINUOUS
 10
6.0883133562
 20
5.4771763699
 40
0.175
100
AcDbArc
 50
105.0477379833
 51
171.5850319153
  0
ARC
  5
303
100
AcDbEntity
  8
0
100
AcDbCircle
 62
7
  6
CONTINUOUS
 10
8.6737481388
 20
5.9771763699
 40
0.1254347826
100
AcDbArc
 50
112.9364108859
 51
160.4680059554
  0
ARC
  5
304
100
AcDbEntity
  8
0
100
AcDbCircle
 62
7
  6
CONTINUOUS
 10
8.6003133562
 20
6.1507131095
 40
0.063
100
AcDbArc
 50
292.9364108859
 51
360.0
  0
ARC
  5
305
100
AcDbEntity
  8
0
100
AcDbCircle
 62
7
  6
CONTINUOUS
 10
8.4961568459
 20
6.0401763699
 40
0.063
100
AcDbArc
 50
270.0
 51
340.4680059554
  0
ARC
  5
306
100
AcDbEntity
  8
0
100
AcDbCircle
 62
7
  6
CONTINUOUS
 10
5.8833133562
 20
5.4371763699
 40
0.03
100
AcDbArc
 50
0.0
 51
90.0
  0
ARC
  5
307
100
AcDbEntity
  8
0
100
AcDbCircle
 62
7
  6
CONTINUOUS
 10
5.8855203583
 20
5.5071763699
 40
0.03
100
AcDbArc
 50
270.0
 51
351.5850319153
  0
ARC
  5
308
100
AcDbEntity
  8
0
100
AcDbCircle
 62
7
  6
CONTINUOUS
 10
6.5083133562
 20
5.755228497
 40
0.03
100
AcDbArc
 50
274.1621379224
 51
360.0
  0
SPLINE
  5
309
100
AcDbEntity
  8
0
100
AcDbSpline
 62
7
  6
CONTINUOUS
 70
0
 71
3
 72
17
 73
13
 74
0
 42
0.0000001
 43
0.0000001
 44
0.0000000001
 40
0.0
 40
0.0
 40
0.0
 40
0.0
 40
0.1120451019
 40
0.2273214857
 40
0.3463200007
 40
0.407403593
 40
0.4695627361
 40
0.5970634107
 40
0.7286128342
 40
0.7957009182
 40
0.8634485544
 40
1.0
 40
1.0
 40
1.0
 40
1.0
 10
4.9283665505
 20
3.7021877712
 30
0.0
 10
4.9273503757
 20
3.7016038516
 30
0.0
 10
4.9253573716
 20
3.7002947511
 30
0.0
 10
4.922586142
 20
3.6979485
 30
0.0
 10
4.9204897716
 20
3.6956667276
 30
0.0
 10
4.918960503
 20
3.6936445047
 30
0.0
 10
4.9175170809
 20
3.6914526478
 30
0.0
 10
4.9159533922
 20
3.6884668231
 30
0.0
 10
4.9147890161
 20
3.6852482488
 30
0.0
 10
4.914114419
 20
3.6825426532
 30
0.0
 10
4.9136197011
 20
3.6797457187
 30
0.0
 10
4.9134696306
 20
3.6776047646
 30
0.0
 10
4.9134696306
 20
3.6761764321
 30
0.0
  0
SPLINE
  5
30A
100
AcDbEntity
  8
0
100
AcDbSpline
 62
7
  6
CONTINUOUS
 70
0
 71
3
 72
15
 73
11
 74
0
 42
0.0000001
 43
0.0000001
 44
0.0000000001
 40
0.0
 40
0.0
 40
0.0
 40
0.0
 40
0.108006107
 40
0.2203357757
 40
0.3376170512
 40
0.4603804915
 40
0.5887589677
 40
0.7223473147
 40
0.860031451
 40
1.0
 40
1.0
 40
1.0
 40
1.0
 10
4.9307017019
 20
3.7021877712
 30
0.0
 10
4.9297693047
 20
3.7016008984
 30
0.0
 10
4.9279402643
 20
3.7002831801
 30
0.0
 10
4.9254105901
 20
3.6979337901
 30
0.0
 10
4.9230964644
 20
3.6951709628
 30
0.0
 10
4.9210579933
 20
3.6920019389
 30
0.0
 10
4.9193629927
 20
3.6884507934
 30
0.0
 10
4.9180827883
 20
3.6845686498
 30
0.0
 10
4.9172828326
 20
3.6804397073
 30
0.0
 10
4.917101729
 20
3.6776041223
 30
0.0
 10
4.917101729
 20
3.6761763699
 30
0.0
  0
SPLINE
  5
30B
100
AcDbEntity
  8
0
100
AcDbSpline
 62
7
  6
CONTINUOUS
 70
0
 71
3
 72
16
 73
12
 74
0
 42
0.0000001
 43
0.0000001
 44
0.0000000001
 40
0.0
 40
0.0
 40
0.0
 40
0.0
 40
0.1033959587
 40
0.2124132283
 40
0.3278036701
 40
0.4501448359
 40
0.579523375
 40
0.6467378948
 40
0.7154237254
 40
0.8563120444
 40
1.0
 40
1.0
 40
1.0
 40
1.0
 10
4.9376846674
 20
3.7021877712
 30
0.0
 10
4.936844627
 20
3.7015970024
 30
0.0
 10
4.9351970303
 20
3.7002684398
 30
0.0
 10
4.932934216
 20
3.6979162513
 30
0.0
 10
4.9308654254
 20
3.6951518432
 30
0.0
 10
4.9290442297
 20
3.6919831391
 30
0.0
 10
4.9277983617
 20
3.689062008
 30
0.0
 10
4.9269776248
 20
3.686556944
 30
0.0
 10
4.9262739065
 20
3.6838978915
 30
0.0
 10
4.9256740767
 20
3.6804326044
 30
0.0
 10
4.9255126166
 20
3.6776035416
 30
0.0
 10
4.9255126166
 20
3.6761763699
 30
0.0
  0
SPLINE
  5
30C
100
AcDbEntity
  8
0
100
AcDbSpline
 62
7
  6
CONTINUOUS
 70
0
 71
3
 72
15
 73
11
 74
0
 42
0.0000001
 43
0.0000001
 44
0.0000000001
 40
0.0
 40
0.0
 40
0.0
 40
0.0
 40
0.098318878
 40
0.203770218
 40
0.3171949914
 40
0.4391745577
 40
0.5697063915
 40
0.7080133705
 40
0.8523435788
 40
1.0
 40
1.0
 40
1.0
 40
1.0
 10
4.9492481971
 20
3.7021877712
 30
0.0
 10
4.9485084213
 20
3.7015918697
 30
0.0
 10
4.9470588173
 20
3.7002499961
 30
0.0
 10
4.9450855835
 20
3.6978956144
 30
0.0
 10
4.9432825855
 20
3.6951307136
 30
0.0
 10
4.9416959915
 20
3.6919630581
 30
0.0
 10
4.9403778927
 20
3.6884170079
 30
0.0
 10
4.9393830686
 20
3.6845436452
 30
0.0
 10
4.9387617628
 20
3.6804261585
 30
0.0
 10
4.9386212921
 20
3.6776029855
 30
0.0
 10
4.9386212921
 20
3.6761763699
 30
0.0
  0
SPLINE
  5
30D
100
AcDbEntity
  8
0
100
AcDbSpline
 62
7
  6
CONTINUOUS
 70
0
 71
3
 72
15
 73
11
 74
0
 42
0.0000001
 43
0.0000001
 44
0.0000000001
 40
0.0
 40
0.0
 40
0.0
 40
0.0
 40
0.092901457
 40
0.1946432329
 40
0.3060939298
 40
0.4277804981
 40
0.5595651066
 40
0.7004363903
 40
0.8482969583
 40
1.0
 40
1.0
 40
1.0
 40
1.0
 10
4.965280928
 20
3.7021877712
 30
0.0
 10
4.9646488069
 20
3.7015851654
 30
0.0
 10
4.9634130109
 20
3.7002274726
 30
0.0
 10
4.9617491853
 20
3.6978722323
 30
0.0
 10
4.9602294266
 20
3.6951082375
 30
0.0
 10
4.9588923145
 20
3.6919429867
 30
0.0
 10
4.9577815845
 20
3.6884006285
 30
0.0
 10
4.9569433187
 20
3.6845320615
 30
0.0
 10
4.9564198116
 20
3.6804200533
 30
0.0
 10
4.9563015116
 20
3.6776024756
 30
0.0
 10
4.9563015116
 20
3.6761763699
 30
0.0
  0
SPLINE
  5
30E
100
AcDbEntity
  8
0
100
AcDbSpline
 62
7
  6
CONTINUOUS
 70
0
 71
3
 72
15
 73
11
 74
0
 42
0.0000001
 43
0.0000001
 44
0.0000000001
 40
0.0
 40
0.0
 40
0.0
 40
0.0
 40
0.0874040164
 40
0.1854940608
 40
0.2950800117
 40
0.4165700261
 40
0.5496513853
 40
0.693063249
 40
0.8443699639
 40
1.0
 40
1.0
 40
1.0
 40
1.0
 10
4.9856284562
 20
3.7021877712
 30
0.0
 10
4.985111175
 20
3.7015766289
 30
0.0
 10
4.9841044765
 20
3.7002011754
 30
0.0
 10
4.9827662717
 20
3.6978471422
 30
0.0
 10
4.981543793
 20
3.6950857215
 30
0.0
 10
4.9804680031
 20
3.6919239275
 30
0.0
 10
4.9795741896
 20
3.6883856841
 30
0.0
 10
4.9788995416
 20
3.6845217784
 30
0.0
 10
4.9784781846
 20
3.6804147207
 30
0.0
 10
4.9783830049
 20
3.6776020313
 30
0.0
 10
4.9783830049
 20
3.6761763699
 30
0.0
  0
SPLINE
  5
30F
100
AcDbEntity
  8
0
100
AcDbSpline
 62
7
  6
CONTINUOUS
 70
0
 71
3
 72
15
 73
11
 74
0
 42
0.0000001
 43
0.0000001
 44
0.0000000001
 40
0.0
 40
0.0
 40
0.0
 40
0.0
 40
0.0822245794
 40
0.1769878829
 40
0.2849476384
 40
0.4063408239
 40
0.540660386
 40
0.6864045433
 40
0.8408322919
 40
1.0
 40
1.0
 40
1.0
 40
1.0
 10
5.0100948237
 20
3.7021877712
 30
0.0
 10
5.0096998162
 20
3.7015664
 30
0.0
 10
5.0089368169
 20
3.7001728412
 30
0.0
 10
5.0079360185
 20
3.6978223982
 30
0.0
 10
5.0070210936
 20
3.6950649718
 30
0.0
 10
5.0062154434
 20
3.6919072123
 30
0.0
 10
5.005545807
 20
3.6883730356
 30
0.0
 10
5.0050402355
 20
3.6845132786
 30
0.0
 10
5.0047244319
 20
3.6804103729
 30
0.0
 10
5.0046531154
 20
3.6776016697
 30
0.0
 10
5.0046531154
 20
3.6761763699
 30
0.0
  0
SPLINE
  5
310
100
AcDbEntity
  8
0
100
AcDbSpline
 62
7
  6
CONTINUOUS
 70
0
 71
3
 72
16
 73
12
 74
0
 42
0.0000001
 43
0.0000001
 44
0.0000000001
 40
0.0
 40
0.0
 40
0.0
 40
0.0
 40
0.0372282632
 40
0.0779246393
 40
0.1700061761
 40
0.2767077926
 40
0.398080427
 40
0.5334369624
 40
0.6810735435
 40
0.8380057661
 40
1.0
 40
1.0
 40
1.0
 40
1.0
 10
5.0384444061
 20
3.7021877712
 30
0.0
 10
5.0383178822
 20
3.7018857087
 30
0.0
 10
5.0380689666
 20
3.7012467067
 30
0.0
 10
5.037584857
 20
3.6998313641
 30
0.0
 10
5.0370168265
 20
3.6978009257
 30
0.0
 10
5.0364159527
 20
3.6950482125
 30
0.0
 10
5.0358864283
 20
3.6918941976
 30
0.0
 10
5.0354460766
 20
3.6883634869
 30
0.0
 10
5.03511352
 20
3.6845069751
 30
0.0
 10
5.0349057568
 20
3.6804071842
 30
0.0
 10
5.0348588473
 20
3.6776014049
 30
0.0
 10
5.0348588473
 20
3.6761763699
 30
0.0
  0
SPLINE
  5
311
100
AcDbEntity
  8
0
100
AcDbSpline
 62
7
  6
CONTINUOUS
 70
0
 71
3
 72
15
 73
11
 74
0
 42
0.0000001
 43
0.0000001
 44
0.0000000001
 40
0.0
 40
0.0
 40
0.0
 40
0.0
 40
0.0750754679
 40
0.1654478753
 40
0.2713761068
 40
0.3927681087
 40
0.5288111672
 40
0.6776691773
 40
0.8362036417
 40
1.0
 40
1.0
 40
1.0
 40
1.0
 10
5.0704041814
 20
3.7021877712
 30
0.0
 10
5.0702773348
 20
3.7015471207
 30
0.0
 10
5.0700369407
 20
3.7001275278
 30
0.0
 10
5.0697277154
 20
3.6977868155
 30
0.0
 10
5.0694443999
 20
3.6950374124
 30
0.0
 10
5.0691944929
 20
3.6918861411
 30
0.0
 10
5.0689866072
 20
3.688357668
 30
0.0
 10
5.0688295714
 20
3.6845031898
 30
0.0
 10
5.0687314542
 20
3.6804052813
 30
0.0
 10
5.068709303
 20
3.6776012471
 30
0.0
 10
5.068709303
 20
3.6761763699
 30
0.0
  0
SPLINE
  5
312
100
AcDbEntity
  8
0
100
AcDbSpline
 62
7
  6
CONTINUOUS
 70
0
 71
3
 72
15
 73
11
 74
0
 42
0.0000001
 43
0.0000001
 44
0.0000000001
 40
0.0
 40
0.0
 40
0.0
 40
0.0
 40
0.0750754714
 40
0.1654478795
 40
0.2713761118
 40
0.3927681283
 40
0.5288112058
 40
0.6776691907
 40
0.8362036415
 40
1.0
 40
1.0
 40
1.0
 40
1.0
 10
5.756222531
 20
2.7801649685
 30
0.0
 10
5.7563493775
 20
2.780805619
 30
0.0
 10
5.7565897716
 20
2.782225212
 30
0.0
 10
5.756898997
 20
2.7845659243
 30
0.0
 10
5.7571823124
 20
2.7873153276
 30
0.0
 10
5.7574322195
 20
2.7904665992
 30
0.0
 10
5.7576401051
 20
2.7939950724
 30
0.0
 10
5.7577971409
 20
2.7978495503
 30
0.0
 10
5.7578952581
 20
2.8019474586
 30
0.0
 10
5.7579174093
 20
2.8047514926
 30
0.0
 10
5.7579174093
 20
2.8061763699
 30
0.0
  0
SPLINE
  5
313
100
AcDbEntity
  8
0
100
AcDbSpline
 62
7
  6
CONTINUOUS
 70
0
 71
3
 72
16
 73
12
 74
0
 42
0.0000001
 43
0.0000001
 44
0.0000000001
 40
0.0
 40
0.0
 40
0.0
 40
0.0
 40
0.0372282644
 40
0.0779246428
 40
0.1700061803
 40
0.2767077976
 40
0.3980804465
 40
0.5334370007
 40
0.6810735567
 40
0.8380057659
 40
1.0
 40
1.0
 40
1.0
 40
1.0
 10
5.7881823063
 20
2.7801649685
 30
0.0
 10
5.7883088302
 20
2.780467031
 30
0.0
 10
5.7885577458
 20
2.7811060331
 30
0.0
 10
5.7890418553
 20
2.7825213757
 30
0.0
 10
5.7896098859
 20
2.7845518141
 30
0.0
 10
5.7902107597
 20
2.7873045275
 30
0.0
 10
5.7907402841
 20
2.7904585427
 30
0.0
 10
5.7911806358
 20
2.7939892535
 30
0.0
 10
5.7915131923
 20
2.797845765
 30
0.0
 10
5.7917209555
 20
2.8019455557
 30
0.0
 10
5.791767865
 20
2.8047513348
 30
0.0
 10
5.791767865
 20
2.8061763699
 30
0.0
  0
SPLINE
  5
314
100
AcDbEntity
  8
0
100
AcDbSpline
 62
7
  6
CONTINUOUS
 70
0
 71
3
 72
15
 73
11
 74
0
 42
0.0000001
 43
0.0000001
 44
0.0000000001
 40
0.0
 40
0.0
 40
0.0
 40
0.0
 40
0.082224583
 40
0.1769878873
 40
0.2849476434
 40
0.4063408433
 40
0.540660424
 40
0.6864045563
 40
0.8408322918
 40
1.0
 40
1.0
 40
1.0
 40
1.0
 10
5.8165318887
 20
2.7801649685
 30
0.0
 10
5.8169268961
 20
2.7807863397
 30
0.0
 10
5.8176898954
 20
2.7821798986
 30
0.0
 10
5.8186906939
 20
2.7845303417
 30
0.0
 10
5.8196056188
 20
2.7872877681
 30
0.0
 10
5.820411269
 20
2.790445528
 30
0.0
 10
5.8210809055
 20
2.7939797047
 30
0.0
 10
5.8215864768
 20
2.7978394616
 30
0.0
 10
5.8219022805
 20
2.8019423669
 30
0.0
 10
5.821973597
 20
2.80475107
 30
0.0
 10
5.821973597
 20
2.8061763699
 30
0.0
  0
SPLINE
  5
315
100
AcDbEntity
  8
0
100
AcDbSpline
 62
7
  6
CONTINUOUS
 70
0
 71
3
 72
15
 73
11
 74
0
 42
0.0000001
 43
0.0000001
 44
0.0000000001
 40
0.0
 40
0.0
 40
0.0
 40
0.0
 40
0.0874040202
 40
0.1854940652
 40
0.2950800167
 40
0.4165700455
 40
0.5496514228
 40
0.6930632618
 40
0.8443699637
 40
1.0
 40
1.0
 40
1.0
 40
1.0
 10
5.8409982562
 20
2.7801649685
 30
0.0
 10
5.8415155374
 20
2.7807761109
 30
0.0
 10
5.8425222358
 20
2.7821515644
 30
0.0
 10
5.8438604407
 20
2.7845055976
 30
0.0
 10
5.8450829195
 20
2.7872670184
 30
0.0
 10
5.8461587094
 20
2.7904288128
 30
0.0
 10
5.8470525229
 20
2.7939670563
 30
0.0
 10
5.8477271707
 20
2.7978309618
 30
0.0
 10
5.8481485277
 20
2.8019380191
 30
0.0
 10
5.8482437074
 20
2.8047507085
 30
0.0
 10
5.8482437074
 20
2.8061763699
 30
0.0
  0
SPLINE
  5
316
100
AcDbEntity
  8
0
100
AcDbSpline
 62
7
  6
CONTINUOUS
 70
0
 71
3
 72
15
 73
11
 74
0
 42
0.0000001
 43
0.0000001
 44
0.0000000001
 40
0.0
 40
0.0
 40
0.0
 40
0.0
 40
0.0929014608
 40
0.1946432375
 40
0.306093935
 40
0.4277805174
 40
0.5595651435
 40
0.7004364028
 40
0.8482969582
 40
1.0
 40
1.0
 40
1.0
 40
1.0
 10
5.8613457843
 20
2.7801649685
 30
0.0
 10
5.8619779054
 20
2.7807675743
 30
0.0
 10
5.8632137014
 20
2.7821252672
 30
0.0
 10
5.8648775271
 20
2.7844805075
 30
0.0
 10
5.8663972858
 20
2.7872445025
 30
0.0
 10
5.867734398
 20
2.7904097536
 30
0.0
 10
5.868845128
 20
2.7939521118
 30
0.0
 10
5.8696833937
 20
2.7978206787
 30
0.0
 10
5.8702069008
 20
2.8019326865
 30
0.0
 10
5.8703252008
 20
2.8047502641
 30
0.0
 10
5.8703252008
 20
2.8061763699
 30
0.0
  0
SPLINE
  5
317
100
AcDbEntity
  8
0
100
AcDbSpline
 62
7
  6
CONTINUOUS
 70
0
 71
3
 72
15
 73
11
 74
0
 42
0.0000001
 43
0.0000001
 44
0.0000000001
 40
0.0
 40
0.0
 40
0.0
 40
0.0
 40
0.0983188767
 40
0.2037702146
 40
0.3171949877
 40
0.4391745483
 40
0.569706368
 40
0.7080133538
 40
0.8523435693
 40
1.0
 40
1.0
 40
1.0
 40
1.0
 10
5.8773785152
 20
2.7801649685
 30
0.0
 10
5.878118291
 20
2.78076087
 30
0.0
 10
5.879567895
 20
2.7821027436
 30
0.0
 10
5.8815411288
 20
2.7844571253
 30
0.0
 10
5.8833441267
 20
2.787222026
 30
0.0
 10
5.8849307207
 20
2.7903896813
 30
0.0
 10
5.8862488195
 20
2.7939357314
 30
0.0
 10
5.8872436437
 20
2.7978090941
 30
0.0
 10
5.8878649495
 20
2.801926581
 30
0.0
 10
5.8880054203
 20
2.8047497541
 30
0.0
 10
5.8880054203
 20
2.8061763699
 30
0.0
  0
SPLINE
  5
318
100
AcDbEntity
  8
0
100
AcDbSpline
 62
7
  6
CONTINUOUS
 70
0
 71
3
 72
16
 73
12
 74
0
 42
0.0000001
 43
0.0000001
 44
0.0000000001
 40
0.0
 40
0.0
 40
0.0
 40
0.0
 40
0.1033959629
 40
0.2124132331
 40
0.3278036753
 40
0.450144855
 40
0.5795234109
 40
0.6467379187
 40
0.7154237374
 40
0.8563120443
 40
1.0
 40
1.0
 40
1.0
 40
1.0
 10
5.8889420449
 20
2.7801649685
 30
0.0
 10
5.8897820854
 20
2.7807557373
 30
0.0
 10
5.8914296821
 20
2.7820843
 30
0.0
 10
5.8936924964
 20
2.7844364885
 30
0.0
 10
5.8957612871
 20
2.7872008968
 30
0.0
 10
5.897582483
 20
2.7903696012
 30
0.0
 10
5.8988283509
 20
2.7932907325
 30
0.0
 10
5.8996490878
 20
2.7957957963
 30
0.0
 10
5.9003528058
 20
2.7984548486
 30
0.0
 10
5.9009526356
 20
2.8019201354
 30
0.0
 10
5.9011140957
 20
2.8047491981
 30
0.0
 10
5.9011140957
 20
2.8061763699
 30
0.0
  0
SPLINE
  5
319
100
AcDbEntity
  8
0
100
AcDbSpline
 62
7
  6
CONTINUOUS
 70
0
 71
3
 72
15
 73
11
 74
0
 42
0.0000001
 43
0.0000001
 44
0.0000000001
 40
0.0
 40
0.0
 40
0.0
 40
0.0
 40
0.1080061113
 40
0.2203357807
 40
0.3376170565
 40
0.4603805105
 40
0.5887590032
 40
0.7223473265
 40
0.8600314509
 40
1.0
 40
1.0
 40
1.0
 40
1.0
 10
5.8959250104
 20
2.7801649685
 30
0.0
 10
5.8968574076
 20
2.7807518414
 30
0.0
 10
5.8986864481
 20
2.7820695597
 30
0.0
 10
5.9012161223
 20
2.7844189497
 30
0.0
 10
5.9035302481
 20
2.7871817771
 30
0.0
 10
5.9055687193
 20
2.7903508013
 30
0.0
 10
5.9072637199
 20
2.7939019469
 30
0.0
 10
5.9085439241
 20
2.7977840904
 30
0.0
 10
5.9093438797
 20
2.8019130325
 30
0.0
 10
5.9095249833
 20
2.8047486175
 30
0.0
 10
5.9095249833
 20
2.8061763699
 30
0.0
  0
SPLINE
  5
31A
100
AcDbEntity
  8
0
100
AcDbSpline
 62
7
  6
CONTINUOUS
 70
0
 71
3
 72
17
 73
13
 74
0
 42
0.0000001
 43
0.0000001
 44
0.0000000001
 40
0.0
 40
0.0
 40
0.0
 40
0.0
 40
0.1120450895
 40
0.2273214636
 40
0.3463199762
 40
0.407403576
 40
0.4695627315
 40
0.5970634348
 40
0.7286128486
 40
0.7957009319
 40
0.8634485651
 40
1.0
 40
1.0
 40
1.0
 40
1.0
 10
5.8982601618
 20
2.7801649685
 30
0.0
 10
5.8992763385
 20
2.7807488892
 30
0.0
 10
5.9012693463
 20
2.7820579924
 30
0.0
 10
5.9040405804
 20
2.7844042489
 30
0.0
 10
5.9061369535
 20
2.7866860271
 30
0.0
 10
5.9076662237
 20
2.7887082553
 30
0.0
 10
5.909109647
 20
2.7909001183
 30
0.0
 10
5.9106733358
 20
2.793885951
 30
0.0
 10
5.9118377094
 20
2.7971045336
 30
0.0
 10
5.9125123043
 20
2.7998101353
 30
0.0
 10
5.9130070184
 20
2.8026070762
 30
0.0
 10
5.9131570817
 20
2.8047480346
 30
0.0
 10
5.9131570817
 20
2.8061763699
 30
0.0
  0
SPLINE
  5
31B
100
AcDbEntity
  8
0
100
AcDbSpline
 62
7
  6
CONTINUOUS
 70
0
 71
3
 72
17
 73
13
 74
0
 42
0.0000001
 43
0.0000001
 44
0.0000000001
 40
0.0
 40
0.0
 40
0.0
 40
0.0
 40
0.1365513865
 40
0.2042990029
 40
0.2713870781
 40
0.4029364688
 40
0.5304372248
 40
0.5925963987
 40
0.653680007
 40
0.7726785211
 40
0.887954903
 40
1.0
 40
1.0
 40
1.0
 40
1.0
 10
4.9134696306
 20
2.8061763711
 30
0.0
 10
4.9134696306
 20
2.8047480363
 30
0.0
 10
4.9136196936
 20
2.8026070785
 30
0.0
 10
4.9141144075
 20
2.7998101382
 30
0.0
 10
4.914789002
 20
2.7971045368
 30
0.0
 10
4.9159533753
 20
2.7938859537
 30
0.0
 10
4.9175170641
 20
2.7909001204
 30
0.0
 10
4.9189604877
 20
2.7887082564
 30
0.0
 10
4.9204897581
 20
2.7866860279
 30
0.0
 10
4.9225861314
 20
2.7844042494
 30
0.0
 10
4.9253573658
 20
2.7820579926
 30
0.0
 10
4.9273503737
 20
2.7807488893
 30
0.0
 10
4.9283665505
 20
2.7801649685
 30
0.0
  0
SPLINE
  5
31C
100
AcDbEntity
  8
0
100
AcDbSpline
 62
7
  6
CONTINUOUS
 70
0
 71
3
 72
15
 73
11
 74
0
 42
0.0000001
 43
0.0000001
 44
0.0000000001
 40
0.0
 40
0.0
 40
0.0
 40
0.0
 40
0.1399684998
 40
0.2776525989
 40
0.4112408993
 40
0.5396194453
 40
0.6623829263
 40
0.7796642038
 40
0.8919938811
 40
1.0
 40
1.0
 40
1.0
 40
1.0
 10
4.917101729
 20
2.8061763699
 30
0.0
 10
4.917101729
 20
2.804748618
 30
0.0
 10
4.9172828324
 20
2.8019130338
 30
0.0
 10
4.9180827877
 20
2.7977840926
 30
0.0
 10
4.9193629916
 20
2.793901949
 30
0.0
 10
4.9210579922
 20
2.7903508027
 30
0.0
 10
4.9230964637
 20
2.7871817777
 30
0.0
 10
4.9254105897
 20
2.78441895
 30
0.0
 10
4.9279402641
 20
2.7820695599
 30
0.0
 10
4.9297693046
 20
2.7807518414
 30
0.0
 10
4.9307017019
 20
2.7801649685
 30
0.0
  0
SPLINE
  5
31D
100
AcDbEntity
  8
0
100
AcDbSpline
 62
7
  6
CONTINUOUS
 70
0
 71
3
 72
16
 73
12
 74
0
 42
0.0000001
 43
0.0000001
 44
0.0000000001
 40
0.0
 40
0.0
 40
0.0
 40
0.0
 40
0.1436879051
 40
0.2845761864
 40
0.3532619951
 40
0.4204764905
 40
0.5498551007
 40
0.6721963077
 40
0.7875867517
 40
0.8966040297
 40
1.0
 40
1.0
 40
1.0
 40
1.0
 10
4.9255126166
 20
2.8061763699
 30
0.0
 10
4.9255126166
 20
2.8047491986
 30
0.0
 10
4.9256740766
 20
2.8019201367
 30
0.0
 10
4.9262739062
 20
2.7984548507
 30
0.0
 10
4.9269776237
 20
2.7957957988
 30
0.0
 10
4.9277983606
 20
2.7932907347
 30
0.0
 10
4.9290442286
 20
2.7903696026
 30
0.0
 10
4.9308654248
 20
2.7872008974
 30
0.0
 10
4.9329342157
 20
2.7844364888
 30
0.0
 10
4.9351970301
 20
2.7820843001
 30
0.0
 10
4.9368446269
 20
2.7807557374
 30
0.0
 10
4.9376846674
 20
2.7801649685
 30
0.0
  0
SPLINE
  5
31E
100
AcDbEntity
  8
0
100
AcDbSpline
 62
7
  6
CONTINUOUS
 70
0
 71
3
 72
15
 73
11
 74
0
 42
0.0000001
 43
0.0000001
 44
0.0000000001
 40
0.0
 40
0.0
 40
0.0
 40
0.0
 40
0.1476564187
 40
0.2919866261
 40
0.4302936045
 40
0.5608254404
 40
0.6828050079
 40
0.7962297813
 40
0.9016811217
 40
1.0
 40
1.0
 40
1.0
 40
1.0
 10
4.9386212921
 20
2.8061763699
 30
0.0
 10
4.9386212921
 20
2.8047497542
 30
0.0
 10
4.9387617628
 20
2.8019265813
 30
0.0
 10
4.9393830686
 20
2.7978090947
 30
0.0
 10
4.9403778926
 20
2.7939357319
 30
0.0
 10
4.9416959915
 20
2.7903896817
 30
0.0
 10
4.9432825855
 20
2.7872220262
 30
0.0
 10
4.9450855835
 20
2.7844571254
 30
0.0
 10
4.9470588173
 20
2.7821027437
 30
0.0
 10
4.9485084213
 20
2.78076087
 30
0.0
 10
4.9492481971
 20
2.7801649685
 30
0.0
  0
SPLINE
  5
31F
100
AcDbEntity
  8
0
100
AcDbSpline
 62
7
  6
CONTINUOUS
 70
0
 71
3
 72
15
 73
11
 74
0
 42
0.0000001
 43
0.0000001
 44
0.0000000001
 40
0.0
 40
0.0
 40
0.0
 40
0.0
 40
0.1517029885
 40
0.2995635175
 40
0.440434755
 40
0.5722194379
 40
0.6939060486
 40
0.805356748
 40
0.9070985323
 40
1.0
 40
1.0
 40
1.0
 40
1.0
 10
4.9563015116
 20
2.8061763699
 30
0.0
 10
4.9563015116
 20
2.8047502646
 30
0.0
 10
4.9564198115
 20
2.8019326878
 30
0.0
 10
4.9569433183
 20
2.7978206809
 30
0.0
 10
4.9577815837
 20
2.7939521139
 30
0.0
 10
4.9588923138
 20
2.790409755
 30
0.0
 10
4.9602294261
 20
2.7872445031
 30
0.0
 10
4.9617491851
 20
2.7844805078
 30
0.0
 10
4.9634130108
 20
2.7821252673
 30
0.0
 10
4.9646488069
 20
2.7807675744
 30
0.0
 10
4.965280928
 20
2.7801649685
 30
0.0
  0
SPLINE
  5
320
100
AcDbEntity
  8
0
100
AcDbSpline
 62
7
  6
CONTINUOUS
 70
0
 71
3
 72
15
 73
11
 74
0
 42
0.0000001
 43
0.0000001
 44
0.0000000001
 40
0.0
 40
0.0
 40
0.0
 40
0.0
 40
0.1556299816
 40
0.3069366568
 40
0.4503484743
 40
0.5834299096
 40
0.704919967
 40
0.8145059206
 40
0.9125959733
 40
1.0
 40
1.0
 40
1.0
 40
1.0
 10
4.9783830049
 20
2.8061763699
 30
0.0
 10
4.9783830049
 20
2.804750709
 30
0.0
 10
4.9784781846
 20
2.8019380204
 30
0.0
 10
4.9788995413
 20
2.797830964
 30
0.0
 10
4.979574189
 20
2.7939670583
 30
0.0
 10
4.9804680025
 20
2.7904288142
 30
0.0
 10
4.9815437926
 20
2.7872670191
 30
0.0
 10
4.9827662715
 20
2.784505598
 30
0.0
 10
4.9841044764
 20
2.7821515645
 30
0.0
 10
4.9851111749
 20
2.7807761109
 30
0.0
 10
4.9856284562
 20
2.7801649685
 30
0.0
  0
SPLINE
  5
321
100
AcDbEntity
  8
0
100
AcDbSpline
 62
7
  6
CONTINUOUS
 70
0
 71
3
 72
15
 73
11
 74
0
 42
0.0000001
 43
0.0000001
 44
0.0000000001
 40
0.0
 40
0.0
 40
0.0
 40
0.0
 40
0.1591676524
 40
0.3135953607
 40
0.4593394718
 40
0.5936591115
 40
0.7150523405
 40
0.8230120988
 40
0.9177754107
 40
1.0
 40
1.0
 40
1.0
 40
1.0
 10
5.0046531154
 20
2.8061763699
 30
0.0
 10
5.0046531154
 20
2.8047510705
 30
0.0
 10
5.0047244318
 20
2.8019423682
 30
0.0
 10
5.0050402353
 20
2.7978394637
 30
0.0
 10
5.0055458065
 20
2.7939797068
 30
0.0
 10
5.006215443
 20
2.7904455294
 30
0.0
 10
5.0070210933
 20
2.7872877688
 30
0.0
 10
5.0079360183
 20
2.784530342
 30
0.0
 10
5.0089368168
 20
2.7821798987
 30
0.0
 10
5.0096998162
 20
2.7807863398
 30
0.0
 10
5.0100948237
 20
2.7801649685
 30
0.0
  0
SPLINE
  5
322
100
AcDbEntity
  8
0
100
AcDbSpline
 62
7
  6
CONTINUOUS
 70
0
 71
3
 72
16
 73
12
 74
0
 42
0.0000001
 43
0.0000001
 44
0.0000000001
 40
0.0
 40
0.0
 40
0.0
 40
0.0
 40
0.1619941772
 40
0.3189263591
 40
0.4665628939
 40
0.6019195081
 40
0.7232921865
 40
0.829993806
 40
0.9220753512
 40
0.9627717338
 40
1.0
 40
1.0
 40
1.0
 40
1.0
 10
5.0348588473
 20
2.8061763699
 30
0.0
 10
5.0348588473
 20
2.8047513353
 30
0.0
 10
5.0349057567
 20
2.8019455569
 30
0.0
 10
5.0351135199
 20
2.7978457672
 30
0.0
 10
5.0354460763
 20
2.7939892555
 30
0.0
 10
5.035886428
 20
2.7904585442
 30
0.0
 10
5.0364159525
 20
2.7873045281
 30
0.0
 10
5.0370168264
 20
2.7845518144
 30
0.0
 10
5.0375848569
 20
2.7825213759
 30
0.0
 10
5.0380689665
 20
2.7811060332
 30
0.0
 10
5.0383178822
 20
2.780467031
 30
0.0
 10
5.0384444061
 20
2.7801649685
 30
0.0
  0
SPLINE
  5
323
100
AcDbEntity
  8
0
100
AcDbSpline
 62
7
  6
CONTINUOUS
 70
0
 71
3
 72
15
 73
11
 74
0
 42
0.0000001
 43
0.0000001
 44
0.0000000001
 40
0.0
 40
0.0
 40
0.0
 40
0.0
 40
0.163796301
 40
0.3223307243
 40
0.4711886882
 40
0.6072318262
 40
0.7286238724
 40
0.834552107
 40
0.9249245227
 40
1.0
 40
1.0
 40
1.0
 40
1.0
 10
5.068709303
 20
2.8061763699
 30
0.0
 10
5.068709303
 20
2.8047514931
 30
0.0
 10
5.0687314542
 20
2.8019474598
 30
0.0
 10
5.0688295714
 20
2.7978495525
 30
0.0
 10
5.0689866071
 20
2.7939950744
 30
0.0
 10
5.0691944927
 20
2.7904666006
 30
0.0
 10
5.0694443998
 20
2.7873153282
 30
0.0
 10
5.0697277153
 20
2.7845659246
 30
0.0
 10
5.0700369407
 20
2.7822252122
 30
0.0
 10
5.0702773348
 20
2.7808056191
 30
0.0
 10
5.0704041814
 20
2.7801649685
 30
0.0
  0
SPLINE
  5
324
100
AcDbEntity
  8
0
100
AcDbSpline
 62
7
  6
CONTINUOUS
 70
0
 71
3
 72
15
 73
11
 74
0
 42
0.0000001
 43
0.0000001
 44
0.0000000001
 40
0.0
 40
0.0
 40
0.0
 40
0.0
 40
0.1637963274
 40
0.3223307472
 40
0.4711886964
 40
0.6072318284
 40
0.7286238748
 40
0.8345521088
 40
0.9249245225
 40
1.0
 40
1.0
 40
1.0
 40
1.0
 10
5.7579174093
 20
3.6761763699
 30
0.0
 10
5.7579174093
 20
3.6776012468
 30
0.0
 10
5.7578952581
 20
3.6804052803
 30
0.0
 10
5.7577971409
 20
3.6845031877
 30
0.0
 10
5.7576401052
 20
3.6883576656
 30
0.0
 10
5.7574322196
 20
3.6918861392
 30
0.0
 10
5.7571823125
 20
3.6950374116
 30
0.0
 10
5.756898997
 20
3.6977868151
 30
0.0
 10
5.7565897717
 20
3.7001275276
 30
0.0
 10
5.7563493775
 20
3.7015471207
 30
0.0
 10
5.756222531
 20
3.7021877712
 30
0.0
  0
SPLINE
  5
325
100
AcDbEntity
  8
0
100
AcDbSpline
 62
7
  6
CONTINUOUS
 70
0
 71
3
 72
16
 73
12
 74
0
 42
0.0000001
 43
0.0000001
 44
0.0000000001
 40
0.0
 40
0.0
 40
0.0
 40
0.0
 40
0.1619942034
 40
0.3189263818
 40
0.4665629021
 40
0.6019195103
 40
0.7232921889
 40
0.8299938079
 40
0.922075351
 40
0.9627717336
 40
1.0
 40
1.0
 40
1.0
 40
1.0
 10
5.791767865
 20
3.6761763699
 30
0.0
 10
5.791767865
 20
3.6776014046
 30
0.0
 10
5.7917209556
 20
3.6804071832
 30
0.0
 10
5.7915131924
 20
3.684506973
 30
0.0
 10
5.791180636
 20
3.6883634845
 30
0.0
 10
5.7907402843
 20
3.6918941957
 30
0.0
 10
5.7902107598
 20
3.6950482117
 30
0.0
 10
5.789609886
 20
3.6978009253
 30
0.0
 10
5.7890418554
 20
3.6998313638
 30
0.0
 10
5.7885577458
 20
3.7012467066
 30
0.0
 10
5.7883088302
 20
3.7018857087
 30
0.0
 10
5.7881823063
 20
3.7021877712
 30
0.0
  0
SPLINE
  5
326
100
AcDbEntity
  8
0
100
AcDbSpline
 62
7
  6
CONTINUOUS
 70
0
 71
3
 72
15
 73
11
 74
0
 42
0.0000001
 43
0.0000001
 44
0.0000000001
 40
0.0
 40
0.0
 40
0.0
 40
0.0
 40
0.1591676781
 40
0.3135953831
 40
0.4593394798
 40
0.5936591137
 40
0.7150523429
 40
0.8230121007
 40
0.9177754105
 40
1.0
 40
1.0
 40
1.0
 40
1.0
 10
5.821973597
 20
3.6761763699
 30
0.0
 10
5.821973597
 20
3.6776016694
 30
0.0
 10
5.8219022805
 20
3.680410372
 30
0.0
 10
5.821586477
 20
3.6845132765
 30
0.0
 10
5.8210809058
 20
3.6883730332
 30
0.0
 10
5.8204112693
 20
3.6919072104
 30
0.0
 10
5.819605619
 20
3.695064971
 30
0.0
 10
5.818690694
 20
3.6978223978
 30
0.0
 10
5.8176898955
 20
3.700172841
 30
0.0
 10
5.8169268961
 20
3.7015663999
 30
0.0
 10
5.8165318887
 20
3.7021877712
 30
0.0
  0
SPLINE
  5
327
100
AcDbEntity
  8
0
100
AcDbSpline
 62
7
  6
CONTINUOUS
 70
0
 71
3
 72
15
 73
11
 74
0
 42
0.0000001
 43
0.0000001
 44
0.0000000001
 40
0.0
 40
0.0
 40
0.0
 40
0.0
 40
0.1556300068
 40
0.3069366788
 40
0.4503484823
 40
0.5834299118
 40
0.7049199694
 40
0.8145059225
 40
0.9125959732
 40
1.0
 40
1.0
 40
1.0
 40
1.0
 10
5.8482437074
 20
3.6761763699
 30
0.0
 10
5.8482437074
 20
3.677602031
 30
0.0
 10
5.8481485277
 20
3.6804147198
 30
0.0
 10
5.8477271709
 20
3.6845217763
 30
0.0
 10
5.8470525233
 20
3.6883856817
 30
0.0
 10
5.8461587098
 20
3.6919239256
 30
0.0
 10
5.8450829197
 20
3.6950857207
 30
0.0
 10
5.8438604408
 20
3.6978471418
 30
0.0
 10
5.8425222359
 20
3.7002011752
 30
0.0
 10
5.8415155374
 20
3.7015766288
 30
0.0
 10
5.8409982562
 20
3.7021877712
 30
0.0
  0
SPLINE
  5
328
100
AcDbEntity
  8
0
100
AcDbSpline
 62
7
  6
CONTINUOUS
 70
0
 71
3
 72
15
 73
11
 74
0
 42
0.0000001
 43
0.0000001
 44
0.0000000001
 40
0.0
 40
0.0
 40
0.0
 40
0.0
 40
0.151703013
 40
0.299563539
 40
0.4404347628
 40
0.5722194401
 40
0.693906051
 40
0.8053567499
 40
0.9070985322
 40
1.0
 40
1.0
 40
1.0
 40
1.0
 10
5.8703252008
 20
3.6761763699
 30
0.0
 10
5.8703252008
 20
3.6776024753
 30
0.0
 10
5.8702069008
 20
3.6804200524
 30
0.0
 10
5.8696833939
 20
3.6845320593
 30
0.0
 10
5.8688451285
 20
3.6884006262
 30
0.0
 10
5.8677343985
 20
3.6919429848
 30
0.0
 10
5.8663972862
 20
3.6951082367
 30
0.0
 10
5.8648775272
 20
3.6978722319
 30
0.0
 10
5.8632137016
 20
3.7002274724
 30
0.0
 10
5.8619779055
 20
3.7015851653
 30
0.0
 10
5.8613457843
 20
3.7021877712
 30
0.0
  0
SPLINE
  5
329
100
AcDbEntity
  8
0
100
AcDbSpline
 62
7
  6
CONTINUOUS
 70
0
 71
3
 72
15
 73
11
 74
0
 42
0.0000001
 43
0.0000001
 44
0.0000000001
 40
0.0
 40
0.0
 40
0.0
 40
0.0
 40
0.1476564337
 40
0.2919866499
 40
0.430293636
 40
0.5608254536
 40
0.6828050132
 40
0.7962297862
 40
0.9016811236
 40
1.0
 40
1.0
 40
1.0
 40
1.0
 10
5.8880054203
 20
3.6761763699
 30
0.0
 10
5.8880054203
 20
3.6776029857
 30
0.0
 10
5.8878649495
 20
3.6804261588
 30
0.0
 10
5.8872436436
 20
3.6845436457
 30
0.0
 10
5.8862488195
 20
3.6884170084
 30
0.0
 10
5.8849307207
 20
3.6919630585
 30
0.0
 10
5.8833441267
 20
3.6951307137
 30
0.0
 10
5.8815411288
 20
3.6978956144
 30
0.0
 10
5.879567895
 20
3.7002499961
 30
0.0
 10
5.878118291
 20
3.7015918697
 30
0.0
 10
5.8773785152
 20
3.7021877712
 30
0.0
  0
SPLINE
  5
32A
100
AcDbEntity
  8
0
100
AcDbSpline
 62
7
  6
CONTINUOUS
 70
0
 71
3
 72
16
 73
12
 74
0
 42
0.0000001
 43
0.0000001
 44
0.0000000001
 40
0.0
 40
0.0
 40
0.0
 40
0.0
 40
0.1436879284
 40
0.2845762069
 40
0.3532620084
 40
0.4204764981
 40
0.5498551029
 40
0.6721963103
 40
0.7875867537
 40
0.8966040296
 40
1.0
 40
1.0
 40
1.0
 40
1.0
 10
5.9011140957
 20
3.6761763699
 30
0.0
 10
5.9011140957
 20
3.6776035414
 30
0.0
 10
5.9009526357
 20
3.6804326035
 30
0.0
 10
5.900352806
 20
3.6838978896
 30
0.0
 10
5.8996490885
 20
3.6865569413
 30
0.0
 10
5.8988283516
 20
3.6890620053
 30
0.0
 10
5.8975824836
 20
3.6919831373
 30
0.0
 10
5.8957612875
 20
3.6951518424
 30
0.0
 10
5.8936924966
 20
3.6979162509
 30
0.0
 10
5.8914296822
 20
3.7002684396
 30
0.0
 10
5.8897820854
 20
3.7015970024
 30
0.0
 10
5.8889420449
 20
3.7021877712
 30
0.0
  0
SPLINE
  5
32B
100
AcDbEntity
  8
0
100
AcDbSpline
 62
7
  6
CONTINUOUS
 70
0
 71
3
 72
15
 73
11
 74
0
 42
0.0000001
 43
0.0000001
 44
0.0000000001
 40
0.0
 40
0.0
 40
0.0
 40
0.0
 40
0.1399685225
 40
0.277652619
 40
0.4112409068
 40
0.5396194475
 40
0.6623829289
 40
0.7796642059
 40
0.891993881
 40
1.0
 40
1.0
 40
1.0
 40
1.0
 10
5.9095249833
 20
3.6761763699
 30
0.0
 10
5.9095249833
 20
3.677604122
 30
0.0
 10
5.9093438798
 20
3.6804397064
 30
0.0
 10
5.9085439245
 20
3.6845686476
 30
0.0
 10
5.9072637206
 20
3.688450791
 30
0.0
 10
5.9055687201
 20
3.6920019371
 30
0.0
 10
5.9035302486
 20
3.6951709621
 30
0.0
 10
5.9012161226
 20
3.6979337897
 30
0.0
 10
5.8986864482
 20
3.7002831799
 30
0.0
 10
5.8968574077
 20
3.7016008983
 30
0.0
 10
5.8959250104
 20
3.7021877712
 30
0.0
  0
SPLINE
  5
32C
100
AcDbEntity
  8
0
100
AcDbSpline
 62
7
  6
CONTINUOUS
 70
0
 71
3
 72
17
 73
13
 74
0
 42
0.0000001
 43
0.0000001
 44
0.0000000001
 40
0.0
 40
0.0
 40
0.0
 40
0.0
 40
0.1365514088
 40
0.2042990286
 40
0.2713870979
 40
0.4029364761
 40
0.5304372265
 40
0.5925964002
 40
0.653680009
 40
0.7726785226
 40
0.8879549025
 40
1.0
 40
1.0
 40
1.0
 40
1.0
 10
5.9131570817
 20
3.6761763699
 30
0.0
 10
5.9131570817
 20
3.6776047049
 30
0.0
 10
5.9130070185
 20
3.6797456629
 30
0.0
 10
5.9125123045
 20
3.6825426032
 30
0.0
 10
5.9118377099
 20
3.6852482043
 30
0.0
 10
5.9106733366
 20
3.688466787
 30
0.0
 10
5.9091096478
 20
3.69145262
 30
0.0
 10
5.9076662243
 20
3.6936444837
 30
0.0
 10
5.9061369539
 20
3.6956667122
 30
0.0
 10
5.9040405807
 20
3.6979484905
 30
0.0
 10
5.9012693464
 20
3.7002947472
 30
0.0
 10
5.8992763386
 20
3.7016038505
 30
0.0
 10
5.8982601618
 20
3.7021877712
 30
0.0
  0
SPLINE
  5
32D
100
AcDbEntity
  8
0
100
AcDbSpline
 62
7
  6
CONTINUOUS
 70
0
 71
3
 72
19
 73
15
 74
0
 42
0.0000001
 43
0.0000001
 44
0.0000000001
 40
0.0
 40
0.0
 40
0.0
 40
0.0
 40
0.0289981711
 40
0.0631761581
 40
0.1026639168
 40
0.1474511345
 40
0.1974410267
 40
0.2524411662
 40
0.3122076228
 40
0.3764311713
 40
0.5167995961
 40
0.6702308259
 40
0.8327717972
 40
1.0
 40
1.0
 40
1.0
 40
1.0
 10
4.9255126166
 20
2.831754623
 30
0.0
 10
4.9256432558
 20
2.8318973325
 30
0.0
 10
4.9258999704
 20
2.8322338144
 30
0.0
 10
4.9262499178
 20
2.8328237033
 30
0.0
 10
4.9265929686
 20
2.8335365933
 30
0.0
 10
4.9269264092
 20
2.8343685864
 30
0.0
 10
4.9272474304
 20
2.835315361
 30
0.0
 10
4.9275532391
 20
2.8363715428
 30
0.0
 10
4.9278408002
 20
2.8375308944
 30
0.0
 10
4.9282071025
 20
2.8392565143
 30
0.0
 10
4.9285938889
 20
2.8416151299
 30
0.0
 10
4.9289328754
 20
2.8446420203
 30
0.0
 10
4.9291431359
 20
2.8478601128
 30
0.0
 10
4.9291904379
 20
2.8500606275
 30
0.0
 10
4.9291904379
 20
2.8511763699
 30
0.0
  0
SPLINE
  5
32E
100
AcDbEntity
  8
0
100
AcDbSpline
 62
7
  6
CONTINUOUS
 70
0
 71
3
 72
15
 73
11
 74
0
 42
0.0000001
 43
0.0000001
 44
0.0000000001
 40
0.0
 40
0.0
 40
0.0
 40
0.0
 40
0.1335667563
 40
0.2657817682
 40
0.3955984421
 40
0.5224042738
 40
0.6460213692
 40
0.7665817594
 40
0.8844560713
 40
1.0
 40
1.0
 40
1.0
 40
1.0
 10
4.9146513005
 20
3.6761763699
 30
0.0
 10
4.9146513005
 20
3.6776052676
 30
0.0
 10
4.9148666297
 20
3.6804532793
 30
0.0
 10
4.915816206
 20
3.6845927557
 30
0.0
 10
4.9173342899
 20
3.6884814546
 30
0.0
 10
4.9193417341
 20
3.6920345367
 30
0.0
 10
4.9217528816
 20
3.695201718
 30
0.0
 10
4.9244869109
 20
3.6979601521
 30
0.0
 10
4.9274727134
 20
3.7003038393
 30
0.0
 10
4.9296110328
 20
3.7016060857
 30
0.0
 10
4.9307017019
 20
3.7021877712
 30
0.0
  0
SPLINE
  5
32F
100
AcDbEntity
  8
0
100
AcDbSpline
 62
7
  6
CONTINUOUS
 70
0
 71
3
 72
15
 73
11
 74
0
 42
0.0000001
 43
0.0000001
 44
0.0000000001
 40
0.0
 40
0.0
 40
0.0
 40
0.0
 40
0.130991108
 40
0.2610236217
 40
0.3893645912
 40
0.5155928075
 40
0.6395991605
 40
0.7614887257
 40
0.8815449578
 40
1.0
 40
1.0
 40
1.0
 40
1.0
 10
4.9206353586
 20
3.6761763699
 30
0.0
 10
4.9206353586
 20
3.6776057886
 30
0.0
 10
4.9208648622
 20
3.6804594243
 30
0.0
 10
4.9218760974
 20
3.6846033711
 30
0.0
 10
4.9234917751
 20
3.6884943973
 30
0.0
 10
4.9256268344
 20
3.6920475923
 30
0.0
 10
4.9281897016
 20
3.695213346
 30
0.0
 10
4.9310943927
 20
3.6979695545
 30
0.0
 10
4.9342655278
 20
3.7003108124
 30
0.0
 10
4.9365294755
 20
3.7016077706
 30
0.0
 10
4.9376846674
 20
3.7021877712
 30
0.0
  0
SPLINE
  5
330
100
AcDbEntity
  8
0
100
AcDbSpline
 62
7
  6
CONTINUOUS
 70
0
 71
3
 72
15
 73
11
 74
0
 42
0.0000001
 43
0.0000001
 44
0.0000000001
 40
0.0
 40
0.0
 40
0.0
 40
0.0
 40
0.1288643831
 40
0.2571029379
 40
0.3842438997
 40
0.51001865
 40
0.6343647126
 40
0.7573542135
 40
0.8791905845
 40
1.0
 40
1.0
 40
1.0
 40
1.0
 10
4.9313641751
 20
3.6761763699
 30
0.0
 10
4.9313641751
 20
3.677606248
 30
0.0
 10
4.9316056316
 20
3.6804648272
 30
0.0
 10
4.9326686968
 20
3.6846125541
 30
0.0
 10
4.9343661727
 20
3.6885053304
 30
0.0
 10
4.9366079169
 20
3.6920583143
 30
0.0
 10
4.9392974216
 20
3.6952226207
 30
0.0
 10
4.942344485
 20
3.6979768474
 30
0.0
 10
4.9456702544
 20
3.7003160876
 30
0.0
 10
4.948039068
 20
3.7016090244
 30
0.0
 10
4.9492481971
 20
3.7021877712
 30
0.0
  0
SPLINE
  5
331
100
AcDbEntity
  8
0
100
AcDbSpline
 62
7
  6
CONTINUOUS
 70
0
 71
3
 72
16
 73
12
 74
0
 42
0.0000001
 43
0.0000001
 44
0.0000000001
 40
0.0
 40
0.0
 40
0.0
 40
0.0
 40
0.1271816556
 40
0.1907190587
 40
0.2541169055
 40
0.3803141061
 40
0.5057336754
 40
0.6303432007
 40
0.7541825035
 40
0.8773877236
 40
1.0
 40
1.0
 40
1.0
 40
1.0
 10
4.9467344257
 20
3.6761763699
 30
0.0
 10
4.9467344257
 20
3.6776066281
 30
0.0
 10
4.9469231884
 20
3.6797573997
 30
0.0
 10
4.9475392381
 20
3.6825504238
 30
0.0
 10
4.9483849478
 20
3.6852718092
 30
0.0
 10
4.9498524839
 20
3.6885143392
 30
0.0
 10
4.9521787839
 20
3.6920666024
 30
0.0
 10
4.9549687215
 20
3.6952297096
 30
0.0
 10
4.95812862
 20
3.6979822821
 30
0.0
 10
4.9615769817
 20
3.7003199507
 30
0.0
 10
4.964028974
 20
3.7016099314
 30
0.0
 10
4.965280928
 20
3.7021877712
 30
0.0
  0
SPLINE
  5
332
100
AcDbEntity
  8
0
100
AcDbSpline
 62
7
  6
CONTINUOUS
 70
0
 71
3
 72
16
 73
12
 74
0
 42
0.0000001
 43
0.0000001
 44
0.0000000001
 40
0.0
 40
0.0
 40
0.0
 40
0.0
 40
0.1259747627
 40
0.1889734627
 40
0.2519029109
 40
0.3774340552
 40
0.5026145305
 40
0.6274300565
 40
0.7518937043
 40
0.8760907394
 40
1.0
 40
1.0
 40
1.0
 40
1.0
 10
4.9665980865
 20
3.6761763699
 30
0.0
 10
4.9665980865
 20
3.6776069144
 30
0.0
 10
4.9667920686
 20
3.6797591328
 30
0.0
 10
4.9674242036
 20
3.6825515568
 30
0.0
 10
4.9682928339
 20
3.6852751697
 30
0.0
 10
4.96980108
 20
3.6885207442
 30
0.0
 10
4.9721892157
 20
3.692072615
 30
0.0
 10
4.9750524216
 20
3.6952347101
 30
0.0
 10
4.9782946562
 20
3.6979860688
 30
0.0
 10
4.981832486
 20
3.7003226031
 30
0.0
 10
4.9843452125
 20
3.701610549
 30
0.0
 10
4.9856284562
 20
3.7021877712
 30
0.0
  0
SPLINE
  5
333
100
AcDbEntity
  8
0
100
AcDbSpline
 62
7
  6
CONTINUOUS
 70
0
 71
3
 72
16
 73
12
 74
0
 42
0.0000001
 43
0.0000001
 44
0.0000000001
 40
0.0
 40
0.0
 40
0.0
 40
0.0
 40
0.125230425
 40
0.1878973274
 40
0.2505387361
 40
0.3756618732
 40
0.5006982222
 40
0.6256431709
 40
0.7504919146
 40
0.8752974794
 40
1.0
 40
1.0
 40
1.0
 40
1.0
 10
4.9907638595
 20
3.6761763699
 30
0.0
 10
4.9907638595
 20
3.6776070959
 30
0.0
 10
4.9909610953
 20
3.6797602298
 30
0.0
 10
4.9916032227
 20
3.6825522713
 30
0.0
 10
4.9924861199
 20
3.6852772804
 30
0.0
 10
4.9940197149
 20
3.6885247267
 30
0.0
 10
4.9964462596
 20
3.6920763088
 30
0.0
 10
4.9993549534
 20
3.6952377471
 30
0.0
 10
5.0026483037
 20
3.6979883448
 30
0.0
 10
5.0062416861
 20
3.7003241834
 30
0.0
 10
5.0087921371
 20
3.701610915
 30
0.0
 10
5.0100948237
 20
3.7021877712
 30
0.0
  0
SPLINE
  5
334
100
AcDbEntity
  8
0
100
AcDbSpline
 62
7
  6
CONTINUOUS
 70
0
 71
3
 72
16
 73
12
 74
0
 42
0.0000001
 43
0.0000001
 44
0.0000000001
 40
0.0
 40
0.0
 40
0.0
 40
0.0
 40
0.1249482055
 40
0.1874893943
 40
0.2500217607
 40
0.3749907563
 40
0.4999731217
 40
0.6249676072
 40
0.7499623611
 40
0.8749980216
 40
1.0
 40
1.0
 40
1.0
 40
1.0
 10
5.0189990152
 20
3.6761763699
 30
0.0
 10
5.0189990152
 20
3.6776071657
 30
0.0
 10
5.0191974918
 20
3.6797606514
 30
0.0
 10
5.0198434229
 20
3.6825525454
 30
0.0
 10
5.0207317567
 20
3.6852780884
 30
0.0
 10
5.0222750127
 20
3.688526243
 30
0.0
 10
5.0247161772
 20
3.6920777063
 30
0.0
 10
5.0276421809
 20
3.6952388892
 30
0.0
 10
5.0309549824
 20
3.6979891961
 30
0.0
 10
5.0345695066
 20
3.7003247718
 30
0.0
 10
5.0371343171
 20
3.7016110509
 30
0.0
 10
5.0384444061
 20
3.7021877712
 30
0.0
  0
SPLINE
  5
335
100
AcDbEntity
  8
0
100
AcDbSpline
 62
7
  6
CONTINUOUS
 70
0
 71
3
 72
16
 73
12
 74
0
 42
0.0000001
 43
0.0000001
 44
0.0000000001
 40
0.0
 40
0.0
 40
0.0
 40
0.0
 40
0.1251277913
 40
0.1877489701
 40
0.250350713
 40
0.3754177585
 40
0.5004344334
 40
0.6253973676
 40
0.7502992106
 40
0.8751884936
 40
1.0
 40
1.0
 40
1.0
 40
1.0
 10
5.0510316335
 20
3.6761763699
 30
0.0
 10
5.0510316335
 20
3.6776071212
 30
0.0
 10
5.0512293201
 20
3.6797603828
 30
0.0
 10
5.0518728298
 20
3.6825523708
 30
0.0
 10
5.0527577023
 20
3.6852775737
 30
0.0
 10
5.0542948075
 20
3.6885252777
 30
0.0
 10
5.0567266652
 20
3.6920768173
 30
0.0
 10
5.05964165
 20
3.695238163
 30
0.0
 10
5.0629420694
 20
3.6979886551
 30
0.0
 10
5.0665431354
 20
3.700324398
 30
0.0
 10
5.0690988048
 20
3.7016109646
 30
0.0
 10
5.0704041814
 20
3.7021877712
 30
0.0
  0
SPLINE
  5
336
100
AcDbEntity
  8
0
100
AcDbSpline
 62
7
  6
CONTINUOUS
 70
0
 71
3
 72
16
 73
12
 74
0
 42
0.0000001
 43
0.0000001
 44
0.0000000001
 40
0.0
 40
0.0
 40
0.0
 40
0.0
 40
0.1257693906
 40
0.1886765096
 40
0.2515264196
 40
0.3769447774
 40
0.5020852331
 40
0.6269362894
 40
0.7515061891
 40
0.8758713663
 40
1.0
 40
1.0
 40
1.0
 40
1.0
 10
5.0865532229
 20
3.6761763699
 30
0.0
 10
5.0865532229
 20
3.6776069641
 30
0.0
 10
5.0867481
 20
3.6797594333
 30
0.0
 10
5.0873829864
 20
3.6825517528
 30
0.0
 10
5.0882555428
 20
3.6852757491
 30
0.0
 10
5.0897707642
 20
3.6885218406
 30
0.0
 10
5.092169476
 20
3.6920736353
 30
0.0
 10
5.095045209
 20
3.6952355516
 30
0.0
 10
5.0983015206
 20
3.6979867013
 30
0.0
 10
5.1018546486
 20
3.7003230433
 30
0.0
 10
5.1043777627
 20
3.7016106511
 30
0.0
 10
5.1056663595
 20
3.7021877712
 30
0.0
  0
LINE
  5
337
100
AcDbEntity
  8
0
100
AcDbLine
 62
7
  6
CONTINUOUS
 10
5.1056663595
 20
3.7021877712
 11
5.1058784842
 21
3.6761763699
  0
SPLINE
  5
338
100
AcDbEntity
  8
0
100
AcDbSpline
 62
7
  6
CONTINUOUS
 70
0
 71
3
 72
16
 73
12
 74
0
 42
0.0000001
 43
0.0000001
 44
0.0000000001
 40
0.0
 40
0.0
 40
0.0
 40
0.0
 40
0.1268734818
 40
0.1902732464
 40
0.2535513311
 40
0.3795779304
 40
0.5049358113
 40
0.6295974794
 40
0.7535961921
 40
0.8770552692
 40
1.0
 40
1.0
 40
1.0
 40
1.0
 10
5.1252216909
 20
3.6761763699
 30
0.0
 10
5.1252216909
 20
3.6776067002
 30
0.0
 10
5.1254117799
 20
3.679757837
 30
0.0
 10
5.1260319237
 20
3.6825507101
 30
0.0
 10
5.1268834619
 20
3.68527266
 30
0.0
 10
5.1283613482
 20
3.6885159684
 30
0.0
 10
5.1307033873
 20
3.6920681403
 30
0.0
 10
5.1335119784
 20
3.6952309955
 30
0.0
 10
5.1366928394
 20
3.6979832605
 30
0.0
 10
5.1401639779
 20
3.7003206389
 30
0.0
 10
5.1426314294
 20
3.701610092
 30
0.0
 10
5.1438913463
 20
3.7021877712
 30
0.0
  0
SPLINE
  5
339
100
AcDbEntity
  8
0
100
AcDbSpline
 62
7
  6
CONTINUOUS
 70
0
 71
3
 72
15
 73
11
 74
0
 42
0.0000001
 43
0.0000001
 44
0.0000000001
 40
0.0
 40
0.0
 40
0.0
 40
0.0
 40
0.0755471141
 40
0.1662015141
 40
0.2722560543
 40
0.3936436061
 40
0.5295727183
 40
0.6782292403
 40
0.8364999911
 40
1.0
 40
1.0
 40
1.0
 40
1.0
 10
5.1438913463
 20
3.7021877712
 30
0.0
 10
5.1440494168
 20
3.7015486349
 30
0.0
 10
5.1443494939
 20
3.7001307448
 30
0.0
 10
5.1447359825
 20
3.6977892061
 30
0.0
 10
5.145090022
 20
3.6950391836
 30
0.0
 10
5.1454022666
 20
3.69188746
 30
0.0
 10
5.1456619924
 20
3.6883586114
 30
0.0
 10
5.14585818
 20
3.6845038019
 30
0.0
 10
5.1459807574
 20
3.6804055881
 30
0.0
 10
5.1460084312
 20
3.6776012726
 30
0.0
 10
5.1460084312
 20
3.6761763699
 30
0.0
  0
SPLINE
  5
33A
100
AcDbEntity
  8
0
100
AcDbSpline
 62
7
  6
CONTINUOUS
 70
0
 71
3
 72
15
 73
11
 74
0
 42
0.0000001
 43
0.0000001
 44
0.0000000001
 40
0.0
 40
0.0
 40
0.0
 40
0.0
 40
0.1284538352
 40
0.2563469485
 40
0.3832582059
 40
0.5089478452
 40
0.633361322
 40
0.7565633296
 40
0.8787410932
 40
1.0
 40
1.0
 40
1.0
 40
1.0
 10
5.1666646392
 20
3.6761763699
 30
0.0
 10
5.1666646392
 20
3.6776063399
 30
0.0
 10
5.1669084325
 20
3.6804659062
 30
0.0
 10
5.1679816115
 20
3.6846143714
 30
0.0
 10
5.1696950215
 20
3.6885074657
 30
0.0
 10
5.1719575181
 20
3.6920603766
 30
0.0
 10
5.1746716369
 20
3.6952243771
 30
0.0
 10
5.1777463671
 20
3.6979782085
 30
0.0
 10
5.1811021902
 20
3.7003170595
 30
0.0
 10
5.1834913918
 20
3.7016092536
 30
0.0
 10
5.1847110144
 20
3.7021877712
 30
0.0
  0
SPLINE
  5
33B
100
AcDbEntity
  8
0
100
AcDbSpline
 62
7
  6
CONTINUOUS
 70
0
 71
3
 72
16
 73
12
 74
0
 42
0.0000001
 43
0.0000001
 44
0.0000000001
 40
0.0
 40
0.0
 40
0.0
 40
0.0
 40
0.0377009731
 40
0.0787802555
 40
0.1713840141
 40
0.2783262804
 40
0.3996978205
 40
0.5348482395
 40
0.6821135935
 40
0.8385567536
 40
1.0
 40
1.0
 40
1.0
 40
1.0
 10
5.1847110144
 20
3.7021877712
 30
0.0
 10
5.1848519477
 20
3.7018862938
 30
0.0
 10
5.1851293914
 20
3.7012482663
 30
0.0
 10
5.185669158
 20
3.6998345759
 30
0.0
 10
5.186303132
 20
3.6978051572
 30
0.0
 10
5.1869741746
 20
3.6950515011
 30
0.0
 10
5.1875654471
 20
3.6918966961
 30
0.0
 10
5.1880570887
 20
3.688365307
 30
0.0
 10
5.1884283591
 20
3.6845081674
 30
0.0
 10
5.1886603005
 20
3.6804077855
 30
0.0
 10
5.1887126708
 20
3.6776014548
 30
0.0
 10
5.1887126708
 20
3.6761763699
 30
0.0
  0
SPLINE
  5
33C
100
AcDbEntity
  8
0
100
AcDbSpline
 62
7
  6
CONTINUOUS
 70
0
 71
3
 72
15
 73
11
 74
0
 42
0.0000001
 43
0.0000001
 44
0.0000000001
 40
0.0
 40
0.0
 40
0.0
 40
0.0
 40
0.1304792469
 40
0.2600793071
 40
0.3881299196
 40
0.5142470639
 40
0.6383336997
 40
0.7604878363
 40
0.8809742948
 40
1.0
 40
1.0
 40
1.0
 40
1.0
 10
5.2104829495
 20
3.6761763699
 30
0.0
 10
5.2104829495
 20
3.6776058967
 30
0.0
 10
5.2107153077
 20
3.6804606967
 30
0.0
 10
5.2117389353
 20
3.6846055462
 30
0.0
 10
5.2133741915
 20
3.6884970087
 30
0.0
 10
5.2155348091
 20
3.6920501784
 30
0.0
 10
5.2181280304
 20
3.6952156053
 30
0.0
 10
5.2210668522
 20
3.6979713476
 30
0.0
 10
5.2242750549
 20
3.70031212
 30
0.0
 10
5.2265641352
 20
3.701608083
 30
0.0
 10
5.2277322481
 20
3.7021877712
 30
0.0
  0
SPLINE
  5
33D
100
AcDbEntity
  8
0
100
AcDbSpline
 62
7
  6
CONTINUOUS
 70
0
 71
3
 72
15
 73
11
 74
0
 42
0.0000001
 43
0.0000001
 44
0.0000000001
 40
0.0
 40
0.0
 40
0.0
 40
0.0
 40
0.0833221551
 40
0.1787806971
 40
0.2870743351
 40
0.4084811058
 40
0.5425372738
 40
0.6877923748
 40
0.8415689488
 40
1.0
 40
1.0
 40
1.0
 40
1.0
 10
5.2277322481
 20
3.7021877712
 30
0.0
 10
5.2281550978
 20
3.7015687823
 30
0.0
 10
5.2289734524
 20
3.700179151
 30
0.0
 10
5.230049999
 20
3.6978277225
 30
0.0
 10
5.231033961
 20
3.695069322
 30
0.0
 10
5.2319002534
 20
3.6919106529
 30
0.0
 10
5.2326202215
 20
3.6883756053
 30
0.0
 10
5.2331637578
 20
3.6845149908
 30
0.0
 10
5.2335032644
 20
3.6804112444
 30
0.0
 10
5.2335799378
 20
3.6776017421
 30
0.0
 10
5.2335799378
 20
3.6761763699
 30
0.0
  0
SPLINE
  5
33E
100
AcDbEntity
  8
0
100
AcDbSpline
 62
7
  6
CONTINUOUS
 70
0
 71
3
 72
15
 73
11
 74
0
 42
0.0000001
 43
0.0000001
 44
0.0000000001
 40
0.0
 40
0.0
 40
0.0
 40
0.0
 40
0.1329564013
 40
0.2646532657
 40
0.3941180421
 40
0.5207841636
 40
0.6444912416
 40
0.7653662401
 40
0.883760169
 40
1.0
 40
1.0
 40
1.0
 40
1.0
 10
5.2562546274
 20
3.6761763699
 30
0.0
 10
5.2562546274
 20
3.6776053877
 30
0.0
 10
5.2564732888
 20
3.6804546976
 30
0.0
 10
5.2574373784
 20
3.6845952221
 30
0.0
 10
5.25897846
 20
3.6884844913
 30
0.0
 10
5.2610160078
 20
3.6920376361
 30
0.0
 10
5.2634629697
 20
3.6952045126
 30
0.0
 10
5.2662372959
 20
3.6979624388
 30
0.0
 10
5.2692668584
 20
3.7003055534
 30
0.0
 10
5.2714348372
 20
3.7016065028
 30
0.0
 10
5.2725407292
 20
3.7021877712
 30
0.0
  0
SPLINE
  5
33F
100
AcDbEntity
  8
0
100
AcDbSpline
 62
7
  6
CONTINUOUS
 70
0
 71
3
 72
15
 73
11
 74
0
 42
0.0000001
 43
0.0000001
 44
0.0000000001
 40
0.0
 40
0.0
 40
0.0
 40
0.0
 40
0.0886146521
 40
0.1874985871
 40
0.2974830337
 40
0.4190078695
 40
0.5518018603
 40
0.6946598314
 40
0.8452194364
 40
1.0
 40
1.0
 40
1.0
 40
1.0
 10
5.2725407292
 20
3.7021877712
 30
0.0
 10
5.2730841566
 20
3.7015786878
 30
0.0
 10
5.2741430602
 20
3.7002072865
 30
0.0
 10
5.2755548114
 20
3.6978527776
 30
0.0
 10
5.2768443757
 20
3.6950906436
 30
0.0
 10
5.2779791047
 20
3.6919280091
 30
0.0
 10
5.2789218283
 20
3.6883888366
 30
0.0
 10
5.2796333629
 20
3.6845239256
 30
0.0
 10
5.2800777469
 20
3.6804158276
 30
0.0
 10
5.2801781358
 20
3.6776021234
 30
0.0
 10
5.2801781358
 20
3.6761763699
 30
0.0
  0
SPLINE
  5
340
100
AcDbEntity
  8
0
100
AcDbSpline
 62
7
  6
CONTINUOUS
 70
0
 71
3
 72
17
 73
13
 74
0
 42
0.0000001
 43
0.0000001
 44
0.0000000001
 40
0.0
 40
0.0
 40
0.0
 40
0.0
 40
0.1358478488
 40
0.2032776326
 40
0.2700853052
 40
0.4012213698
 40
0.5285508573
 40
0.5907242981
 40
0.6518895111
 40
0.7712483352
 40
0.8871317576
 40
1.0
 40
1.0
 40
1.0
 40
1.0
 10
5.3035388668
 20
3.6761763699
 30
0.0
 10
5.3035388668
 20
3.6776048324
 30
0.0
 10
5.3036917467
 20
3.6797464468
 30
0.0
 10
5.3041954077
 20
3.682543133
 30
0.0
 10
5.3048825207
 20
3.6852498305
 30
0.0
 10
5.3060689797
 20
3.6884701832
 30
0.0
 10
5.3076607415
 20
3.6914546949
 30
0.0
 10
5.3091295547
 20
3.6936453565
 30
0.0
 10
5.3106873934
 20
3.6956686537
 30
0.0
 10
5.3128231102
 20
3.6979513442
 30
0.0
 10
5.315644416
 20
3.7002969599
 30
0.0
 10
5.3176713697
 20
3.7016044025
 30
0.0
 10
5.3187049277
 20
3.7021877712
 30
0.0
  0
SPLINE
  5
341
100
AcDbEntity
  8
0
100
AcDbSpline
 62
7
  6
CONTINUOUS
 70
0
 71
3
 72
14
 73
10
 74
0
 42
0.0000001
 43
0.0000001
 44
0.0000000001
 40
0.0
 40
0.0
 40
0.0
 40
0.0
 40
0.1963859299
 40
0.3083128175
 40
0.4301031297
 40
0.561652909
 40
0.7020044699
 40
0.8491365959
 40
1.0
 40
1.0
 40
1.0
 40
1.0
 10
5.3187049277
 20
3.7021877712
 30
0.0
 10
5.3200745234
 20
3.7009343529
 30
0.0
 10
5.3219412178
 20
3.6986450332
 30
0.0
 10
5.3239638421
 20
3.6951140419
 30
0.0
 10
5.3253582594
 20
3.6919471765
 30
0.0
 10
5.3265157576
 20
3.6884042423
 30
0.0
 10
5.327389547
 20
3.6845345216
 30
0.0
 10
5.327935178
 20
3.6804213573
 30
0.0
 10
5.3280584988
 20
3.6776025839
 30
0.0
 10
5.3280584988
 20
3.6761763699
 30
0.0
  0
SPLINE
  5
342
100
AcDbEntity
  8
0
100
AcDbSpline
 62
7
  6
CONTINUOUS
 70
0
 71
3
 72
15
 73
11
 74
0
 42
0.0000001
 43
0.0000001
 44
0.0000000001
 40
0.0
 40
0.0
 40
0.0
 40
0.0
 40
0.1391823898
 40
0.2761915885
 40
0.4093088874
 40
0.5374836494
 40
0.6603426922
 40
0.7780241045
 40
0.8910438437
 40
1.0
 40
1.0
 40
1.0
 40
1.0
 10
5.3518802945
 20
3.6761763699
 30
0.0
 10
5.3518802945
 20
3.6776042521
 30
0.0
 10
5.3520655493
 20
3.6804412522
 30
0.0
 10
5.3528837009
 20
3.6845714402
 30
0.0
 10
5.3541929023
 20
3.6884544363
 30
0.0
 10
5.3559260863
 20
3.692005941
 30
0.0
 10
5.3580101986
 20
3.6951748789
 30
0.0
 10
5.3603758176
 20
3.697937274
 30
0.0
 10
5.3629614545
 20
3.7002860091
 30
0.0
 10
5.3648284759
 20
3.7016016269
 30
0.0
 10
5.3657802571
 20
3.7021877712
 30
0.0
  0
SPLINE
  5
343
100
AcDbEntity
  8
0
100
AcDbSpline
 62
7
  6
CONTINUOUS
 70
0
 71
3
 72
15
 73
11
 74
0
 42
0.0000001
 43
0.0000001
 44
0.0000000001
 40
0.0
 40
0.0
 40
0.0
 40
0.0
 40
0.0994838673
 40
0.2057463752
 40
0.3196130274
 40
0.4416689037
 40
0.5719352972
 40
0.7096835019
 40
0.8532371064
 40
1.0
 40
1.0
 40
1.0
 40
1.0
 10
5.3657802571
 20
3.7021877712
 30
0.0
 10
5.3665429671
 20
3.7015931343
 30
0.0
 10
5.3680379577
 20
3.7002544409
 30
0.0
 10
5.3700773687
 20
3.6979004571
 30
0.0
 10
5.3719410478
 20
3.6951355645
 30
0.0
 10
5.3735811733
 20
3.6919675374
 30
0.0
 10
5.3749438234
 20
3.6884207582
 30
0.0
 10
5.3759723148
 20
3.6845463455
 30
0.0
 10
5.3766146654
 20
3.6804275968
 30
0.0
 10
5.3767599127
 20
3.6776031059
 30
0.0
 10
5.3767599127
 20
3.6761763699
 30
0.0
  0
SPLINE
  5
344
100
AcDbEntity
  8
0
100
AcDbSpline
 62
7
  6
CONTINUOUS
 70
0
 71
3
 72
16
 73
12
 74
0
 42
0.0000001
 43
0.0000001
 44
0.0000000001
 40
0.0
 40
0.0
 40
0.0
 40
0.0
 40
0.1428350588
 40
0.2829866137
 40
0.3513807188
 40
0.4183672382
 40
0.5475090894
 40
0.6699393316
 40
0.7857583358
 40
0.8955363967
 40
1.0
 40
1.0
 40
1.0
 40
1.0
 10
5.4008133562
 20
3.6761763699
 30
0.0
 10
5.4008133562
 20
3.6776036691
 30
0.0
 10
5.4009793001
 20
3.6804341174
 30
0.0
 10
5.4015955358
 20
3.6838994538
 30
0.0
 10
5.4023180875
 20
3.6865577742
 30
0.0
 10
5.4031614807
 20
3.6890642447
 30
0.0
 10
5.4044423045
 20
3.6919874655
 30
0.0
 10
5.4063133624
 20
3.6951562794
 30
0.0
 10
5.4084385365
 20
3.6979204188
 30
0.0
 10
5.4107627078
 20
3.7002720158
 30
0.0
 10
5.4124520864
 20
3.7015979637
 30
0.0
 10
5.4133133562
 20
3.7021877712
 30
0.0
  0
SPLINE
  5
345
100
AcDbEntity
  8
0
100
AcDbSpline
 62
7
  6
CONTINUOUS
 70
0
 71
3
 72
16
 73
12
 74
0
 42
0.0000001
 43
0.0000001
 44
0.0000000001
 40
0.0
 40
0.0
 40
0.0
 40
0.0
 40
0.1428350356
 40
0.2829865932
 40
0.3513807055
 40
0.4183672305
 40
0.5475090872
 40
0.6699393291
 40
0.7857583337
 40
0.8955363968
 40
1.0
 40
1.0
 40
1.0
 40
1.0
 10
5.4258133562
 20
2.8061763699
 30
0.0
 10
5.4258133562
 20
2.8047490709
 30
0.0
 10
5.4256474123
 20
2.8019186228
 30
0.0
 10
5.4250311767
 20
2.7984532865
 30
0.0
 10
5.424308625
 20
2.7957949659
 30
0.0
 10
5.4234652317
 20
2.7932884952
 30
0.0
 10
5.4221844079
 20
2.7903652744
 30
0.0
 10
5.42031335
 20
2.7871964604
 30
0.0
 10
5.4181881758
 20
2.784432321
 30
0.0
 10
5.4158640046
 20
2.782080724
 30
0.0
 10
5.4141746259
 20
2.780754776
 30
0.0
 10
5.4133133562
 20
2.7801649685
 30
0.0
  0
SPLINE
  5
346
100
AcDbEntity
  8
0
100
AcDbSpline
 62
7
  6
CONTINUOUS
 70
0
 71
3
 72
15
 73
11
 74
0
 42
0.0000001
 43
0.0000001
 44
0.0000000001
 40
0.0
 40
0.0
 40
0.0
 40
0.0
 40
0.0994838714
 40
0.2057463799
 40
0.3196130326
 40
0.4416689228
 40
0.5719353335
 40
0.7096835141
 40
0.8532371062
 40
1.0
 40
1.0
 40
1.0
 40
1.0
 10
5.4608464553
 20
2.7801649685
 30
0.0
 10
5.4600837452
 20
2.7807596055
 30
0.0
 10
5.4585887546
 20
2.7820982989
 30
0.0
 10
5.4565493435
 20
2.7844522828
 30
0.0
 10
5.4546856643
 20
2.7872171754
 30
0.0
 10
5.4530455388
 20
2.7903852029
 30
0.0
 10
5.4516828887
 20
2.7939319821
 30
0.0
 10
5.4506543975
 20
2.7978063947
 30
0.0
 10
5.450012047
 20
2.801925143
 30
0.0
 10
5.4498667997
 20
2.8047496338
 30
0.0
 10
5.4498667997
 20
2.8061763699
 30
0.0
  0
SPLINE
  5
347
100
AcDbEntity
  8
0
100
AcDbSpline
 62
7
  6
CONTINUOUS
 70
0
 71
3
 72
15
 73
11
 74
0
 42
0.0000001
 43
0.0000001
 44
0.0000000001
 40
0.0
 40
0.0
 40
0.0
 40
0.0
 40
0.1391823673
 40
0.2761915685
 40
0.4093088798
 40
0.5374836472
 40
0.6603426896
 40
0.7780241024
 40
0.8910438438
 40
1.0
 40
1.0
 40
1.0
 40
1.0
 10
5.4747464178
 20
2.8061763699
 30
0.0
 10
5.4747464178
 20
2.8047484878
 30
0.0
 10
5.4745611631
 20
2.8019114879
 30
0.0
 10
5.4737430115
 20
2.7977813
 30
0.0
 10
5.4724338101
 20
2.7938983037
 30
0.0
 10
5.4707006261
 20
2.7903467988
 30
0.0
 10
5.4686165138
 20
2.7871778609
 30
0.0
 10
5.4662508947
 20
2.7844154658
 30
0.0
 10
5.4636652578
 20
2.7820667307
 30
0.0
 10
5.4617982364
 20
2.7807511129
 30
0.0
 10
5.4608464553
 20
2.7801649685
 30
0.0
  0
SPLINE
  5
348
100
AcDbEntity
  8
0
100
AcDbSpline
 62
7
  6
CONTINUOUS
 70
0
 71
3
 72
14
 73
10
 74
0
 42
0.0000001
 43
0.0000001
 44
0.0000000001
 40
0.0
 40
0.0
 40
0.0
 40
0.0
 40
0.1963859345
 40
0.3083128226
 40
0.430103149
 40
0.5616529459
 40
0.7020044824
 40
0.8491365958
 40
1.0
 40
1.0
 40
1.0
 40
1.0
 10
5.5079217846
 20
2.7801649685
 30
0.0
 10
5.5065521889
 20
2.7814183869
 30
0.0
 10
5.5046854945
 20
2.7837077066
 30
0.0
 10
5.5026628701
 20
2.787238698
 30
0.0
 10
5.5012684527
 20
2.7904055638
 30
0.0
 10
5.5001109545
 20
2.793948498
 30
0.0
 10
5.4992371652
 20
2.7978182186
 30
0.0
 10
5.4986915343
 20
2.8019313826
 30
0.0
 10
5.4985682135
 20
2.8047501558
 30
0.0
 10
5.4985682135
 20
2.8061763699
 30
0.0
  0
SPLINE
  5
349
100
AcDbEntity
  8
0
100
AcDbSpline
 62
7
  6
CONTINUOUS
 70
0
 71
3
 72
17
 73
13
 74
0
 42
0.0000001
 43
0.0000001
 44
0.0000000001
 40
0.0
 40
0.0
 40
0.0
 40
0.0
 40
0.1358478268
 40
0.2032776073
 40
0.2700852856
 40
0.4012213623
 40
0.5285508551
 40
0.5907242961
 40
0.6518895085
 40
0.7712483331
 40
0.8871317577
 40
1.0
 40
1.0
 40
1.0
 40
1.0
 10
5.5230878456
 20
2.8061763699
 30
0.0
 10
5.5230878456
 20
2.8047479075
 30
0.0
 10
5.5229349657
 20
2.8026062934
 30
0.0
 10
5.5224313047
 20
2.7998096074
 30
0.0
 10
5.5217441918
 20
2.7971029097
 30
0.0
 10
5.5205577328
 20
2.7938825568
 30
0.0
 10
5.5189659709
 20
2.7908980449
 30
0.0
 10
5.5174971576
 20
2.7887073833
 30
0.0
 10
5.515939319
 20
2.7866840861
 30
0.0
 10
5.5138036021
 20
2.7844013955
 30
0.0
 10
5.5109822963
 20
2.7820557798
 30
0.0
 10
5.5089553426
 20
2.7807483373
 30
0.0
 10
5.5079217846
 20
2.7801649685
 30
0.0
  0
SPLINE
  5
34A
100
AcDbEntity
  8
0
100
AcDbSpline
 62
7
  6
CONTINUOUS
 70
0
 71
3
 72
15
 73
11
 74
0
 42
0.0000001
 43
0.0000001
 44
0.0000000001
 40
0.0
 40
0.0
 40
0.0
 40
0.0
 40
0.0886146559
 40
0.1874985916
 40
0.2974830387
 40
0.4190078889
 40
0.5518018976
 40
0.6946598442
 40
0.8452194362
 40
1.0
 40
1.0
 40
1.0
 40
1.0
 10
5.5540859831
 20
2.7801649685
 30
0.0
 10
5.5535425557
 20
2.7807740519
 30
0.0
 10
5.5524836521
 20
2.7821454533
 30
0.0
 10
5.5510719008
 20
2.7844999622
 30
0.0
 10
5.5497823366
 20
2.7872620963
 30
0.0
 10
5.5486476075
 20
2.7904247312
 30
0.0
 10
5.5477048838
 20
2.7939639038
 30
0.0
 10
5.5469933494
 20
2.7978288146
 30
0.0
 10
5.5465489654
 20
2.8019369123
 30
0.0
 10
5.5464485765
 20
2.8047506163
 30
0.0
 10
5.5464485765
 20
2.8061763699
 30
0.0
  0
SPLINE
  5
34B
100
AcDbEntity
  8
0
100
AcDbSpline
 62
7
  6
CONTINUOUS
 70
0
 71
3
 72
15
 73
11
 74
0
 42
0.0000001
 43
0.0000001
 44
0.0000000001
 40
0.0
 40
0.0
 40
0.0
 40
0.0
 40
0.1329563797
 40
0.2646532463
 40
0.3941180347
 40
0.5207841614
 40
0.644491239
 40
0.7653662379
 40
0.8837601691
 40
1.0
 40
1.0
 40
1.0
 40
1.0
 10
5.5703720849
 20
2.8061763699
 30
0.0
 10
5.5703720849
 20
2.8047473522
 30
0.0
 10
5.5701534235
 20
2.8018980426
 30
0.0
 10
5.5691893341
 20
2.7977575181
 30
0.0
 10
5.5676482525
 20
2.7938682487
 30
0.0
 10
5.5656107046
 20
2.7903151037
 30
0.0
 10
5.5631637427
 20
2.7871482272
 30
0.0
 10
5.5603894165
 20
2.784390301
 30
0.0
 10
5.557359854
 20
2.7820471863
 30
0.0
 10
5.5551918752
 20
2.7807462369
 30
0.0
 10
5.5540859831
 20
2.7801649685
 30
0.0
  0
SPLINE
  5
34C
100
AcDbEntity
  8
0
100
AcDbSpline
 62
7
  6
CONTINUOUS
 70
0
 71
3
 72
15
 73
11
 74
0
 42
0.0000001
 43
0.0000001
 44
0.0000000001
 40
0.0
 40
0.0
 40
0.0
 40
0.0
 40
0.0833221588
 40
0.1787807014
 40
0.2870743401
 40
0.4084811253
 40
0.5425373116
 40
0.6877923878
 40
0.8415689486
 40
1.0
 40
1.0
 40
1.0
 40
1.0
 10
5.5988944643
 20
2.7801649685
 30
0.0
 10
5.5984716145
 20
2.7807839574
 30
0.0
 10
5.5976532599
 20
2.7821735888
 30
0.0
 10
5.5965767133
 20
2.7845250174
 30
0.0
 10
5.5955927512
 20
2.7872834179
 30
0.0
 10
5.5947264588
 20
2.7904420874
 30
0.0
 10
5.5940064907
 20
2.793977135
 30
0.0
 10
5.5934629545
 20
2.7978377494
 30
0.0
 10
5.5931234479
 20
2.8019414954
 30
0.0
 10
5.5930467746
 20
2.8047509976
 30
0.0
 10
5.5930467746
 20
2.8061763699
 30
0.0
  0
SPLINE
  5
34D
100
AcDbEntity
  8
0
100
AcDbSpline
 62
7
  6
CONTINUOUS
 70
0
 71
3
 72
15
 73
11
 74
0
 42
0.0000001
 43
0.0000001
 44
0.0000000001
 40
0.0
 40
0.0
 40
0.0
 40
0.0
 40
0.1304792256
 40
0.260079288
 40
0.3881299123
 40
0.5142470617
 40
0.638333697
 40
0.7604878342
 40
0.8809742949
 40
1.0
 40
1.0
 40
1.0
 40
1.0
 10
5.6161437629
 20
2.8061763699
 30
0.0
 10
5.6161437629
 20
2.8047468432
 30
0.0
 10
5.6159114047
 20
2.8018920435
 30
0.0
 10
5.6148877772
 20
2.797747194
 30
0.0
 10
5.613252521
 20
2.7938557313
 30
0.0
 10
5.6110919033
 20
2.7903025614
 30
0.0
 10
5.608498682
 20
2.7871371345
 30
0.0
 10
5.6055598601
 20
2.7843813922
 30
0.0
 10
5.6023516574
 20
2.7820406197
 30
0.0
 10
5.6000625771
 20
2.7807446567
 30
0.0
 10
5.5988944643
 20
2.7801649685
 30
0.0
  0
SPLINE
  5
34E
100
AcDbEntity
  8
0
100
AcDbSpline
 62
7
  6
CONTINUOUS
 70
0
 71
3
 72
16
 73
12
 74
0
 42
0.0000001
 43
0.0000001
 44
0.0000000001
 40
0.0
 40
0.0
 40
0.0
 40
0.0
 40
0.0377009743
 40
0.078780259
 40
0.1713840184
 40
0.2783262854
 40
0.3996978401
 40
0.5348482778
 40
0.6821136067
 40
0.8385567534
 40
1.0
 40
1.0
 40
1.0
 40
1.0
 10
5.6419156979
 20
2.7801649685
 30
0.0
 10
5.6417747647
 20
2.7804664459
 30
0.0
 10
5.6414973209
 20
2.7811044734
 30
0.0
 10
5.6409575543
 20
2.7825181639
 30
0.0
 10
5.6403235803
 20
2.7845475827
 30
0.0
 10
5.6396525377
 20
2.7873012389
 30
0.0
 10
5.6390612651
 20
2.7904560442
 30
0.0
 10
5.6385696235
 20
2.7939874334
 30
0.0
 10
5.6381983532
 20
2.7978445728
 30
0.0
 10
5.6379664119
 20
2.8019449544
 30
0.0
 10
5.6379140415
 20
2.8047512849
 30
0.0
 10
5.6379140415
 20
2.8061763699
 30
0.0
  0
SPLINE
  5
34F
100
AcDbEntity
  8
0
100
AcDbSpline
 62
7
  6
CONTINUOUS
 70
0
 71
3
 72
15
 73
11
 74
0
 42
0.0000001
 43
0.0000001
 44
0.0000000001
 40
0.0
 40
0.0
 40
0.0
 40
0.0
 40
0.1284538143
 40
0.2563469297
 40
0.3832581985
 40
0.508947843
 40
0.6333613193
 40
0.7565633275
 40
0.8787410933
 40
1.0
 40
1.0
 40
1.0
 40
1.0
 10
5.6599620731
 20
2.8061763699
 30
0.0
 10
5.6599620731
 20
2.8047464001
 30
0.0
 10
5.6597182799
 20
2.801886834
 30
0.0
 10
5.658645101
 20
2.7977383689
 30
0.0
 10
5.656931691
 20
2.7938452743
 30
0.0
 10
5.6546691943
 20
2.7902923633
 30
0.0
 10
5.6519550755
 20
2.7871283627
 30
0.0
 10
5.6488803453
 20
2.7843745313
 30
0.0
 10
5.6455245221
 20
2.7820356802
 30
0.0
 10
5.6431353205
 20
2.7807434862
 30
0.0
 10
5.6419156979
 20
2.7801649685
 30
0.0
  0
SPLINE
  5
350
100
AcDbEntity
  8
0
100
AcDbSpline
 62
7
  6
CONTINUOUS
 70
0
 71
3
 72
15
 73
11
 74
0
 42
0.0000001
 43
0.0000001
 44
0.0000000001
 40
0.0
 40
0.0
 40
0.0
 40
0.0
 40
0.0755471176
 40
0.1662015183
 40
0.2722560592
 40
0.3936436257
 40
0.5295727569
 40
0.6782292537
 40
0.836499991
 40
1.0
 40
1.0
 40
1.0
 40
1.0
 10
5.682735366
 20
2.7801649685
 30
0.0
 10
5.6825772955
 20
2.7808041049
 30
0.0
 10
5.6822772185
 20
2.782221995
 30
0.0
 10
5.6818907299
 20
2.7845635337
 30
0.0
 10
5.6815366903
 20
2.7873135564
 30
0.0
 10
5.6812244457
 20
2.7904652803
 30
0.0
 10
5.6809647199
 20
2.793994129
 30
0.0
 10
5.6807685323
 20
2.7978489382
 30
0.0
 10
5.6806459549
 20
2.8019471518
 30
0.0
 10
5.6806182811
 20
2.8047514672
 30
0.0
 10
5.6806182811
 20
2.8061763699
 30
0.0
  0
SPLINE
  5
351
100
AcDbEntity
  8
0
100
AcDbSpline
 62
7
  6
CONTINUOUS
 70
0
 71
3
 72
16
 73
12
 74
0
 42
0.0000001
 43
0.0000001
 44
0.0000000001
 40
0.0
 40
0.0
 40
0.0
 40
0.0
 40
0.1268734612
 40
0.1902732226
 40
0.2535513124
 40
0.379577923
 40
0.5049358091
 40
0.6295974767
 40
0.7535961899
 40
0.8770552693
 40
1.0
 40
1.0
 40
1.0
 40
1.0
 10
5.7014050214
 20
2.8061763699
 30
0.0
 10
5.7014050214
 20
2.8047460397
 30
0.0
 10
5.7012149325
 20
2.8025949033
 30
0.0
 10
5.7005947888
 20
2.7998020303
 30
0.0
 10
5.6997432507
 20
2.7970800802
 30
0.0
 10
5.6982653643
 20
2.7938367716
 30
0.0
 10
5.6959233251
 20
2.7902845995
 30
0.0
 10
5.693114734
 20
2.7871217443
 30
0.0
 10
5.6899338729
 20
2.7843694792
 30
0.0
 10
5.6864627344
 20
2.7820321009
 30
0.0
 10
5.6839952829
 20
2.7807426477
 30
0.0
 10
5.682735366
 20
2.7801649685
 30
0.0
  0
LINE
  5
352
100
AcDbEntity
  8
0
100
AcDbLine
 62
7
  6
CONTINUOUS
 10
5.7209603529
 20
2.7801649685
 11
5.7207482281
 21
2.8061763699
  0
SPLINE
  5
353
100
AcDbEntity
  8
0
100
AcDbSpline
 62
7
  6
CONTINUOUS
 70
0
 71
3
 72
16
 73
12
 74
0
 42
0.0000001
 43
0.0000001
 44
0.0000000001
 40
0.0
 40
0.0
 40
0.0
 40
0.0
 40
0.1257693701
 40
0.188676486
 40
0.2515264011
 40
0.3769447701
 40
0.5020852308
 40
0.6269362867
 40
0.7515061869
 40
0.8758713664
 40
1.0
 40
1.0
 40
1.0
 40
1.0
 10
5.7400734895
 20
2.8061763699
 30
0.0
 10
5.7400734895
 20
2.8047457759
 30
0.0
 10
5.7398786125
 20
2.8025933069
 30
0.0
 10
5.7392437261
 20
2.7998009877
 30
0.0
 10
5.7383711697
 20
2.7970769911
 30
0.0
 10
5.7368559483
 20
2.7938308994
 30
0.0
 10
5.7344572364
 20
2.7902791046
 30
0.0
 10
5.7315815034
 20
2.7871171881
 30
0.0
 10
5.7283251918
 20
2.7843660385
 30
0.0
 10
5.7247720637
 20
2.7820296964
 30
0.0
 10
5.7222489496
 20
2.7807420886
 30
0.0
 10
5.7209603529
 20
2.7801649685
 30
0.0
  0
SPLINE
  5
354
100
AcDbEntity
  8
0
100
AcDbSpline
 62
7
  6
CONTINUOUS
 70
0
 71
3
 72
16
 73
12
 74
0
 42
0.0000001
 43
0.0000001
 44
0.0000000001
 40
0.0
 40
0.0
 40
0.0
 40
0.0
 40
0.1251277709
 40
0.1877489466
 40
0.2503506945
 40
0.3754177513
 40
0.5004344312
 40
0.6253973648
 40
0.7502992083
 40
0.8751884937
 40
1.0
 40
1.0
 40
1.0
 40
1.0
 10
5.7755950788
 20
2.8061763699
 30
0.0
 10
5.7755950788
 20
2.8047456187
 30
0.0
 10
5.7753973924
 20
2.8025923575
 30
0.0
 10
5.7747538827
 20
2.7998003696
 30
0.0
 10
5.7738690103
 20
2.7970751665
 30
0.0
 10
5.772331905
 20
2.7938274623
 30
0.0
 10
5.7699000472
 20
2.7902759226
 30
0.0
 10
5.7669850624
 20
2.7871145768
 30
0.0
 10
5.7636846429
 20
2.7843640847
 30
0.0
 10
5.760083577
 20
2.7820283417
 30
0.0
 10
5.7575279076
 20
2.7807417751
 30
0.0
 10
5.756222531
 20
2.7801649685
 30
0.0
  0
SPLINE
  5
355
100
AcDbEntity
  8
0
100
AcDbSpline
 62
7
  6
CONTINUOUS
 70
0
 71
3
 72
16
 73
12
 74
0
 42
0.0000001
 43
0.0000001
 44
0.0000000001
 40
0.0
 40
0.0
 40
0.0
 40
0.0
 40
0.1249481852
 40
0.1874893708
 40
0.2500217422
 40
0.374990749
 40
0.4999731194
 40
0.6249676045
 40
0.7499623589
 40
0.8749980217
 40
1.0
 40
1.0
 40
1.0
 40
1.0
 10
5.8076276971
 20
2.8061763699
 30
0.0
 10
5.8076276971
 20
2.8047455742
 30
0.0
 10
5.8074292206
 20
2.8025920888
 30
0.0
 10
5.8067832895
 20
2.799800195
 30
0.0
 10
5.8058949559
 20
2.7970746519
 30
0.0
 10
5.8043516998
 20
2.793826497
 30
0.0
 10
5.8019105353
 20
2.7902750335
 30
0.0
 10
5.7989845315
 20
2.7871138506
 30
0.0
 10
5.79567173
 20
2.7843635437
 30
0.0
 10
5.7920572057
 20
2.7820279679
 30
0.0
 10
5.7894923952
 20
2.7807416888
 30
0.0
 10
5.7881823063
 20
2.7801649685
 30
0.0
  0
SPLINE
  5
356
100
AcDbEntity
  8
0
100
AcDbSpline
 62
7
  6
CONTINUOUS
 70
0
 71
3
 72
16
 73
12
 74
0
 42
0.0000001
 43
0.0000001
 44
0.0000000001
 40
0.0
 40
0.0
 40
0.0
 40
0.0
 40
0.1252304046
 40
0.1878973038
 40
0.2505387176
 40
0.3756618659
 40
0.50069822
 40
0.6256431682
 40
0.7504919124
 40
0.8752974795
 40
1.0
 40
1.0
 40
1.0
 40
1.0
 10
5.8358628528
 20
2.8061763699
 30
0.0
 10
5.8358628528
 20
2.8047456441
 30
0.0
 10
5.8356656171
 20
2.8025925104
 30
0.0
 10
5.8350234897
 20
2.7998004691
 30
0.0
 10
5.8341405927
 20
2.7970754599
 30
0.0
 10
5.8326069976
 20
2.7938280133
 30
0.0
 10
5.8301804528
 20
2.790276431
 30
0.0
 10
5.827271759
 20
2.7871149927
 30
0.0
 10
5.8239784087
 20
2.784364395
 30
0.0
 10
5.8203850262
 20
2.7820285564
 30
0.0
 10
5.8178345753
 20
2.7807418247
 30
0.0
 10
5.8165318887
 20
2.7801649685
 30
0.0
  0
SPLINE
  5
357
100
AcDbEntity
  8
0
100
AcDbSpline
 62
7
  6
CONTINUOUS
 70
0
 71
3
 72
16
 73
12
 74
0
 42
0.0000001
 43
0.0000001
 44
0.0000000001
 40
0.0
 40
0.0
 40
0.0
 40
0.0
 40
0.1259747422
 40
0.1889734391
 40
0.2519028923
 40
0.3774340479
 40
0.5026145283
 40
0.6274300538
 40
0.7518937021
 40
0.8760907395
 40
1.0
 40
1.0
 40
1.0
 40
1.0
 10
5.8600286258
 20
2.8061763699
 30
0.0
 10
5.8600286258
 20
2.8047458256
 30
0.0
 10
5.8598346438
 20
2.8025936074
 30
0.0
 10
5.8592025088
 20
2.7998011836
 30
0.0
 10
5.8583338786
 20
2.7970775706
 30
0.0
 10
5.8568256325
 20
2.7938319958
 30
0.0
 10
5.8544374967
 20
2.7902801249
 30
0.0
 10
5.8515742908
 20
2.7871180297
 30
0.0
 10
5.8483320562
 20
2.7843666709
 30
0.0
 10
5.8447942263
 20
2.7820301366
 30
0.0
 10
5.8422814998
 20
2.7807421907
 30
0.0
 10
5.8409982562
 20
2.7801649685
 30
0.0
  0
SPLINE
  5
358
100
AcDbEntity
  8
0
100
AcDbSpline
 62
7
  6
CONTINUOUS
 70
0
 71
3
 72
16
 73
12
 74
0
 42
0.0000001
 43
0.0000001
 44
0.0000000001
 40
0.0
 40
0.0
 40
0.0
 40
0.0
 40
0.1271816349
 40
0.1907190348
 40
0.2541168868
 40
0.3803140988
 40
0.5057336732
 40
0.630343198
 40
0.7541825013
 40
0.8773877237
 40
1.0
 40
1.0
 40
1.0
 40
1.0
 10
5.8798922866
 20
2.8061763699
 30
0.0
 10
5.8798922866
 20
2.8047461119
 30
0.0
 10
5.879703524
 20
2.8025953405
 30
0.0
 10
5.8790874744
 20
2.7998023167
 30
0.0
 10
5.8782417648
 20
2.7970809311
 30
0.0
 10
5.8767742286
 20
2.7938384008
 30
0.0
 10
5.8744479285
 20
2.7902861374
 30
0.0
 10
5.8716579909
 20
2.7871230301
 30
0.0
 10
5.8684980924
 20
2.7843704577
 30
0.0
 10
5.8650497306
 20
2.782032789
 30
0.0
 10
5.8625977383
 20
2.7807428084
 30
0.0
 10
5.8613457843
 20
2.7801649685
 30
0.0
  0
SPLINE
  5
359
100
AcDbEntity
  8
0
100
AcDbSpline
 62
7
  6
CONTINUOUS
 70
0
 71
3
 72
15
 73
11
 74
0
 42
0.0000001
 43
0.0000001
 44
0.0000000001
 40
0.0
 40
0.0
 40
0.0
 40
0.0
 40
0.1288643622
 40
0.257102919
 40
0.3842438924
 40
0.5100186479
 40
0.6343647099
 40
0.7573542113
 40
0.8791905846
 40
1.0
 40
1.0
 40
1.0
 40
1.0
 10
5.8952625372
 20
2.8061763699
 30
0.0
 10
5.8952625372
 20
2.804746492
 30
0.0
 10
5.8950210808
 20
2.8018879129
 30
0.0
 10
5.8939580157
 20
2.7977401861
 30
0.0
 10
5.8922605398
 20
2.7938474096
 30
0.0
 10
5.8900187955
 20
2.7902944255
 30
0.0
 10
5.8873292907
 20
2.787130119
 30
0.0
 10
5.8842822273
 20
2.7843758924
 30
0.0
 10
5.8809564579
 20
2.7820366522
 30
0.0
 10
5.8785876443
 20
2.7807437153
 30
0.0
 10
5.8773785152
 20
2.7801649685
 30
0.0
  0
SPLINE
  5
35A
100
AcDbEntity
  8
0
100
AcDbSpline
 62
7
  6
CONTINUOUS
 70
0
 71
3
 72
15
 73
11
 74
0
 42
0.0000001
 43
0.0000001
 44
0.0000000001
 40
0.0
 40
0.0
 40
0.0
 40
0.0
 40
0.1309910867
 40
0.2610236026
 40
0.3893645839
 40
0.5155928054
 40
0.6395991579
 40
0.7614887236
 40
0.8815449579
 40
1.0
 40
1.0
 40
1.0
 40
1.0
 10
5.9059913537
 20
2.8061763699
 30
0.0
 10
5.9059913537
 20
2.8047469513
 30
0.0
 10
5.9057618502
 20
2.8018933158
 30
0.0
 10
5.9047506151
 20
2.7977493691
 30
0.0
 10
5.9031349374
 20
2.7938583427
 30
0.0
 10
5.900999878
 20
2.7903051475
 30
0.0
 10
5.8984370108
 20
2.7871393938
 30
0.0
 10
5.8955323197
 20
2.7843831853
 30
0.0
 10
5.8923611845
 20
2.7820419273
 30
0.0
 10
5.8900972369
 20
2.7807449692
 30
0.0
 10
5.8889420449
 20
2.7801649685
 30
0.0
  0
SPLINE
  5
35B
100
AcDbEntity
  8
0
100
AcDbSpline
 62
7
  6
CONTINUOUS
 70
0
 71
3
 72
15
 73
11
 74
0
 42
0.0000001
 43
0.0000001
 44
0.0000000001
 40
0.0
 40
0.0
 40
0.0
 40
0.0
 40
0.1335667346
 40
0.2657817488
 40
0.3955984347
 40
0.5224042716
 40
0.6460213665
 40
0.7665817573
 40
0.8844560714
 40
1.0
 40
1.0
 40
1.0
 40
1.0
 10
5.9119754118
 20
2.8061763699
 30
0.0
 10
5.9119754118
 20
2.8047474723
 30
0.0
 10
5.9117600827
 20
2.8018994609
 30
0.0
 10
5.9108105065
 20
2.7977599845
 30
0.0
 10
5.9092924226
 20
2.7938712854
 30
0.0
 10
5.9072849783
 20
2.7903182031
 30
0.0
 10
5.9048738308
 20
2.7871510218
 30
0.0
 10
5.9021398015
 20
2.7843925876
 30
0.0
 10
5.899153999
 20
2.7820489005
 30
0.0
 10
5.8970156795
 20
2.780746654
 30
0.0
 10
5.8959250104
 20
2.7801649685
 30
0.0
  0
SPLINE
  5
35C
100
AcDbEntity
  8
0
100
AcDbSpline
 62
7
  6
CONTINUOUS
 70
0
 71
3
 72
19
 73
15
 74
0
 42
0.0000001
 43
0.0000001
 44
0.0000000001
 40
0.0
 40
0.0
 40
0.0
 40
0.0
 40
0.1672282028
 40
0.3297691741
 40
0.4832004039
 40
0.6235688287
 40
0.6877923772
 40
0.7475588338
 40
0.8025589733
 40
0.8525488655
 40
0.8973360832
 40
0.9368238419
 40
0.9710018289
 40
1.0
 40
1.0
 40
1.0
 40
1.0
 10
4.9291904379
 20
3.4611763699
 30
0.0
 10
4.9291904379
 20
3.4622921122
 30
0.0
 10
4.9291431359
 20
3.4644926269
 30
0.0
 10
4.9289328754
 20
3.4677107194
 30
0.0
 10
4.9285938889
 20
3.4707376098
 30
0.0
 10
4.9282071025
 20
3.4730962255
 30
0.0
 10
4.9278408002
 20
3.4748218453
 30
0.0
 10
4.9275532391
 20
3.475981197
 30
0.0
 10
4.9272474304
 20
3.4770373787
 30
0.0
 10
4.9269264092
 20
3.4779841534
 30
0.0
 10
4.9265929686
 20
3.4788161464
 30
0.0
 10
4.9262499178
 20
3.4795290364
 30
0.0
 10
4.9258999704
 20
3.4801189254
 30
0.0
 10
4.9256432558
 20
3.4804554072
 30
0.0
 10
4.9255126166
 20
3.4805981167
 30
0.0
  0
SPLINE
  5
35D
100
AcDbEntity
  8
0
100
AcDbSpline
 62
7
  6
CONTINUOUS
 70
0
 71
3
 72
16
 73
12
 74
0
 42
0.0000001
 43
0.0000001
 44
0.0000000001
 40
0.0
 40
0.0
 40
0.0
 40
0.0
 40
0.1044635916
 40
0.2142416462
 40
0.3300606487
 40
0.4524908495
 40
0.5816326353
 40
0.6486191848
 40
0.7170133189
 40
0.8571649142
 40
1.0
 40
1.0
 40
1.0
 40
1.0
 10
5.4133133562
 20
3.7021877712
 30
0.0
 10
5.4141746258
 20
3.7015979638
 30
0.0
 10
5.4158640043
 20
3.700272016
 30
0.0
 10
5.4181881755
 20
3.6979204191
 30
0.0
 10
5.4203133494
 20
3.6951562801
 30
0.0
 10
5.4221844069
 20
3.6919874673
 30
0.0
 10
5.4234652306
 20
3.6890642474
 30
0.0
 10
5.4243086238
 20
3.6865577769
 30
0.0
 10
5.4250311763
 20
3.6838994557
 30
0.0
 10
5.4256474121
 20
3.6804341183
 30
0.0
 10
5.4258133562
 20
3.6776036693
 30
0.0
 10
5.4258133562
 20
3.6761763699
 30
0.0
  0
SPLINE
  5
35E
100
AcDbEntity
  8
0
100
AcDbSpline
 62
7
  6
CONTINUOUS
 70
0
 71
3
 72
15
 73
11
 74
0
 42
0.0000001
 43
0.0000001
 44
0.0000000001
 40
0.0
 40
0.0
 40
0.0
 40
0.0
 40
0.1467628659
 40
0.2903164293
 40
0.4280645745
 40
0.5583310349
 40
0.6803869531
 40
0.7942536071
 40
0.9005161213
 40
1.0
 40
1.0
 40
1.0
 40
1.0
 10
5.4498667997
 20
3.6761763699
 30
0.0
 10
5.4498667997
 20
3.6776031057
 30
0.0
 10
5.4500120469
 20
3.6804275959
 30
0.0
 10
5.4506543972
 20
3.6845463434
 30
0.0
 10
5.4516828881
 20
3.6884207558
 30
0.0
 10
5.4530455382
 20
3.6919675355
 30
0.0
 10
5.4546856639
 20
3.6951355637
 30
0.0
 10
5.4565493433
 20
3.6979004567
 30
0.0
 10
5.4585887545
 20
3.7002544407
 30
0.0
 10
5.4600837451
 20
3.7015931342
 30
0.0
 10
5.4608464553
 20
3.7021877712
 30
0.0
  0
SPLINE
  5
35F
100
AcDbEntity
  8
0
100
AcDbSpline
 62
7
  6
CONTINUOUS
 70
0
 71
3
 72
15
 73
11
 74
0
 42
0.0000001
 43
0.0000001
 44
0.0000000001
 40
0.0
 40
0.0
 40
0.0
 40
0.0
 40
0.1089561442
 40
0.221975877
 40
0.3396572878
 40
0.4625162896
 40
0.5906909875
 40
0.7238083455
 40
0.8608175838
 40
1.0
 40
1.0
 40
1.0
 40
1.0
 10
5.4608464553
 20
3.7021877712
 30
0.0
 10
5.4617982363
 20
3.7016016269
 30
0.0
 10
5.4636652576
 20
3.7002860093
 30
0.0
 10
5.4662508943
 20
3.6979372744
 30
0.0
 10
5.468616513
 20
3.6951748796
 30
0.0
 10
5.4707006249
 20
3.6920059429
 30
0.0
 10
5.4724338089
 20
3.6884544387
 30
0.0
 10
5.4737430109
 20
3.6845714424
 30
0.0
 10
5.474561163
 20
3.6804412532
 30
0.0
 10
5.4747464178
 20
3.6776042524
 30
0.0
 10
5.4747464178
 20
3.6761763699
 30
0.0
  0
SPLINE
  5
360
100
AcDbEntity
  8
0
100
AcDbSpline
 62
7
  6
CONTINUOUS
 70
0
 71
3
 72
14
 73
10
 74
0
 42
0.0000001
 43
0.0000001
 44
0.0000000001
 40
0.0
 40
0.0
 40
0.0
 40
0.0
 40
0.1508633756
 40
0.2979954597
 40
0.4383469608
 40
0.5698968086
 40
0.6916871634
 40
0.8036140529
 40
1.0
 40
1.0
 40
1.0
 40
1.0
 10
5.4985682135
 20
3.6761763699
 30
0.0
 10
5.4985682135
 20
3.6776025837
 30
0.0
 10
5.4986915342
 20
3.6804213563
 30
0.0
 10
5.499237165
 20
3.6845345195
 30
0.0
 10
5.500110954
 20
3.68840424
 30
0.0
 10
5.5012684522
 20
3.6919471746
 30
0.0
 10
5.5026628698
 20
3.6951140411
 30
0.0
 10
5.5046854944
 20
3.6986450329
 30
0.0
 10
5.5065521888
 20
3.7009343528
 30
0.0
 10
5.5079217846
 20
3.7021877712
 30
0.0
  0
SPLINE
  5
361
100
AcDbEntity
  8
0
100
AcDbSpline
 62
7
  6
CONTINUOUS
 70
0
 71
3
 72
17
 73
13
 74
0
 42
0.0000001
 43
0.0000001
 44
0.0000000001
 40
0.0
 40
0.0
 40
0.0
 40
0.0
 40
0.11286823
 40
0.2287516459
 40
0.3481104686
 40
0.4092756672
 40
0.4714490817
 40
0.5987785063
 40
0.7299146299
 40
0.7967223248
 40
0.8641521254
 40
1.0
 40
1.0
 40
1.0
 40
1.0
 10
5.5079217846
 20
3.7021877712
 30
0.0
 10
5.5089553425
 20
3.7016044025
 30
0.0
 10
5.510982296
 20
3.7002969601
 30
0.0
 10
5.5138036017
 20
3.6979513446
 30
0.0
 10
5.5159393184
 20
3.6956686543
 30
0.0
 10
5.5174971568
 20
3.6936453574
 30
0.0
 10
5.5189659697
 20
3.6914546969
 30
0.0
 10
5.5205577315
 20
3.6884701856
 30
0.0
 10
5.5217441909
 20
3.6852498329
 30
0.0
 10
5.5224313043
 20
3.6825431344
 30
0.0
 10
5.5229349656
 20
3.6797464475
 30
0.0
 10
5.5230878456
 20
3.6776048327
 30
0.0
 10
5.5230878456
 20
3.6761763699
 30
0.0
  0
SPLINE
  5
362
100
AcDbEntity
  8
0
100
AcDbSpline
 62
7
  6
CONTINUOUS
 70
0
 71
3
 72
15
 73
11
 74
0
 42
0.0000001
 43
0.0000001
 44
0.0000000001
 40
0.0
 40
0.0
 40
0.0
 40
0.0
 40
0.1547805344
 40
0.3053400967
 40
0.4481980077
 40
0.5809920685
 40
0.7025169474
 40
0.8125013961
 40
0.9113853374
 40
1.0
 40
1.0
 40
1.0
 40
1.0
 10
5.5464485765
 20
3.6761763699
 30
0.0
 10
5.5464485765
 20
3.6776021231
 30
0.0
 10
5.5465489654
 20
3.6804158266
 30
0.0
 10
5.5469933492
 20
3.6845239234
 30
0.0
 10
5.5477048834
 20
3.6883888342
 30
0.0
 10
5.5486476071
 20
3.6919280072
 30
0.0
 10
5.5497823363
 20
3.6950906428
 30
0.0
 10
5.5510719007
 20
3.6978527772
 30
0.0
 10
5.552483652
 20
3.7002072863
 30
0.0
 10
5.5535425557
 20
3.7015786878
 30
0.0
 10
5.5540859831
 20
3.7021877712
 30
0.0
  0
SPLINE
  5
363
100
AcDbEntity
  8
0
100
AcDbSpline
 62
7
  6
CONTINUOUS
 70
0
 71
3
 72
15
 73
11
 74
0
 42
0.0000001
 43
0.0000001
 44
0.0000000001
 40
0.0
 40
0.0
 40
0.0
 40
0.0
 40
0.1162398183
 40
0.2346337407
 40
0.3555087379
 40
0.4792157757
 40
0.6058818352
 40
0.7353466707
 40
0.8670435735
 40
1.0
 40
1.0
 40
1.0
 40
1.0
 10
5.5540859831
 20
3.7021877712
 30
0.0
 10
5.555191875
 20
3.7016065029
 30
0.0
 10
5.5573598537
 20
3.7003055536
 30
0.0
 10
5.560389416
 20
3.6979624392
 30
0.0
 10
5.5631637418
 20
3.6952045134
 30
0.0
 10
5.5656107032
 20
3.6920376379
 30
0.0
 10
5.5676482511
 20
3.6884844937
 30
0.0
 10
5.5691893333
 20
3.6845952243
 30
0.0
 10
5.5701534234
 20
3.6804546985
 30
0.0
 10
5.5703720849
 20
3.677605388
 30
0.0
 10
5.5703720849
 20
3.6761763699
 30
0.0
  0
SPLINE
  5
364
100
AcDbEntity
  8
0
100
AcDbSpline
 62
7
  6
CONTINUOUS
 70
0
 71
3
 72
15
 73
11
 74
0
 42
0.0000001
 43
0.0000001
 44
0.0000000001
 40
0.0
 40
0.0
 40
0.0
 40
0.0
 40
0.1584310213
 40
0.3122075519
 40
0.4574625925
 40
0.5915188318
 40
0.7129256462
 40
0.8212192865
 40
0.9166778348
 40
1.0
 40
1.0
 40
1.0
 40
1.0
 10
5.5930467746
 20
3.6761763699
 30
0.0
 10
5.5930467746
 20
3.6776017418
 30
0.0
 10
5.5931234478
 20
3.6804112435
 30
0.0
 10
5.5934629543
 20
3.6845149886
 30
0.0
 10
5.5940064904
 20
3.6883756029
 30
0.0
 10
5.5947264585
 20
3.691910651
 30
0.0
 10
5.595592751
 20
3.6950693212
 30
0.0
 10
5.5965767132
 20
3.6978277221
 30
0.0
 10
5.5976532598
 20
3.7001791508
 30
0.0
 10
5.5984716145
 20
3.7015687823
 30
0.0
 10
5.5988944643
 20
3.7021877712
 30
0.0
  0
SPLINE
  5
365
100
AcDbEntity
  8
0
100
AcDbSpline
 62
7
  6
CONTINUOUS
 70
0
 71
3
 72
15
 73
11
 74
0
 42
0.0000001
 43
0.0000001
 44
0.0000000001
 40
0.0
 40
0.0
 40
0.0
 40
0.0
 40
0.1190256922
 40
0.2395121442
 40
0.3616662797
 40
0.4857528754
 40
0.6118699586
 40
0.7399206301
 40
0.8695207284
 40
1.0
 40
1.0
 40
1.0
 40
1.0
 10
5.5988944643
 20
3.7021877712
 30
0.0
 10
5.600062577
 20
3.7016080831
 30
0.0
 10
5.6023516571
 20
3.7003121202
 30
0.0
 10
5.6055598596
 20
3.6979713479
 30
0.0
 10
5.6084986811
 20
3.695215606
 30
0.0
 10
5.6110919019
 20
3.6920501802
 30
0.0
 10
5.6132525195
 20
3.6884970111
 30
0.0
 10
5.6148877764
 20
3.6846055485
 30
0.0
 10
5.6159114045
 20
3.6804606977
 30
0.0
 10
5.6161437629
 20
3.677605897
 30
0.0
 10
5.6161437629
 20
3.6761763699
 30
0.0
  0
SPLINE
  5
366
100
AcDbEntity
  8
0
100
AcDbSpline
 62
7
  6
CONTINUOUS
 70
0
 71
3
 72
16
 73
12
 74
0
 42
0.0000001
 43
0.0000001
 44
0.0000000001
 40
0.0
 40
0.0
 40
0.0
 40
0.0
 40
0.161443216
 40
0.317886332
 40
0.4651516252
 40
0.6003021168
 40
0.7216737011
 40
0.8286159698
 40
0.9212197348
 40
0.9622990237
 40
1.0
 40
1.0
 40
1.0
 40
1.0
 10
5.6379140415
 20
3.6761763699
 30
0.0
 10
5.6379140415
 20
3.6776014545
 30
0.0
 10
5.6379664118
 20
3.6804077845
 30
0.0
 10
5.6381983531
 20
3.6845081653
 30
0.0
 10
5.6385696233
 20
3.6883653046
 30
0.0
 10
5.6390612649
 20
3.6918966942
 30
0.0
 10
5.6396525376
 20
3.6950515003
 30
0.0
 10
5.6403235802
 20
3.6978051568
 30
0.0
 10
5.6409575543
 20
3.6998345757
 30
0.0
 10
5.6414973209
 20
3.7012482662
 30
0.0
 10
5.6417747646
 20
3.7018862938
 30
0.0
 10
5.6419156979
 20
3.7021877712
 30
0.0
  0
SPLINE
  5
367
100
AcDbEntity
  8
0
100
AcDbSpline
 62
7
  6
CONTINUOUS
 70
0
 71
3
 72
15
 73
11
 74
0
 42
0.0000001
 43
0.0000001
 44
0.0000000001
 40
0.0
 40
0.0
 40
0.0
 40
0.0
 40
0.1212588936
 40
0.2434366507
 40
0.3666386573
 40
0.4910520941
 40
0.6167416732
 40
0.7436529894
 40
0.8715461404
 40
1.0
 40
1.0
 40
1.0
 40
1.0
 10
5.6419156979
 20
3.7021877712
 30
0.0
 10
5.6431353204
 20
3.7016092536
 30
0.0
 10
5.6455245218
 20
3.7003170597
 30
0.0
 10
5.6488803448
 20
3.6979782088
 30
0.0
 10
5.6519550746
 20
3.6952243779
 30
0.0
 10
5.6546691929
 20
3.6920603784
 30
0.0
 10
5.6569316895
 20
3.6885074681
 30
0.0
 10
5.6586451002
 20
3.6846143736
 30
0.0
 10
5.6597182797
 20
3.6804659072
 30
0.0
 10
5.6599620731
 20
3.6776063401
 30
0.0
 10
5.6599620731
 20
3.6761763699
 30
0.0
  0
SPLINE
  5
368
100
AcDbEntity
  8
0
100
AcDbSpline
 62
7
  6
CONTINUOUS
 70
0
 71
3
 72
15
 73
11
 74
0
 42
0.0000001
 43
0.0000001
 44
0.0000000001
 40
0.0
 40
0.0
 40
0.0
 40
0.0
 40
0.1634999781
 40
0.3217706844
 40
0.4704271454
 40
0.6063563311
 40
0.7277439273
 40
0.83379847
 40
0.9244528763
 40
1.0
 40
1.0
 40
1.0
 40
1.0
 10
5.6806182811
 20
3.6761763699
 30
0.0
 10
5.6806182811
 20
3.6776012723
 30
0.0
 10
5.6806459549
 20
3.6804055871
 30
0.0
 10
5.6807685322
 20
3.6845037998
 30
0.0
 10
5.6809647198
 20
3.688358609
 30
0.0
 10
5.6812244456
 20
3.6918874581
 30
0.0
 10
5.6815366902
 20
3.6950391827
 30
0.0
 10
5.6818907298
 20
3.6977892057
 30
0.0
 10
5.6822772184
 20
3.7001307445
 30
0.0
 10
5.6825772955
 20
3.7015486348
 30
0.0
 10
5.682735366
 20
3.7021877712
 30
0.0
  0
SPLINE
  5
369
100
AcDbEntity
  8
0
100
AcDbSpline
 62
7
  6
CONTINUOUS
 70
0
 71
3
 72
16
 73
12
 74
0
 42
0.0000001
 43
0.0000001
 44
0.0000000001
 40
0.0
 40
0.0
 40
0.0
 40
0.0
 40
0.1229447174
 40
0.246403788
 40
0.3704024996
 40
0.495064128
 40
0.6204219491
 40
0.7464486073
 40
0.8097267136
 40
0.8731264941
 40
1.0
 40
1.0
 40
1.0
 40
1.0
 10
5.682735366
 20
3.7021877712
 30
0.0
 10
5.6839952828
 20
3.7016100921
 30
0.0
 10
5.6864627341
 20
3.7003206391
 30
0.0
 10
5.6899338724
 20
3.6979832609
 30
0.0
 10
5.6931147331
 20
3.6952309962
 30
0.0
 10
5.6959233236
 20
3.6920681421
 30
0.0
 10
5.6982653627
 20
3.6885159708
 30
0.0
 10
5.6997432496
 20
3.6852726624
 30
0.0
 10
5.7005947884
 20
3.6825507115
 30
0.0
 10
5.7012149323
 20
3.6797578377
 30
0.0
 10
5.7014050214
 20
3.6776067005
 30
0.0
 10
5.7014050214
 20
3.6761763699
 30
0.0
  0
SPLINE
  5
36A
100
AcDbEntity
  8
0
100
AcDbSpline
 62
7
  6
CONTINUOUS
 70
0
 71
3
 72
15
 73
11
 74
0
 42
0.0000001
 43
0.0000001
 44
0.0000000001
 40
0.0
 40
0.0
 40
0.0
 40
0.0
 40
0.1155439205
 40
0.2334182266
 40
0.3539786158
 40
0.4775956844
 40
0.6044014698
 40
0.7342181792
 40
0.8664332182
 40
1.0
 40
1.0
 40
1.0
 40
1.0
 10
4.9307017019
 20
2.7801649685
 30
0.0
 10
4.9296110329
 20
2.780746654
 30
0.0
 10
4.9274727136
 20
2.7820489003
 30
0.0
 10
4.9244869112
 20
2.7843925873
 30
0.0
 10
4.9217528822
 20
2.7871510212
 30
0.0
 10
4.919341735
 20
2.7903182017
 30
0.0
 10
4.9173342908
 20
2.7938712834
 30
0.0
 10
4.9158162064
 20
2.7977599822
 30
0.0
 10
4.9148666298
 20
2.8018994596
 30
0.0
 10
4.9146513005
 20
2.8047474718
 30
0.0
 10
4.9146513005
 20
2.8061763699
 30
0.0
  0
SPLINE
  5
36B
100
AcDbEntity
  8
0
100
AcDbSpline
 62
7
  6
CONTINUOUS
 70
0
 71
3
 72
15
 73
11
 74
0
 42
0.0000001
 43
0.0000001
 44
0.0000000001
 40
0.0
 40
0.0
 40
0.0
 40
0.0
 40
0.1184550338
 40
0.2385112601
 40
0.3604008243
 40
0.4844071507
 40
0.6106353213
 40
0.7389763266
 40
0.869008867
 40
1.0
 40
1.0
 40
1.0
 40
1.0
 10
4.9376846674
 20
2.7801649685
 30
0.0
 10
4.9365294755
 20
2.7807449691
 30
0.0
 10
4.934265528
 20
2.7820419272
 30
0.0
 10
4.931094393
 20
2.784383185
 30
0.0
 10
4.9281897021
 20
2.7871393932
 30
0.0
 10
4.9256268353
 20
2.7903051461
 30
0.0
 10
4.9234917761
 20
2.7938583407
 30
0.0
 10
4.9218760979
 20
2.7977493669
 30
0.0
 10
4.9208648623
 20
2.8018933146
 30
0.0
 10
4.9206353586
 20
2.8047469508
 30
0.0
 10
4.9206353586
 20
2.8061763699
 30
0.0
  0
SPLINE
  5
36C
100
AcDbEntity
  8
0
100
AcDbSpline
 62
7
  6
CONTINUOUS
 70
0
 71
3
 72
15
 73
11
 74
0
 42
0.0000001
 43
0.0000001
 44
0.0000000001
 40
0.0
 40
0.0
 40
0.0
 40
0.0
 40
0.120809407
 40
0.2426457722
 40
0.3656352722
 40
0.4899813082
 40
0.6157560134
 40
0.742897011
 40
0.8711355922
 40
1.0
 40
1.0
 40
1.0
 40
1.0
 10
4.9492481971
 20
2.7801649685
 30
0.0
 10
4.9480390681
 20
2.7807437153
 30
0.0
 10
4.9456702546
 20
2.782036652
 30
0.0
 10
4.9423444853
 20
2.7843758921
 30
0.0
 10
4.9392974223
 20
2.7871301185
 30
0.0
 10
4.9366079179
 20
2.7902944242
 30
0.0
 10
4.9343661737
 20
2.7938474076
 30
0.0
 10
4.9326686973
 20
2.7977401839
 30
0.0
 10
4.9316056317
 20
2.8018879117
 30
0.0
 10
4.9313641751
 20
2.8047464915
 30
0.0
 10
4.9313641751
 20
2.8061763699
 30
0.0
  0
SPLINE
  5
36D
100
AcDbEntity
  8
0
100
AcDbSpline
 62
7
  6
CONTINUOUS
 70
0
 71
3
 72
16
 73
12
 74
0
 42
0.0000001
 43
0.0000001
 44
0.0000000001
 40
0.0
 40
0.0
 40
0.0
 40
0.0
 40
0.1226122678
 40
0.245817482
 40
0.3696567839
 40
0.4942662828
 40
0.6196858074
 40
0.7458830437
 40
0.8092809042
 40
0.8728183201
 40
1.0
 40
1.0
 40
1.0
 40
1.0
 10
4.965280928
 20
2.7801649685
 30
0.0
 10
4.9640289741
 20
2.7807428083
 30
0.0
 10
4.961576982
 20
2.7820327889
 30
0.0
 10
4.9581286203
 20
2.7843704573
 30
0.0
 10
4.9549687222
 20
2.7871230296
 30
0.0
 10
4.9521787849
 20
2.790286136
 30
0.0
 10
4.9498524849
 20
2.7938383988
 30
0.0
 10
4.9483849485
 20
2.7970809287
 30
0.0
 10
4.9475392383
 20
2.7998023147
 30
0.0
 10
4.9469231885
 20
2.8025953393
 30
0.0
 10
4.9467344257
 20
2.8047461114
 30
0.0
 10
4.9467344257
 20
2.8061763699
 30
0.0
  0
SPLINE
  5
36E
100
AcDbEntity
  8
0
100
AcDbSpline
 62
7
  6
CONTINUOUS
 70
0
 71
3
 72
16
 73
12
 74
0
 42
0.0000001
 43
0.0000001
 44
0.0000000001
 40
0.0
 40
0.0
 40
0.0
 40
0.0
 40
0.1239092519
 40
0.2481062811
 40
0.372569928
 40
0.4973854277
 40
0.6225658586
 40
0.7480970387
 40
0.8110265005
 40
0.8740252132
 40
1.0
 40
1.0
 40
1.0
 40
1.0
 10
4.9856284562
 20
2.7801649685
 30
0.0
 10
4.9843452126
 20
2.7807421906
 30
0.0
 10
4.9818324863
 20
2.7820301365
 30
0.0
 10
4.9782946565
 20
2.7843666706
 30
0.0
 10
4.9750524222
 20
2.7871180291
 30
0.0
 10
4.9721892167
 20
2.7902801235
 30
0.0
 10
4.9698010811
 20
2.7938319938
 30
0.0
 10
4.9682928346
 20
2.7970775682
 30
0.0
 10
4.9674242039
 20
2.7998011817
 30
0.0
 10
4.9667920687
 20
2.8025936063
 30
0.0
 10
4.9665980865
 20
2.8047458251
 30
0.0
 10
4.9665980865
 20
2.8061763699
 30
0.0
  0
SPLINE
  5
36F
100
AcDbEntity
  8
0
100
AcDbSpline
 62
7
  6
CONTINUOUS
 70
0
 71
3
 72
16
 73
12
 74
0
 42
0.0000001
 43
0.0000001
 44
0.0000000001
 40
0.0
 40
0.0
 40
0.0
 40
0.0
 40
0.1247025119
 40
0.2495080707
 40
0.3743568136
 40
0.499301736
 40
0.6243380408
 40
0.7494612137
 40
0.8121026361
 40
0.8747695511
 40
1.0
 40
1.0
 40
1.0
 40
1.0
 10
5.0100948237
 20
2.7801649685
 30
0.0
 10
5.0087921372
 20
2.7807418246
 30
0.0
 10
5.0062416864
 20
2.7820285562
 30
0.0
 10
5.002648304
 20
2.7843643947
 30
0.0
 10
4.9993549541
 20
2.7871149922
 30
0.0
 10
4.9964462606
 20
2.7902764296
 30
0.0
 10
4.9940197159
 20
2.7938280113
 30
0.0
 10
4.9924861206
 20
2.7970754575
 30
0.0
 10
4.991603223
 20
2.7998004671
 30
0.0
 10
4.9909610954
 20
2.8025925093
 30
0.0
 10
4.9907638595
 20
2.8047456436
 30
0.0
 10
4.9907638595
 20
2.8061763699
 30
0.0
  0
SPLINE
  5
370
100
AcDbEntity
  8
0
100
AcDbSpline
 62
7
  6
CONTINUOUS
 70
0
 71
3
 72
16
 73
12
 74
0
 42
0.0000001
 43
0.0000001
 44
0.0000000001
 40
0.0
 40
0.0
 40
0.0
 40
0.0
 40
0.1250019697
 40
0.2500376242
 40
0.3750323773
 40
0.5000268366
 40
0.6250091577
 40
0.7499781892
 40
0.8125105692
 40
0.8750517706
 40
1.0
 40
1.0
 40
1.0
 40
1.0
 10
5.0384444061
 20
2.7801649685
 30
0.0
 10
5.0371343172
 20
2.7807416887
 30
0.0
 10
5.0345695068
 20
2.7820279678
 30
0.0
 10
5.0309549827
 20
2.7843635433
 30
0.0
 10
5.0276421815
 20
2.78711385
 30
0.0
 10
5.0247161782
 20
2.7902750321
 30
0.0
 10
5.0222750138
 20
2.793826495
 30
0.0
 10
5.0207317574
 20
2.7970746495
 30
0.0
 10
5.0198434232
 20
2.799800193
 30
0.0
 10
5.0191974919
 20
2.8025920876
 30
0.0
 10
5.0189990152
 20
2.8047455737
 30
0.0
 10
5.0189990152
 20
2.8061763699
 30
0.0
  0
SPLINE
  5
371
100
AcDbEntity
  8
0
100
AcDbSpline
 62
7
  6
CONTINUOUS
 70
0
 71
3
 72
16
 73
12
 74
0
 42
0.0000001
 43
0.0000001
 44
0.0000000001
 40
0.0
 40
0.0
 40
0.0
 40
0.0
 40
0.1248114977
 40
0.2497007748
 40
0.3746026169
 40
0.4995655248
 40
0.6245821555
 40
0.7496492368
 40
0.8122509934
 40
0.8748721848
 40
1.0
 40
1.0
 40
1.0
 40
1.0
 10
5.0704041814
 20
2.7801649685
 30
0.0
 10
5.0690988049
 20
2.780741775
 30
0.0
 10
5.0665431356
 20
2.7820283415
 30
0.0
 10
5.0629420698
 20
2.7843640843
 30
0.0
 10
5.0596416507
 20
2.7871145762
 30
0.0
 10
5.0567266663
 20
2.7902759212
 30
0.0
 10
5.0542948086
 20
2.7938274603
 30
0.0
 10
5.052757703
 20
2.7970751641
 30
0.0
 10
5.0518728301
 20
2.7998003677
 30
0.0
 10
5.0512293202
 20
2.8025923563
 30
0.0
 10
5.0510316335
 20
2.8047456182
 30
0.0
 10
5.0510316335
 20
2.8061763699
 30
0.0
  0
SPLINE
  5
372
100
AcDbEntity
  8
0
100
AcDbSpline
 62
7
  6
CONTINUOUS
 70
0
 71
3
 72
16
 73
12
 74
0
 42
0.0000001
 43
0.0000001
 44
0.0000000001
 40
0.0
 40
0.0
 40
0.0
 40
0.0
 40
0.124128625
 40
0.2484937963
 40
0.3730636951
 40
0.4979147252
 40
0.6230551364
 40
0.74847353
 40
0.8113234537
 40
0.8742305854
 40
1.0
 40
1.0
 40
1.0
 40
1.0
 10
5.1056663595
 20
2.7801649685
 30
0.0
 10
5.1043777628
 20
2.7807420886
 30
0.0
 10
5.1018546489
 20
2.7820296963
 30
0.0
 10
5.098301521
 20
2.7843660382
 30
0.0
 10
5.0950452096
 20
2.7871171876
 30
0.0
 10
5.0921694771
 20
2.7902791032
 30
0.0
 10
5.0897707652
 20
2.7938308974
 30
0.0
 10
5.0882555435
 20
2.7970769888
 30
0.0
 10
5.0873829866
 20
2.7998009857
 30
0.0
 10
5.0867481001
 20
2.8025933058
 30
0.0
 10
5.0865532229
 20
2.8047457754
 30
0.0
 10
5.0865532229
 20
2.8061763699
 30
0.0
  0
LINE
  5
373
100
AcDbEntity
  8
0
100
AcDbLine
 62
7
  6
CONTINUOUS
 10
5.1058784842
 20
2.8061763699
 11
5.1056663595
 21
2.7801649685
  0
SPLINE
  5
374
100
AcDbEntity
  8
0
100
AcDbSpline
 62
7
  6
CONTINUOUS
 70
0
 71
3
 72
16
 73
12
 74
0
 42
0.0000001
 43
0.0000001
 44
0.0000000001
 40
0.0
 40
0.0
 40
0.0
 40
0.0
 40
0.1229447222
 40
0.2464037934
 40
0.3704025052
 40
0.4950641469
 40
0.6204219832
 40
0.7464486183
 40
0.8097267166
 40
0.873126494
 40
1.0
 40
1.0
 40
1.0
 40
1.0
 10
5.1438913463
 20
2.7801649685
 30
0.0
 10
5.1426314295
 20
2.7807426477
 30
0.0
 10
5.1401639781
 20
2.7820321007
 30
0.0
 10
5.1366928398
 20
2.7843694789
 30
0.0
 10
5.133511979
 20
2.7871217437
 30
0.0
 10
5.1307033883
 20
2.7902845981
 30
0.0
 10
5.1283613493
 20
2.7938367696
 30
0.0
 10
5.1268834625
 20
2.7970800779
 30
0.0
 10
5.1260319239
 20
2.7998020284
 30
0.0
 10
5.12541178
 20
2.8025949021
 30
0.0
 10
5.1252216909
 20
2.8047460392
 30
0.0
 10
5.1252216909
 20
2.8061763699
 30
0.0
  0
SPLINE
  5
375
100
AcDbEntity
  8
0
100
AcDbSpline
 62
7
  6
CONTINUOUS
 70
0
 71
3
 72
15
 73
11
 74
0
 42
0.0000001
 43
0.0000001
 44
0.0000000001
 40
0.0
 40
0.0
 40
0.0
 40
0.0
 40
0.1634999517
 40
0.3217706614
 40
0.4704271372
 40
0.6063563288
 40
0.7277439249
 40
0.8337984681
 40
0.9244528765
 40
1.0
 40
1.0
 40
1.0
 40
1.0
 10
5.1460084312
 20
2.8061763699
 30
0.0
 10
5.1460084312
 20
2.8047514677
 30
0.0
 10
5.1459807575
 20
2.801947153
 30
0.0
 10
5.1458581801
 20
2.7978489404
 30
0.0
 10
5.1456619926
 20
2.793994131
 30
0.0
 10
5.1454022668
 20
2.7904652817
 30
0.0
 10
5.1450900222
 20
2.787313557
 30
0.0
 10
5.1447359825
 20
2.784563534
 30
0.0
 10
5.1443494939
 20
2.7822219952
 30
0.0
 10
5.1440494168
 20
2.7808041049
 30
0.0
 10
5.1438913463
 20
2.7801649685
 30
0.0
  0
SPLINE
  5
376
100
AcDbEntity
  8
0
100
AcDbSpline
 62
7
  6
CONTINUOUS
 70
0
 71
3
 72
15
 73
11
 74
0
 42
0.0000001
 43
0.0000001
 44
0.0000000001
 40
0.0
 40
0.0
 40
0.0
 40
0.0
 40
0.1212588983
 40
0.243436656
 40
0.3666386627
 40
0.491052113
 40
0.6167417074
 40
0.7436530005
 40
0.8715461403
 40
1.0
 40
1.0
 40
1.0
 40
1.0
 10
5.1847110144
 20
2.7801649685
 30
0.0
 10
5.1834913919
 20
2.7807434861
 30
0.0
 10
5.1811021904
 20
2.7820356801
 30
0.0
 10
5.1777463674
 20
2.784374531
 30
0.0
 10
5.1746716375
 20
2.7871283621
 30
0.0
 10
5.171957519
 20
2.7902923619
 30
0.0
 10
5.1696950225
 20
2.7938452723
 30
0.0
 10
5.167981612
 20
2.7977383666
 30
0.0
 10
5.1669084326
 20
2.8018868327
 30
0.0
 10
5.1666646392
 20
2.8047463996
 30
0.0
 10
5.1666646392
 20
2.8061763699
 30
0.0
  0
SPLINE
  5
377
100
AcDbEntity
  8
0
100
AcDbSpline
 62
7
  6
CONTINUOUS
 70
0
 71
3
 72
16
 73
12
 74
0
 42
0.0000001
 43
0.0000001
 44
0.0000000001
 40
0.0
 40
0.0
 40
0.0
 40
0.0
 40
0.1614431899
 40
0.3178863094
 40
0.4651516171
 40
0.6003021146
 40
0.7216736987
 40
0.8286159679
 40
0.9212197349
 40
0.9622990238
 40
1.0
 40
1.0
 40
1.0
 40
1.0
 10
5.1887126708
 20
2.8061763699
 30
0.0
 10
5.1887126708
 20
2.8047512854
 30
0.0
 10
5.1886603005
 20
2.8019449556
 30
0.0
 10
5.1884283592
 20
2.7978445749
 30
0.0
 10
5.188057089
 20
2.7939874355
 30
0.0
 10
5.1875654474
 20
2.7904560456
 30
0.0
 10
5.1869741748
 20
2.7873012395
 30
0.0
 10
5.1863031322
 20
2.784547583
 30
0.0
 10
5.1856691581
 20
2.7825181641
 30
0.0
 10
5.1851293914
 20
2.7811044735
 30
0.0
 10
5.1848519477
 20
2.7804664459
 30
0.0
 10
5.1847110144
 20
2.7801649685
 30
0.0
  0
SPLINE
  5
378
100
AcDbEntity
  8
0
100
AcDbSpline
 62
7
  6
CONTINUOUS
 70
0
 71
3
 72
15
 73
11
 74
0
 42
0.0000001
 43
0.0000001
 44
0.0000000001
 40
0.0
 40
0.0
 40
0.0
 40
0.0
 40
0.1190256968
 40
0.2395121495
 40
0.3616662851
 40
0.4857528944
 40
0.6118699931
 40
0.7399206413
 40
0.8695207282
 40
1.0
 40
1.0
 40
1.0
 40
1.0
 10
5.2277322481
 20
2.7801649685
 30
0.0
 10
5.2265641353
 20
2.7807446567
 30
0.0
 10
5.2242750551
 20
2.7820406196
 30
0.0
 10
5.2210668525
 20
2.7843813919
 30
0.0
 10
5.218128031
 20
2.7871371339
 30
0.0
 10
5.21553481
 20
2.7903025601
 30
0.0
 10
5.2133741925
 20
2.7938557292
 30
0.0
 10
5.2117389358
 20
2.7977471918
 30
0.0
 10
5.2107153078
 20
2.8018920422
 30
0.0
 10
5.2104829495
 20
2.8047468427
 30
0.0
 10
5.2104829495
 20
2.8061763699
 30
0.0
  0
SPLINE
  5
379
100
AcDbEntity
  8
0
100
AcDbSpline
 62
7
  6
CONTINUOUS
 70
0
 71
3
 72
15
 73
11
 74
0
 42
0.0000001
 43
0.0000001
 44
0.0000000001
 40
0.0
 40
0.0
 40
0.0
 40
0.0
 40
0.1584309958
 40
0.3122075296
 40
0.4574625844
 40
0.5915188296
 40
0.7129256438
 40
0.8212192846
 40
0.9166778349
 40
1.0
 40
1.0
 40
1.0
 40
1.0
 10
5.2335799378
 20
2.8061763699
 30
0.0
 10
5.2335799378
 20
2.8047509981
 30
0.0
 10
5.2335032645
 20
2.8019414967
 30
0.0
 10
5.2331637581
 20
2.7978377516
 30
0.0
 10
5.232620222
 20
2.7939771371
 30
0.0
 10
5.2319002538
 20
2.7904420889
 30
0.0
 10
5.2310339613
 20
2.7872834186
 30
0.0
 10
5.2300499992
 20
2.7845250177
 30
0.0
 10
5.2289734525
 20
2.782173589
 30
0.0
 10
5.2281550978
 20
2.7807839575
 30
0.0
 10
5.2277322481
 20
2.7801649685
 30
0.0
  0
SPLINE
  5
37A
100
AcDbEntity
  8
0
100
AcDbSpline
 62
7
  6
CONTINUOUS
 70
0
 71
3
 72
15
 73
11
 74
0
 42
0.0000001
 43
0.0000001
 44
0.0000000001
 40
0.0
 40
0.0
 40
0.0
 40
0.0
 40
0.1162398228
 40
0.2346337459
 40
0.3555087433
 40
0.4792157946
 40
0.6058818699
 40
0.735346682
 40
0.8670435734
 40
1.0
 40
1.0
 40
1.0
 40
1.0
 10
5.2725407292
 20
2.7801649685
 30
0.0
 10
5.2714348373
 20
2.7807462369
 30
0.0
 10
5.2692668586
 20
2.7820471862
 30
0.0
 10
5.2662372962
 20
2.7843903006
 30
0.0
 10
5.2634629703
 20
2.7871482266
 30
0.0
 10
5.2610160087
 20
2.7903151023
 30
0.0
 10
5.2589784609
 20
2.7938682466
 30
0.0
 10
5.2574373789
 20
2.7977575159
 30
0.0
 10
5.256473289
 20
2.8018980413
 30
0.0
 10
5.2562546274
 20
2.8047473517
 30
0.0
 10
5.2562546274
 20
2.8061763699
 30
0.0
  0
SPLINE
  5
37B
100
AcDbEntity
  8
0
100
AcDbSpline
 62
7
  6
CONTINUOUS
 70
0
 71
3
 72
15
 73
11
 74
0
 42
0.0000001
 43
0.0000001
 44
0.0000000001
 40
0.0
 40
0.0
 40
0.0
 40
0.0
 40
0.1547805094
 40
0.3053400748
 40
0.4481979998
 40
0.5809920662
 40
0.7025169449
 40
0.8125013942
 40
0.9113853375
 40
1.0
 40
1.0
 40
1.0
 40
1.0
 10
5.2801781358
 20
2.8061763699
 30
0.0
 10
5.2801781358
 20
2.8047506168
 30
0.0
 10
5.280077747
 20
2.8019369135
 30
0.0
 10
5.2796333632
 20
2.7978288168
 30
0.0
 10
5.278921829
 20
2.7939639058
 30
0.0
 10
5.2779791053
 20
2.7904247326
 30
0.0
 10
5.2768443761
 20
2.787262097
 30
0.0
 10
5.2755548116
 20
2.7844999625
 30
0.0
 10
5.2741430603
 20
2.7821454534
 30
0.0
 10
5.2730841567
 20
2.780774052
 30
0.0
 10
5.2725407292
 20
2.7801649685
 30
0.0
  0
SPLINE
  5
37C
100
AcDbEntity
  8
0
100
AcDbSpline
 62
7
  6
CONTINUOUS
 70
0
 71
3
 72
17
 73
13
 74
0
 42
0.0000001
 43
0.0000001
 44
0.0000000001
 40
0.0
 40
0.0
 40
0.0
 40
0.0
 40
0.1128682344
 40
0.228751651
 40
0.348110474
 40
0.409275678
 40
0.4714491007
 40
0.5987785413
 40
0.7299146414
 40
0.796722328
 40
0.8641521253
 40
1.0
 40
1.0
 40
1.0
 40
1.0
 10
5.3187049277
 20
2.7801649685
 30
0.0
 10
5.3176713698
 20
2.7807483372
 30
0.0
 10
5.3156444162
 20
2.7820557797
 30
0.0
 10
5.3128231105
 20
2.7844013952
 30
0.0
 10
5.3106873938
 20
2.7866840856
 30
0.0
 10
5.3091295553
 20
2.7887073826
 30
0.0
 10
5.3076607423
 20
2.7908980434
 30
0.0
 10
5.3060689805
 20
2.7938825548
 30
0.0
 10
5.3048825213
 20
2.7971029074
 30
0.0
 10
5.304195408
 20
2.7998096055
 30
0.0
 10
5.3036917468
 20
2.8026062923
 30
0.0
 10
5.3035388668
 20
2.804747907
 30
0.0
 10
5.3035388668
 20
2.8061763699
 30
0.0
  0
SPLINE
  5
37D
100
AcDbEntity
  8
0
100
AcDbSpline
 62
7
  6
CONTINUOUS
 70
0
 71
3
 72
14
 73
10
 74
0
 42
0.0000001
 43
0.0000001
 44
0.0000000001
 40
0.0
 40
0.0
 40
0.0
 40
0.0
 40
0.1508633512
 40
0.2979954383
 40
0.438346953
 40
0.5698968064
 40
0.6916871609
 40
0.8036140509
 40
1.0
 40
1.0
 40
1.0
 40
1.0
 10
5.3280584988
 20
2.8061763699
 30
0.0
 10
5.3280584988
 20
2.8047501563
 30
0.0
 10
5.3279351781
 20
2.8019313838
 30
0.0
 10
5.3273895474
 20
2.7978182208
 30
0.0
 10
5.3265157584
 20
2.7939485001
 30
0.0
 10
5.3253582602
 20
2.7904055652
 30
0.0
 10
5.3239638426
 20
2.7872386987
 30
0.0
 10
5.321941218
 20
2.7837077068
 30
0.0
 10
5.3200745235
 20
2.781418387
 30
0.0
 10
5.3187049277
 20
2.7801649685
 30
0.0
  0
SPLINE
  5
37E
100
AcDbEntity
  8
0
100
AcDbSpline
 62
7
  6
CONTINUOUS
 70
0
 71
3
 72
15
 73
11
 74
0
 42
0.0000001
 43
0.0000001
 44
0.0000000001
 40
0.0
 40
0.0
 40
0.0
 40
0.0
 40
0.1089561485
 40
0.221975882
 40
0.3396572931
 40
0.4625163086
 40
0.5906910229
 40
0.7238083572
 40
0.8608175837
 40
1.0
 40
1.0
 40
1.0
 40
1.0
 10
5.3657802571
 20
2.7801649685
 30
0.0
 10
5.364828476
 20
2.7807511128
 30
0.0
 10
5.3629614547
 20
2.7820667305
 30
0.0
 10
5.3603758179
 20
2.7844154654
 30
0.0
 10
5.3580101991
 20
2.7871778603
 30
0.0
 10
5.3559260871
 20
2.7903467974
 30
0.0
 10
5.3541929031
 20
2.7938983017
 30
0.0
 10
5.3528837013
 20
2.7977812978
 30
0.0
 10
5.3520655494
 20
2.8019114867
 30
0.0
 10
5.3518802945
 20
2.8047484873
 30
0.0
 10
5.3518802945
 20
2.8061763699
 30
0.0
  0
SPLINE
  5
37F
100
AcDbEntity
  8
0
100
AcDbSpline
 62
7
  6
CONTINUOUS
 70
0
 71
3
 72
15
 73
11
 74
0
 42
0.0000001
 43
0.0000001
 44
0.0000000001
 40
0.0
 40
0.0
 40
0.0
 40
0.0
 40
0.1467628421
 40
0.2903164083
 40
0.4280645668
 40
0.5583310327
 40
0.6803869506
 40
0.7942536051
 40
0.9005161214
 40
1.0
 40
1.0
 40
1.0
 40
1.0
 10
5.3767599127
 20
2.8061763699
 30
0.0
 10
5.3767599127
 20
2.8047496343
 30
0.0
 10
5.3766146655
 20
2.8019251443
 30
0.0
 10
5.3759723152
 20
2.7978063969
 30
0.0
 10
5.3749438243
 20
2.7939319842
 30
0.0
 10
5.3735811742
 20
2.7903852043
 30
0.0
 10
5.3719410484
 20
2.7872171761
 30
0.0
 10
5.370077369
 20
2.7844522831
 30
0.0
 10
5.3680379579
 20
2.782098299
 30
0.0
 10
5.3665429672
 20
2.7807596055
 30
0.0
 10
5.3657802571
 20
2.7801649685
 30
0.0
  0
SPLINE
  5
380
100
AcDbEntity
  8
0
100
AcDbSpline
 62
7
  6
CONTINUOUS
 70
0
 71
3
 72
16
 73
12
 74
0
 42
0.0000001
 43
0.0000001
 44
0.0000000001
 40
0.0
 40
0.0
 40
0.0
 40
0.0
 40
0.1044635958
 40
0.214241651
 40
0.330060654
 40
0.4524908685
 40
0.5816326711
 40
0.6486192086
 40
0.7170133309
 40
0.857164914
 40
1.0
 40
1.0
 40
1.0
 40
1.0
 10
5.4133133562
 20
2.7801649685
 30
0.0
 10
5.4124520865
 20
2.780754776
 30
0.0
 10
5.410762708
 20
2.7820807238
 30
0.0
 10
5.4084385368
 20
2.7844323207
 30
0.0
 10
5.4063133628
 20
2.7871964598
 30
0.0
 10
5.4044423052
 20
2.790365273
 30
0.0
 10
5.4031614814
 20
2.7932884931
 30
0.0
 10
5.4023180882
 20
2.7957949635
 30
0.0
 10
5.401595536
 20
2.7984532844
 30
0.0
 10
5.4009793002
 20
2.8019186215
 30
0.0
 10
5.4008133562
 20
2.8047490704
 30
0.0
 10
5.4008133562
 20
2.8061763699
 30
0.0
  0
LINE
  5
381
100
AcDbEntity
  8
0
100
AcDbLine
 62
7
  6
CONTINUOUS
 10
5.7207482281
 20
3.6761763699
 11
5.7209603529
 21
3.7021877712
  0
SPLINE
  5
382
100
AcDbEntity
  8
0
100
AcDbSpline
 62
7
  6
CONTINUOUS
 70
0
 71
3
 72
16
 73
12
 74
0
 42
0.0000001
 43
0.0000001
 44
0.0000000001
 40
0.0
 40
0.0
 40
0.0
 40
0.0
 40
0.1241286202
 40
0.2484937908
 40
0.3730636896
 40
0.4979147062
 40
0.6230551024
 40
0.7484735191
 40
0.8113234507
 40
0.8742305855
 40
1.0
 40
1.0
 40
1.0
 40
1.0
 10
5.7209603529
 20
3.7021877712
 30
0.0
 10
5.7222489495
 20
3.7016106512
 30
0.0
 10
5.7247720634
 20
3.7003230435
 30
0.0
 10
5.7283251912
 20
3.6979867016
 30
0.0
 10
5.7315815024
 20
3.6952355524
 30
0.0
 10
5.7344572348
 20
3.6920736371
 30
0.0
 10
5.7368559467
 20
3.688521843
 30
0.0
 10
5.7383711686
 20
3.6852757515
 30
0.0
 10
5.7392437257
 20
3.6825517542
 30
0.0
 10
5.7398786123
 20
3.679759434
 30
0.0
 10
5.7400734895
 20
3.6776069643
 30
0.0
 10
5.7400734895
 20
3.6761763699
 30
0.0
  0
SPLINE
  5
383
100
AcDbEntity
  8
0
100
AcDbSpline
 62
7
  6
CONTINUOUS
 70
0
 71
3
 72
16
 73
12
 74
0
 42
0.0000001
 43
0.0000001
 44
0.0000000001
 40
0.0
 40
0.0
 40
0.0
 40
0.0
 40
0.1248114929
 40
0.2497007694
 40
0.3746026113
 40
0.4995655059
 40
0.6245821215
 40
0.749649226
 40
0.8122509904
 40
0.8748721849
 40
1.0
 40
1.0
 40
1.0
 40
1.0
 10
5.756222531
 20
3.7021877712
 30
0.0
 10
5.7575279074
 20
3.7016109647
 30
0.0
 10
5.7600835766
 20
3.7003243982
 30
0.0
 10
5.7636846424
 20
3.6979886555
 30
0.0
 10
5.7669850614
 20
3.6952381637
 30
0.0
 10
5.7699000456
 20
3.692076819
 30
0.0
 10
5.7723319034
 20
3.6885252801
 30
0.0
 10
5.7738690091
 20
3.6852775761
 30
0.0
 10
5.7747538822
 20
3.6825523722
 30
0.0
 10
5.7753973921
 20
3.6797603835
 30
0.0
 10
5.7755950788
 20
3.6776071215
 30
0.0
 10
5.7755950788
 20
3.6761763699
 30
0.0
  0
SPLINE
  5
384
100
AcDbEntity
  8
0
100
AcDbSpline
 62
7
  6
CONTINUOUS
 70
0
 71
3
 72
16
 73
12
 74
0
 42
0.0000001
 43
0.0000001
 44
0.0000000001
 40
0.0
 40
0.0
 40
0.0
 40
0.0
 40
0.1250019649
 40
0.2500376188
 40
0.3750323717
 40
0.5000268177
 40
0.6250091238
 40
0.7499781784
 40
0.8125105663
 40
0.8750517707
 40
1.0
 40
1.0
 40
1.0
 40
1.0
 10
5.7881823063
 20
3.7021877712
 30
0.0
 10
5.789492395
 20
3.701611051
 30
0.0
 10
5.7920572054
 20
3.700324772
 30
0.0
 10
5.7956717294
 20
3.6979891965
 30
0.0
 10
5.7989845305
 20
3.6952388899
 30
0.0
 10
5.8019105337
 20
3.6920777081
 30
0.0
 10
5.8043516981
 20
3.6885262453
 30
0.0
 10
5.8058949548
 20
3.6852780908
 30
0.0
 10
5.8067832891
 20
3.6825525468
 30
0.0
 10
5.8074292204
 20
3.6797606522
 30
0.0
 10
5.8076276971
 20
3.677607166
 30
0.0
 10
5.8076276971
 20
3.6761763699
 30
0.0
  0
SPLINE
  5
385
100
AcDbEntity
  8
0
100
AcDbSpline
 62
7
  6
CONTINUOUS
 70
0
 71
3
 72
16
 73
12
 74
0
 42
0.0000001
 43
0.0000001
 44
0.0000000001
 40
0.0
 40
0.0
 40
0.0
 40
0.0
 40
0.1247025071
 40
0.2495080653
 40
0.374356808
 40
0.4993017171
 40
0.6243380069
 40
0.7494612029
 40
0.8121026331
 40
0.8747695512
 40
1.0
 40
1.0
 40
1.0
 40
1.0
 10
5.8165318887
 20
3.7021877712
 30
0.0
 10
5.8178345751
 20
3.7016109151
 30
0.0
 10
5.8203850259
 20
3.7003241836
 30
0.0
 10
5.8239784082
 20
3.6979883452
 30
0.0
 10
5.827271758
 20
3.6952377478
 30
0.0
 10
5.8301804513
 20
3.6920763106
 30
0.0
 10
5.832606996
 20
3.6885247291
 30
0.0
 10
5.8341405916
 20
3.6852772828
 30
0.0
 10
5.8350234893
 20
3.6825522727
 30
0.0
 10
5.8356656169
 20
3.6797602305
 30
0.0
 10
5.8358628528
 20
3.6776070962
 30
0.0
 10
5.8358628528
 20
3.6761763699
 30
0.0
  0
SPLINE
  5
386
100
AcDbEntity
  8
0
100
AcDbSpline
 62
7
  6
CONTINUOUS
 70
0
 71
3
 72
16
 73
12
 74
0
 42
0.0000001
 43
0.0000001
 44
0.0000000001
 40
0.0
 40
0.0
 40
0.0
 40
0.0
 40
0.1239092472
 40
0.2481062757
 40
0.3725699225
 40
0.4973854088
 40
0.6225658246
 40
0.7480970278
 40
0.8110264975
 40
0.8740252134
 40
1.0
 40
1.0
 40
1.0
 40
1.0
 10
5.8409982562
 20
3.7021877712
 30
0.0
 10
5.8422814996
 20
3.7016105491
 30
0.0
 10
5.844794226
 20
3.7003226033
 30
0.0
 10
5.8483320556
 20
3.6979860692
 30
0.0
 10
5.8515742899
 20
3.6952347109
 30
0.0
 10
5.8544374952
 20
3.6920726168
 30
0.0
 10
5.8568256309
 20
3.6885207466
 30
0.0
 10
5.8583338775
 20
3.685275172
 30
0.0
 10
5.8592025084
 20
3.6825515582
 30
0.0
 10
5.8598346436
 20
3.6797591335
 30
0.0
 10
5.8600286258
 20
3.6776069146
 30
0.0
 10
5.8600286258
 20
3.6761763699
 30
0.0
  0
SPLINE
  5
387
100
AcDbEntity
  8
0
100
AcDbSpline
 62
7
  6
CONTINUOUS
 70
0
 71
3
 72
16
 73
12
 74
0
 42
0.0000001
 43
0.0000001
 44
0.0000000001
 40
0.0
 40
0.0
 40
0.0
 40
0.0
 40
0.1226122631
 40
0.2458174767
 40
0.3696567784
 40
0.4942662639
 40
0.6196857733
 40
0.7458830327
 40
0.8092809012
 40
0.8728183202
 40
1.0
 40
1.0
 40
1.0
 40
1.0
 10
5.8613457843
 20
3.7021877712
 30
0.0
 10
5.8625977382
 20
3.7016099314
 30
0.0
 10
5.8650497303
 20
3.7003199509
 30
0.0
 10
5.8684980919
 20
3.6979822825
 30
0.0
 10
5.8716579899
 20
3.6952297104
 30
0.0
 10
5.874447927
 20
3.6920666042
 30
0.0
 10
5.876774227
 20
3.6885143416
 30
0.0
 10
5.8782417637
 20
3.6852718115
 30
0.0
 10
5.879087474
 20
3.6825504252
 30
0.0
 10
5.8797035238
 20
3.6797574004
 30
0.0
 10
5.8798922866
 20
3.6776066284
 30
0.0
 10
5.8798922866
 20
3.6761763699
 30
0.0
  0
SPLINE
  5
388
100
AcDbEntity
  8
0
100
AcDbSpline
 62
7
  6
CONTINUOUS
 70
0
 71
3
 72
15
 73
11
 74
0
 42
0.0000001
 43
0.0000001
 44
0.0000000001
 40
0.0
 40
0.0
 40
0.0
 40
0.0
 40
0.1208094023
 40
0.2426457669
 40
0.3656352667
 40
0.4899812893
 40
0.6157559791
 40
0.7428969999
 40
0.8711355924
 40
1.0
 40
1.0
 40
1.0
 40
1.0
 10
5.8773785152
 20
3.7021877712
 30
0.0
 10
5.8785876442
 20
3.7016090245
 30
0.0
 10
5.8809564576
 20
3.7003160878
 30
0.0
 10
5.8842822268
 20
3.6979768478
 30
0.0
 10
5.8873292898
 20
3.6952226215
 30
0.0
 10
5.8900187941
 20
3.6920583161
 30
0.0
 10
5.8922605383
 20
3.6885053327
 30
0.0
 10
5.8939580149
 20
3.6846125563
 30
0.0
 10
5.8950210806
 20
3.6804648282
 30
0.0
 10
5.8952625372
 20
3.6776062483
 30
0.0
 10
5.8952625372
 20
3.6761763699
 30
0.0
  0
SPLINE
  5
389
100
AcDbEntity
  8
0
100
AcDbSpline
 62
7
  6
CONTINUOUS
 70
0
 71
3
 72
15
 73
11
 74
0
 42
0.0000001
 43
0.0000001
 44
0.0000000001
 40
0.0
 40
0.0
 40
0.0
 40
0.0
 40
0.1184550292
 40
0.2385112549
 40
0.3604008189
 40
0.4844071317
 40
0.6106352868
 40
0.7389763154
 40
0.8690088671
 40
1.0
 40
1.0
 40
1.0
 40
1.0
 10
5.8889420449
 20
3.7021877712
 30
0.0
 10
5.8900972367
 20
3.7016077706
 30
0.0
 10
5.8923611842
 20
3.7003108126
 30
0.0
 10
5.8955323192
 20
3.6979695549
 30
0.0
 10
5.89843701
 20
3.6952133468
 30
0.0
 10
5.9009998766
 20
3.6920475941
 30
0.0
 10
5.9031349359
 20
3.6884943997
 30
0.0
 10
5.9047506143
 20
3.6846033733
 30
0.0
 10
5.90576185
 20
3.6804594253
 30
0.0
 10
5.9059913537
 20
3.6776057889
 30
0.0
 10
5.9059913537
 20
3.6761763699
 30
0.0
  0
SPLINE
  5
38A
100
AcDbEntity
  8
0
100
AcDbSpline
 62
7
  6
CONTINUOUS
 70
0
 71
3
 72
15
 73
11
 74
0
 42
0.0000001
 43
0.0000001
 44
0.0000000001
 40
0.0
 40
0.0
 40
0.0
 40
0.0
 40
0.115543916
 40
0.2334182214
 40
0.3539786104
 40
0.4775956654
 40
0.604401435
 40
0.7342181679
 40
0.8664332184
 40
1.0
 40
1.0
 40
1.0
 40
1.0
 10
5.8959250104
 20
3.7021877712
 30
0.0
 10
5.8970156794
 20
3.7016060858
 30
0.0
 10
5.8991539987
 20
3.7003038395
 30
0.0
 10
5.902139801
 20
3.6979601525
 30
0.0
 10
5.9048738299
 20
3.6952017187
 30
0.0
 10
5.907284977
 20
3.6920345385
 30
0.0
 10
5.9092924212
 20
3.6884814569
 30
0.0
 10
5.9108105058
 20
3.684592758
 30
0.0
 10
5.9117600825
 20
3.6804532802
 30
0.0
 10
5.9119754118
 20
3.6776052679
 30
0.0
 10
5.9119754118
 20
3.6761763699
 30
0.0
  0
SPLINE
  5
38B
100
AcDbEntity
  8
0
100
AcDbSpline
 62
7
  6
CONTINUOUS
 70
0
 71
3
 72
19
 73
15
 74
0
 42
0.0000001
 43
0.0000001
 44
0.0000000001
 40
0.0
 40
0.0
 40
0.0
 40
0.0
 40
0.0289981694
 40
0.0631761516
 40
0.1026639032
 40
0.1474511154
 40
0.1974410044
 40
0.2524411418
 40
0.3122075993
 40
0.3764311494
 40
0.5167995823
 40
0.6702308194
 40
0.8327717949
 40
1.0
 40
1.0
 40
1.0
 40
1.0
 10
5.9011140957
 20
3.4805981167
 30
0.0
 10
5.9009834566
 20
3.4804554072
 30
0.0
 10
5.900726742
 20
3.4801189254
 30
0.0
 10
5.9003767946
 20
3.4795290365
 30
0.0
 10
5.9000337438
 20
3.4788161467
 30
0.0
 10
5.8997003033
 20
3.4779841537
 30
0.0
 10
5.899379282
 20
3.4770373792
 30
0.0
 10
5.8990734734
 20
3.4759811974
 30
0.0
 10
5.8987859122
 20
3.4748218458
 30
0.0
 10
5.8984196099
 20
3.4730962258
 30
0.0
 10
5.8980328235
 20
3.4707376101
 30
0.0
 10
5.8976938369
 20
3.4677107196
 30
0.0
 10
5.8974835765
 20
3.464492627
 30
0.0
 10
5.8974362744
 20
3.4622921122
 30
0.0
 10
5.8974362744
 20
3.4611763699
 30
0.0
  0
SPLINE
  5
38C
100
AcDbEntity
  8
0
100
AcDbSpline
 62
7
  6
CONTINUOUS
 70
0
 71
3
 72
19
 73
15
 74
0
 42
0.0000001
 43
0.0000001
 44
0.0000000001
 40
0.0
 40
0.0
 40
0.0
 40
0.0
 40
0.1672282051
 40
0.3297691806
 40
0.4832004177
 40
0.6235688506
 40
0.6877924007
 40
0.7475588582
 40
0.8025589956
 40
0.8525488846
 40
0.8973360968
 40
0.9368238484
 40
0.9710018306
 40
1.0
 40
1.0
 40
1.0
 40
1.0
 10
5.8974362744
 20
2.8511763699
 30
0.0
 10
5.8974362744
 20
2.8500606275
 30
0.0
 10
5.8974835765
 20
2.8478601128
 30
0.0
 10
5.8976938369
 20
2.8446420201
 30
0.0
 10
5.8980328235
 20
2.8416151297
 30
0.0
 10
5.8984196099
 20
2.8392565139
 30
0.0
 10
5.8987859122
 20
2.837530894
 30
0.0
 10
5.8990734734
 20
2.8363715423
 30
0.0
 10
5.899379282
 20
2.8353153606
 30
0.0
 10
5.8997003033
 20
2.834368586
 30
0.0
 10
5.9000337438
 20
2.833536593
 30
0.0
 10
5.9003767946
 20
2.8328237032
 30
0.0
 10
5.900726742
 20
2.8322338143
 30
0.0
 10
5.9009834566
 20
2.8318973325
 30
0.0
 10
5.9011140957
 20
2.831754623
 30
0.0
  0
ENDSEC
  0
SECTION
  2
OBJECTS
  0
DICTIONARY
  5
C
100
AcDbDictionary
280
0
281
1
  3
ACAD_GROUP
350
D
  3
ACAD_MLINESTYLE
350
17
  3
ACAD_LAYOUT
350
1A
  3
ACAD_PLOTSETTINGS
350
19
  3
ACAD_PLOTSTYLENAME
350
E
  0
DICTIONARY
  5
D
102
{ACAD_REACTORS
330
C
102
}
100
AcDbDictionary
280
0
281
1
  0
ACDBDICTIONARYWDFLT
  5
E
102
{ACAD_REACTORS
330
C
102
}
100
AcDbDictionary
281
1
  3
Normal
350
F
100
AcDbDictionaryWithDefault
340
F
  0
DICTIONARY
  5
17
102
{ACAD_REACTORS
330
C
102
}
100
AcDbDictionary
280
0
281
1
  3
Standard
350
18
  0
DICTIONARY
  5
19
102
{ACAD_REACTORS
330
C
102
}
100
AcDbDictionary
281
1
  0
DICTIONARY
  5
1A
102
{ACAD_REACTORS
330
C
102
}
100
AcDbDictionary
281
1
  3
Model
350
38D
  3
Layout1
350
38E
  0
ACDBPLACEHOLDER
  5
F
102
{ACAD_REACTORS
330
E
102
}
  0
MLINESTYLE
  5
18
102
{ACAD_REACTORS
330
17
102
}
100
AcDbMlineStyle
  2
STANDARD
 70
0
  3

 62
256
 51
90.0
 52
90.0
 71
2
 49
0.5
 62
256
  6
BYLAYER
 49
-0.5
 62
256
  6
BYLAYER
  0
LAYOUT
  5
38D
102
{ACAD_REACTORS
330
1A
102
}
100
AcDbPlotSettings
  1

  2
none_device
  4
ANSI_A_(11.00_x_8.50_Inches)
  6

 40
0.0
 41
0.0
 42
0.0
 43
0.0
 44
279.4
 45
215.9
 46
0.0
 47
0.0
 48
0.0
 49
0.0
140
0.0
141
0.0
142
1.0
143
1.0
 70
1024
 72
0
 73
0
 74
0
  7

 75
0
147
1.0
148
0.0
149
0.0
100
AcDbLayout
  1
Model
 70
0
 71
0
 10
0.0
 20
0.0
 11
11.0
 21
8.5
 12
0.0
 22
0.0
 32
0.0
 14
0.0
 24
0.0
 34
0.0
 15
0.0
 25
0.0
 35
0.0
146
0.0
 13
0.0
 23
0.0
 33
0.0
 16
1.0
 26
0.0
 36
0.0
 17
0.0
 27
1.0
 37
0.0
 76
0
330
203
345
0
346
0
  0
LAYOUT
  5
38E
102
{ACAD_REACTORS
330
1A
102
}
100
AcDbPlotSettings
  1

  2
none_device
  4
ANSI_A_(11.00_x_8.50_Inches)
  6

 40
0.0
 41
0.0
 42
0.0
 43
0.0
 44
279.4
 45
215.9
 46
0.0
 47
0.0
 48
0.0
 49
0.0
140
0.0
141
0.0
142
1.0
143
1.0
 70
0
 72
0
 73
0
 74
0
  7

 75
0
147
1.0
148
0.0
149
0.0
100
AcDbLayout
  1
Layout1
 70
0
 71
1
 10
0.0
 20
0.0
 11
11.0
 21
8.5
 12
0.0
 22
0.0
 32
0.0
 14
0.0
 24
0.0
 34
0.0
 15
0.0
 25
0.0
 35
0.0
146
0.0
 13
0.0
 23
0.0
 33
0.0
 16
1.0
 26
0.0
 36
0.0
 17
0.0
 27
1.0
 37
0.0
 76
0
330
204
345
0
346
0
  0
ENDSEC
  0
EOF
