999
DXF file: 4-3274bp_right.dxf
999
Pro/ENGINEER 2023134 by Parametric Technology Corporation
  0
SECTION
  2
HEADER
  9
$ACADVER
  1
AC1032
  9
$DWGCODEPAGE
  3
ANSI_1252
  9
$EXTMAX
 10
11.0
 20
8.5
 30
0.0
  9
$EXTMIN
 10
0.0
 20
0.0
 30
0.0
  9
$LIMMIN
 10
0.0
 20
0.0
  9
$LIMMAX
 10
11.0
 20
8.5
  9
$VIEWCTR
 10
5.5
 20
4.25
  9
$VIEWSIZE
 40
8.5
  9
$CLAYER
  8
0
  9
$LTSCALE
 40
0.605
  9
$CELTYPE
  6
BYLAYER
  9
$DIMSCALE
 40
1.0
  9
$DIMASZ
 40
0.1
  9
$DIMEXO
 40
0.0625
  9
$DIMDLI
 40
0.418
  9
$DIMEXE
 40
0.125
  9
$DIMCEN
 40
0.099
  9
$DIMLFAC
 40
1.0
  9
$DIMBLK
  1
_FILLED
  9
$DIMALT
 70
1
  9
$DIMALTD
 70
2
  9
$DIMALTTD
 70
2
  9
$DIMALTF
 40
25.4
  9
$DIMTXT
 40
0.08
  9
$DIMTOL
 70
1
  9
$DIMLIM
 70
0
  9
$DIMTFAC
 40
1.0
  9
$DIMTP
 40
0.001
  9
$DIMTM
 40
0.001
  9
$DIMGAP
 40
0.09
  9
$DIMDSEP
 70
46
  9
$AUNITS
 70
0
  9
$PDMODE
 70
3
  9
$PDSIZE
 40
0.3125
  9
$HANDSEED
  5
27B
  9
$TILEMODE
 70
1
  9
$MEASUREMENT
 70
0
  9
$INSUNITS
 70
1
  0
ENDSEC
  0
SECTION
  2
CLASSES
  0
CLASS
  1
ACDBDICTIONARYWDFLT
  2
AcDbDictionaryWithDefault
  3
AutoCAD 2000
 90
0
 91
1
280
0
281
0
  0
CLASS
  1
ACDBPLACEHOLDER
  2
AcDbPlaceHolder
  3
AutoCAD 2000
 90
0
 91
1
280
0
281
0
  0
CLASS
  1
LAYOUT
  2
AcDbLayout
  3
AutoCAD 2000
 90
0
 91
0
280
0
281
0
  0
ENDSEC
  0
SECTION
  2
TABLES
  0
TABLE
  2
VPORT
  5
8
100
AcDbSymbolTable
 70
2
  0
VPORT
  5
1F4
100
AcDbSymbolTableRecord
100
AcDbViewportTableRecord
  2
*ACTIVE
 70
0
 10
0.0
 20
0.0
 11
1.0
 21
1.0
 12
5.5
 22
4.25
 13
0.0
 23
0.0
 14
1.0
 24
1.0
 15
0.0
 25
0.0
 16
0.0
 26
0.0
 36
1.0
 17
0.0
 27
0.0
 37
0.0
 40
8.5
 41
1.2941176471
 42
50.0
 43
0.0
 44
0.0
 50
0.0
 51
0.0
 71
0
 72
100
 73
1
 74
1
 75
0
 76
0
 77
0
 78
0
  0
ENDTAB
  0
TABLE
  2
LTYPE
  5
5
100
AcDbSymbolTable
 70
6
  0
LTYPE
  5
14
100
AcDbSymbolTableRecord
100
AcDbLinetypeTableRecord
  2
BYBLOCK
 70
0
  3

 72
65
 73
0
 40
0.0
  0
LTYPE
  5
15
100
AcDbSymbolTableRecord
100
AcDbLinetypeTableRecord
  2
BYLAYER
 70
0
  3

 72
65
 73
0
 40
0.0
  0
LTYPE
  5
16
100
AcDbSymbolTableRecord
100
AcDbLinetypeTableRecord
  2
CONTINUOUS
 70
64
  3
Solid line
 72
65
 73
0
 40
0.0
  0
LTYPE
  5
1F5
100
AcDbSymbolTableRecord
100
AcDbLinetypeTableRecord
  2
CENTER
 70
64
  3
____ _ ____ _ ____ _ ____ _ ____ _ ____ _ ____
 72
65
 73
4
 40
0.6
 49
0.375
 74
0
 49
-0.075
 74
0
 49
0.075
 74
0
 49
-0.075
 74
0
  0
LTYPE
  5
1F6
100
AcDbSymbolTableRecord
100
AcDbLinetypeTableRecord
  2
HIDDEN
 70
64
  3
- - - - - - - - - - - - - - - - - - - -
 72
65
 73
2
 40
0.2
 49
0.1
 74
0
 49
-0.1
 74
0
  0
LTYPE
  5
1F7
100
AcDbSymbolTableRecord
100
AcDbLinetypeTableRecord
  2
PHANTOM
 70
64
  3
_____ _ _ _____ _ _ _____ _ _ _____
 72
65
 73
6
 40
0.8
 49
0.45
 74
0
 49
-0.05
 74
0
 49
0.1
 74
0
 49
-0.05
 74
0
 49
0.1
 74
0
 49
-0.05
 74
0
  0
LTYPE
  5
1F8
100
AcDbSymbolTableRecord
100
AcDbLinetypeTableRecord
  2
DOT
 70
64
  3
. . . . . . . . . . . . . . . . . . . .
 72
65
 73
2
 40
0.2
 49
0.1
 74
0
 49
-0.1
 74
0
  0
LTYPE
  5
1F9
100
AcDbSymbolTableRecord
100
AcDbLinetypeTableRecord
  2
DASHED
 70
64
  3
- - - - - - - - - - - - - - - - - - - -
 72
65
 73
2
 40
0.2
 49
0.1
 74
0
 49
-0.1
 74
0
  0
ENDTAB
  0
TABLE
  2
LAYER
  5
2
100
AcDbSymbolTable
 70
36
  0
LAYER
  5
10
100
AcDbSymbolTableRecord
100
AcDbLayerTableRecord
  2
0
 70
0
 62
7
  6
CONTINUOUS
370
-3
390
F
  0
LAYER
  5
1FA
100
AcDbSymbolTableRecord
100
AcDbLayerTableRecord
  2
DEFAULT_1
 70
0
 62
7
  6
CENTER
370
-3
390
F
  0
LAYER
  5
1FB
100
AcDbSymbolTableRecord
100
AcDbLayerTableRecord
  2
DEFAULT_2
 70
0
 62
8
  6
HIDDEN
370
-3
390
F
  0
LAYER
  5
1FC
100
AcDbSymbolTableRecord
100
AcDbLayerTableRecord
  2
DEFAULT_3
 70
0
 62
7
  6
PHANTOM
370
-3
390
F
  0
LAYER
  5
1FD
100
AcDbSymbolTableRecord
100
AcDbLayerTableRecord
  2
DEFAULT_COORDINATE_SYSTEM
 70
0
 62
7
  6
CONTINUOUS
370
-3
390
F
  0
LAYER
  5
1FE
100
AcDbSymbolTableRecord
100
AcDbLayerTableRecord
  2
DEFAULT_DATUM_AXES
 70
0
 62
7
  6
CONTINUOUS
370
-3
390
F
  0
LAYER
  5
1FF
100
AcDbSymbolTableRecord
100
AcDbLayerTableRecord
  2
DEFAULT_DATUM_CURVES
 70
0
 62
7
  6
CONTINUOUS
370
-3
390
F
  0
LAYER
  5
200
100
AcDbSymbolTableRecord
100
AcDbLayerTableRecord
  2
DEFAULT_DATUM_PLANES
 70
0
 62
7
  6
CONTINUOUS
370
-3
390
F
  0
ENDTAB
  0
TABLE
  2
STYLE
  5
3
100
AcDbSymbolTable
 70
1
  0
STYLE
  5
11
100
AcDbSymbolTableRecord
100
AcDbTextStyleTableRecord
  2
STANDARD
 70
0
 40
0.0
 41
0.8
 50
0.0
 71
0
 42
0.2
  3
txt
  4

  0
STYLE
  5
201
100
AcDbSymbolTableRecord
100
AcDbTextStyleTableRecord
  2
TEXTSTYLE_1
 70
0
 40
0.0
 41
0.8
 50
0.0
 71
0
 42
0.2
  3
gdt
  4

  0
ENDTAB
  0
TABLE
  2
VIEW
  5
6
100
AcDbSymbolTable
 70
0
  0
ENDTAB
  0
TABLE
  2
UCS
  5
7
100
AcDbSymbolTable
 70
0
  0
ENDTAB
  0
TABLE
  2
APPID
  5
9
100
AcDbSymbolTable
 70
1
  0
APPID
  5
202
100
AcDbSymbolTableRecord
100
AcDbRegAppTableRecord
  2
ACAD
 70
0
  0
ENDTAB
  0
TABLE
  2
BLOCK_RECORD
  5
1
100
AcDbSymbolTable
 70
0
  0
BLOCK_RECORD
  5
203
100
AcDbSymbolTableRecord
100
AcDbBlockTableRecord
  2
*Model_Space
  0
BLOCK_RECORD
  5
204
100
AcDbSymbolTableRecord
100
AcDbBlockTableRecord
  2
*Paper_Space
  0
BLOCK_RECORD
  5
205
100
AcDbSymbolTableRecord
100
AcDbBlockTableRecord
  2
_FILLED
  0
ENDTAB
  0
TABLE
  2
DIMSTYLE
  5
A
100
AcDbSymbolTable
 70
1
100
AcDbDimStyleTable
 71
0
  0
DIMSTYLE
105
206
100
AcDbSymbolTableRecord
100
AcDbDimStyleTableRecord
  2
STANDARD
 70
0
  3

  4

 40
1.0
 41
0.1
 42
0.0625
 43
0.38
 44
0.125
 45
0.0
 46
0.0
 47
0.001
 48
0.001
140
0.08
141
0.09
142
0.0
143
25.4
144
1.0
145
0.0
146
1.0
147
0.09
 71
1
 72
0
 73
1
 74
1
 75
0
 76
0
 77
0
 78
4
 79
1
170
1
171
2
172
0
173
0
174
0
175
0
176
0
177
0
178
0
270
2
179
3
271
3
272
3
273
2
274
2
275
0
280
0
281
0
282
0
283
1
284
4
285
0
286
0
287
3
288
0
340
11
278
46
341
205
342
205
343
205
344
205
  0
ENDTAB
  0
ENDSEC
  0
SECTION
  2
BLOCKS
  0
BLOCK
  5
20
100
AcDbEntity
  8
0
100
AcDbBlockBegin
  2
*Model_Space
 70
0
 10
0.0
 20
0.0
 30
0.0
  3
*Model_Space
  1

  0
ENDBLK
  5
21
100
AcDbEntity
  8
0
100
AcDbBlockEnd
  0
BLOCK
  5
1C
100
AcDbEntity
  8
0
100
AcDbBlockBegin
  2
*Paper_Space
 70
0
 10
0.0
 20
0.0
 30
0.0
  3
*Paper_Space
  1

  0
ENDBLK
  5
1D
100
AcDbEntity
  8
0
100
AcDbBlockEnd
  0
BLOCK
  5
207
100
AcDbEntity
  8
0
100
AcDbBlockBegin
  2
_FILLED
 70
64
 10
0.0
 20
0.0
  3
_FILLED
  1

  0
SOLID
  5
208
100
AcDbEntity
  8
0
  6
BYBLOCK
 62
0
100
AcDbTrace
 10
0.0
 20
0.0
 11
-1.0
 21
0.2
 12
-1.0
 22
-0.2
 13
-1.0
 23
-0.2
  0
ENDBLK
  5
209
100
AcDbEntity
  8
0
  6
BYBLOCK
 62
0
100
AcDbBlockEnd
  0
ENDSEC
  0
SECTION
  2
ENTITIES
  0
MTEXT
  5
20A
100
AcDbEntity
  8
0
100
AcDbMText
 62
2
  6
CONTINUOUS
  7
STANDARD
 71
3
 72
1
 10
5.6959029241
 20
0.5755907534
 30
0.0
 11
1.0
 21
0.0
 31
0.0
 73
2
 44
0.9
  1
SCALE 1.000
 40
0.08
 41
0.704
  0
LINE
  5
20B
100
AcDbEntity
  8
0
100
AcDbLine
 62
7
  6
CONTINUOUS
 10
0.0
 20
0.0
 11
0.0
 21
8.5
  0
LINE
  5
20C
100
AcDbEntity
  8
0
100
AcDbLine
 62
7
  6
CONTINUOUS
 10
0.0
 20
0.0
 11
11.0
 21
0.0
  0
LINE
  5
20D
100
AcDbEntity
  8
0
100
AcDbLine
 62
7
  6
CONTINUOUS
 10
0.0
 20
8.5
 11
11.0
 21
8.5
  0
LINE
  5
20E
100
AcDbEntity
  8
0
100
AcDbLine
 62
7
  6
CONTINUOUS
 10
11.0
 20
0.0
 11
11.0
 21
8.5
  0
LINE
  5
20F
100
AcDbEntity
  8
0
100
AcDbLine
 62
7
  6
CONTINUOUS
 10
7.2877791096
 20
1.2831763699
 11
7.1483158492
 21
1.2831763699
  0
LINE
  5
210
100
AcDbEntity
  8
0
100
AcDbLine
 62
7
  6
CONTINUOUS
 10
3.8537791096
 20
1.6831763699
 11
4.2937791096
 21
1.6831763699
  0
LINE
  5
211
100
AcDbEntity
  8
0
100
AcDbLine
 62
7
  6
CONTINUOUS
 10
3.8537791096
 20
1.7081763699
 11
4.2937791096
 21
1.7081763699
  0
LINE
  5
212
100
AcDbEntity
  8
0
100
AcDbLine
 62
7
  6
CONTINUOUS
 10
4.2937791096
 20
1.7581763699
 11
3.8537791096
 21
1.7581763699
  0
LINE
  5
213
100
AcDbEntity
  8
0
100
AcDbLine
 62
7
  6
CONTINUOUS
 10
4.2937791096
 20
1.7831763699
 11
3.8537791096
 21
1.7831763699
  0
LINE
  5
214
100
AcDbEntity
  8
0
100
AcDbLine
 62
7
  6
CONTINUOUS
 10
3.8537791096
 20
1.8081763699
 11
4.2937791096
 21
1.8081763699
  0
LINE
  5
215
100
AcDbEntity
  8
0
100
AcDbLine
 62
7
  6
CONTINUOUS
 10
3.7487791096
 20
1.8131763699
 11
3.7237791096
 21
1.8131763701
  0
LINE
  5
216
100
AcDbEntity
  8
0
100
AcDbLine
 62
7
  6
CONTINUOUS
 10
4.3487791096
 20
1.8131763699
 11
4.2987791096
 21
1.8131763699
  0
LINE
  5
217
100
AcDbEntity
  8
0
100
AcDbLine
 62
7
  6
CONTINUOUS
 10
3.7987791096
 20
1.8131763699
 11
3.8487791096
 21
1.8131763699
  0
LINE
  5
218
100
AcDbEntity
  8
0
100
AcDbLine
 62
7
  6
CONTINUOUS
 10
4.3987791096
 20
1.8131763699
 11
4.4237791096
 21
1.8131763699
  0
LINE
  5
219
100
AcDbEntity
  8
0
100
AcDbLine
 62
7
  6
CONTINUOUS
 10
3.7237791096
 20
4.9956763699
 11
3.7237791096
 21
1.8131763699
  0
LINE
  5
21A
100
AcDbEntity
  8
0
100
AcDbLine
 62
7
  6
CONTINUOUS
 10
3.7487791096
 20
5.0206763699
 11
3.7487791096
 21
1.8131763699
  0
LINE
  5
21B
100
AcDbEntity
  8
0
100
AcDbLine
 62
7
  6
CONTINUOUS
 10
3.7987791096
 20
1.8131763699
 11
3.7987791096
 21
4.9895951637
  0
LINE
  5
21C
100
AcDbEntity
  8
0
100
AcDbLine
 62
7
  6
CONTINUOUS
 10
3.8237791096
 20
1.8131763699
 11
3.8237791096
 21
4.9661890718
  0
LINE
  5
21D
100
AcDbEntity
  8
0
100
AcDbLine
 62
7
  6
CONTINUOUS
 10
3.8487791096
 20
4.8893417316
 11
3.8487791096
 21
1.8131763699
  0
LINE
  5
21E
100
AcDbEntity
  8
0
100
AcDbLine
 62
7
  6
CONTINUOUS
 10
3.8537791096
 20
1.7081763699
 11
3.8537791096
 21
1.6831763699
  0
LINE
  5
21F
100
AcDbEntity
  8
0
100
AcDbLine
 62
7
  6
CONTINUOUS
 10
3.8537791096
 20
1.7581763699
 11
3.8537791096
 21
1.8081763699
  0
LINE
  5
220
100
AcDbEntity
  8
0
100
AcDbLine
 62
7
  6
CONTINUOUS
 10
3.9237791096
 20
5.0190712805
 11
3.9237791096
 21
4.9118581732
  0
LINE
  5
221
100
AcDbEntity
  8
0
100
AcDbLine
 62
7
  6
CONTINUOUS
 10
4.2237791096
 20
4.9118581732
 11
4.2237791096
 21
5.0190712805
  0
LINE
  5
222
100
AcDbEntity
  8
0
100
AcDbLine
 62
7
  6
CONTINUOUS
 10
4.2937791096
 20
1.7081763699
 11
4.2937791093
 21
1.6831763699
  0
LINE
  5
223
100
AcDbEntity
  8
0
100
AcDbLine
 62
7
  6
CONTINUOUS
 10
4.2937791096
 20
1.7581763699
 11
4.2937791096
 21
1.8081763699
  0
LINE
  5
224
100
AcDbEntity
  8
0
100
AcDbLine
 62
7
  6
CONTINUOUS
 10
4.2987791096
 20
1.8131763699
 11
4.2987791096
 21
4.8893417316
  0
LINE
  5
225
100
AcDbEntity
  8
0
100
AcDbLine
 62
7
  6
CONTINUOUS
 10
4.3237791096
 20
4.9661890718
 11
4.3237791096
 21
1.8131763699
  0
LINE
  5
226
100
AcDbEntity
  8
0
100
AcDbLine
 62
7
  6
CONTINUOUS
 10
4.3487791096
 20
4.9895951637
 11
4.3487791096
 21
1.8131763699
  0
LINE
  5
227
100
AcDbEntity
  8
0
100
AcDbLine
 62
7
  6
CONTINUOUS
 10
4.3987791096
 20
1.8131763699
 11
4.3987791096
 21
5.0206763699
  0
LINE
  5
228
100
AcDbEntity
  8
0
100
AcDbLine
 62
7
  6
CONTINUOUS
 10
4.4237791096
 20
1.8131763699
 11
4.4237791096
 21
4.9956763699
  0
LINE
  5
229
100
AcDbEntity
  8
0
100
AcDbLine
 62
7
  6
CONTINUOUS
 10
4.4547791096
 20
4.0756763699
 11
4.4547791096
 21
4.9906763699
  0
LINE
  5
22A
100
AcDbEntity
  8
0
100
AcDbLine
 62
7
  6
CONTINUOUS
 10
4.4847791096
 20
4.0456763699
 11
4.4847791096
 21
5.0206763699
  0
LINE
  5
22B
100
AcDbEntity
  8
0
100
AcDbLine
 62
7
  6
CONTINUOUS
 10
6.9747791096
 20
3.4081763699
 11
6.9047791096
 21
3.4081763699
  0
LINE
  5
22C
100
AcDbEntity
  8
0
100
AcDbLine
 62
7
  6
CONTINUOUS
 10
6.8247791096
 20
3.4881763699
 11
6.6547791096
 21
3.4881763699
  0
LINE
  5
22D
100
AcDbEntity
  8
0
100
AcDbLine
 62
7
  6
CONTINUOUS
 10
3.7237791096
 20
3.9910451588
 11
4.4237791096
 21
3.9910451588
  0
LINE
  5
22E
100
AcDbEntity
  8
0
100
AcDbLine
 62
7
  6
CONTINUOUS
 10
6.5847791096
 20
4.0456763699
 11
4.4847791096
 21
4.0456763699
  0
LINE
  5
22F
100
AcDbEntity
  8
0
100
AcDbLine
 62
7
  6
CONTINUOUS
 10
6.6147791096
 20
4.1081763699
 11
6.6247791096
 21
4.1081763699
  0
LINE
  5
230
100
AcDbEntity
  8
0
100
AcDbLine
 62
7
  6
CONTINUOUS
 10
4.3987791096
 20
4.1748184507
 11
4.3487791096
 21
4.1748184507
  0
LINE
  5
231
100
AcDbEntity
  8
0
100
AcDbLine
 62
7
  6
CONTINUOUS
 10
3.7987791096
 20
4.1748184507
 11
3.7487791096
 21
4.1748184507
  0
LINE
  5
232
100
AcDbEntity
  8
0
100
AcDbLine
 62
7
  6
CONTINUOUS
 10
4.2987791096
 20
4.2483277674
 11
3.8487791096
 21
4.2483277674
  0
LINE
  5
233
100
AcDbEntity
  8
0
100
AcDbLine
 62
7
  6
CONTINUOUS
 10
4.4547791096
 20
4.2744024302
 11
4.4237791096
 21
4.2744024302
  0
LINE
  5
234
100
AcDbEntity
  8
0
100
AcDbLine
 62
7
  6
CONTINUOUS
 10
4.4547791096
 20
4.7919503095
 11
4.4237791096
 21
4.7919503095
  0
LINE
  5
235
100
AcDbEntity
  8
0
100
AcDbLine
 62
7
  6
CONTINUOUS
 10
4.2237791096
 20
4.9118581732
 11
3.9237791096
 21
4.9118581732
  0
LINE
  5
236
100
AcDbEntity
  8
0
100
AcDbLine
 62
7
  6
CONTINUOUS
 10
4.2237791096
 20
4.9362892573
 11
3.9237791096
 21
4.9362892573
  0
LINE
  5
237
100
AcDbEntity
  8
0
100
AcDbLine
 62
7
  6
CONTINUOUS
 10
6.6147791096
 20
4.9581763699
 11
6.6247791096
 21
4.9581763699
  0
LINE
  5
238
100
AcDbEntity
  8
0
100
AcDbLine
 62
7
  6
CONTINUOUS
 10
3.9237791096
 20
4.9941535927
 11
4.2237791096
 21
4.9941535927
  0
LINE
  5
239
100
AcDbEntity
  8
0
100
AcDbLine
 62
7
  6
CONTINUOUS
 10
3.9237791096
 20
5.0190712805
 11
4.2237791096
 21
5.0190712805
  0
LINE
  5
23A
100
AcDbEntity
  8
0
100
AcDbLine
 62
7
  6
CONTINUOUS
 10
6.5847791096
 20
5.0206763699
 11
4.4847791096
 21
5.0206763699
  0
LINE
  5
23B
100
AcDbEntity
  8
0
100
AcDbLine
 62
7
  6
CONTINUOUS
 10
3.7487791096
 20
5.0206763699
 11
4.3987791096
 21
5.0206763699
  0
LINE
  5
23C
100
AcDbEntity
  8
0
100
AcDbLine
 62
7
  6
CONTINUOUS
 10
6.5847791096
 20
4.0456763699
 11
6.5847791096
 21
5.0206763699
  0
LINE
  5
23D
100
AcDbEntity
  8
0
100
AcDbLine
 62
7
  6
CONTINUOUS
 10
6.6147791096
 20
4.0756763699
 11
6.6147791096
 21
4.9906763699
  0
LINE
  5
23E
100
AcDbEntity
  8
0
100
AcDbLine
 62
7
  6
CONTINUOUS
 10
6.6247791096
 20
3.5181763699
 11
6.6247791096
 21
5.5481763699
  0
LINE
  5
23F
100
AcDbEntity
  8
0
100
AcDbLine
 62
7
  6
CONTINUOUS
 10
6.6547791096
 20
3.4881763699
 11
6.6547791096
 21
5.5781763699
  0
LINE
  5
240
100
AcDbEntity
  8
0
100
AcDbLine
 62
7
  6
CONTINUOUS
 10
6.8247791096
 20
5.5781763699
 11
6.6547791096
 21
5.5781763699
  0
LINE
  5
241
100
AcDbEntity
  8
0
100
AcDbLine
 62
7
  6
CONTINUOUS
 10
6.9747791096
 20
5.6581763699
 11
6.9047791096
 21
5.6581763699
  0
LINE
  5
242
100
AcDbEntity
  8
0
100
AcDbLine
 62
7
  6
CONTINUOUS
 10
6.8247791096
 20
5.5781763699
 11
6.8247791096
 21
3.4881763699
  0
LINE
  5
243
100
AcDbEntity
  8
0
100
AcDbLine
 62
7
  6
CONTINUOUS
 10
6.8747791096
 20
5.6281763699
 11
6.8747791096
 21
3.4381763699
  0
LINE
  5
244
100
AcDbEntity
  8
0
100
AcDbLine
 62
7
  6
CONTINUOUS
 10
6.9047791096
 20
3.4081763699
 11
6.9047791096
 21
5.6581763699
  0
LINE
  5
245
100
AcDbEntity
  8
0
100
AcDbLine
 62
7
  6
CONTINUOUS
 10
6.9747791096
 20
1.4503328801
 11
6.9747791096
 21
7.6160198596
  0
LINE
  5
246
100
AcDbEntity
  8
0
100
AcDbLine
 62
7
  6
CONTINUOUS
 10
7.0167161193
 20
1.3909582185
 11
7.0167161193
 21
7.6753945212
  0
LINE
  5
247
100
AcDbEntity
  8
0
100
AcDbLine
 62
7
  6
CONTINUOUS
 10
7.0902967593
 20
1.3216246855
 11
7.0902967593
 21
7.7447280542
  0
LINE
  5
248
100
AcDbEntity
  8
0
100
AcDbLine
 62
7
  6
CONTINUOUS
 10
7.1483158492
 20
1.2831763699
 11
7.1483158492
 21
7.7831763699
  0
LINE
  5
249
100
AcDbEntity
  8
0
100
AcDbLine
 62
7
  6
CONTINUOUS
 10
7.2877791096
 20
7.7831763699
 11
7.2877791096
 21
1.2831763699
  0
LINE
  5
24A
100
AcDbEntity
  8
0
100
AcDbLine
 62
7
  6
CONTINUOUS
 10
7.2877791096
 20
7.7831763699
 11
7.1483158492
 21
7.7831763699
  0
ARC
  5
24B
100
AcDbEntity
  8
0
100
AcDbCircle
 62
7
  6
CONTINUOUS
 10
3.8537791096
 20
1.8131763699
 40
0.13
100
AcDbArc
 50
180.0
 51
270.0
  0
ARC
  5
24C
100
AcDbEntity
  8
0
100
AcDbCircle
 62
7
  6
CONTINUOUS
 10
4.2937791096
 20
1.8131763699
 40
0.13
100
AcDbArc
 50
270.0
 51
360.0
  0
ARC
  5
24D
100
AcDbEntity
  8
0
100
AcDbCircle
 62
7
  6
CONTINUOUS
 10
6.9747791096
 20
1.2727415873
 40
0.1254347826
100
AcDbArc
 50
22.9364108859
 51
70.4680059554
  0
ARC
  5
24E
100
AcDbEntity
  8
0
100
AcDbCircle
 62
7
  6
CONTINUOUS
 10
6.9747791096
 20
7.7936111525
 40
0.1254347826
100
AcDbArc
 50
289.5319940446
 51
337.0635891141
  0
ARC
  5
24F
100
AcDbEntity
  8
0
100
AcDbCircle
 62
7
  6
CONTINUOUS
 10
3.8537791096
 20
1.8131763699
 40
0.105
100
AcDbArc
 50
180.0
 51
270.0
  0
ARC
  5
250
100
AcDbEntity
  8
0
100
AcDbCircle
 62
7
  6
CONTINUOUS
 10
4.2937791096
 20
1.8131763699
 40
0.105
100
AcDbArc
 50
270.0
 51
360.0
  0
ARC
  5
251
100
AcDbEntity
  8
0
100
AcDbCircle
 62
7
  6
CONTINUOUS
 10
7.1483158492
 20
1.3461763699
 40
0.063
100
AcDbArc
 50
202.9364108859
 51
270.0
  0
ARC
  5
252
100
AcDbEntity
  8
0
100
AcDbCircle
 62
7
  6
CONTINUOUS
 10
7.1483158492
 20
7.7201763699
 40
0.063
100
AcDbArc
 50
90.0
 51
157.0635891141
  0
ARC
  5
253
100
AcDbEntity
  8
0
100
AcDbCircle
 62
7
  6
CONTINUOUS
 10
7.0377791096
 20
1.4503328801
 40
0.063
100
AcDbArc
 50
180.0
 51
250.4680059544
  0
ARC
  5
254
100
AcDbEntity
  8
0
100
AcDbCircle
 62
7
  6
CONTINUOUS
 10
7.0377791096
 20
7.6160198596
 40
0.063
100
AcDbArc
 50
109.5319940456
 51
180.0
  0
ARC
  5
255
100
AcDbEntity
  8
0
100
AcDbCircle
 62
7
  6
CONTINUOUS
 10
4.2937791096
 20
1.8131763699
 40
0.055
100
AcDbArc
 50
270.0
 51
360.0
  0
ARC
  5
256
100
AcDbEntity
  8
0
100
AcDbCircle
 62
7
  6
CONTINUOUS
 10
3.8537791096
 20
1.8131763699
 40
0.055
100
AcDbArc
 50
180.0
 51
270.0
  0
ARC
  5
257
100
AcDbEntity
  8
0
100
AcDbCircle
 62
7
  6
CONTINUOUS
 10
6.8247791096
 20
3.4381763699
 40
0.05
100
AcDbArc
 50
0.0
 51
90.0
  0
ARC
  5
258
100
AcDbEntity
  8
0
100
AcDbCircle
 62
7
  6
CONTINUOUS
 10
6.8247791096
 20
5.6281763699
 40
0.05
100
AcDbArc
 50
270.0
 51
360.0
  0
ARC
  5
259
100
AcDbEntity
  8
0
100
AcDbCircle
 62
7
  6
CONTINUOUS
 10
3.8537791096
 20
1.8131763699
 40
0.03
100
AcDbArc
 50
180.0
 51
270.0
  0
ARC
  5
25A
100
AcDbEntity
  8
0
100
AcDbCircle
 62
7
  6
CONTINUOUS
 10
4.2937791096
 20
1.8131763699
 40
0.03
100
AcDbArc
 50
270.0
 51
360.0
  0
ARC
  5
25B
100
AcDbEntity
  8
0
100
AcDbCircle
 62
7
  6
CONTINUOUS
 10
6.5847791096
 20
4.9906763699
 40
0.03
100
AcDbArc
 50
0.0
 51
90.0
  0
ARC
  5
25C
100
AcDbEntity
  8
0
100
AcDbCircle
 62
7
  6
CONTINUOUS
 10
6.5847791096
 20
4.0756763699
 40
0.03
100
AcDbArc
 50
270.0
 51
360.0
  0
ARC
  5
25D
100
AcDbEntity
  8
0
100
AcDbCircle
 62
7
  6
CONTINUOUS
 10
4.4847791096
 20
4.9906763699
 40
0.03
100
AcDbArc
 50
90.0
 51
180.0
  0
ARC
  5
25E
100
AcDbEntity
  8
0
100
AcDbCircle
 62
7
  6
CONTINUOUS
 10
4.4847791096
 20
4.0756763699
 40
0.03
100
AcDbArc
 50
180.0
 51
270.0
  0
ARC
  5
25F
100
AcDbEntity
  8
0
100
AcDbCircle
 62
7
  6
CONTINUOUS
 10
6.6547791096
 20
5.5481763699
 40
0.03
100
AcDbArc
 50
90.0
 51
180.0
  0
ARC
  5
260
100
AcDbEntity
  8
0
100
AcDbCircle
 62
7
  6
CONTINUOUS
 10
6.6547791096
 20
3.5181763699
 40
0.03
100
AcDbArc
 50
180.0
 51
270.0
  0
ARC
  5
261
100
AcDbEntity
  8
0
100
AcDbCircle
 62
7
  6
CONTINUOUS
 10
6.9047791096
 20
5.6281763699
 40
0.03
100
AcDbArc
 50
90.0
 51
180.0
  0
ARC
  5
262
100
AcDbEntity
  8
0
100
AcDbCircle
 62
7
  6
CONTINUOUS
 10
6.9047791096
 20
3.4381763699
 40
0.03
100
AcDbArc
 50
180.0
 51
270.0
  0
ARC
  5
263
100
AcDbEntity
  8
0
100
AcDbCircle
 62
7
  6
CONTINUOUS
 10
3.7487791096
 20
4.9956763699
 40
0.025
100
AcDbArc
 50
90.0
 51
180.0
  0
ARC
  5
264
100
AcDbEntity
  8
0
100
AcDbCircle
 62
7
  6
CONTINUOUS
 10
4.3987791096
 20
4.9956763699
 40
0.025
100
AcDbArc
 50
0.0
 51
90.0
  0
ARC
  5
265
100
AcDbEntity
  8
0
100
AcDbCircle
 62
7
  6
CONTINUOUS
 10
3.8537791096
 20
1.8131763699
 40
0.005
100
AcDbArc
 50
180.0
 51
270.0
  0
ARC
  5
266
100
AcDbEntity
  8
0
100
AcDbCircle
 62
7
  6
CONTINUOUS
 10
4.2937791096
 20
1.8131763699
 40
0.005
100
AcDbArc
 50
270.0
 51
360.0
  0
SPLINE
  5
267
100
AcDbEntity
  8
0
100
AcDbSpline
 62
7
  6
CONTINUOUS
 70
0
 71
3
 72
19
 73
15
 74
0
 42
0.0000001
 43
0.0000001
 44
0.0000000001
 40
0.0
 40
0.0
 40
0.0
 40
0.0
 40
0.1427765303
 40
0.2831801514
 40
0.4187833954
 40
0.5480132655
 40
0.609972486
 40
0.6700733004
 40
0.7283600294
 40
0.7849684778
 40
0.8401331737
 40
0.8941532794
 40
0.9473403888
 40
1.0
 40
1.0
 40
1.0
 40
1.0
 10
3.7987791096
 20
4.1748184507
 30
0.0
 10
3.8004085975
 20
4.1748184507
 30
0.0
 10
3.8036453409
 20
4.1750511379
 30
0.0
 10
3.8083292344
 20
4.1760852396
 30
0.0
 10
3.8126570059
 20
4.1777694135
 30
0.0
 10
3.8158786192
 20
4.1796912386
 30
0.0
 10
3.8181113391
 20
4.1814975668
 30
0.0
 10
3.8195781599
 20
4.1829467096
 30
0.0
 10
3.8208456507
 20
4.1844952868
 30
0.0
 10
3.8219006189
 20
4.1861295508
 30
0.0
 10
3.8227337769
 20
4.1878336424
 30
0.0
 10
3.8233343893
 20
4.1895921653
 30
0.0
 10
3.8236972583
 20
4.1913852898
 30
0.0
 10
3.8237791096
 20
4.1925947834
 30
0.0
 10
3.8237791096
 20
4.1931957799
 30
0.0
  0
SPLINE
  5
268
100
AcDbEntity
  8
0
100
AcDbSpline
 62
7
  6
CONTINUOUS
 70
0
 71
3
 72
19
 73
15
 74
0
 42
0.0000001
 43
0.0000001
 44
0.0000000001
 40
0.0
 40
0.0
 40
0.0
 40
0.0
 40
0.1288851419
 40
0.1932798181
 40
0.2574120302
 40
0.3846073688
 40
0.5103697
 40
0.5727248422
 40
0.634679817
 40
0.6962464984
 40
0.7574682076
 40
0.8184183907
 40
0.8791785458
 40
1.0
 40
1.0
 40
1.0
 40
1.0
 10
3.7987791096
 20
4.9895951637
 30
0.0
 10
3.800411242
 20
4.9895951647
 30
0.0
 10
3.8028665255
 20
4.9893683895
 30
0.0
 10
3.8060437368
 20
4.9886247121
 30
0.0
 10
3.8091185116
 20
4.9875950549
 30
0.0
 10
3.8127337183
 20
4.9857906166
 30
0.0
 10
3.8159243428
 20
4.9833454064
 30
0.0
 10
3.818130077
 20
4.9810670263
 30
0.0
 10
3.8195948795
 20
4.9792193506
 30
0.0
 10
3.8208593721
 20
4.9772462836
 30
0.0
 10
3.8219106733
 20
4.9751661252
 30
0.0
 10
3.8227401277
 20
4.9729983381
 30
0.0
 10
3.823534487
 20
4.9700277149
 30
0.0
 10
3.8237791096
 20
4.96771909
 30
0.0
 10
3.8237791096
 20
4.9661890717
 30
0.0
  0
SPLINE
  5
269
100
AcDbEntity
  8
0
100
AcDbSpline
 62
7
  6
CONTINUOUS
 70
0
 71
3
 72
30
 73
26
 74
0
 42
0.0000001
 43
0.0000001
 44
0.0000000001
 40
0.0
 40
0.0
 40
0.0
 40
0.0
 40
0.0162017812
 40
0.0320445058
 40
0.0477576381
 40
0.0635890201
 40
0.0797978244
 40
0.0966379931
 40
0.1330652185
 40
0.153069181
 40
0.1744404826
 40
0.1972856224
 40
0.2216799439
 40
0.2476737329
 40
0.27530051
 40
0.3045712533
 40
0.3354753401
 40
0.4020830762
 40
0.4747873513
 40
0.5530651631
 40
0.6362289259
 40
0.7234604241
 40
0.8138412368
 40
0.9063973605
 40
1.0
 40
1.0
 40
1.0
 40
1.0
 10
3.7987791096
 20
4.9895951637
 30
0.0
 10
3.7987792092
 20
4.9903331306
 30
0.0
 10
3.7988625689
 20
4.9917944423
 30
0.0
 10
3.7992559788
 20
4.9939396353
 30
0.0
 10
3.799919828
 20
4.9960000908
 30
0.0
 10
3.8008576414
 20
4.9979695897
 30
0.0
 10
3.8020710101
 20
4.999843588
 30
0.0
 10
3.804107744
 20
5.0022743985
 30
0.0
 10
3.806683692
 20
5.0044398325
 30
0.0
 10
3.8096716534
 20
5.0063483762
 30
0.0
 10
3.8122550016
 20
5.0077272179
 30
0.0
 10
3.8151079069
 20
5.0090076107
 30
0.0
 10
3.8182278813
 20
5.0101924116
 30
0.0
 10
3.8216108888
 20
5.0112840288
 30
0.0
 10
3.8252526424
 20
5.0122843114
 30
0.0
 10
3.8291473799
 20
5.0131962069
 30
0.0
 10
3.8348110794
 20
5.0143276342
 30
0.0
 10
3.8424762999
 20
5.0155154268
 30
0.0
 10
3.8523273346
 20
5.0166205197
 30
0.0
 10
3.8629596069
 20
5.017472847
 30
0.0
 10
3.8742691761
 20
5.0181091936
 30
0.0
 10
3.8861389571
 20
5.0185628022
 30
0.0
 10
3.8984413426
 20
5.0188637744
 30
0.0
 10
3.9110363466
 20
5.0190344804
 30
0.0
 10
3.9195156494
 20
5.0190712354
 30
0.0
 10
3.9237791096
 20
5.0190712805
 30
0.0
  0
SPLINE
  5
26A
100
AcDbEntity
  8
0
100
AcDbSpline
 62
7
  6
CONTINUOUS
 70
0
 71
3
 72
30
 73
26
 74
0
 42
0.0000001
 43
0.0000001
 44
0.0000000001
 40
0.0
 40
0.0
 40
0.0
 40
0.0
 40
0.0936034923
 40
0.1861606879
 40
0.2765413586
 40
0.3637721703
 40
0.4469354128
 40
0.525213057
 40
0.5979179723
 40
0.6645274602
 40
0.6954325564
 40
0.7247040504
 40
0.7523310755
 40
0.7783243893
 40
0.8027177949
 40
0.8255618834
 40
0.8469321038
 40
0.8669351403
 40
0.903361604
 40
0.9202017935
 40
0.9364107241
 40
0.9522422364
 40
0.9679555094
 40
0.9837983088
 40
1.0
 40
1.0
 40
1.0
 40
1.0
 10
4.2237791096
 20
5.0190712805
 30
0.0
 10
4.2280426026
 20
5.0190712488
 30
0.0
 10
4.2365219812
 20
5.0190345284
 30
0.0
 10
4.2491170487
 20
5.0188638186
 30
0.0
 10
4.2614194272
 20
5.0185628145
 30
0.0
 10
4.2732891288
 20
5.0181091792
 30
0.0
 10
4.2845986176
 20
5.0174728034
 30
0.0
 10
4.2952308711
 20
5.0166204581
 30
0.0
 10
4.3050819919
 20
5.0155153554
 30
0.0
 10
4.3127473636
 20
5.0143276049
 30
0.0
 10
4.3184112245
 20
5.0131962098
 30
0.0
 10
4.3223060543
 20
5.0122843324
 30
0.0
 10
4.3259478336
 20
5.0112840712
 30
0.0
 10
4.3293307768
 20
5.0101924377
 30
0.0
 10
4.3324506165
 20
5.0090076078
 30
0.0
 10
4.3353033599
 20
5.0077272036
 30
0.0
 10
4.3378865326
 20
5.0063483362
 30
0.0
 10
4.3408742994
 20
5.0044397311
 30
0.0
 10
4.343450129
 20
5.0022742964
 30
0.0
 10
4.3454868468
 20
4.9998435169
 30
0.0
 10
4.3467002538
 20
4.9979695343
 30
0.0
 10
4.3476381425
 20
4.9960000554
 30
0.0
 10
4.3483020675
 20
4.9939396109
 30
0.0
 10
4.3486955609
 20
4.9917944309
 30
0.0
 10
4.3487789803
 20
4.9903331255
 30
0.0
 10
4.3487791096
 20
4.9895951637
 30
0.0
  0
SPLINE
  5
26B
100
AcDbEntity
  8
0
100
AcDbSpline
 62
7
  6
CONTINUOUS
 70
0
 71
3
 72
19
 73
15
 74
0
 42
0.0000001
 43
0.0000001
 44
0.0000000001
 40
0.0
 40
0.0
 40
0.0
 40
0.0
 40
0.1288851619
 40
0.193279851
 40
0.2574120771
 40
0.384607443
 40
0.5103697941
 40
0.5727249411
 40
0.6346799165
 40
0.6962465939
 40
0.7574682942
 40
0.8184184632
 40
0.8791785991
 40
1.0
 40
1.0
 40
1.0
 40
1.0
 10
4.3487791096
 20
4.9895951637
 30
0.0
 10
4.3471469771
 20
4.9895951637
 30
0.0
 10
4.3446916936
 20
4.9893683873
 30
0.0
 10
4.3415144823
 20
4.9886247085
 30
0.0
 10
4.3384397076
 20
4.9875950503
 30
0.0
 10
4.334824501
 20
4.985790611
 30
0.0
 10
4.3316338765
 20
4.9833454006
 30
0.0
 10
4.3294281422
 20
4.9810670205
 30
0.0
 10
4.3279633397
 20
4.9792193451
 30
0.0
 10
4.3266988471
 20
4.9772462786
 30
0.0
 10
4.325647546
 20
4.9751661209
 30
0.0
 10
4.3248180915
 20
4.9729983346
 30
0.0
 10
4.3240237322
 20
4.9700277129
 30
0.0
 10
4.3237791096
 20
4.9677190891
 30
0.0
 10
4.3237791096
 20
4.9661890718
 30
0.0
  0
SPLINE
  5
26C
100
AcDbEntity
  8
0
100
AcDbSpline
 62
7
  6
CONTINUOUS
 70
0
 71
3
 72
19
 73
15
 74
0
 42
0.0000001
 43
0.0000001
 44
0.0000000001
 40
0.0
 40
0.0
 40
0.0
 40
0.0
 40
0.1427765303
 40
0.2831801514
 40
0.4187833954
 40
0.5480132655
 40
0.609972486
 40
0.6700733004
 40
0.7283600294
 40
0.7849684778
 40
0.8401331737
 40
0.8941532794
 40
0.9473403888
 40
1.0
 40
1.0
 40
1.0
 40
1.0
 10
4.3987791096
 20
4.1748184507
 30
0.0
 10
4.4004085975
 20
4.1748184507
 30
0.0
 10
4.4036453409
 20
4.1750511379
 30
0.0
 10
4.4083292344
 20
4.1760852396
 30
0.0
 10
4.4126570059
 20
4.1777694135
 30
0.0
 10
4.4158786192
 20
4.1796912386
 30
0.0
 10
4.4181113391
 20
4.1814975668
 30
0.0
 10
4.4195781599
 20
4.1829467096
 30
0.0
 10
4.4208456507
 20
4.1844952868
 30
0.0
 10
4.4219006189
 20
4.1861295508
 30
0.0
 10
4.4227337769
 20
4.1878336424
 30
0.0
 10
4.4233343893
 20
4.1895921653
 30
0.0
 10
4.4236972583
 20
4.1913852898
 30
0.0
 10
4.4237791096
 20
4.1925947834
 30
0.0
 10
4.4237791096
 20
4.1931957799
 30
0.0
  0
SPLINE
  5
26D
100
AcDbEntity
  8
0
100
AcDbSpline
 62
7
  6
CONTINUOUS
 70
0
 71
3
 72
26
 73
22
 74
0
 42
0.0000001
 43
0.0000001
 44
0.0000000001
 40
0.0
 40
0.0
 40
0.0
 40
0.0
 40
0.0171126455
 40
0.0340780724
 40
0.051122892
 40
0.0684791176
 40
0.0863758371
 40
0.1050282649
 40
0.1452842669
 40
0.1672208007
 40
0.190481164
 40
0.2411785821
 40
0.2976403833
 40
0.3597716628
 40
0.4272710554
 40
0.4996538026
 40
0.5763353769
 40
0.6566475099
 40
0.7398924187
 40
0.825377725
 40
1.0
 40
1.0
 40
1.0
 40
1.0
 10
4.2987791096
 20
4.8893417316
 30
0.0
 10
4.2987790059
 20
4.8898181306
 30
0.0
 10
4.2987224175
 20
4.8907679272
 30
0.0
 10
4.2984611266
 20
4.8921706102
 30
0.0
 10
4.2980228531
 20
4.8935358178
 30
0.0
 10
4.2974066899
 20
4.8948589746
 30
0.0
 10
4.2966120878
 20
4.8961361144
 30
0.0
 10
4.2952843525
 20
4.8978168192
 30
0.0
 10
4.2936190577
 20
4.8993536364
 30
0.0
 10
4.2916896143
 20
4.9007470558
 30
0.0
 10
4.2894163427
 20
4.9021510529
 30
0.0
 10
4.2861488836
 20
4.9037535302
 30
0.0
 10
4.2817303573
 20
4.9054081166
 30
0.0
 10
4.2767515119
 20
4.906854245
 30
0.0
 10
4.2712638101
 20
4.908096186
 30
0.0
 10
4.2653248745
 20
4.9091446392
 30
0.0
 10
4.2589966013
 20
4.9100083771
 30
0.0
 10
4.2523432705
 20
4.9106979387
 30
0.0
 10
4.2454293035
 20
4.9112231699
 30
0.0
 10
4.2358828824
 20
4.9117172387
 30
0.0
 10
4.2286404198
 20
4.9118580964
 30
0.0
 10
4.2237791096
 20
4.9118581732
 30
0.0
  0
SPLINE
  5
26E
100
AcDbEntity
  8
0
100
AcDbSpline
 62
7
  6
CONTINUOUS
 70
0
 71
3
 72
26
 73
22
 74
0
 42
0.0000001
 43
0.0000001
 44
0.0000000001
 40
0.0
 40
0.0
 40
0.0
 40
0.0
 40
0.1746221763
 40
0.2601072187
 40
0.343351655
 40
0.4236630503
 40
0.5003439955
 40
0.5727267595
 40
0.6402269988
 40
0.7023598768
 40
0.7588230439
 40
0.8095205747
 40
0.8327806074
 40
0.8547166329
 40
0.8949715867
 40
0.9136237344
 40
0.9315204243
 40
0.9488768245
 40
0.96592182
 40
0.9828873227
 40
1.0
 40
1.0
 40
1.0
 40
1.0
 10
3.9237791096
 20
4.9118581732
 30
0.0
 10
3.9189178011
 20
4.91185809
 30
0.0
 10
3.9116753465
 20
4.9117172683
 30
0.0
 10
3.9021289466
 20
4.9112231923
 30
0.0
 10
3.8952150209
 20
4.9106979372
 30
0.0
 10
3.8885617433
 20
4.9100083452
 30
0.0
 10
3.8822335105
 20
4.9091445809
 30
0.0
 10
3.8762945668
 20
4.9080961314
 30
0.0
 10
3.8708067891
 20
4.9068542128
 30
0.0
 10
3.86582782
 20
4.9054081298
 30
0.0
 10
3.8614091798
 20
4.9037535977
 30
0.0
 10
3.8581416841
 20
4.9021511139
 30
0.0
 10
3.8558684436
 20
4.900747103
 30
0.0
 10
3.8539390719
 20
4.8993536717
 30
0.0
 10
3.8522738683
 20
4.8978168305
 30
0.0
 10
3.8509462004
 20
4.8961361211
 30
0.0
 10
3.8501516165
 20
4.8948589757
 30
0.0
 10
3.8495354255
 20
4.8935358236
 30
0.0
 10
3.8490970998
 20
4.89217062
 30
0.0
 10
3.8488357719
 20
4.8907679343
 30
0.0
 10
3.8487791939
 20
4.8898181316
 30
0.0
 10
3.8487791096
 20
4.8893417316
 30
0.0
  0
SPLINE
  5
26F
100
AcDbEntity
  8
0
100
AcDbSpline
 62
7
  6
CONTINUOUS
 70
0
 71
3
 72
19
 73
15
 74
0
 42
0.0000001
 43
0.0000001
 44
0.0000000001
 40
0.0
 40
0.0
 40
0.0
 40
0.0
 40
0.0526596112
 40
0.1058467206
 40
0.1598668263
 40
0.2150315222
 40
0.2716399706
 40
0.3299266996
 40
0.390027514
 40
0.4519867345
 40
0.5812166046
 40
0.7168198486
 40
0.8572234697
 40
1.0
 40
1.0
 40
1.0
 40
1.0
 10
3.8237791096
 20
4.2299504383
 30
0.0
 10
3.8237791096
 20
4.2305514348
 30
0.0
 10
3.8238609609
 20
4.2317609284
 30
0.0
 10
3.8242238299
 20
4.2335540528
 30
0.0
 10
3.8248244423
 20
4.2353125757
 30
0.0
 10
3.8256576003
 20
4.2370166674
 30
0.0
 10
3.8267125684
 20
4.2386509313
 30
0.0
 10
3.8279800593
 20
4.2401995086
 30
0.0
 10
3.82944688
 20
4.2416486513
 30
0.0
 10
3.8316796
 20
4.2434549795
 30
0.0
 10
3.8349012132
 20
4.2453768046
 30
0.0
 10
3.8392289847
 20
4.2470609785
 30
0.0
 10
3.8439128783
 20
4.2480950802
 30
0.0
 10
3.8471496217
 20
4.2483277674
 30
0.0
 10
3.8487791096
 20
4.2483277674
 30
0.0
  0
SPLINE
  5
270
100
AcDbEntity
  8
0
100
AcDbSpline
 62
7
  6
CONTINUOUS
 70
0
 71
3
 72
19
 73
15
 74
0
 42
0.0000001
 43
0.0000001
 44
0.0000000001
 40
0.0
 40
0.0
 40
0.0
 40
0.0
 40
0.1427765303
 40
0.2831801514
 40
0.4187833954
 40
0.5480132655
 40
0.609972486
 40
0.6700733004
 40
0.7283600294
 40
0.7849684778
 40
0.8401331737
 40
0.8941532794
 40
0.9473403888
 40
1.0
 40
1.0
 40
1.0
 40
1.0
 10
4.3487791096
 20
4.1748184507
 30
0.0
 10
4.3471496217
 20
4.1748184507
 30
0.0
 10
4.3439128783
 20
4.1750511379
 30
0.0
 10
4.3392289847
 20
4.1760852396
 30
0.0
 10
4.3349012132
 20
4.1777694135
 30
0.0
 10
4.3316796
 20
4.1796912386
 30
0.0
 10
4.32944688
 20
4.1814975668
 30
0.0
 10
4.3279800593
 20
4.1829467096
 30
0.0
 10
4.3267125684
 20
4.1844952868
 30
0.0
 10
4.3256576003
 20
4.1861295508
 30
0.0
 10
4.3248244423
 20
4.1878336424
 30
0.0
 10
4.3242238299
 20
4.1895921653
 30
0.0
 10
4.3238609609
 20
4.1913852898
 30
0.0
 10
4.3237791096
 20
4.1925947834
 30
0.0
 10
4.3237791096
 20
4.1931957799
 30
0.0
  0
SPLINE
  5
271
100
AcDbEntity
  8
0
100
AcDbSpline
 62
7
  6
CONTINUOUS
 70
0
 71
3
 72
29
 73
25
 74
0
 42
0.0000001
 43
0.0000001
 44
0.0000000001
 40
0.0
 40
0.0
 40
0.0
 40
0.0
 40
0.0897495792
 40
0.17865734
 40
0.2657232962
 40
0.3501021257
 40
0.4309779392
 40
0.50756412
 40
0.5791772623
 40
0.645256725
 40
0.705433739
 40
0.7332616068
 40
0.7595946117
 40
0.8079172391
 40
0.8300912053
 40
0.8510890853
 40
0.8710643796
 40
0.8902045448
 40
0.9087246941
 40
0.926855829
 40
0.9448360511
 40
0.9628897573
 40
0.9812186731
 40
1.0
 40
1.0
 40
1.0
 40
1.0
 10
4.2237791096
 20
4.9941535927
 30
0.0
 10
4.2271271687
 20
4.9941535665
 30
0.0
 10
4.2337919397
 20
4.9941202741
 30
0.0
 10
4.2437035694
 20
4.9939634957
 30
0.0
 10
4.2534122956
 20
4.9936881944
 30
0.0
 10
4.2628162402
 20
4.9932712282
 30
0.0
 10
4.2718197817
 20
4.9926852628
 30
0.0
 10
4.28033014
 20
4.9918958682
 30
0.0
 10
4.2882597131
 20
4.9908673919
 30
0.0
 10
4.2955282282
 20
4.989561572
 30
0.0
 10
4.3011143327
 20
4.9881809504
 30
0.0
 10
4.3051791548
 20
4.9868826584
 30
0.0
 10
4.3087587392
 20
4.9855381458
 30
0.0
 10
4.3120341508
 20
4.9839848942
 30
0.0
 10
4.3149319623
 20
4.9821752077
 30
0.0
 10
4.316820076
 20
4.9807612548
 30
0.0
 10
4.3184825908
 20
4.9792508176
 30
0.0
 10
4.3199178419
 20
4.9776443291
 30
0.0
 10
4.3211262833
 20
4.9759442905
 30
0.0
 10
4.3221083353
 20
4.9741530855
 30
0.0
 10
4.3228641867
 20
4.9722740892
 30
0.0
 10
4.3233973812
 20
4.9703128063
 30
0.0
 10
4.323712425
 20
4.9682752521
 30
0.0
 10
4.3237790555
 20
4.9668896989
 30
0.0
 10
4.3237791096
 20
4.9661890718
 30
0.0
  0
SPLINE
  5
272
100
AcDbEntity
  8
0
100
AcDbSpline
 62
7
  6
CONTINUOUS
 70
0
 71
3
 72
30
 73
26
 74
0
 42
0.0000001
 43
0.0000001
 44
0.0000000001
 40
0.0
 40
0.0
 40
0.0
 40
0.0
 40
0.0139712703
 40
0.0279184111
 40
0.0421356725
 40
0.0569072482
 40
0.0724938998
 40
0.0891207618
 40
0.1069713421
 40
0.1261911276
 40
0.1468855971
 40
0.1691268022
 40
0.19296483
 40
0.2184295912
 40
0.2455251605
 40
0.2742417366
 40
0.3364407105
 40
0.4047099805
 40
0.4785802136
 40
0.5574474034
 40
0.6406167108
 40
0.7272997809
 40
0.8166813892
 40
0.9079159123
 40
1.0
 40
1.0
 40
1.0
 40
1.0
 10
4.3237791096
 20
4.9123201421
 30
0.0
 10
4.3237790577
 20
4.912823609
 30
0.0
 10
4.323704434
 20
4.9138314607
 30
0.0
 10
4.3233600758
 20
4.915316177
 30
0.0
 10
4.322783873
 20
4.9167583698
 30
0.0
 10
4.3219762796
 20
4.9181528851
 30
0.0
 10
4.3209387843
 20
4.9194964986
 30
0.0
 10
4.3196743072
 20
4.9207883291
 30
0.0
 10
4.3181846384
 20
4.9220278687
 30
0.0
 10
4.3164713369
 20
4.9232141792
 30
0.0
 10
4.3145370469
 20
4.9243471024
 30
0.0
 10
4.3123849269
 20
4.9254266291
 30
0.0
 10
4.3100182682
 20
4.9264522029
 30
0.0
 10
4.3074410721
 20
4.9274231037
 30
0.0
 10
4.3046585666
 20
4.9283398661
 30
0.0
 10
4.3005726168
 20
4.9295216558
 30
0.0
 10
4.2949867173
 20
4.9308423564
 30
0.0
 10
4.2877435245
 20
4.9321800097
 30
0.0
 10
4.2798588843
 20
4.9333149271
 30
0.0
 10
4.2714088514
 20
4.9342559909
 30
0.0
 10
4.2624769961
 20
4.9350110993
 30
0.0
 10
4.2531524413
 20
4.9355882964
 30
0.0
 10
4.243528087
 20
4.9359943481
 30
0.0
 10
4.233703616
 20
4.936235816
 30
0.0
 10
4.2270974405
 20
4.9362892255
 30
0.0
 10
4.2237791096
 20
4.9362892573
 30
0.0
  0
SPLINE
  5
273
100
AcDbEntity
  8
0
100
AcDbSpline
 62
7
  6
CONTINUOUS
 70
0
 71
3
 72
29
 73
25
 74
0
 42
0.0000001
 43
0.0000001
 44
0.0000000001
 40
0.0
 40
0.0
 40
0.0
 40
0.0
 40
0.018781725
 40
0.0371109675
 40
0.0551650279
 40
0.0731456827
 40
0.0912772693
 40
0.1097977981
 40
0.1289382082
 40
0.1489135802
 40
0.1699114189
 40
0.1920852405
 40
0.2404073037
 40
0.2667400728
 40
0.2945677788
 40
0.3547446915
 40
0.4208241514
 40
0.4924372299
 40
0.5690233068
 40
0.6498989666
 40
0.734277563
 40
0.8213431978
 40
0.9102506164
 40
1.0
 40
1.0
 40
1.0
 40
1.0
 10
3.8237791096
 20
4.9661890718
 30
0.0
 10
3.8237791511
 20
4.9668897149
 30
0.0
 10
3.8238457678
 20
4.9682752989
 30
0.0
 10
3.824160816
 20
4.9703128973
 30
0.0
 10
3.8246940261
 20
4.9722742225
 30
0.0
 10
3.8254498846
 20
4.9741532687
 30
0.0
 10
3.8264319345
 20
4.975944532
 30
0.0
 10
3.8276403707
 20
4.9776446279
 30
0.0
 10
3.8290756125
 20
4.9792511649
 30
0.0
 10
3.8307381173
 20
4.9807616355
 30
0.0
 10
3.8326262362
 20
4.9821755833
 30
0.0
 10
3.8355240557
 20
4.9839852167
 30
0.0
 10
3.8387994925
 20
4.9855383552
 30
0.0
 10
3.8423791032
 20
4.9868827132
 30
0.0
 10
3.8464439534
 20
4.9881808756
 30
0.0
 10
3.8520300534
 20
4.9895614939
 30
0.0
 10
3.8592985619
 20
4.9908673941
 30
0.0
 10
3.8672281463
 20
4.9918958444
 30
0.0
 10
3.8757385008
 20
4.9926852855
 30
0.0
 10
3.8847420269
 20
4.9932714419
 30
0.0
 10
3.8941459615
 20
4.9936884308
 30
0.0
 10
3.9038546745
 20
4.9939635989
 30
0.0
 10
3.9137662901
 20
4.9941202815
 30
0.0
 10
3.9204310521
 20
4.9941535613
 30
0.0
 10
3.9237791096
 20
4.9941535927
 30
0.0
  0
SPLINE
  5
274
100
AcDbEntity
  8
0
100
AcDbSpline
 62
7
  6
CONTINUOUS
 70
0
 71
3
 72
30
 73
26
 74
0
 42
0.0000001
 43
0.0000001
 44
0.0000000001
 40
0.0
 40
0.0
 40
0.0
 40
0.0
 40
0.0920841149
 40
0.1833186904
 40
0.272700248
 40
0.3593832081
 40
0.442552402
 40
0.5214194892
 40
0.5952896599
 40
0.6635590273
 40
0.7257580719
 40
0.7544745538
 40
0.7815699601
 40
0.8070345405
 40
0.8308724563
 40
0.8531136484
 40
0.8738081918
 40
0.893028113
 40
0.9108788743
 40
0.927505972
 40
0.943092909
 40
0.9578647839
 40
0.9720822236
 40
0.9860292535
 40
1.0
 40
1.0
 40
1.0
 40
1.0
 10
3.9237791096
 20
4.9362892573
 30
0.0
 10
3.9204607768
 20
4.9362892233
 30
0.0
 10
3.9138545967
 20
4.9362358268
 30
0.0
 10
3.9040301212
 20
4.9359943796
 30
0.0
 10
3.8944057684
 20
4.9355883184
 30
0.0
 10
3.8850812223
 20
4.9350110963
 30
0.0
 10
3.8761493783
 20
4.9342559694
 30
0.0
 10
3.8676993474
 20
4.9333149641
 30
0.0
 10
3.8598147016
 20
4.9321800728
 30
0.0
 10
3.8525715348
 20
4.9308422357
 30
0.0
 10
3.846985652
 20
4.9295214657
 30
0.0
 10
3.8428996788
 20
4.9283397802
 30
0.0
 10
3.8401171561
 20
4.9274231183
 30
0.0
 10
3.8375399422
 20
4.9264523081
 30
0.0
 10
3.8351732751
 20
4.9254267777
 30
0.0
 10
3.8330211526
 20
4.9243472575
 30
0.0
 10
3.8310868645
 20
4.9232143148
 30
0.0
 10
3.8293735683
 20
4.9220279704
 30
0.0
 10
3.8278839064
 20
4.9207883903
 30
0.0
 10
3.8266194353
 20
4.9194965178
 30
0.0
 10
3.8255819415
 20
4.9181528658
 30
0.0
 10
3.8247743411
 20
4.916758323
 30
0.0
 10
3.8241981276
 20
4.9153161203
 30
0.0
 10
3.8238537651
 20
4.9138314211
 30
0.0
 10
3.8237791502
 20
4.9128235903
 30
0.0
 10
3.8237791096
 20
4.9123201421
 30
0.0
  0
SPLINE
  5
275
100
AcDbEntity
  8
0
100
AcDbSpline
 62
7
  6
CONTINUOUS
 70
0
 71
3
 72
19
 73
15
 74
0
 42
0.0000001
 43
0.0000001
 44
0.0000000001
 40
0.0
 40
0.0
 40
0.0
 40
0.0
 40
0.1427765303
 40
0.2831801514
 40
0.4187833954
 40
0.5480132655
 40
0.609972486
 40
0.6700733004
 40
0.7283600294
 40
0.7849684778
 40
0.8401331737
 40
0.8941532794
 40
0.9473403888
 40
1.0
 40
1.0
 40
1.0
 40
1.0
 10
3.7487791096
 20
4.1748184507
 30
0.0
 10
3.7471496217
 20
4.1748184507
 30
0.0
 10
3.7439128783
 20
4.1750511379
 30
0.0
 10
3.7392289847
 20
4.1760852396
 30
0.0
 10
3.7349012132
 20
4.1777694135
 30
0.0
 10
3.7316796
 20
4.1796912386
 30
0.0
 10
3.72944688
 20
4.1814975668
 30
0.0
 10
3.7279800593
 20
4.1829467096
 30
0.0
 10
3.7267125684
 20
4.1844952868
 30
0.0
 10
3.7256576003
 20
4.1861295508
 30
0.0
 10
3.7248244423
 20
4.1878336424
 30
0.0
 10
3.7242238299
 20
4.1895921653
 30
0.0
 10
3.7238609609
 20
4.1913852898
 30
0.0
 10
3.7237791096
 20
4.1925947834
 30
0.0
 10
3.7237791096
 20
4.1931957799
 30
0.0
  0
SPLINE
  5
276
100
AcDbEntity
  8
0
100
AcDbSpline
 62
7
  6
CONTINUOUS
 70
0
 71
3
 72
19
 73
15
 74
0
 42
0.0000001
 43
0.0000001
 44
0.0000000001
 40
0.0
 40
0.0
 40
0.0
 40
0.0
 40
0.0526596112
 40
0.1058467206
 40
0.1598668263
 40
0.2150315222
 40
0.2716399706
 40
0.3299266996
 40
0.390027514
 40
0.4519867345
 40
0.5812166046
 40
0.7168198486
 40
0.8572234697
 40
1.0
 40
1.0
 40
1.0
 40
1.0
 10
4.3237791096
 20
4.2299504383
 30
0.0
 10
4.3237791096
 20
4.2305514348
 30
0.0
 10
4.3236972583
 20
4.2317609284
 30
0.0
 10
4.3233343893
 20
4.2335540528
 30
0.0
 10
4.3227337769
 20
4.2353125757
 30
0.0
 10
4.3219006189
 20
4.2370166674
 30
0.0
 10
4.3208456507
 20
4.2386509313
 30
0.0
 10
4.3195781599
 20
4.2401995086
 30
0.0
 10
4.3181113391
 20
4.2416486513
 30
0.0
 10
4.3158786192
 20
4.2434549795
 30
0.0
 10
4.3126570059
 20
4.2453768046
 30
0.0
 10
4.3083292344
 20
4.2470609785
 30
0.0
 10
4.3036453409
 20
4.2480950802
 30
0.0
 10
4.3004085975
 20
4.2483277674
 30
0.0
 10
4.2987791096
 20
4.2483277674
 30
0.0
  0
SPLINE
  5
277
100
AcDbEntity
  8
0
100
AcDbSpline
 62
7
  6
CONTINUOUS
 70
0
 71
3
 72
17
 73
13
 74
0
 42
0.0000001
 43
0.0000001
 44
0.0000000001
 40
0.0
 40
0.0
 40
0.0
 40
0.0
 40
0.1197090107
 40
0.1799727125
 40
0.2404937773
 40
0.3013706047
 40
0.3626902762
 40
0.4866794813
 40
0.6127217507
 40
0.7405993078
 40
0.8699709703
 40
1.0
 40
1.0
 40
1.0
 40
1.0
 10
4.3237791096
 20
4.9123201421
 30
0.0
 10
4.3237791096
 20
4.9108177764
 30
0.0
 10
4.3235341126
 20
4.9085497989
 30
0.0
 10
4.322739719
 20
4.9056340836
 30
0.0
 10
4.3219100349
 20
4.903505683
 30
0.0
 10
4.320858339
 20
4.901463275
 30
0.0
 10
4.3191668203
 20
4.8988723566
 30
0.0
 10
4.3165416316
 20
4.8959399194
 30
0.0
 10
4.3127273279
 20
4.893073458
 30
0.0
 10
4.3083820289
 20
4.8909444089
 30
0.0
 10
4.3036740872
 20
4.8896367102
 30
0.0
 10
4.300410993
 20
4.8893417364
 30
0.0
 10
4.2987791096
 20
4.8893417316
 30
0.0
  0
SPLINE
  5
278
100
AcDbEntity
  8
0
100
AcDbSpline
 62
7
  6
CONTINUOUS
 70
0
 71
3
 72
17
 73
13
 74
0
 42
0.0000001
 43
0.0000001
 44
0.0000000001
 40
0.0
 40
0.0
 40
0.0
 40
0.0
 40
0.1197092761
 40
0.179973074
 40
0.2404942102
 40
0.3013710836
 40
0.3626907756
 40
0.4866799521
 40
0.6127221224
 40
0.7405995436
 40
0.8699710706
 40
1.0
 40
1.0
 40
1.0
 40
1.0
 10
3.8237791096
 20
4.9123201421
 30
0.0
 10
3.8237791096
 20
4.9108177723
 30
0.0
 10
3.8240241063
 20
4.908549789
 30
0.0
 10
3.8248185
 20
4.9056340663
 30
0.0
 10
3.8256481841
 20
4.9035056616
 30
0.0
 10
3.8266998799
 20
4.9014632502
 30
0.0
 10
3.8283913983
 20
4.898872329
 30
0.0
 10
3.8310165866
 20
4.8959398902
 30
0.0
 10
3.8348308907
 20
4.8930734302
 30
0.0
 10
3.8391761903
 20
4.8909443866
 30
0.0
 10
3.8438841327
 20
4.889636697
 30
0.0
 10
3.8471472266
 20
4.8893417316
 30
0.0
 10
3.8487791096
 20
4.8893417316
 30
0.0
  0
ENDSEC
  0
SECTION
  2
OBJECTS
  0
DICTIONARY
  5
C
100
AcDbDictionary
280
0
281
1
  3
ACAD_GROUP
350
D
  3
ACAD_MLINESTYLE
350
17
  3
ACAD_LAYOUT
350
1A
  3
ACAD_PLOTSETTINGS
350
19
  3
ACAD_PLOTSTYLENAME
350
E
  0
DICTIONARY
  5
D
102
{ACAD_REACTORS
330
C
102
}
100
AcDbDictionary
280
0
281
1
  0
ACDBDICTIONARYWDFLT
  5
E
102
{ACAD_REACTORS
330
C
102
}
100
AcDbDictionary
281
1
  3
Normal
350
F
100
AcDbDictionaryWithDefault
340
F
  0
DICTIONARY
  5
17
102
{ACAD_REACTORS
330
C
102
}
100
AcDbDictionary
280
0
281
1
  3
Standard
350
18
  0
DICTIONARY
  5
19
102
{ACAD_REACTORS
330
C
102
}
100
AcDbDictionary
281
1
  0
DICTIONARY
  5
1A
102
{ACAD_REACTORS
330
C
102
}
100
AcDbDictionary
281
1
  3
Model
350
279
  3
Layout1
350
27A
  0
ACDBPLACEHOLDER
  5
F
102
{ACAD_REACTORS
330
E
102
}
  0
MLINESTYLE
  5
18
102
{ACAD_REACTORS
330
17
102
}
100
AcDbMlineStyle
  2
STANDARD
 70
0
  3

 62
256
 51
90.0
 52
90.0
 71
2
 49
0.5
 62
256
  6
BYLAYER
 49
-0.5
 62
256
  6
BYLAYER
  0
LAYOUT
  5
279
102
{ACAD_REACTORS
330
1A
102
}
100
AcDbPlotSettings
  1

  2
none_device
  4
ANSI_A_(11.00_x_8.50_Inches)
  6

 40
0.0
 41
0.0
 42
0.0
 43
0.0
 44
279.4
 45
215.9
 46
0.0
 47
0.0
 48
0.0
 49
0.0
140
0.0
141
0.0
142
1.0
143
1.0
 70
1024
 72
0
 73
0
 74
0
  7

 75
0
147
1.0
148
0.0
149
0.0
100
AcDbLayout
  1
Model
 70
0
 71
0
 10
0.0
 20
0.0
 11
11.0
 21
8.5
 12
0.0
 22
0.0
 32
0.0
 14
0.0
 24
0.0
 34
0.0
 15
0.0
 25
0.0
 35
0.0
146
0.0
 13
0.0
 23
0.0
 33
0.0
 16
1.0
 26
0.0
 36
0.0
 17
0.0
 27
1.0
 37
0.0
 76
0
330
203
345
0
346
0
  0
LAYOUT
  5
27A
102
{ACAD_REACTORS
330
1A
102
}
100
AcDbPlotSettings
  1

  2
none_device
  4
ANSI_A_(11.00_x_8.50_Inches)
  6

 40
0.0
 41
0.0
 42
0.0
 43
0.0
 44
279.4
 45
215.9
 46
0.0
 47
0.0
 48
0.0
 49
0.0
140
0.0
141
0.0
142
1.0
143
1.0
 70
0
 72
0
 73
0
 74
0
  7

 75
0
147
1.0
148
0.0
149
0.0
100
AcDbLayout
  1
Layout1
 70
0
 71
1
 10
0.0
 20
0.0
 11
11.0
 21
8.5
 12
0.0
 22
0.0
 32
0.0
 14
0.0
 24
0.0
 34
0.0
 15
0.0
 25
0.0
 35
0.0
146
0.0
 13
0.0
 23
0.0
 33
0.0
 16
1.0
 26
0.0
 36
0.0
 17
0.0
 27
1.0
 37
0.0
 76
0
330
204
345
0
346
0
  0
ENDSEC
  0
EOF
