999
DXF file: 4-3274bp_top.dxf
999
Pro/ENGINEER 2023134 by Parametric Technology Corporation
  0
SECTION
  2
HEADER
  9
$ACADVER
  1
AC1032
  9
$DWGCODEPAGE
  3
ANSI_1252
  9
$EXTMAX
 10
11.0
 20
8.5
 30
0.0
  9
$EXTMIN
 10
0.0
 20
0.0
 30
0.0
  9
$LIMMIN
 10
0.0
 20
0.0
  9
$LIMMAX
 10
11.0
 20
8.5
  9
$VIEWCTR
 10
5.5
 20
4.25
  9
$VIEWSIZE
 40
8.5
  9
$CLAYER
  8
0
  9
$LTSCALE
 40
0.605
  9
$CELTYPE
  6
BYLAYER
  9
$DIMSCALE
 40
1.0
  9
$DIMASZ
 40
0.1
  9
$DIMEXO
 40
0.0625
  9
$DIMDLI
 40
0.418
  9
$DIMEXE
 40
0.125
  9
$DIMCEN
 40
0.099
  9
$DIMLFAC
 40
1.0
  9
$DIMBLK
  1
_FILLED
  9
$DIMALT
 70
1
  9
$DIMALTD
 70
2
  9
$DIMALTTD
 70
2
  9
$DIMALTF
 40
25.4
  9
$DIMTXT
 40
0.08
  9
$DIMTOL
 70
1
  9
$DIMLIM
 70
0
  9
$DIMTFAC
 40
1.0
  9
$DIMTP
 40
0.001
  9
$DIMTM
 40
0.001
  9
$DIMGAP
 40
0.09
  9
$DIMDSEP
 70
46
  9
$AUNITS
 70
0
  9
$PDMODE
 70
3
  9
$PDSIZE
 40
0.3125
  9
$HANDSEED
  5
27B
  9
$TILEMODE
 70
1
  9
$MEASUREMENT
 70
0
  9
$INSUNITS
 70
1
  0
ENDSEC
  0
SECTION
  2
CLASSES
  0
CLASS
  1
ACDBDICTIONARYWDFLT
  2
AcDbDictionaryWithDefault
  3
AutoCAD 2000
 90
0
 91
1
280
0
281
0
  0
CLASS
  1
ACDBPLACEHOLDER
  2
AcDbPlaceHolder
  3
AutoCAD 2000
 90
0
 91
1
280
0
281
0
  0
CLASS
  1
LAYOUT
  2
AcDbLayout
  3
AutoCAD 2000
 90
0
 91
0
280
0
281
0
  0
ENDSEC
  0
SECTION
  2
TABLES
  0
TABLE
  2
VPORT
  5
8
100
AcDbSymbolTable
 70
2
  0
VPORT
  5
1F4
100
AcDbSymbolTableRecord
100
AcDbViewportTableRecord
  2
*ACTIVE
 70
0
 10
0.0
 20
0.0
 11
1.0
 21
1.0
 12
5.5
 22
4.25
 13
0.0
 23
0.0
 14
1.0
 24
1.0
 15
0.0
 25
0.0
 16
0.0
 26
0.0
 36
1.0
 17
0.0
 27
0.0
 37
0.0
 40
8.5
 41
1.2941176471
 42
50.0
 43
0.0
 44
0.0
 50
0.0
 51
0.0
 71
0
 72
100
 73
1
 74
1
 75
0
 76
0
 77
0
 78
0
  0
ENDTAB
  0
TABLE
  2
LTYPE
  5
5
100
AcDbSymbolTable
 70
6
  0
LTYPE
  5
14
100
AcDbSymbolTableRecord
100
AcDbLinetypeTableRecord
  2
BYBLOCK
 70
0
  3

 72
65
 73
0
 40
0.0
  0
LTYPE
  5
15
100
AcDbSymbolTableRecord
100
AcDbLinetypeTableRecord
  2
BYLAYER
 70
0
  3

 72
65
 73
0
 40
0.0
  0
LTYPE
  5
16
100
AcDbSymbolTableRecord
100
AcDbLinetypeTableRecord
  2
CONTINUOUS
 70
64
  3
Solid line
 72
65
 73
0
 40
0.0
  0
LTYPE
  5
1F5
100
AcDbSymbolTableRecord
100
AcDbLinetypeTableRecord
  2
CENTER
 70
64
  3
____ _ ____ _ ____ _ ____ _ ____ _ ____ _ ____
 72
65
 73
4
 40
0.6
 49
0.375
 74
0
 49
-0.075
 74
0
 49
0.075
 74
0
 49
-0.075
 74
0
  0
LTYPE
  5
1F6
100
AcDbSymbolTableRecord
100
AcDbLinetypeTableRecord
  2
HIDDEN
 70
64
  3
- - - - - - - - - - - - - - - - - - - -
 72
65
 73
2
 40
0.2
 49
0.1
 74
0
 49
-0.1
 74
0
  0
LTYPE
  5
1F7
100
AcDbSymbolTableRecord
100
AcDbLinetypeTableRecord
  2
PHANTOM
 70
64
  3
_____ _ _ _____ _ _ _____ _ _ _____
 72
65
 73
6
 40
0.8
 49
0.45
 74
0
 49
-0.05
 74
0
 49
0.1
 74
0
 49
-0.05
 74
0
 49
0.1
 74
0
 49
-0.05
 74
0
  0
LTYPE
  5
1F8
100
AcDbSymbolTableRecord
100
AcDbLinetypeTableRecord
  2
DOT
 70
64
  3
. . . . . . . . . . . . . . . . . . . .
 72
65
 73
2
 40
0.2
 49
0.1
 74
0
 49
-0.1
 74
0
  0
LTYPE
  5
1F9
100
AcDbSymbolTableRecord
100
AcDbLinetypeTableRecord
  2
DASHED
 70
64
  3
- - - - - - - - - - - - - - - - - - - -
 72
65
 73
2
 40
0.2
 49
0.1
 74
0
 49
-0.1
 74
0
  0
ENDTAB
  0
TABLE
  2
LAYER
  5
2
100
AcDbSymbolTable
 70
36
  0
LAYER
  5
10
100
AcDbSymbolTableRecord
100
AcDbLayerTableRecord
  2
0
 70
0
 62
7
  6
CONTINUOUS
370
-3
390
F
  0
LAYER
  5
1FA
100
AcDbSymbolTableRecord
100
AcDbLayerTableRecord
  2
DEFAULT_1
 70
0
 62
7
  6
CENTER
370
-3
390
F
  0
LAYER
  5
1FB
100
AcDbSymbolTableRecord
100
AcDbLayerTableRecord
  2
DEFAULT_2
 70
0
 62
8
  6
HIDDEN
370
-3
390
F
  0
LAYER
  5
1FC
100
AcDbSymbolTableRecord
100
AcDbLayerTableRecord
  2
DEFAULT_3
 70
0
 62
7
  6
PHANTOM
370
-3
390
F
  0
LAYER
  5
1FD
100
AcDbSymbolTableRecord
100
AcDbLayerTableRecord
  2
DEFAULT_COORDINATE_SYSTEM
 70
0
 62
7
  6
CONTINUOUS
370
-3
390
F
  0
LAYER
  5
1FE
100
AcDbSymbolTableRecord
100
AcDbLayerTableRecord
  2
DEFAULT_DATUM_AXES
 70
0
 62
7
  6
CONTINUOUS
370
-3
390
F
  0
LAYER
  5
1FF
100
AcDbSymbolTableRecord
100
AcDbLayerTableRecord
  2
DEFAULT_DATUM_CURVES
 70
0
 62
7
  6
CONTINUOUS
370
-3
390
F
  0
LAYER
  5
200
100
AcDbSymbolTableRecord
100
AcDbLayerTableRecord
  2
DEFAULT_DATUM_PLANES
 70
0
 62
7
  6
CONTINUOUS
370
-3
390
F
  0
ENDTAB
  0
TABLE
  2
STYLE
  5
3
100
AcDbSymbolTable
 70
1
  0
STYLE
  5
11
100
AcDbSymbolTableRecord
100
AcDbTextStyleTableRecord
  2
STANDARD
 70
0
 40
0.0
 41
0.8
 50
0.0
 71
0
 42
0.2
  3
txt
  4

  0
STYLE
  5
201
100
AcDbSymbolTableRecord
100
AcDbTextStyleTableRecord
  2
TEXTSTYLE_1
 70
0
 40
0.0
 41
0.8
 50
0.0
 71
0
 42
0.2
  3
gdt
  4

  0
ENDTAB
  0
TABLE
  2
VIEW
  5
6
100
AcDbSymbolTable
 70
0
  0
ENDTAB
  0
TABLE
  2
UCS
  5
7
100
AcDbSymbolTable
 70
0
  0
ENDTAB
  0
TABLE
  2
APPID
  5
9
100
AcDbSymbolTable
 70
1
  0
APPID
  5
202
100
AcDbSymbolTableRecord
100
AcDbRegAppTableRecord
  2
ACAD
 70
0
  0
ENDTAB
  0
TABLE
  2
BLOCK_RECORD
  5
1
100
AcDbSymbolTable
 70
0
  0
BLOCK_RECORD
  5
203
100
AcDbSymbolTableRecord
100
AcDbBlockTableRecord
  2
*Model_Space
  0
BLOCK_RECORD
  5
204
100
AcDbSymbolTableRecord
100
AcDbBlockTableRecord
  2
*Paper_Space
  0
BLOCK_RECORD
  5
205
100
AcDbSymbolTableRecord
100
AcDbBlockTableRecord
  2
_FILLED
  0
ENDTAB
  0
TABLE
  2
DIMSTYLE
  5
A
100
AcDbSymbolTable
 70
1
100
AcDbDimStyleTable
 71
0
  0
DIMSTYLE
105
206
100
AcDbSymbolTableRecord
100
AcDbDimStyleTableRecord
  2
STANDARD
 70
0
  3

  4

 40
1.0
 41
0.1
 42
0.0625
 43
0.38
 44
0.125
 45
0.0
 46
0.0
 47
0.001
 48
0.001
140
0.08
141
0.09
142
0.0
143
25.4
144
1.0
145
0.0
146
1.0
147
0.09
 71
1
 72
0
 73
1
 74
1
 75
0
 76
0
 77
0
 78
4
 79
1
170
1
171
2
172
0
173
0
174
0
175
0
176
0
177
0
178
0
270
2
179
3
271
3
272
3
273
2
274
2
275
0
280
0
281
0
282
0
283
1
284
4
285
0
286
0
287
3
288
0
340
11
278
46
341
205
342
205
343
205
344
205
  0
ENDTAB
  0
ENDSEC
  0
SECTION
  2
BLOCKS
  0
BLOCK
  5
20
100
AcDbEntity
  8
0
100
AcDbBlockBegin
  2
*Model_Space
 70
0
 10
0.0
 20
0.0
 30
0.0
  3
*Model_Space
  1

  0
ENDBLK
  5
21
100
AcDbEntity
  8
0
100
AcDbBlockEnd
  0
BLOCK
  5
1C
100
AcDbEntity
  8
0
100
AcDbBlockBegin
  2
*Paper_Space
 70
0
 10
0.0
 20
0.0
 30
0.0
  3
*Paper_Space
  1

  0
ENDBLK
  5
1D
100
AcDbEntity
  8
0
100
AcDbBlockEnd
  0
BLOCK
  5
207
100
AcDbEntity
  8
0
100
AcDbBlockBegin
  2
_FILLED
 70
64
 10
0.0
 20
0.0
  3
_FILLED
  1

  0
SOLID
  5
208
100
AcDbEntity
  8
0
  6
BYBLOCK
 62
0
100
AcDbTrace
 10
0.0
 20
0.0
 11
-1.0
 21
0.2
 12
-1.0
 22
-0.2
 13
-1.0
 23
-0.2
  0
ENDBLK
  5
209
100
AcDbEntity
  8
0
  6
BYBLOCK
 62
0
100
AcDbBlockEnd
  0
ENDSEC
  0
SECTION
  2
ENTITIES
  0
MTEXT
  5
20A
100
AcDbEntity
  8
0
100
AcDbMText
 62
2
  6
CONTINUOUS
  7
STANDARD
 71
3
 72
1
 10
5.8525256849
 20
2.0435907534
 30
0.0
 11
1.0
 21
0.0
 31
0.0
 73
2
 44
0.9
  1
SCALE 1.000
 40
0.08
 41
0.704
  0
LINE
  5
20B
100
AcDbEntity
  8
0
100
AcDbLine
 62
7
  6
CONTINUOUS
 10
0.0
 20
0.0
 11
0.0
 21
8.5
  0
LINE
  5
20C
100
AcDbEntity
  8
0
100
AcDbLine
 62
7
  6
CONTINUOUS
 10
0.0
 20
0.0
 11
11.0
 21
0.0
  0
LINE
  5
20D
100
AcDbEntity
  8
0
100
AcDbLine
 62
7
  6
CONTINUOUS
 10
0.0
 20
8.5
 11
11.0
 21
8.5
  0
LINE
  5
20E
100
AcDbEntity
  8
0
100
AcDbLine
 62
7
  6
CONTINUOUS
 10
11.0
 20
0.0
 11
11.0
 21
8.5
  0
LINE
  5
20F
100
AcDbEntity
  8
0
100
AcDbLine
 62
7
  6
CONTINUOUS
 10
2.2557791096
 20
6.1757131095
 11
2.2557791096
 21
6.3151763699
  0
LINE
  5
210
100
AcDbEntity
  8
0
100
AcDbLine
 62
7
  6
CONTINUOUS
 10
5.0432791096
 20
2.7511763699
 11
5.9682791096
 21
2.7511763699
  0
LINE
  5
211
100
AcDbEntity
  8
0
100
AcDbLine
 62
7
  6
CONTINUOUS
 10
5.0182791096
 20
2.7761763699
 11
5.9932791096
 21
2.7761763699
  0
LINE
  5
212
100
AcDbEntity
  8
0
100
AcDbLine
 62
7
  6
CONTINUOUS
 10
5.9932791096
 20
2.8261763699
 11
5.6770628934
 21
2.8261763699
  0
LINE
  5
213
100
AcDbEntity
  8
0
100
AcDbLine
 62
7
  6
CONTINUOUS
 10
5.3344953258
 20
2.8261763699
 11
5.0182791096
 21
2.8261763699
  0
LINE
  5
214
100
AcDbEntity
  8
0
100
AcDbLine
 62
7
  6
CONTINUOUS
 10
5.9682791096
 20
2.8511763699
 11
5.6682791096
 21
2.8511763699
  0
LINE
  5
215
100
AcDbEntity
  8
0
100
AcDbLine
 62
7
  6
CONTINUOUS
 10
5.3432791096
 20
2.8511763699
 11
5.0432791096
 21
2.8511763699
  0
LINE
  5
216
100
AcDbEntity
  8
0
100
AcDbLine
 62
7
  6
CONTINUOUS
 10
5.1182791096
 20
2.8761763699
 11
5.3531275944
 21
2.8761763699
  0
LINE
  5
217
100
AcDbEntity
  8
0
100
AcDbLine
 62
7
  6
CONTINUOUS
 10
5.6584306247
 20
2.8761763699
 11
5.8932791096
 21
2.8761763699
  0
LINE
  5
218
100
AcDbEntity
  8
0
100
AcDbLine
 62
7
  6
CONTINUOUS
 10
5.4662520826
 20
2.9511763699
 11
5.4235821399
 21
2.9511763699
  0
LINE
  5
219
100
AcDbEntity
  8
0
100
AcDbLine
 62
7
  6
CONTINUOUS
 10
5.5453061366
 20
2.9511763699
 11
5.5879760793
 21
2.9511763699
  0
LINE
  5
21A
100
AcDbEntity
  8
0
100
AcDbLine
 62
7
  6
CONTINUOUS
 10
5.4662520826
 20
3.2511763699
 11
5.4235821399
 21
3.2511763699
  0
LINE
  5
21B
100
AcDbEntity
  8
0
100
AcDbLine
 62
7
  6
CONTINUOUS
 10
5.5453061366
 20
3.2511763699
 11
5.5879760793
 21
3.2511763699
  0
LINE
  5
21C
100
AcDbEntity
  8
0
100
AcDbLine
 62
7
  6
CONTINUOUS
 10
5.8932791096
 20
3.3261763699
 11
5.6584306247
 21
3.3261763699
  0
LINE
  5
21D
100
AcDbEntity
  8
0
100
AcDbLine
 62
7
  6
CONTINUOUS
 10
5.3531275944
 20
3.3261763699
 11
5.1182791096
 21
3.3261763699
  0
LINE
  5
21E
100
AcDbEntity
  8
0
100
AcDbLine
 62
7
  6
CONTINUOUS
 10
4.3807791096
 20
5.9321763699
 11
4.3807791096
 21
6.0021763699
  0
LINE
  5
21F
100
AcDbEntity
  8
0
100
AcDbLine
 62
7
  6
CONTINUOUS
 10
4.4607791096
 20
5.6821763699
 11
4.4607791096
 21
5.8521763699
  0
LINE
  5
220
100
AcDbEntity
  8
0
100
AcDbLine
 62
7
  6
CONTINUOUS
 10
5.0432791096
 20
3.3511763699
 11
5.3432791096
 21
3.3511763699
  0
LINE
  5
221
100
AcDbEntity
  8
0
100
AcDbLine
 62
7
  6
CONTINUOUS
 10
5.6682791096
 20
3.3511763699
 11
5.9682791096
 21
3.3511763699
  0
LINE
  5
222
100
AcDbEntity
  8
0
100
AcDbLine
 62
7
  6
CONTINUOUS
 10
5.0182791096
 20
3.3761763699
 11
5.3344953258
 21
3.3761763699
  0
LINE
  5
223
100
AcDbEntity
  8
0
100
AcDbLine
 62
7
  6
CONTINUOUS
 10
5.6770628934
 20
3.3761763699
 11
5.9932791096
 21
3.3761763699
  0
LINE
  5
224
100
AcDbEntity
  8
0
100
AcDbLine
 62
7
  6
CONTINUOUS
 10
5.9932791096
 20
3.4261763699
 11
5.0182791096
 21
3.4261763699
  0
LINE
  5
225
100
AcDbEntity
  8
0
100
AcDbLine
 62
7
  6
CONTINUOUS
 10
5.9682791096
 20
3.4511763699
 11
5.0432791096
 21
3.4511763699
  0
LINE
  5
226
100
AcDbEntity
  8
0
100
AcDbLine
 62
7
  6
CONTINUOUS
 10
5.9632791096
 20
3.4821763699
 11
5.0482791096
 21
3.4821763699
  0
LINE
  5
227
100
AcDbEntity
  8
0
100
AcDbLine
 62
7
  6
CONTINUOUS
 10
5.9932791096
 20
3.5121763699
 11
5.0182791096
 21
3.5121763699
  0
LINE
  5
228
100
AcDbEntity
  8
0
100
AcDbLine
 62
7
  6
CONTINUOUS
 10
5.0182791096
 20
5.6121763699
 11
5.0182791096
 21
3.5121763699
  0
LINE
  5
229
100
AcDbEntity
  8
0
100
AcDbLine
 62
7
  6
CONTINUOUS
 10
5.0182791096
 20
2.7761763699
 11
5.0182791096
 21
2.8261763699
  0
LINE
  5
22A
100
AcDbEntity
  8
0
100
AcDbLine
 62
7
  6
CONTINUOUS
 10
5.0182791096
 20
3.3761763699
 11
5.0182791096
 21
3.4261763699
  0
LINE
  5
22B
100
AcDbEntity
  8
0
100
AcDbLine
 62
7
  6
CONTINUOUS
 10
5.0807791096
 20
5.6421763699
 11
5.0807791096
 21
5.6521763699
  0
LINE
  5
22C
100
AcDbEntity
  8
0
100
AcDbLine
 62
7
  6
CONTINUOUS
 10
5.1182791096
 20
3.3261763699
 11
5.1182791096
 21
2.8761763699
  0
LINE
  5
22D
100
AcDbEntity
  8
0
100
AcDbLine
 62
7
  6
CONTINUOUS
 10
5.24700517
 20
3.4821763699
 11
5.24700517
 21
3.4511763699
  0
LINE
  5
22E
100
AcDbEntity
  8
0
100
AcDbLine
 62
7
  6
CONTINUOUS
 10
5.4235821399
 20
2.9511763699
 11
5.4235821399
 21
3.2511763699
  0
LINE
  5
22F
100
AcDbEntity
  8
0
100
AcDbLine
 62
7
  6
CONTINUOUS
 10
5.4432791096
 20
3.2511763699
 11
5.4432791096
 21
2.9511763699
  0
LINE
  5
230
100
AcDbEntity
  8
0
100
AcDbLine
 62
7
  6
CONTINUOUS
 10
5.4662520826
 20
3.2511763699
 11
5.4662520826
 21
2.9511763699
  0
LINE
  5
231
100
AcDbEntity
  8
0
100
AcDbLine
 62
7
  6
CONTINUOUS
 10
5.5453061366
 20
2.9511763699
 11
5.5453061366
 21
3.2511763699
  0
LINE
  5
232
100
AcDbEntity
  8
0
100
AcDbLine
 62
7
  6
CONTINUOUS
 10
5.5682791096
 20
2.9511763699
 11
5.5682791096
 21
3.2511763699
  0
LINE
  5
233
100
AcDbEntity
  8
0
100
AcDbLine
 62
7
  6
CONTINUOUS
 10
5.5879760793
 20
3.2511763699
 11
5.5879760793
 21
2.9511763699
  0
LINE
  5
234
100
AcDbEntity
  8
0
100
AcDbLine
 62
7
  6
CONTINUOUS
 10
5.7645530492
 20
3.4821763699
 11
5.7645530492
 21
3.4511763699
  0
LINE
  5
235
100
AcDbEntity
  8
0
100
AcDbLine
 62
7
  6
CONTINUOUS
 10
5.8932791096
 20
3.3261763699
 11
5.8932791096
 21
2.8761763699
  0
LINE
  5
236
100
AcDbEntity
  8
0
100
AcDbLine
 62
7
  6
CONTINUOUS
 10
5.9307791096
 20
5.6421763699
 11
5.9307791096
 21
5.6521763699
  0
LINE
  5
237
100
AcDbEntity
  8
0
100
AcDbLine
 62
7
  6
CONTINUOUS
 10
5.9932791096
 20
5.6121763699
 11
5.9932791096
 21
3.5121763699
  0
LINE
  5
238
100
AcDbEntity
  8
0
100
AcDbLine
 62
7
  6
CONTINUOUS
 10
5.9932791096
 20
2.7761763699
 11
5.9932791096
 21
2.8261763699
  0
LINE
  5
239
100
AcDbEntity
  8
0
100
AcDbLine
 62
7
  6
CONTINUOUS
 10
5.9932791096
 20
3.3761763699
 11
5.9932791096
 21
3.4261763699
  0
LINE
  5
23A
100
AcDbEntity
  8
0
100
AcDbLine
 62
7
  6
CONTINUOUS
 10
6.5507791096
 20
5.6821763699
 11
6.5507791096
 21
5.8521763699
  0
LINE
  5
23B
100
AcDbEntity
  8
0
100
AcDbLine
 62
7
  6
CONTINUOUS
 10
6.6307791096
 20
5.9321763699
 11
6.6307791096
 21
6.0021763699
  0
LINE
  5
23C
100
AcDbEntity
  8
0
100
AcDbLine
 62
7
  6
CONTINUOUS
 10
5.9932791096
 20
5.6121763699
 11
5.0182791096
 21
5.6121763699
  0
LINE
  5
23D
100
AcDbEntity
  8
0
100
AcDbLine
 62
7
  6
CONTINUOUS
 10
5.9632791096
 20
5.6421763699
 11
5.0482791096
 21
5.6421763699
  0
LINE
  5
23E
100
AcDbEntity
  8
0
100
AcDbLine
 62
7
  6
CONTINUOUS
 10
6.5207791096
 20
5.6521763699
 11
4.4907791096
 21
5.6521763699
  0
LINE
  5
23F
100
AcDbEntity
  8
0
100
AcDbLine
 62
7
  6
CONTINUOUS
 10
6.5507791096
 20
5.6821763699
 11
4.4607791096
 21
5.6821763699
  0
LINE
  5
240
100
AcDbEntity
  8
0
100
AcDbLine
 62
7
  6
CONTINUOUS
 10
4.4607791096
 20
5.8521763699
 11
6.5507791096
 21
5.8521763699
  0
LINE
  5
241
100
AcDbEntity
  8
0
100
AcDbLine
 62
7
  6
CONTINUOUS
 10
4.4107791096
 20
5.9021763699
 11
6.6007791096
 21
5.9021763699
  0
LINE
  5
242
100
AcDbEntity
  8
0
100
AcDbLine
 62
7
  6
CONTINUOUS
 10
6.6307791096
 20
5.9321763699
 11
4.3807791096
 21
5.9321763699
  0
LINE
  5
243
100
AcDbEntity
  8
0
100
AcDbLine
 62
7
  6
CONTINUOUS
 10
8.5886225993
 20
6.0021763699
 11
2.4229356198
 21
6.0021763699
  0
LINE
  5
244
100
AcDbEntity
  8
0
100
AcDbLine
 62
7
  6
CONTINUOUS
 10
8.6479972609
 20
6.0441133796
 11
2.3635609582
 21
6.0441133796
  0
LINE
  5
245
100
AcDbEntity
  8
0
100
AcDbLine
 62
7
  6
CONTINUOUS
 10
8.7173307939
 20
6.1176940196
 11
2.2942274252
 21
6.1176940196
  0
LINE
  5
246
100
AcDbEntity
  8
0
100
AcDbLine
 62
7
  6
CONTINUOUS
 10
8.7557791096
 20
6.1757131095
 11
2.2557791096
 21
6.1757131095
  0
LINE
  5
247
100
AcDbEntity
  8
0
100
AcDbLine
 62
7
  6
CONTINUOUS
 10
2.2557791096
 20
6.3151763699
 11
8.7557791096
 21
6.3151763699
  0
LINE
  5
248
100
AcDbEntity
  8
0
100
AcDbLine
 62
7
  6
CONTINUOUS
 10
8.7557791096
 20
6.1757131095
 11
8.7557791096
 21
6.3151763699
  0
ARC
  5
249
100
AcDbEntity
  8
0
100
AcDbCircle
 62
7
  6
CONTINUOUS
 10
2.245344327
 20
6.0021763699
 40
0.1254347826
100
AcDbArc
 50
19.5319940446
 51
67.0635891141
  0
ARC
  5
24A
100
AcDbEntity
  8
0
100
AcDbCircle
 62
7
  6
CONTINUOUS
 10
8.7662138922
 20
6.0021763699
 40
0.1254347826
100
AcDbArc
 50
112.9364108859
 51
160.4680059554
  0
ARC
  5
24B
100
AcDbEntity
  8
0
100
AcDbCircle
 62
7
  6
CONTINUOUS
 10
5.6682791096
 20
3.2511763699
 40
0.1
100
AcDbArc
 50
90.0
 51
180.0
  0
ARC
  5
24C
100
AcDbEntity
  8
0
100
AcDbCircle
 62
7
  6
CONTINUOUS
 10
5.3432791096
 20
3.2511763699
 40
0.1
100
AcDbArc
 50
0.0
 51
90.0
  0
ARC
  5
24D
100
AcDbEntity
  8
0
100
AcDbCircle
 62
7
  6
CONTINUOUS
 10
5.6682791096
 20
2.9511763699
 40
0.1
100
AcDbArc
 50
180.0
 51
270.0
  0
ARC
  5
24E
100
AcDbEntity
  8
0
100
AcDbCircle
 62
7
  6
CONTINUOUS
 10
5.3432791096
 20
2.9511763699
 40
0.1
100
AcDbArc
 50
270.0
 51
360.0
  0
ARC
  5
24F
100
AcDbEntity
  8
0
100
AcDbCircle
 62
7
  6
CONTINUOUS
 10
8.6927791096
 20
6.1757131095
 40
0.063
100
AcDbArc
 50
292.9364108859
 51
360.0
  0
ARC
  5
250
100
AcDbEntity
  8
0
100
AcDbCircle
 62
7
  6
CONTINUOUS
 10
2.3187791096
 20
6.1757131095
 40
0.063
100
AcDbArc
 50
180.0
 51
247.0635891141
  0
ARC
  5
251
100
AcDbEntity
  8
0
100
AcDbCircle
 62
7
  6
CONTINUOUS
 10
8.5886225993
 20
6.0651763699
 40
0.063
100
AcDbArc
 50
270.0
 51
340.4680059554
  0
ARC
  5
252
100
AcDbEntity
  8
0
100
AcDbCircle
 62
7
  6
CONTINUOUS
 10
2.4229356198
 20
6.0651763699
 40
0.063
100
AcDbArc
 50
199.5319940446
 51
270.0
  0
ARC
  5
253
100
AcDbEntity
  8
0
100
AcDbCircle
 62
7
  6
CONTINUOUS
 10
4.4107791096
 20
5.8521763699
 40
0.05
100
AcDbArc
 50
0.0
 51
90.0
  0
ARC
  5
254
100
AcDbEntity
  8
0
100
AcDbCircle
 62
7
  6
CONTINUOUS
 10
6.6007791096
 20
5.8521763699
 40
0.05
100
AcDbArc
 50
90.0
 51
180.0
  0
ARC
  5
255
100
AcDbEntity
  8
0
100
AcDbCircle
 62
7
  6
CONTINUOUS
 10
5.0482791096
 20
5.6121763699
 40
0.03
100
AcDbArc
 50
90.0
 51
180.0
  0
ARC
  5
256
100
AcDbEntity
  8
0
100
AcDbCircle
 62
7
  6
CONTINUOUS
 10
5.9632791096
 20
5.6121763699
 40
0.03
100
AcDbArc
 50
0.0
 51
90.0
  0
ARC
  5
257
100
AcDbEntity
  8
0
100
AcDbCircle
 62
7
  6
CONTINUOUS
 10
5.0482791096
 20
3.5121763699
 40
0.03
100
AcDbArc
 50
180.0
 51
270.0
  0
ARC
  5
258
100
AcDbEntity
  8
0
100
AcDbCircle
 62
7
  6
CONTINUOUS
 10
5.9632791096
 20
3.5121763699
 40
0.03
100
AcDbArc
 50
270.0
 51
360.0
  0
ARC
  5
259
100
AcDbEntity
  8
0
100
AcDbCircle
 62
7
  6
CONTINUOUS
 10
4.4907791096
 20
5.6821763699
 40
0.03
100
AcDbArc
 50
180.0
 51
270.0
  0
ARC
  5
25A
100
AcDbEntity
  8
0
100
AcDbCircle
 62
7
  6
CONTINUOUS
 10
6.5207791096
 20
5.6821763699
 40
0.03
100
AcDbArc
 50
270.0
 51
360.0
  0
ARC
  5
25B
100
AcDbEntity
  8
0
100
AcDbCircle
 62
7
  6
CONTINUOUS
 10
4.4107791096
 20
5.9321763699
 40
0.03
100
AcDbArc
 50
180.0
 51
270.0
  0
ARC
  5
25C
100
AcDbEntity
  8
0
100
AcDbCircle
 62
7
  6
CONTINUOUS
 10
6.6007791096
 20
5.9321763699
 40
0.03
100
AcDbArc
 50
270.0
 51
360.0
  0
ARC
  5
25D
100
AcDbEntity
  8
0
100
AcDbCircle
 62
7
  6
CONTINUOUS
 10
5.0432791096
 20
2.7761763699
 40
0.025
100
AcDbArc
 50
180.0
 51
270.0
  0
ARC
  5
25E
100
AcDbEntity
  8
0
100
AcDbCircle
 62
7
  6
CONTINUOUS
 10
5.9682791096
 20
2.7761763699
 40
0.025
100
AcDbArc
 50
270.0
 51
360.0
  0
ARC
  5
25F
100
AcDbEntity
  8
0
100
AcDbCircle
 62
7
  6
CONTINUOUS
 10
5.0432791096
 20
3.4261763699
 40
0.025
100
AcDbArc
 50
90.0
 51
180.0
  0
ARC
  5
260
100
AcDbEntity
  8
0
100
AcDbCircle
 62
7
  6
CONTINUOUS
 10
5.9682791096
 20
3.4261763699
 40
0.025
100
AcDbArc
 50
0.0
 51
90.0
  0
ARC
  5
261
100
AcDbEntity
  8
0
100
AcDbCircle
 62
7
  6
CONTINUOUS
 10
5.0932791096
 20
2.8761763699
 40
0.025
100
AcDbArc
 50
270.0
 51
360.0
  0
ARC
  5
262
100
AcDbEntity
  8
0
100
AcDbCircle
 62
7
  6
CONTINUOUS
 10
5.0932791096
 20
3.3261763699
 40
0.025
100
AcDbArc
 50
0.0
 51
90.0
  0
ARC
  5
263
100
AcDbEntity
  8
0
100
AcDbCircle
 62
7
  6
CONTINUOUS
 10
5.9182791096
 20
3.3261763699
 40
0.025
100
AcDbArc
 50
90.0
 51
180.0
  0
ARC
  5
264
100
AcDbEntity
  8
0
100
AcDbCircle
 62
7
  6
CONTINUOUS
 10
5.9182791096
 20
2.8761763699
 40
0.025
100
AcDbArc
 50
180.0
 51
270.0
  0
ARC
  5
265
100
AcDbEntity
  8
0
100
AcDbCircle
 62
7
  6
CONTINUOUS
 10
5.9682791096
 20
2.8261763699
 40
0.025
100
AcDbArc
 50
0.0
 51
90.0
  0
ARC
  5
266
100
AcDbEntity
  8
0
100
AcDbCircle
 62
7
  6
CONTINUOUS
 10
5.9682791096
 20
3.3761763699
 40
0.025
100
AcDbArc
 50
270.0
 51
360.0
  0
ARC
  5
267
100
AcDbEntity
  8
0
100
AcDbCircle
 62
7
  6
CONTINUOUS
 10
5.0432791096
 20
3.3761763699
 40
0.025
100
AcDbArc
 50
180.0
 51
270.0
  0
ARC
  5
268
100
AcDbEntity
  8
0
100
AcDbCircle
 62
7
  6
CONTINUOUS
 10
5.0432791096
 20
2.8261763699
 40
0.025
100
AcDbArc
 50
90.0
 51
180.0
  0
SPLINE
  5
269
100
AcDbEntity
  8
0
100
AcDbSpline
 62
7
  6
CONTINUOUS
 70
0
 71
3
 72
20
 73
16
 74
0
 42
0.0000001
 43
0.0000001
 44
0.0000000001
 40
0.0
 40
0.0
 40
0.0
 40
0.0
 40
0.173793214
 40
0.3418872383
 40
0.4985148556
 40
0.5710578657
 40
0.639030422
 40
0.7019754044
 40
0.7595871682
 40
0.8116673199
 40
0.8582071113
 40
0.8994808138
 40
0.9360810567
 40
0.9690694989
 40
1.0
 40
1.0
 40
1.0
 40
1.0
 10
5.3344953258
 20
3.3761763699
 30
0.0
 10
5.3344953283
 20
3.3745501676
 30
0.0
 10
5.3346044673
 20
3.3713498855
 30
0.0
 10
5.3350902372
 20
3.3667068767
 30
0.0
 10
5.3357634133
 20
3.3630458468
 30
0.0
 10
5.336460719
 20
3.3603532366
 30
0.0
 10
5.3370347764
 20
3.3585369601
 30
0.0
 10
5.3376686894
 20
3.3568893437
 30
0.0
 10
5.3383555129
 20
3.3554254512
 30
0.0
 10
5.3390891548
 20
3.3541584216
 30
0.0
 10
5.339864285
 20
3.3530997793
 30
0.0
 10
5.3406747754
 20
3.3522579291
 30
0.0
 10
5.341518311
 20
3.3516426342
 30
0.0
 10
5.3423888639
 20
3.3512639695
 30
0.0
 10
5.3429896894
 20
3.3511763699
 30
0.0
 10
5.3432791095
 20
3.3511763699
 30
0.0
  0
SPLINE
  5
26A
100
AcDbEntity
  8
0
100
AcDbSpline
 62
7
  6
CONTINUOUS
 70
0
 71
3
 72
20
 73
16
 74
0
 42
0.0000001
 43
0.0000001
 44
0.0000000001
 40
0.0
 40
0.0
 40
0.0
 40
0.0
 40
0.1737931392
 40
0.3418870805
 40
0.4985146175
 40
0.5710575928
 40
0.6390301201
 40
0.7019750819
 40
0.7595868355
 40
0.8116669902
 40
0.8582068012
 40
0.8994805436
 40
0.9360808508
 40
0.969069384
 40
1.0
 40
1.0
 40
1.0
 40
1.0
 10
5.3344953258
 20
2.8261763699
 30
0.0
 10
5.3344953258
 20
2.8278025721
 30
0.0
 10
5.3346044605
 20
2.831002854
 30
0.0
 10
5.3350902254
 20
2.8356458629
 30
0.0
 10
5.3357633989
 20
2.839306893
 30
0.0
 10
5.3364607035
 20
2.8419995032
 30
0.0
 10
5.3370347607
 20
2.8438157798
 30
0.0
 10
5.3376686739
 20
2.8454633962
 30
0.0
 10
5.3383554982
 20
2.8469272887
 30
0.0
 10
5.3390891414
 20
2.8481943183
 30
0.0
 10
5.3398642734
 20
2.8492529607
 30
0.0
 10
5.3406747661
 20
2.8500948109
 30
0.0
 10
5.3415183045
 20
2.8507101058
 30
0.0
 10
5.3423888606
 20
2.8510887704
 30
0.0
 10
5.3429896883
 20
2.8511763699
 30
0.0
 10
5.3432791096
 20
2.8511763699
 30
0.0
  0
SPLINE
  5
26B
100
AcDbEntity
  8
0
100
AcDbSpline
 62
7
  6
CONTINUOUS
 70
0
 71
3
 72
15
 73
11
 74
0
 42
0.0000001
 43
0.0000001
 44
0.0000000001
 40
0.0
 40
0.0
 40
0.0
 40
0.0
 40
0.1190039428
 40
0.2402728488
 40
0.3637709015
 40
0.4891397591
 40
0.615882017
 40
0.743511049
 40
0.8716480926
 40
1.0
 40
1.0
 40
1.0
 40
1.0
 10
5.3531275944
 20
2.8761763699
 30
0.0
 10
5.3576530601
 20
2.8761767918
 30
0.0
 10
5.3668171963
 20
2.8771221392
 30
0.0
 10
5.3800849339
 20
2.8813583182
 30
0.0
 10
5.3924234519
 20
2.8883362403
 30
0.0
 10
5.4032622572
 20
2.8977850381
 30
0.0
 10
5.412128185
 20
2.9092995696
 30
0.0
 10
5.4186768415
 20
2.9223872004
 30
0.0
 10
5.4226827427
 20
2.9365180174
 30
0.0
 10
5.4235818313
 20
2.946295421
 30
0.0
 10
5.4235821399
 20
2.9511763699
 30
0.0
  0
SPLINE
  5
26C
100
AcDbEntity
  8
0
100
AcDbSpline
 62
7
  6
CONTINUOUS
 70
0
 71
3
 72
15
 73
11
 74
0
 42
0.0000001
 43
0.0000001
 44
0.0000000001
 40
0.0
 40
0.0
 40
0.0
 40
0.0
 40
0.1283517884
 40
0.25648861
 40
0.3841174365
 40
0.5108595936
 40
0.6362287149
 40
0.7597267314
 40
0.8809957539
 40
1.0
 40
1.0
 40
1.0
 40
1.0
 10
5.4235821399
 20
3.2511763699
 30
0.0
 10
5.423581784
 20
3.256057314
 30
0.0
 10
5.4226829423
 20
3.2658347214
 30
0.0
 10
5.4186768362
 20
3.2799654976
 30
0.0
 10
5.4121279129
 20
3.2930529521
 30
0.0
 10
5.4032621478
 20
3.3045675551
 30
0.0
 10
5.392423677
 20
3.3140167646
 30
0.0
 10
5.3800850194
 20
3.3209945746
 30
0.0
 10
5.366817197
 20
3.3252303843
 30
0.0
 10
5.3576530715
 20
3.3261760265
 30
0.0
 10
5.3531275944
 20
3.3261763699
 30
0.0
  0
SPLINE
  5
26D
100
AcDbEntity
  8
0
100
AcDbSpline
 62
7
  6
CONTINUOUS
 70
0
 71
3
 72
15
 73
11
 74
0
 42
0.0000001
 43
0.0000001
 44
0.0000000001
 40
0.0
 40
0.0
 40
0.0
 40
0.0
 40
0.1190039428
 40
0.2402728488
 40
0.3637709015
 40
0.4891397591
 40
0.615882017
 40
0.743511049
 40
0.8716480926
 40
1.0
 40
1.0
 40
1.0
 40
1.0
 10
5.6584306247
 20
3.3261763699
 30
0.0
 10
5.653905159
 20
3.3261759479
 30
0.0
 10
5.6447410229
 20
3.3252306006
 30
0.0
 10
5.6314732853
 20
3.3209944215
 30
0.0
 10
5.6191347673
 20
3.3140164995
 30
0.0
 10
5.608295962
 20
3.3045677016
 30
0.0
 10
5.5994300342
 20
3.2930531701
 30
0.0
 10
5.5928813777
 20
3.2799655394
 30
0.0
 10
5.5888754764
 20
3.2658347224
 30
0.0
 10
5.5879763878
 20
3.2560573187
 30
0.0
 10
5.5879760793
 20
3.2511763699
 30
0.0
  0
SPLINE
  5
26E
100
AcDbEntity
  8
0
100
AcDbSpline
 62
7
  6
CONTINUOUS
 70
0
 71
3
 72
15
 73
11
 74
0
 42
0.0000001
 43
0.0000001
 44
0.0000000001
 40
0.0
 40
0.0
 40
0.0
 40
0.0
 40
0.1283517884
 40
0.25648861
 40
0.3841174365
 40
0.5108595936
 40
0.6362287149
 40
0.7597267314
 40
0.8809957539
 40
1.0
 40
1.0
 40
1.0
 40
1.0
 10
5.5879760793
 20
2.9511763699
 30
0.0
 10
5.5879764352
 20
2.9462954257
 30
0.0
 10
5.5888752769
 20
2.9365180184
 30
0.0
 10
5.592881383
 20
2.9223872421
 30
0.0
 10
5.5994303062
 20
2.9092997876
 30
0.0
 10
5.6082960714
 20
2.8977851846
 30
0.0
 10
5.6191345422
 20
2.8883359751
 30
0.0
 10
5.6314731998
 20
2.8813581651
 30
0.0
 10
5.6447410222
 20
2.8771223554
 30
0.0
 10
5.6539051476
 20
2.8761767132
 30
0.0
 10
5.6584306247
 20
2.8761763699
 30
0.0
  0
SPLINE
  5
26F
100
AcDbEntity
  8
0
100
AcDbSpline
 62
7
  6
CONTINUOUS
 70
0
 71
3
 72
20
 73
16
 74
0
 42
0.0000001
 43
0.0000001
 44
0.0000000001
 40
0.0
 40
0.0
 40
0.0
 40
0.0
 40
0.0338955329
 40
0.069553845
 40
0.1083340415
 40
0.1512284824
 40
0.1988434323
 40
0.2514954777
 40
0.3092291475
 40
0.3718988031
 40
0.4392476065
 40
0.5108677633
 40
0.6649244738
 40
0.8297771534
 40
1.0
 40
1.0
 40
1.0
 40
1.0
 10
5.3432791096
 20
2.8511763699
 30
0.0
 10
5.343602976
 20
2.8511763699
 30
0.0
 10
5.3442700923
 20
2.8512624369
 30
0.0
 10
5.3452436051
 20
2.8516376083
 30
0.0
 10
5.34619022
 20
2.8522507976
 30
0.0
 10
5.3471010669
 20
2.8530923217
 30
0.0
 10
5.3479720622
 20
2.8541515108
 30
0.0
 10
5.3487961545
 20
2.8554194709
 30
0.0
 10
5.3495673067
 20
2.8568843201
 30
0.0
 10
5.3502788104
 20
2.8585327896
 30
0.0
 10
5.3509229868
 20
2.8603498679
 30
0.0
 10
5.351704289
 20
2.8630397768
 30
0.0
 10
5.3524597212
 20
2.8667004793
 30
0.0
 10
5.353005077
 20
2.8713468145
 30
0.0
 10
5.3531276055
 20
2.8745499176
 30
0.0
 10
5.3531275944
 20
2.8761763699
 30
0.0
  0
SPLINE
  5
270
100
AcDbEntity
  8
0
100
AcDbSpline
 62
7
  6
CONTINUOUS
 70
0
 71
3
 72
20
 73
16
 74
0
 42
0.0000001
 43
0.0000001
 44
0.0000000001
 40
0.0
 40
0.0
 40
0.0
 40
0.0
 40
0.0338950507
 40
0.069552978
 40
0.1083328941
 40
0.1512271528
 40
0.1988420081
 40
0.2514940333
 40
0.3092277437
 40
0.3718974878
 40
0.4392464167
 40
0.5108667256
 40
0.664923788
 40
0.8297768307
 40
1.0
 40
1.0
 40
1.0
 40
1.0
 10
5.3432791096
 20
3.3511763699
 30
0.0
 10
5.3436029709
 20
3.3511763699
 30
0.0
 10
5.3442700777
 20
3.3510903024
 30
0.0
 10
5.3452435768
 20
3.3507151305
 30
0.0
 10
5.3461901796
 20
3.350101941
 30
0.0
 10
5.3471010164
 20
3.3492604169
 30
0.0
 10
5.3479720037
 20
3.348201228
 30
0.0
 10
5.3487960902
 20
3.3469332681
 30
0.0
 10
5.349567239
 20
3.3454684191
 30
0.0
 10
5.3502787416
 20
3.3438199498
 30
0.0
 10
5.3509229191
 20
3.3420028715
 30
0.0
 10
5.351704226
 20
3.3393129627
 30
0.0
 10
5.3524596697
 20
3.3356522607
 30
0.0
 10
5.3530050469
 20
3.331005926
 30
0.0
 10
5.3531275944
 20
3.3278028225
 30
0.0
 10
5.3531275944
 20
3.3261763699
 30
0.0
  0
SPLINE
  5
271
100
AcDbEntity
  8
0
100
AcDbSpline
 62
7
  6
CONTINUOUS
 70
0
 71
3
 72
26
 73
22
 74
0
 42
0.0000001
 43
0.0000001
 44
0.0000000001
 40
0.0
 40
0.0
 40
0.0
 40
0.0
 40
0.0597769097
 40
0.1201704775
 40
0.1811160356
 40
0.2425849805
 40
0.3045299823
 40
0.3668816974
 40
0.4295668212
 40
0.461023486
 40
0.4925378405
 40
0.5556912202
 40
0.618988944
 40
0.6506881976
 40
0.6824076981
 40
0.7141436083
 40
0.7458934091
 40
0.8093952965
 40
0.8729168576
 40
0.9364698533
 40
1.0
 40
1.0
 40
1.0
 40
1.0
 10
5.6770628934
 20
2.8261763699
 30
0.0
 10
5.6730454654
 20
2.8261765734
 30
0.0
 10
5.6649648518
 20
2.8265283055
 30
0.0
 10
5.6528815958
 20
2.8281164939
 30
0.0
 10
5.6408735725
 20
2.830792256
 30
0.0
 10
5.6290549044
 20
2.8345679864
 30
0.0
 10
5.617542025
 20
2.8394432979
 30
0.0
 10
5.6064600689
 20
2.8454065058
 30
0.0
 10
5.5976966035
 20
2.8512535478
 30
0.0
 10
5.5910276462
 20
2.8564392381
 30
0.0
 10
5.5845948985
 20
2.8619637262
 30
0.0
 10
5.5770615546
 20
2.8694703527
 30
0.0
 10
5.5703090609
 20
2.8777038197
 30
0.0
 10
5.5654272164
 20
2.8846857759
 30
0.0
 10
5.5620351821
 20
2.8901105501
 30
0.0
 10
5.558927005
 20
2.8957068066
 30
0.0
 10
5.5551777539
 20
2.9033771699
 30
0.0
 10
5.5512524833
 20
2.9133229116
 30
0.0
 10
5.5478393954
 20
2.9256930563
 30
0.0
 10
5.545770474
 20
2.9383587865
 30
0.0
 10
5.545306416
 20
2.946906698
 30
0.0
 10
5.5453061366
 20
2.9511763699
 30
0.0
  0
SPLINE
  5
272
100
AcDbEntity
  8
0
100
AcDbSpline
 62
7
  6
CONTINUOUS
 70
0
 71
3
 72
26
 73
22
 74
0
 42
0.0000001
 43
0.0000001
 44
0.0000000001
 40
0.0
 40
0.0
 40
0.0
 40
0.0
 40
0.0635305296
 40
0.1270840871
 40
0.1906059348
 40
0.2541078031
 40
0.2858575969
 40
0.3175935311
 40
0.349313065
 40
0.3810123653
 40
0.4443100872
 40
0.5074635151
 40
0.5389778782
 40
0.5704345332
 40
0.6331196007
 40
0.6954712775
 40
0.7574161403
 40
0.8188850526
 40
0.879830249
 40
0.9402232939
 40
1.0
 40
1.0
 40
1.0
 40
1.0
 10
5.5453061366
 20
3.2511763699
 30
0.0
 10
5.5453063333
 20
3.2554460675
 30
0.0
 10
5.5457700111
 20
3.26399406
 30
0.0
 10
5.5478388189
 20
3.276659922
 30
0.0
 10
5.5512523987
 20
3.2890299956
 30
0.0
 10
5.5551778823
 20
3.2989756636
 30
0.0
 10
5.5589272646
 20
3.3066459631
 30
0.0
 10
5.5620355203
 20
3.3122421797
 30
0.0
 10
5.5654276309
 20
3.3176669139
 30
0.0
 10
5.5703095001
 20
3.3246488582
 30
0.0
 10
5.577061923
 20
3.3328823819
 30
0.0
 10
5.5845950552
 20
3.3403892203
 30
0.0
 10
5.5910276417
 20
3.3459139022
 30
0.0
 10
5.5976964791
 20
3.3510997431
 30
0.0
 10
5.6064599814
 20
3.3569467414
 30
0.0
 10
5.6175421229
 20
3.3629095841
 30
0.0
 10
5.6290551467
 20
3.3677845064
 30
0.0
 10
5.6408738206
 20
3.3715600728
 30
0.0
 10
5.652881759
 20
3.3742359092
 30
0.0
 10
5.6649649188
 20
3.3758242654
 30
0.0
 10
5.673045479
 20
3.3761761057
 30
0.0
 10
5.6770628934
 20
3.3761763699
 30
0.0
  0
SPLINE
  5
273
100
AcDbEntity
  8
0
100
AcDbSpline
 62
7
  6
CONTINUOUS
 70
0
 71
3
 72
26
 73
22
 74
0
 42
0.0000001
 43
0.0000001
 44
0.0000000001
 40
0.0
 40
0.0
 40
0.0
 40
0.0
 40
0.0597769099
 40
0.1201704781
 40
0.1811160364
 40
0.2425849814
 40
0.3045299832
 40
0.3668816982
 40
0.429566822
 40
0.4610234868
 40
0.4925378412
 40
0.5556912207
 40
0.6189889444
 40
0.6506881981
 40
0.6824076984
 40
0.7141436086
 40
0.7458934094
 40
0.8093952968
 40
0.8729168577
 40
0.9364698534
 40
1.0
 40
1.0
 40
1.0
 40
1.0
 10
5.3344953258
 20
3.3761763699
 30
0.0
 10
5.3385127538
 20
3.3761761663
 30
0.0
 10
5.3465933675
 20
3.3758244345
 30
0.0
 10
5.3586766235
 20
3.3742362463
 30
0.0
 10
5.3706846468
 20
3.3715604841
 30
0.0
 10
5.3825033149
 20
3.3677847534
 30
0.0
 10
5.3940161942
 20
3.3629094417
 30
0.0
 10
5.4050981502
 20
3.3569462336
 30
0.0
 10
5.4138616156
 20
3.3510991915
 30
0.0
 10
5.4205305729
 20
3.3459135014
 30
0.0
 10
5.4269633206
 20
3.3403890134
 30
0.0
 10
5.4344966646
 20
3.3328823869
 30
0.0
 10
5.4412491583
 20
3.32464892
 30
0.0
 10
5.4461310028
 20
3.3176669638
 30
0.0
 10
5.4495230371
 20
3.3122421895
 30
0.0
 10
5.4526312142
 20
3.3066459331
 30
0.0
 10
5.4563804653
 20
3.2989755698
 30
0.0
 10
5.4603057358
 20
3.2890298281
 30
0.0
 10
5.4637188238
 20
3.2766596834
 30
0.0
 10
5.4657877453
 20
3.2639939532
 30
0.0
 10
5.4662518032
 20
3.2554460417
 30
0.0
 10
5.4662520826
 20
3.2511763699
 30
0.0
  0
SPLINE
  5
274
100
AcDbEntity
  8
0
100
AcDbSpline
 62
7
  6
CONTINUOUS
 70
0
 71
3
 72
26
 73
22
 74
0
 42
0.0000001
 43
0.0000001
 44
0.0000000001
 40
0.0
 40
0.0
 40
0.0
 40
0.0
 40
0.0635305295
 40
0.127084087
 40
0.1906059346
 40
0.2541078029
 40
0.2858575966
 40
0.3175935309
 40
0.3493130647
 40
0.381012365
 40
0.4443100869
 40
0.5074635148
 40
0.5389778779
 40
0.5704345329
 40
0.6331196003
 40
0.6954712772
 40
0.7574161401
 40
0.8188850523
 40
0.8798302488
 40
0.9402232939
 40
1.0
 40
1.0
 40
1.0
 40
1.0
 10
5.4662520826
 20
2.9511763699
 30
0.0
 10
5.4662518858
 20
2.9469066722
 30
0.0
 10
5.4657882079
 20
2.9383586797
 30
0.0
 10
5.4637194002
 20
2.9256928177
 30
0.0
 10
5.4603058205
 20
2.9133227442
 30
0.0
 10
5.4563803369
 20
2.9033770762
 30
0.0
 10
5.4526309545
 20
2.8957067766
 30
0.0
 10
5.4495226989
 20
2.8901105601
 30
0.0
 10
5.4461305883
 20
2.8846858258
 30
0.0
 10
5.4412487192
 20
2.8777038815
 30
0.0
 10
5.4344962963
 20
2.8694703577
 30
0.0
 10
5.4269631641
 20
2.8619635194
 30
0.0
 10
5.4205305776
 20
2.8564388375
 30
0.0
 10
5.4138617401
 20
2.8512529967
 30
0.0
 10
5.4050982377
 20
2.8454059985
 30
0.0
 10
5.3940160963
 20
2.8394431557
 30
0.0
 10
5.3825030726
 20
2.8345682331
 30
0.0
 10
5.3706843987
 20
2.8307926667
 30
0.0
 10
5.3586764602
 20
2.8281168306
 30
0.0
 10
5.3465933004
 20
2.8265284743
 30
0.0
 10
5.3385127402
 20
2.826176634
 30
0.0
 10
5.3344953258
 20
2.8261763699
 30
0.0
  0
SPLINE
  5
275
100
AcDbEntity
  8
0
100
AcDbSpline
 62
7
  6
CONTINUOUS
 70
0
 71
3
 72
20
 73
16
 74
0
 42
0.0000001
 43
0.0000001
 44
0.0000000001
 40
0.0
 40
0.0
 40
0.0
 40
0.0
 40
0.0338955329
 40
0.069553845
 40
0.1083340415
 40
0.1512284824
 40
0.1988434323
 40
0.2514954777
 40
0.3092291475
 40
0.3718988031
 40
0.4392476066
 40
0.5108677633
 40
0.6649244738
 40
0.8297771534
 40
1.0
 40
1.0
 40
1.0
 40
1.0
 10
5.6682791096
 20
3.3511763699
 30
0.0
 10
5.6679552432
 20
3.3511763699
 30
0.0
 10
5.6672881269
 20
3.3510903029
 30
0.0
 10
5.6663146141
 20
3.3507151314
 30
0.0
 10
5.6653679992
 20
3.3501019421
 30
0.0
 10
5.6644571523
 20
3.349260418
 30
0.0
 10
5.6635861569
 20
3.3482012289
 30
0.0
 10
5.6627620647
 20
3.3469332688
 30
0.0
 10
5.6619909125
 20
3.3454684196
 30
0.0
 10
5.6612794088
 20
3.3438199501
 30
0.0
 10
5.6606352323
 20
3.3420028718
 30
0.0
 10
5.6598539302
 20
3.3393129629
 30
0.0
 10
5.659098498
 20
3.3356522604
 30
0.0
 10
5.6585531421
 20
3.3310059253
 30
0.0
 10
5.6584306137
 20
3.3278028221
 30
0.0
 10
5.6584306247
 20
3.3261763699
 30
0.0
  0
SPLINE
  5
276
100
AcDbEntity
  8
0
100
AcDbSpline
 62
7
  6
CONTINUOUS
 70
0
 71
3
 72
20
 73
16
 74
0
 42
0.0000001
 43
0.0000001
 44
0.0000000001
 40
0.0
 40
0.0
 40
0.0
 40
0.0
 40
0.0338950507
 40
0.069552978
 40
0.1083328941
 40
0.1512271528
 40
0.1988420081
 40
0.2514940333
 40
0.3092277437
 40
0.3718974878
 40
0.4392464167
 40
0.5108667256
 40
0.664923788
 40
0.8297768307
 40
1.0
 40
1.0
 40
1.0
 40
1.0
 10
5.6682791096
 20
2.8511763699
 30
0.0
 10
5.6679552483
 20
2.8511763699
 30
0.0
 10
5.6672881415
 20
2.8512624373
 30
0.0
 10
5.6663146424
 20
2.8516376092
 30
0.0
 10
5.6653680396
 20
2.8522507987
 30
0.0
 10
5.6644572028
 20
2.8530923228
 30
0.0
 10
5.6635862154
 20
2.8541515117
 30
0.0
 10
5.662762129
 20
2.8554194717
 30
0.0
 10
5.6619909802
 20
2.8568843206
 30
0.0
 10
5.6612794776
 20
2.85853279
 30
0.0
 10
5.6606353
 20
2.8603498682
 30
0.0
 10
5.6598539932
 20
2.8630397771
 30
0.0
 10
5.6590985495
 20
2.8667004791
 30
0.0
 10
5.6585531723
 20
2.8713468137
 30
0.0
 10
5.6584306247
 20
2.8745499173
 30
0.0
 10
5.6584306247
 20
2.8761763699
 30
0.0
  0
SPLINE
  5
277
100
AcDbEntity
  8
0
100
AcDbSpline
 62
7
  6
CONTINUOUS
 70
0
 71
3
 72
20
 73
16
 74
0
 42
0.0000001
 43
0.0000001
 44
0.0000000001
 40
0.0
 40
0.0
 40
0.0
 40
0.0
 40
0.173793214
 40
0.3418872383
 40
0.4985148557
 40
0.5710578658
 40
0.639030422
 40
0.7019754044
 40
0.7595871683
 40
0.81166732
 40
0.8582071113
 40
0.8994808139
 40
0.9360810567
 40
0.9690694989
 40
1.0
 40
1.0
 40
1.0
 40
1.0
 10
5.6770628934
 20
2.8261763699
 30
0.0
 10
5.6770628909
 20
2.8278025722
 30
0.0
 10
5.6769537519
 20
2.8310028542
 30
0.0
 10
5.676467982
 20
2.835645863
 30
0.0
 10
5.6757948059
 20
2.8393068929
 30
0.0
 10
5.6750975002
 20
2.8419995031
 30
0.0
 10
5.6745234428
 20
2.8438157797
 30
0.0
 10
5.6738895297
 20
2.845463396
 30
0.0
 10
5.6732027063
 20
2.8469272886
 30
0.0
 10
5.6724690643
 20
2.8481943181
 30
0.0
 10
5.6716939342
 20
2.8492529604
 30
0.0
 10
5.6708834438
 20
2.8500948106
 30
0.0
 10
5.6700399082
 20
2.8507101055
 30
0.0
 10
5.6691693553
 20
2.8510887703
 30
0.0
 10
5.6685685298
 20
2.8511763699
 30
0.0
 10
5.6682791097
 20
2.8511763699
 30
0.0
  0
SPLINE
  5
278
100
AcDbEntity
  8
0
100
AcDbSpline
 62
7
  6
CONTINUOUS
 70
0
 71
3
 72
20
 73
16
 74
0
 42
0.0000001
 43
0.0000001
 44
0.0000000001
 40
0.0
 40
0.0
 40
0.0
 40
0.0
 40
0.1737931392
 40
0.3418870805
 40
0.4985146175
 40
0.5710575928
 40
0.6390301201
 40
0.7019750819
 40
0.7595868355
 40
0.8116669902
 40
0.8582068012
 40
0.8994805436
 40
0.9360808508
 40
0.969069384
 40
1.0
 40
1.0
 40
1.0
 40
1.0
 10
5.6770628934
 20
3.3761763699
 30
0.0
 10
5.6770628934
 20
3.3745501676
 30
0.0
 10
5.6769537587
 20
3.3713498857
 30
0.0
 10
5.6764679937
 20
3.3667068768
 30
0.0
 10
5.6757948203
 20
3.3630458467
 30
0.0
 10
5.6750975157
 20
3.3603532365
 30
0.0
 10
5.6745234585
 20
3.35853696
 30
0.0
 10
5.6738895452
 20
3.3568893436
 30
0.0
 10
5.673202721
 20
3.355425451
 30
0.0
 10
5.6724690777
 20
3.3541584214
 30
0.0
 10
5.6716939458
 20
3.353099779
 30
0.0
 10
5.670883453
 20
3.3522579288
 30
0.0
 10
5.6700399147
 20
3.3516426339
 30
0.0
 10
5.6691693586
 20
3.3512639693
 30
0.0
 10
5.6685685309
 20
3.3511763699
 30
0.0
 10
5.6682791096
 20
3.3511763699
 30
0.0
  0
ENDSEC
  0
SECTION
  2
OBJECTS
  0
DICTIONARY
  5
C
100
AcDbDictionary
280
0
281
1
  3
ACAD_GROUP
350
D
  3
ACAD_MLINESTYLE
350
17
  3
ACAD_LAYOUT
350
1A
  3
ACAD_PLOTSETTINGS
350
19
  3
ACAD_PLOTSTYLENAME
350
E
  0
DICTIONARY
  5
D
102
{ACAD_REACTORS
330
C
102
}
100
AcDbDictionary
280
0
281
1
  0
ACDBDICTIONARYWDFLT
  5
E
102
{ACAD_REACTORS
330
C
102
}
100
AcDbDictionary
281
1
  3
Normal
350
F
100
AcDbDictionaryWithDefault
340
F
  0
DICTIONARY
  5
17
102
{ACAD_REACTORS
330
C
102
}
100
AcDbDictionary
280
0
281
1
  3
Standard
350
18
  0
DICTIONARY
  5
19
102
{ACAD_REACTORS
330
C
102
}
100
AcDbDictionary
281
1
  0
DICTIONARY
  5
1A
102
{ACAD_REACTORS
330
C
102
}
100
AcDbDictionary
281
1
  3
Model
350
279
  3
Layout1
350
27A
  0
ACDBPLACEHOLDER
  5
F
102
{ACAD_REACTORS
330
E
102
}
  0
MLINESTYLE
  5
18
102
{ACAD_REACTORS
330
17
102
}
100
AcDbMlineStyle
  2
STANDARD
 70
0
  3

 62
256
 51
90.0
 52
90.0
 71
2
 49
0.5
 62
256
  6
BYLAYER
 49
-0.5
 62
256
  6
BYLAYER
  0
LAYOUT
  5
279
102
{ACAD_REACTORS
330
1A
102
}
100
AcDbPlotSettings
  1

  2
none_device
  4
ANSI_A_(11.00_x_8.50_Inches)
  6

 40
0.0
 41
0.0
 42
0.0
 43
0.0
 44
279.4
 45
215.9
 46
0.0
 47
0.0
 48
0.0
 49
0.0
140
0.0
141
0.0
142
1.0
143
1.0
 70
1024
 72
0
 73
0
 74
0
  7

 75
0
147
1.0
148
0.0
149
0.0
100
AcDbLayout
  1
Model
 70
0
 71
0
 10
0.0
 20
0.0
 11
11.0
 21
8.5
 12
0.0
 22
0.0
 32
0.0
 14
0.0
 24
0.0
 34
0.0
 15
0.0
 25
0.0
 35
0.0
146
0.0
 13
0.0
 23
0.0
 33
0.0
 16
1.0
 26
0.0
 36
0.0
 17
0.0
 27
1.0
 37
0.0
 76
0
330
203
345
0
346
0
  0
LAYOUT
  5
27A
102
{ACAD_REACTORS
330
1A
102
}
100
AcDbPlotSettings
  1

  2
none_device
  4
ANSI_A_(11.00_x_8.50_Inches)
  6

 40
0.0
 41
0.0
 42
0.0
 43
0.0
 44
279.4
 45
215.9
 46
0.0
 47
0.0
 48
0.0
 49
0.0
140
0.0
141
0.0
142
1.0
143
1.0
 70
0
 72
0
 73
0
 74
0
  7

 75
0
147
1.0
148
0.0
149
0.0
100
AcDbLayout
  1
Layout1
 70
0
 71
1
 10
0.0
 20
0.0
 11
11.0
 21
8.5
 12
0.0
 22
0.0
 32
0.0
 14
0.0
 24
0.0
 34
0.0
 15
0.0
 25
0.0
 35
0.0
146
0.0
 13
0.0
 23
0.0
 33
0.0
 16
1.0
 26
0.0
 36
0.0
 17
0.0
 27
1.0
 37
0.0
 76
0
330
204
345
0
346
0
  0
ENDSEC
  0
EOF
