999
DXF file: 4-3284bp_right.dxf
999
Pro/ENGINEER 2023134 by Parametric Technology Corporation
  0
SECTION
  2
HEADER
  9
$ACADVER
  1
AC1032
  9
$DWGCODEPAGE
  3
ANSI_1252
  9
$EXTMAX
 10
11.0
 20
8.5
 30
0.0
  9
$EXTMIN
 10
0.0
 20
0.0
 30
0.0
  9
$LIMMIN
 10
0.0
 20
0.0
  9
$LIMMAX
 10
11.0
 20
8.5
  9
$VIEWCTR
 10
5.5
 20
4.25
  9
$VIEWSIZE
 40
8.5
  9
$CLAYER
  8
0
  9
$LTSCALE
 40
0.605
  9
$CELTYPE
  6
BYLAYER
  9
$DIMSCALE
 40
1.0
  9
$DIMASZ
 40
0.1
  9
$DIMEXO
 40
0.0625
  9
$DIMDLI
 40
0.418
  9
$DIMEXE
 40
0.125
  9
$DIMCEN
 40
0.099
  9
$DIMLFAC
 40
1.0
  9
$DIMBLK
  1
_FILLED
  9
$DIMALT
 70
1
  9
$DIMALTD
 70
2
  9
$DIMALTTD
 70
2
  9
$DIMALTF
 40
25.4
  9
$DIMTXT
 40
0.08
  9
$DIMTOL
 70
1
  9
$DIMLIM
 70
0
  9
$DIMTFAC
 40
1.0
  9
$DIMTP
 40
0.001
  9
$DIMTM
 40
0.001
  9
$DIMGAP
 40
0.09
  9
$DIMDSEP
 70
46
  9
$AUNITS
 70
0
  9
$PDMODE
 70
3
  9
$PDSIZE
 40
0.3125
  9
$HANDSEED
  5
289
  9
$TILEMODE
 70
1
  9
$MEASUREMENT
 70
0
  9
$INSUNITS
 70
1
  0
ENDSEC
  0
SECTION
  2
CLASSES
  0
CLASS
  1
ACDBDICTIONARYWDFLT
  2
AcDbDictionaryWithDefault
  3
AutoCAD 2000
 90
0
 91
1
280
0
281
0
  0
CLASS
  1
ACDBPLACEHOLDER
  2
AcDbPlaceHolder
  3
AutoCAD 2000
 90
0
 91
1
280
0
281
0
  0
CLASS
  1
LAYOUT
  2
AcDbLayout
  3
AutoCAD 2000
 90
0
 91
0
280
0
281
0
  0
ENDSEC
  0
SECTION
  2
TABLES
  0
TABLE
  2
VPORT
  5
8
100
AcDbSymbolTable
 70
2
  0
VPORT
  5
1F4
100
AcDbSymbolTableRecord
100
AcDbViewportTableRecord
  2
*ACTIVE
 70
0
 10
0.0
 20
0.0
 11
1.0
 21
1.0
 12
5.5
 22
4.25
 13
0.0
 23
0.0
 14
1.0
 24
1.0
 15
0.0
 25
0.0
 16
0.0
 26
0.0
 36
1.0
 17
0.0
 27
0.0
 37
0.0
 40
8.5
 41
1.2941176471
 42
50.0
 43
0.0
 44
0.0
 50
0.0
 51
0.0
 71
0
 72
100
 73
1
 74
1
 75
0
 76
0
 77
0
 78
0
  0
ENDTAB
  0
TABLE
  2
LTYPE
  5
5
100
AcDbSymbolTable
 70
6
  0
LTYPE
  5
14
100
AcDbSymbolTableRecord
100
AcDbLinetypeTableRecord
  2
BYBLOCK
 70
0
  3

 72
65
 73
0
 40
0.0
  0
LTYPE
  5
15
100
AcDbSymbolTableRecord
100
AcDbLinetypeTableRecord
  2
BYLAYER
 70
0
  3

 72
65
 73
0
 40
0.0
  0
LTYPE
  5
16
100
AcDbSymbolTableRecord
100
AcDbLinetypeTableRecord
  2
CONTINUOUS
 70
64
  3
Solid line
 72
65
 73
0
 40
0.0
  0
LTYPE
  5
1F5
100
AcDbSymbolTableRecord
100
AcDbLinetypeTableRecord
  2
CENTER
 70
64
  3
____ _ ____ _ ____ _ ____ _ ____ _ ____ _ ____
 72
65
 73
4
 40
0.6
 49
0.375
 74
0
 49
-0.075
 74
0
 49
0.075
 74
0
 49
-0.075
 74
0
  0
LTYPE
  5
1F6
100
AcDbSymbolTableRecord
100
AcDbLinetypeTableRecord
  2
HIDDEN
 70
64
  3
- - - - - - - - - - - - - - - - - - - -
 72
65
 73
2
 40
0.2
 49
0.1
 74
0
 49
-0.1
 74
0
  0
LTYPE
  5
1F7
100
AcDbSymbolTableRecord
100
AcDbLinetypeTableRecord
  2
PHANTOM
 70
64
  3
_____ _ _ _____ _ _ _____ _ _ _____
 72
65
 73
6
 40
0.8
 49
0.45
 74
0
 49
-0.05
 74
0
 49
0.1
 74
0
 49
-0.05
 74
0
 49
0.1
 74
0
 49
-0.05
 74
0
  0
LTYPE
  5
1F8
100
AcDbSymbolTableRecord
100
AcDbLinetypeTableRecord
  2
DOT
 70
64
  3
. . . . . . . . . . . . . . . . . . . .
 72
65
 73
2
 40
0.2
 49
0.1
 74
0
 49
-0.1
 74
0
  0
LTYPE
  5
1F9
100
AcDbSymbolTableRecord
100
AcDbLinetypeTableRecord
  2
DASHED
 70
64
  3
- - - - - - - - - - - - - - - - - - - -
 72
65
 73
2
 40
0.2
 49
0.1
 74
0
 49
-0.1
 74
0
  0
ENDTAB
  0
TABLE
  2
LAYER
  5
2
100
AcDbSymbolTable
 70
36
  0
LAYER
  5
10
100
AcDbSymbolTableRecord
100
AcDbLayerTableRecord
  2
0
 70
0
 62
7
  6
CONTINUOUS
370
-3
390
F
  0
LAYER
  5
1FA
100
AcDbSymbolTableRecord
100
AcDbLayerTableRecord
  2
DEFAULT_1
 70
0
 62
7
  6
CENTER
370
-3
390
F
  0
LAYER
  5
1FB
100
AcDbSymbolTableRecord
100
AcDbLayerTableRecord
  2
DEFAULT_2
 70
0
 62
8
  6
HIDDEN
370
-3
390
F
  0
LAYER
  5
1FC
100
AcDbSymbolTableRecord
100
AcDbLayerTableRecord
  2
DEFAULT_3
 70
0
 62
7
  6
PHANTOM
370
-3
390
F
  0
LAYER
  5
1FD
100
AcDbSymbolTableRecord
100
AcDbLayerTableRecord
  2
DEFAULT_COORDINATE_SYSTEM
 70
0
 62
7
  6
CONTINUOUS
370
-3
390
F
  0
LAYER
  5
1FE
100
AcDbSymbolTableRecord
100
AcDbLayerTableRecord
  2
DEFAULT_DATUM_AXES
 70
0
 62
7
  6
CONTINUOUS
370
-3
390
F
  0
LAYER
  5
1FF
100
AcDbSymbolTableRecord
100
AcDbLayerTableRecord
  2
DEFAULT_DATUM_CURVES
 70
0
 62
7
  6
CONTINUOUS
370
-3
390
F
  0
LAYER
  5
200
100
AcDbSymbolTableRecord
100
AcDbLayerTableRecord
  2
DEFAULT_DATUM_PLANES
 70
0
 62
7
  6
CONTINUOUS
370
-3
390
F
  0
ENDTAB
  0
TABLE
  2
STYLE
  5
3
100
AcDbSymbolTable
 70
1
  0
STYLE
  5
11
100
AcDbSymbolTableRecord
100
AcDbTextStyleTableRecord
  2
STANDARD
 70
0
 40
0.0
 41
0.8
 50
0.0
 71
0
 42
0.2
  3
txt
  4

  0
STYLE
  5
201
100
AcDbSymbolTableRecord
100
AcDbTextStyleTableRecord
  2
TEXTSTYLE_1
 70
0
 40
0.0
 41
0.8
 50
0.0
 71
0
 42
0.2
  3
gdt
  4

  0
ENDTAB
  0
TABLE
  2
VIEW
  5
6
100
AcDbSymbolTable
 70
0
  0
ENDTAB
  0
TABLE
  2
UCS
  5
7
100
AcDbSymbolTable
 70
0
  0
ENDTAB
  0
TABLE
  2
APPID
  5
9
100
AcDbSymbolTable
 70
1
  0
APPID
  5
202
100
AcDbSymbolTableRecord
100
AcDbRegAppTableRecord
  2
ACAD
 70
0
  0
ENDTAB
  0
TABLE
  2
BLOCK_RECORD
  5
1
100
AcDbSymbolTable
 70
0
  0
BLOCK_RECORD
  5
203
100
AcDbSymbolTableRecord
100
AcDbBlockTableRecord
  2
*Model_Space
  0
BLOCK_RECORD
  5
204
100
AcDbSymbolTableRecord
100
AcDbBlockTableRecord
  2
*Paper_Space
  0
BLOCK_RECORD
  5
205
100
AcDbSymbolTableRecord
100
AcDbBlockTableRecord
  2
_FILLED
  0
ENDTAB
  0
TABLE
  2
DIMSTYLE
  5
A
100
AcDbSymbolTable
 70
1
100
AcDbDimStyleTable
 71
0
  0
DIMSTYLE
105
206
100
AcDbSymbolTableRecord
100
AcDbDimStyleTableRecord
  2
STANDARD
 70
0
  3

  4

 40
1.0
 41
0.1
 42
0.0625
 43
0.38
 44
0.125
 45
0.0
 46
0.0
 47
0.001
 48
0.001
140
0.08
141
0.09
142
0.0
143
25.4
144
1.0
145
0.0
146
1.0
147
0.09
 71
1
 72
0
 73
1
 74
1
 75
0
 76
0
 77
0
 78
4
 79
1
170
1
171
2
172
0
173
0
174
0
175
0
176
0
177
0
178
0
270
2
179
3
271
3
272
3
273
2
274
2
275
0
280
0
281
0
282
0
283
1
284
4
285
0
286
0
287
3
288
0
340
11
278
46
341
205
342
205
343
205
344
205
  0
ENDTAB
  0
ENDSEC
  0
SECTION
  2
BLOCKS
  0
BLOCK
  5
20
100
AcDbEntity
  8
0
100
AcDbBlockBegin
  2
*Model_Space
 70
0
 10
0.0
 20
0.0
 30
0.0
  3
*Model_Space
  1

  0
ENDBLK
  5
21
100
AcDbEntity
  8
0
100
AcDbBlockEnd
  0
BLOCK
  5
1C
100
AcDbEntity
  8
0
100
AcDbBlockBegin
  2
*Paper_Space
 70
0
 10
0.0
 20
0.0
 30
0.0
  3
*Paper_Space
  1

  0
ENDBLK
  5
1D
100
AcDbEntity
  8
0
100
AcDbBlockEnd
  0
BLOCK
  5
207
100
AcDbEntity
  8
0
100
AcDbBlockBegin
  2
_FILLED
 70
64
 10
0.0
 20
0.0
  3
_FILLED
  1

  0
SOLID
  5
208
100
AcDbEntity
  8
0
  6
BYBLOCK
 62
0
100
AcDbTrace
 10
0.0
 20
0.0
 11
-1.0
 21
0.2
 12
-1.0
 22
-0.2
 13
-1.0
 23
-0.2
  0
ENDBLK
  5
209
100
AcDbEntity
  8
0
  6
BYBLOCK
 62
0
100
AcDbBlockEnd
  0
ENDSEC
  0
SECTION
  2
ENTITIES
  0
MTEXT
  5
20A
100
AcDbEntity
  8
0
100
AcDbMText
 62
2
  6
CONTINUOUS
  7
STANDARD
 71
3
 72
1
 10
5.8300451264
 20
0.5975513699
 30
0.0
 11
1.0
 21
0.0
 31
0.0
 73
2
 44
0.9
  1
SCALE 1.000
 40
0.08
 41
0.704
  0
LINE
  5
20B
100
AcDbEntity
  8
0
100
AcDbLine
 62
7
  6
CONTINUOUS
 10
0.0
 20
0.0
 11
0.0
 21
8.5
  0
LINE
  5
20C
100
AcDbEntity
  8
0
100
AcDbLine
 62
7
  6
CONTINUOUS
 10
0.0
 20
0.0
 11
11.0
 21
0.0
  0
LINE
  5
20D
100
AcDbEntity
  8
0
100
AcDbLine
 62
7
  6
CONTINUOUS
 10
0.0
 20
8.5
 11
11.0
 21
8.5
  0
LINE
  5
20E
100
AcDbEntity
  8
0
100
AcDbLine
 62
7
  6
CONTINUOUS
 10
11.0
 20
0.0
 11
11.0
 21
8.5
  0
LINE
  5
20F
100
AcDbEntity
  8
0
100
AcDbLine
 62
7
  6
CONTINUOUS
 10
7.3686866438
 20
1.2196061644
 11
7.2292233835
 21
1.2196061644
  0
LINE
  5
210
100
AcDbEntity
  8
0
100
AcDbLine
 62
7
  6
CONTINUOUS
 10
3.8046866438
 20
3.1996061644
 11
3.8046866438
 21
5.7396061644
  0
LINE
  5
211
100
AcDbEntity
  8
0
100
AcDbLine
 62
7
  6
CONTINUOUS
 10
3.8346866438
 20
5.7204059085
 11
3.8346866438
 21
4.7196061644
  0
LINE
  5
212
100
AcDbEntity
  8
0
100
AcDbLine
 62
7
  6
CONTINUOUS
 10
3.8346866438
 20
3.2188064202
 11
3.8346866438
 21
4.2196061644
  0
LINE
  5
213
100
AcDbEntity
  8
0
100
AcDbLine
 62
7
  6
CONTINUOUS
 10
3.8746866438
 20
3.243115058
 11
3.8746866438
 21
4.2196061644
  0
LINE
  5
214
100
AcDbEntity
  8
0
100
AcDbLine
 62
7
  6
CONTINUOUS
 10
3.8746866438
 20
4.7196061644
 11
3.8746866438
 21
5.6960972708
  0
LINE
  5
215
100
AcDbEntity
  8
0
100
AcDbLine
 62
7
  6
CONTINUOUS
 10
3.9046866438
 20
3.2431150402
 11
3.9046866438
 21
4.2196061644
  0
LINE
  5
216
100
AcDbEntity
  8
0
100
AcDbLine
 62
7
  6
CONTINUOUS
 10
3.9046866438
 20
4.7196061644
 11
3.9046866438
 21
5.6960972705
  0
LINE
  5
217
100
AcDbEntity
  8
0
100
AcDbLine
 62
7
  6
CONTINUOUS
 10
3.9346866438
 20
3.0696061644
 11
3.9346866438
 21
3.1173857681
  0
LINE
  5
218
100
AcDbEntity
  8
0
100
AcDbLine
 62
7
  6
CONTINUOUS
 10
3.9346866438
 20
3.1551300585
 11
3.9346866438
 21
5.7840822703
  0
LINE
  5
219
100
AcDbEntity
  8
0
100
AcDbLine
 62
7
  6
CONTINUOUS
 10
3.9346866438
 20
5.8218265606
 11
3.9346866438
 21
5.8696061644
  0
LINE
  5
21A
100
AcDbEntity
  8
0
100
AcDbLine
 62
7
  6
CONTINUOUS
 10
4.3746866438
 20
3.0696061644
 11
4.3746866438
 21
3.1173857681
  0
LINE
  5
21B
100
AcDbEntity
  8
0
100
AcDbLine
 62
7
  6
CONTINUOUS
 10
4.3746866438
 20
3.1551300585
 11
4.3746866438
 21
5.7840822703
  0
LINE
  5
21C
100
AcDbEntity
  8
0
100
AcDbLine
 62
7
  6
CONTINUOUS
 10
4.3746866438
 20
5.8218265606
 11
4.3746866438
 21
5.8696061644
  0
LINE
  5
21D
100
AcDbEntity
  8
0
100
AcDbLine
 62
7
  6
CONTINUOUS
 10
4.3746866438
 20
3.0696061644
 11
3.9346866438
 21
3.0696061644
  0
LINE
  5
21E
100
AcDbEntity
  8
0
100
AcDbLine
 62
7
  6
CONTINUOUS
 10
4.3746866438
 20
3.0877751025
 11
3.9346866438
 21
3.0877751025
  0
LINE
  5
21F
100
AcDbEntity
  8
0
100
AcDbLine
 62
7
  6
CONTINUOUS
 10
4.3746866438
 20
3.1173857681
 11
3.9346866438
 21
3.1173857681
  0
LINE
  5
220
100
AcDbEntity
  8
0
100
AcDbLine
 62
7
  6
CONTINUOUS
 10
4.3746866438
 20
3.1551300585
 11
3.9346866438
 21
3.1551300585
  0
LINE
  5
221
100
AcDbEntity
  8
0
100
AcDbLine
 62
7
  6
CONTINUOUS
 10
4.3746866438
 20
3.1781096413
 11
3.9346866438
 21
3.1781096413
  0
LINE
  5
222
100
AcDbEntity
  8
0
100
AcDbLine
 62
7
  6
CONTINUOUS
 10
4.5046866438
 20
3.2188064202
 11
4.4746866438
 21
3.2188064202
  0
LINE
  5
223
100
AcDbEntity
  8
0
100
AcDbLine
 62
7
  6
CONTINUOUS
 10
3.8046866438
 20
3.2188064202
 11
3.8346866438
 21
3.2188064202
  0
LINE
  5
224
100
AcDbEntity
  8
0
100
AcDbLine
 62
7
  6
CONTINUOUS
 10
4.4346866438
 20
3.243115058
 11
4.4046866438
 21
3.243115058
  0
LINE
  5
225
100
AcDbEntity
  8
0
100
AcDbLine
 62
7
  6
CONTINUOUS
 10
3.8746866438
 20
3.243115058
 11
3.9046866438
 21
3.243115058
  0
LINE
  5
226
100
AcDbEntity
  8
0
100
AcDbLine
 62
7
  6
CONTINUOUS
 10
4.4046866438
 20
5.6960972708
 11
4.4046866438
 21
4.7196061644
  0
LINE
  5
227
100
AcDbEntity
  8
0
100
AcDbLine
 62
7
  6
CONTINUOUS
 10
4.4046866438
 20
4.2196061644
 11
4.4046866438
 21
3.2431150575
  0
LINE
  5
228
100
AcDbEntity
  8
0
100
AcDbLine
 62
7
  6
CONTINUOUS
 10
4.4346866438
 20
5.6960972708
 11
4.4346866438
 21
4.7196061644
  0
LINE
  5
229
100
AcDbEntity
  8
0
100
AcDbLine
 62
7
  6
CONTINUOUS
 10
4.4346866438
 20
4.2196061644
 11
4.4346866438
 21
3.243115058
  0
LINE
  5
22A
100
AcDbEntity
  8
0
100
AcDbLine
 62
7
  6
CONTINUOUS
 10
4.4746866438
 20
4.2196061644
 11
4.4746866438
 21
3.2188064202
  0
LINE
  5
22B
100
AcDbEntity
  8
0
100
AcDbLine
 62
7
  6
CONTINUOUS
 10
4.4746866438
 20
4.7196061644
 11
4.4746866438
 21
5.7204059085
  0
LINE
  5
22C
100
AcDbEntity
  8
0
100
AcDbLine
 62
7
  6
CONTINUOUS
 10
4.5046866438
 20
3.1996061644
 11
4.5046866438
 21
5.7396061644
  0
LINE
  5
22D
100
AcDbEntity
  8
0
100
AcDbLine
 62
7
  6
CONTINUOUS
 10
4.5356866438
 20
4.0121061644
 11
4.5356866438
 21
4.9271061644
  0
LINE
  5
22E
100
AcDbEntity
  8
0
100
AcDbLine
 62
7
  6
CONTINUOUS
 10
4.5656866438
 20
3.9821061644
 11
4.5656866438
 21
4.9571061644
  0
LINE
  5
22F
100
AcDbEntity
  8
0
100
AcDbLine
 62
7
  6
CONTINUOUS
 10
7.0556866438
 20
3.3446061644
 11
6.9856866438
 21
3.3446061644
  0
LINE
  5
230
100
AcDbEntity
  8
0
100
AcDbLine
 62
7
  6
CONTINUOUS
 10
3.9046866438
 20
3.3696061644
 11
4.4046866438
 21
3.3696061644
  0
LINE
  5
231
100
AcDbEntity
  8
0
100
AcDbLine
 62
7
  6
CONTINUOUS
 10
6.9056866438
 20
3.4246061644
 11
6.7356866438
 21
3.4246061644
  0
LINE
  5
232
100
AcDbEntity
  8
0
100
AcDbLine
 62
7
  6
CONTINUOUS
 10
3.8046866438
 20
3.8946061644
 11
4.5046866438
 21
3.8946061644
  0
LINE
  5
233
100
AcDbEntity
  8
0
100
AcDbLine
 62
7
  6
CONTINUOUS
 10
6.6656866438
 20
3.9821061644
 11
4.5656866438
 21
3.9821061644
  0
LINE
  5
234
100
AcDbEntity
  8
0
100
AcDbLine
 62
7
  6
CONTINUOUS
 10
6.6956866438
 20
4.0446061644
 11
6.7056866438
 21
4.0446061644
  0
LINE
  5
235
100
AcDbEntity
  8
0
100
AcDbLine
 62
7
  6
CONTINUOUS
 10
4.5356866438
 20
4.2108322248
 11
4.5046866438
 21
4.2108322248
  0
LINE
  5
236
100
AcDbEntity
  8
0
100
AcDbLine
 62
7
  6
CONTINUOUS
 10
3.8346866438
 20
4.2196061644
 11
4.4746866438
 21
4.2196061644
  0
LINE
  5
237
100
AcDbEntity
  8
0
100
AcDbLine
 62
7
  6
CONTINUOUS
 10
3.9346866438
 20
4.2447886461
 11
4.3746866438
 21
4.2447886461
  0
LINE
  5
238
100
AcDbEntity
  8
0
100
AcDbLine
 62
7
  6
CONTINUOUS
 10
3.9346866438
 20
4.6944236826
 11
4.3746866438
 21
4.6944236826
  0
LINE
  5
239
100
AcDbEntity
  8
0
100
AcDbLine
 62
7
  6
CONTINUOUS
 10
3.8346866438
 20
4.7196061644
 11
4.4746866438
 21
4.7196061644
  0
LINE
  5
23A
100
AcDbEntity
  8
0
100
AcDbLine
 62
7
  6
CONTINUOUS
 10
4.5356866438
 20
4.728380104
 11
4.5046866438
 21
4.728380104
  0
LINE
  5
23B
100
AcDbEntity
  8
0
100
AcDbLine
 62
7
  6
CONTINUOUS
 10
6.6956866438
 20
4.8946061644
 11
6.7056866438
 21
4.8946061644
  0
LINE
  5
23C
100
AcDbEntity
  8
0
100
AcDbLine
 62
7
  6
CONTINUOUS
 10
6.6656866438
 20
4.9571061644
 11
4.5656866438
 21
4.9571061644
  0
LINE
  5
23D
100
AcDbEntity
  8
0
100
AcDbLine
 62
7
  6
CONTINUOUS
 10
3.8046866438
 20
5.0446061644
 11
4.5046866438
 21
5.0446061644
  0
LINE
  5
23E
100
AcDbEntity
  8
0
100
AcDbLine
 62
7
  6
CONTINUOUS
 10
6.6656866438
 20
3.9821061644
 11
6.6656866438
 21
4.9571061644
  0
LINE
  5
23F
100
AcDbEntity
  8
0
100
AcDbLine
 62
7
  6
CONTINUOUS
 10
6.6956866438
 20
4.0121061644
 11
6.6956866438
 21
4.9271061644
  0
LINE
  5
240
100
AcDbEntity
  8
0
100
AcDbLine
 62
7
  6
CONTINUOUS
 10
6.7056866438
 20
3.4546061644
 11
6.7056866438
 21
5.4846061644
  0
LINE
  5
241
100
AcDbEntity
  8
0
100
AcDbLine
 62
7
  6
CONTINUOUS
 10
6.7356866438
 20
3.4246061644
 11
6.7356866438
 21
5.5146061644
  0
LINE
  5
242
100
AcDbEntity
  8
0
100
AcDbLine
 62
7
  6
CONTINUOUS
 10
6.9056866438
 20
5.5146061644
 11
6.7356866438
 21
5.5146061644
  0
LINE
  5
243
100
AcDbEntity
  8
0
100
AcDbLine
 62
7
  6
CONTINUOUS
 10
3.9046866438
 20
5.5696061644
 11
4.4046866438
 21
5.5696061644
  0
LINE
  5
244
100
AcDbEntity
  8
0
100
AcDbLine
 62
7
  6
CONTINUOUS
 10
7.0556866438
 20
5.5946061644
 11
6.9856866438
 21
5.5946061644
  0
LINE
  5
245
100
AcDbEntity
  8
0
100
AcDbLine
 62
7
  6
CONTINUOUS
 10
4.4346866438
 20
5.6960972708
 11
4.4046866438
 21
5.6960972708
  0
LINE
  5
246
100
AcDbEntity
  8
0
100
AcDbLine
 62
7
  6
CONTINUOUS
 10
3.8746866438
 20
5.6960972708
 11
3.9046866438
 21
5.6960972708
  0
LINE
  5
247
100
AcDbEntity
  8
0
100
AcDbLine
 62
7
  6
CONTINUOUS
 10
3.8346866438
 20
5.7204059085
 11
3.8046866438
 21
5.7204059085
  0
LINE
  5
248
100
AcDbEntity
  8
0
100
AcDbLine
 62
7
  6
CONTINUOUS
 10
4.4746866438
 20
5.7204059085
 11
4.5046866438
 21
5.7204059083
  0
LINE
  5
249
100
AcDbEntity
  8
0
100
AcDbLine
 62
7
  6
CONTINUOUS
 10
6.9056866438
 20
5.5146061644
 11
6.9056866438
 21
3.4246061644
  0
LINE
  5
24A
100
AcDbEntity
  8
0
100
AcDbLine
 62
7
  6
CONTINUOUS
 10
6.9556866438
 20
5.5646061644
 11
6.9556866438
 21
3.3746061644
  0
LINE
  5
24B
100
AcDbEntity
  8
0
100
AcDbLine
 62
7
  6
CONTINUOUS
 10
6.9856866438
 20
3.3446061644
 11
6.9856866438
 21
5.5946061644
  0
LINE
  5
24C
100
AcDbEntity
  8
0
100
AcDbLine
 62
7
  6
CONTINUOUS
 10
7.0556866438
 20
1.3867626746
 11
7.0556866438
 21
7.5524496541
  0
LINE
  5
24D
100
AcDbEntity
  8
0
100
AcDbLine
 62
7
  6
CONTINUOUS
 10
7.0976236535
 20
1.327388013
 11
7.0976236535
 21
7.6118243157
  0
LINE
  5
24E
100
AcDbEntity
  8
0
100
AcDbLine
 62
7
  6
CONTINUOUS
 10
3.9346866438
 20
5.7611026875
 11
4.3746866438
 21
5.7611026875
  0
LINE
  5
24F
100
AcDbEntity
  8
0
100
AcDbLine
 62
7
  6
CONTINUOUS
 10
3.9346866438
 20
5.7840822703
 11
4.3746866438
 21
5.7840822703
  0
LINE
  5
250
100
AcDbEntity
  8
0
100
AcDbLine
 62
7
  6
CONTINUOUS
 10
4.3746866438
 20
5.8218265606
 11
3.9346866438
 21
5.8218265606
  0
LINE
  5
251
100
AcDbEntity
  8
0
100
AcDbLine
 62
7
  6
CONTINUOUS
 10
4.3746866438
 20
5.8514372262
 11
3.9346866438
 21
5.8514372262
  0
LINE
  5
252
100
AcDbEntity
  8
0
100
AcDbLine
 62
7
  6
CONTINUOUS
 10
4.3746866438
 20
5.8696061644
 11
3.9346866438
 21
5.8696061644
  0
LINE
  5
253
100
AcDbEntity
  8
0
100
AcDbLine
 62
7
  6
CONTINUOUS
 10
7.1712042935
 20
1.25805448
 11
7.1712042935
 21
7.6811578487
  0
LINE
  5
254
100
AcDbEntity
  8
0
100
AcDbLine
 62
7
  6
CONTINUOUS
 10
7.2292233835
 20
1.2196061644
 11
7.2292233835
 21
7.7196061644
  0
LINE
  5
255
100
AcDbEntity
  8
0
100
AcDbLine
 62
7
  6
CONTINUOUS
 10
7.3686866438
 20
7.7196061644
 11
7.3686866438
 21
1.2196061644
  0
LINE
  5
256
100
AcDbEntity
  8
0
100
AcDbLine
 62
7
  6
CONTINUOUS
 10
7.3686866438
 20
7.7196061644
 11
7.2292233835
 21
7.7196061644
  0
ARC
  5
257
100
AcDbEntity
  8
0
100
AcDbCircle
 62
7
  6
CONTINUOUS
 10
3.9370358871
 20
3.2188236243
 40
0.1323492443
100
AcDbArc
 50
180.0074478576
 51
186.6409895516
  0
ARC
  5
258
100
AcDbEntity
  8
0
100
AcDbCircle
 62
7
  6
CONTINUOUS
 10
3.9370314827
 20
5.7203890333
 40
0.1323448399
100
AcDbArc
 50
173.3582706346
 51
179.9926942366
  0
ARC
  5
259
100
AcDbEntity
  8
0
100
AcDbCircle
 62
7
  6
CONTINUOUS
 10
4.3724590514
 20
5.7203956262
 40
0.1322275929
100
AcDbArc
 50
0.0044554516
 51
6.6452770902
  0
ARC
  5
25A
100
AcDbEntity
  8
0
100
AcDbCircle
 62
7
  6
CONTINUOUS
 10
4.372461854
 20
3.2188165046
 40
0.1322247902
100
AcDbArc
 50
353.3538788441
 51
359.995630217
  0
ARC
  5
25B
100
AcDbEntity
  8
0
100
AcDbCircle
 62
7
  6
CONTINUOUS
 10
4.3746866438
 20
3.1996061644
 40
0.13
100
AcDbArc
 50
270.0
 51
360.0
  0
ARC
  5
25C
100
AcDbEntity
  8
0
100
AcDbCircle
 62
7
  6
CONTINUOUS
 10
3.9346866438
 20
3.1996061644
 40
0.13
100
AcDbArc
 50
180.0
 51
270.0
  0
ARC
  5
25D
100
AcDbEntity
  8
0
100
AcDbCircle
 62
7
  6
CONTINUOUS
 10
4.3746866438
 20
5.7396061644
 40
0.13
100
AcDbArc
 50
0.0
 51
90.0
  0
ARC
  5
25E
100
AcDbEntity
  8
0
100
AcDbCircle
 62
7
  6
CONTINUOUS
 10
3.9346866438
 20
5.7396061644
 40
0.13
100
AcDbArc
 50
90.0
 51
180.0
  0
ARC
  5
25F
100
AcDbEntity
  8
0
100
AcDbCircle
 62
7
  6
CONTINUOUS
 10
7.0556866438
 20
1.2091713818
 40
0.1254347826
100
AcDbArc
 50
22.9364108859
 51
70.4680059554
  0
ARC
  5
260
100
AcDbEntity
  8
0
100
AcDbCircle
 62
7
  6
CONTINUOUS
 10
7.0556866438
 20
7.730040947
 40
0.1254347826
100
AcDbArc
 50
289.5319940446
 51
337.0635891141
  0
ARC
  5
261
100
AcDbEntity
  8
0
100
AcDbCircle
 62
7
  6
CONTINUOUS
 10
7.2292233835
 20
1.2826061644
 40
0.063
100
AcDbArc
 50
202.9364108859
 51
270.0
  0
ARC
  5
262
100
AcDbEntity
  8
0
100
AcDbCircle
 62
7
  6
CONTINUOUS
 10
7.2292233835
 20
7.6566061644
 40
0.063
100
AcDbArc
 50
90.0
 51
157.0635891141
  0
ARC
  5
263
100
AcDbEntity
  8
0
100
AcDbCircle
 62
7
  6
CONTINUOUS
 10
7.1186866438
 20
1.3867626746
 40
0.063
100
AcDbArc
 50
180.0
 51
250.4680059544
  0
ARC
  5
264
100
AcDbEntity
  8
0
100
AcDbCircle
 62
7
  6
CONTINUOUS
 10
7.1186866438
 20
7.5524496541
 40
0.063
100
AcDbArc
 50
109.5319940456
 51
180.0
  0
ARC
  5
265
100
AcDbEntity
  8
0
100
AcDbCircle
 62
7
  6
CONTINUOUS
 10
6.9056866438
 20
3.3746061644
 40
0.05
100
AcDbArc
 50
0.0
 51
90.0
  0
ARC
  5
266
100
AcDbEntity
  8
0
100
AcDbCircle
 62
7
  6
CONTINUOUS
 10
6.9056866438
 20
5.5646061644
 40
0.05
100
AcDbArc
 50
270.0
 51
360.0
  0
ARC
  5
267
100
AcDbEntity
  8
0
100
AcDbCircle
 62
7
  6
CONTINUOUS
 10
3.8346866438
 20
4.6896061644
 40
0.03
100
AcDbArc
 50
90.0000000005
 51
180.0
  0
ARC
  5
268
100
AcDbEntity
  8
0
100
AcDbCircle
 62
7
  6
CONTINUOUS
 10
4.4746866438
 20
4.6896061644
 40
0.03
100
AcDbArc
 50
0.0000000002
 51
90.0
  0
ARC
  5
269
100
AcDbEntity
  8
0
100
AcDbCircle
 62
7
  6
CONTINUOUS
 10
3.8346866438
 20
4.2496061644
 40
0.03
100
AcDbArc
 50
180.0
 51
270.0
  0
ARC
  5
26A
100
AcDbEntity
  8
0
100
AcDbCircle
 62
7
  6
CONTINUOUS
 10
4.4746866438
 20
4.2496061644
 40
0.03
100
AcDbArc
 50
270.0
 51
360.0
  0
ARC
  5
26B
100
AcDbEntity
  8
0
100
AcDbCircle
 62
7
  6
CONTINUOUS
 10
6.6656866438
 20
4.9271061644
 40
0.03
100
AcDbArc
 50
0.0
 51
90.0
  0
ARC
  5
26C
100
AcDbEntity
  8
0
100
AcDbCircle
 62
7
  6
CONTINUOUS
 10
6.6656866438
 20
4.0121061644
 40
0.03
100
AcDbArc
 50
270.0
 51
360.0
  0
ARC
  5
26D
100
AcDbEntity
  8
0
100
AcDbCircle
 62
7
  6
CONTINUOUS
 10
4.5656866438
 20
4.9271061644
 40
0.03
100
AcDbArc
 50
90.0
 51
180.0
  0
ARC
  5
26E
100
AcDbEntity
  8
0
100
AcDbCircle
 62
7
  6
CONTINUOUS
 10
4.5656866438
 20
4.0121061644
 40
0.03
100
AcDbArc
 50
180.0
 51
270.0
  0
ARC
  5
26F
100
AcDbEntity
  8
0
100
AcDbCircle
 62
7
  6
CONTINUOUS
 10
6.7356866438
 20
5.4846061644
 40
0.03
100
AcDbArc
 50
90.0
 51
180.0
  0
ARC
  5
270
100
AcDbEntity
  8
0
100
AcDbCircle
 62
7
  6
CONTINUOUS
 10
6.7356866438
 20
3.4546061644
 40
0.03
100
AcDbArc
 50
180.0
 51
270.0
  0
ARC
  5
271
100
AcDbEntity
  8
0
100
AcDbCircle
 62
7
  6
CONTINUOUS
 10
6.9856866438
 20
5.5646061644
 40
0.03
100
AcDbArc
 50
90.0
 51
180.0
  0
ARC
  5
272
100
AcDbEntity
  8
0
100
AcDbCircle
 62
7
  6
CONTINUOUS
 10
6.9856866438
 20
3.3746061644
 40
0.03
100
AcDbArc
 50
180.0
 51
270.0
  0
SPLINE
  5
273
100
AcDbEntity
  8
0
100
AcDbSpline
 62
7
  6
CONTINUOUS
 70
0
 71
3
 72
24
 73
20
 74
0
 42
0.0000001
 43
0.0000001
 44
0.0000000001
 40
0.0
 40
0.0
 40
0.0
 40
0.0
 40
0.1240057355
 40
0.247780261
 40
0.309630109
 40
0.3714814815
 40
0.4333584224
 40
0.4952937841
 40
0.557328322
 40
0.6195060495
 40
0.6819036813
 40
0.7132126033
 40
0.7446204899
 40
0.8076916046
 40
0.87124788
 40
0.9032774319
 40
0.9354337588
 40
0.9677192276
 40
1.0
 40
1.0
 40
1.0
 40
1.0
 10
3.9046866438
 20
5.6960972708
 30
0.0
 10
3.904686643
 20
5.6993283722
 30
0.0
 10
3.9048096262
 20
5.7057855043
 30
0.0
 10
3.9053725355
 20
5.7138388463
 30
0.0
 10
3.9061492823
 20
5.7202414857
 30
0.0
 10
3.9069202055
 20
5.7250165545
 30
0.0
 10
3.9079102869
 20
5.7297538366
 30
0.0
 10
3.9091543096
 20
5.734436533
 30
0.0
 10
3.9106956755
 20
5.7390395493
 30
0.0
 10
3.9125872718
 20
5.7435244894
 30
0.0
 10
3.9145042473
 20
5.7471143493
 30
0.0
 10
3.9162802743
 20
5.7498503547
 30
0.0
 10
3.9182350745
 20
5.7524834425
 30
0.0
 10
3.9210385183
 20
5.7555224865
 30
0.0
 10
3.924361908
 20
5.7580341288
 30
0.0
 10
3.9273255885
 20
5.7595648773
 30
0.0
 10
3.9296915429
 20
5.7604356691
 30
0.0
 10
3.9321609146
 20
5.7609766916
 30
0.0
 10
3.933845534
 20
5.7611026243
 30
0.0
 10
3.9346866438
 20
5.7611026875
 30
0.0
  0
SPLINE
  5
274
100
AcDbEntity
  8
0
100
AcDbSpline
 62
7
  6
CONTINUOUS
 70
0
 71
3
 72
23
 73
19
 74
0
 42
0.0000001
 43
0.0000001
 44
0.0000000001
 40
0.0
 40
0.0
 40
0.0
 40
0.0
 40
0.0644180807
 40
0.096581014
 40
0.1286182914
 40
0.1921854913
 40
0.2552631369
 40
0.2866758943
 40
0.3179913495
 40
0.3804004217
 40
0.442585578
 40
0.5046298181
 40
0.5665763558
 40
0.628463252
 40
0.6903227372
 40
0.7521810321
 40
0.8759744345
 40
1.0
 40
1.0
 40
1.0
 40
1.0
 10
3.9346866438
 20
3.1781096413
 30
0.0
 10
3.9330084364
 20
3.1781099227
 30
0.0
 10
3.9304755822
 20
3.1784875523
 30
0.0
 10
3.9273258749
 20
3.1796476925
 30
0.0
 10
3.9243609906
 20
3.1811784291
 30
0.0
 10
3.9210378027
 20
3.1836896768
 30
0.0
 10
3.9182349777
 20
3.1867293848
 30
0.0
 10
3.9162807093
 20
3.1893627416
 30
0.0
 10
3.9145043512
 20
3.1920985919
 30
0.0
 10
3.9125866261
 20
3.1956880714
 30
0.0
 10
3.9106954757
 20
3.2001731789
 30
0.0
 10
3.909154502
 20
3.2047762445
 30
0.0
 10
3.9079099974
 20
3.2094588218
 30
0.0
 10
3.9069199043
 20
3.2141960823
 30
0.0
 10
3.9061491835
 20
3.2189710832
 30
0.0
 10
3.9053726524
 20
3.2253736154
 30
0.0
 10
3.90480962
 20
3.2334268548
 30
0.0
 10
3.904686654
 20
3.2398839435
 30
0.0
 10
3.9046866438
 20
3.2431150337
 30
0.0
  0
SPLINE
  5
275
100
AcDbEntity
  8
0
100
AcDbSpline
 62
7
  6
CONTINUOUS
 70
0
 71
3
 72
35
 73
31
 74
0
 42
0.0000001
 43
0.0000001
 44
0.0000000001
 40
0.0
 40
0.0
 40
0.0
 40
0.0
 40
0.0004920634
 40
0.0010264129
 40
0.001637227
 40
0.0023476488
 40
0.0041189627
 40
0.0064083817
 40
0.0092441048
 40
0.0126401875
 40
0.0166042474
 40
0.0211404009
 40
0.0262493993
 40
0.0319302329
 40
0.0449997718
 40
0.0603309378
 40
0.0778995939
 40
0.0976677568
 40
0.1195912768
 40
0.143625179
 40
0.1697183664
 40
0.2278309406
 40
0.2934045711
 40
0.3658244208
 40
0.4444169053
 40
0.5284316436
 40
0.6170642835
 40
0.709444003
 40
0.804689218
 40
1.0
 40
1.0
 40
1.0
 40
1.0
 10
3.8046866438
 20
4.2496061644
 30
0.0
 10
3.804686658
 20
4.2495847756
 30
0.0
 10
3.8046938682
 20
4.249539928
 30
0.0
 10
3.8047249851
 20
4.249475111
 30
0.0
 10
3.8047753644
 20
4.2494114905
 30
0.0
 10
3.8048753289
 20
4.2493209746
 30
0.0
 10
3.8050534716
 20
4.2492120817
 30
0.0
 10
3.8053275294
 20
4.2490899177
 30
0.0
 10
3.8056776605
 20
4.2489679602
 30
0.0
 10
3.8061039814
 20
4.248846349
 30
0.0
 10
3.8066068317
 20
4.2487252717
 30
0.0
 10
3.8071860871
 20
4.2486049083
 30
0.0
 10
3.8078415074
 20
4.2484853517
 30
0.0
 10
3.8088652906
 20
4.2483193255
 30
0.0
 10
3.810333252
 20
4.2481184147
 30
0.0
 10
3.8123185591
 20
4.247891158
 30
0.0
 10
3.8145971758
 20
4.2476688948
 30
0.0
 10
3.8171639854
 20
4.2474520703
 30
0.0
 10
3.8200131635
 20
4.2472412516
 30
0.0
 10
3.823138382
 20
4.2470369468
 30
0.0
 10
3.8278353947
 20
4.246764002
 30
0.0
 10
3.8343383684
 20
4.2464474888
 30
0.0
 10
3.8428560395
 20
4.2461109819
 30
0.0
 10
3.8522656785
 20
4.2458080615
 30
0.0
 10
3.8624782705
 20
4.245541044
 30
0.0
 10
3.8733966725
 20
4.2453120776
 30
0.0
 10
3.8849152096
 20
4.2451229306
 30
0.0
 10
3.896922535
 20
4.2449741218
 30
0.0
 10
3.9135671818
 20
4.2448299574
 30
0.0
 10
3.9261969796
 20
4.2447886341
 30
0.0
 10
3.9346866438
 20
4.2447886461
 30
0.0
  0
SPLINE
  5
276
100
AcDbEntity
  8
0
100
AcDbSpline
 62
7
  6
CONTINUOUS
 70
0
 71
3
 72
24
 73
20
 74
0
 42
0.0000001
 43
0.0000001
 44
0.0000000001
 40
0.0
 40
0.0
 40
0.0
 40
0.0
 40
0.0624614464
 40
0.1249504971
 40
0.1874456199
 40
0.2499523567
 40
0.3748667483
 40
0.4373787397
 40
0.4998817713
 40
0.5624020205
 40
0.6249066552
 40
0.6874229149
 40
0.7186890771
 40
0.7499632113
 40
0.8124683222
 40
0.8749609973
 40
0.90623556
 40
0.9375254101
 40
1.0
 40
1.0
 40
1.0
 40
1.0
 10
4.4346866438
 20
3.243115058
 30
0.0
 10
4.4346866429
 20
3.2406529457
 30
0.0
 10
4.4345866372
 20
3.2357268507
 30
0.0
 10
4.4340998245
 20
3.2283515224
 30
0.0
 10
4.4332381434
 20
3.2210073162
 30
0.0
 10
4.4315422574
 20
3.2112999139
 30
0.0
 10
4.4289359013
 20
3.2017598417
 30
0.0
 10
4.425271639
 20
3.1926050823
 30
0.0
 10
4.4219516125
 20
3.1859891961
 30
0.0
 10
4.4180307809
 20
3.1797088311
 30
0.0
 10
4.4134855224
 20
3.1738611626
 30
0.0
 10
4.409168724
 20
3.1694438082
 30
0.0
 10
4.4054094457
 20
3.1662504295
 30
0.0
 10
4.401451155
 20
3.1633082159
 30
0.0
 10
4.396145041
 20
3.1601379312
 30
0.0
 10
4.3904317064
 20
3.1577700149
 30
0.0
 10
4.3856876373
 20
3.1564136854
 30
0.0
 10
4.3808537803
 20
3.1554332119
 30
0.0
 10
4.3771492742
 20
3.1551301028
 30
0.0
 10
4.3746866438
 20
3.1551300585
 30
0.0
  0
SPLINE
  5
277
100
AcDbEntity
  8
0
100
AcDbSpline
 62
7
  6
CONTINUOUS
 70
0
 71
3
 72
22
 73
18
 74
0
 42
0.0000001
 43
0.0000001
 44
0.0000000001
 40
0.0
 40
0.0
 40
0.0
 40
0.0
 40
0.0624812516
 40
0.1249870352
 40
0.1562536952
 40
0.1875211376
 40
0.2500303924
 40
0.3125376141
 40
0.375048033
 40
0.4375655587
 40
0.5000741056
 40
0.5625949029
 40
0.6251025506
 40
0.7500383087
 40
0.8125459936
 40
0.8750530155
 40
1.0
 40
1.0
 40
1.0
 40
1.0
 10
3.9346866438
 20
3.1551300585
 30
0.0
 10
3.9322239237
 20
3.1551301403
 30
0.0
 10
3.9272894136
 20
3.1555357924
 30
0.0
 10
3.9212822128
 20
3.1570042621
 30
0.0
 10
3.91665578
 20
3.1587151728
 30
0.0
 10
3.9121711122
 20
3.1607691237
 30
0.0
 10
3.9068628456
 20
3.1639381017
 30
0.0
 10
3.9010699564
 20
3.1685610588
 30
0.0
 10
3.8958906872
 20
3.173858972
 30
0.0
 10
3.8913424165
 20
3.1797040471
 30
0.0
 10
3.8874223045
 20
3.1859851706
 30
0.0
 10
3.8841044672
 20
3.1926016114
 30
0.0
 10
3.8804388829
 20
3.2017565215
 30
0.0
 10
3.8778320907
 20
3.2112964394
 30
0.0
 10
3.8761353104
 20
3.221004596
 30
0.0
 10
3.87498705
 20
3.2307942428
 30
0.0
 10
3.8746866953
 20
3.2381902293
 30
0.0
 10
3.8746866438
 20
3.243115058
 30
0.0
  0
SPLINE
  5
278
100
AcDbEntity
  8
0
100
AcDbSpline
 62
7
  6
CONTINUOUS
 70
0
 71
3
 72
35
 73
31
 74
0
 42
0.0000001
 43
0.0000001
 44
0.0000000001
 40
0.0
 40
0.0
 40
0.0
 40
0.0
 40
0.0004920471
 40
0.0010263843
 40
0.0016371904
 40
0.0023476078
 40
0.0041189208
 40
0.0064083454
 40
0.0092440772
 40
0.0126401691
 40
0.0166042368
 40
0.0211403954
 40
0.0262493972
 40
0.0319302329
 40
0.0449997728
 40
0.0603309373
 40
0.0778995926
 40
0.0976677584
 40
0.1195912827
 40
0.1436251882
 40
0.1697183803
 40
0.227830965
 40
0.2934046023
 40
0.3658244552
 40
0.444416939
 40
0.5284316742
 40
0.6170643103
 40
0.7094440132
 40
0.8046892085
 40
1.0
 40
1.0
 40
1.0
 40
1.0
 10
3.8046866438
 20
4.6896061644
 30
0.0
 10
3.8046866577
 20
4.6896275524
 30
0.0
 10
3.8046938675
 20
4.6896723989
 30
0.0
 10
3.804724984
 20
4.6897372144
 30
0.0
 10
3.8047753629
 20
4.6898008338
 30
0.0
 10
3.8048753273
 20
4.6898913488
 30
0.0
 10
3.80505347
 20
4.6900002416
 30
0.0
 10
3.8053275281
 20
4.6901224065
 30
0.0
 10
3.8056776598
 20
4.6902443654
 30
0.0
 10
3.8061039813
 20
4.6903659784
 30
0.0
 10
3.8066068322
 20
4.6904870572
 30
0.0
 10
3.8071860881
 20
4.6906074216
 30
0.0
 10
3.8078415088
 20
4.6907269785
 30
0.0
 10
3.8088652923
 20
4.6908930046
 30
0.0
 10
3.8103332539
 20
4.6910939144
 30
0.0
 10
3.8123185611
 20
4.6913211694
 30
0.0
 10
3.814597178
 20
4.6915434311
 30
0.0
 10
3.8171639879
 20
4.6917602547
 30
0.0
 10
3.8200131663
 20
4.6919710737
 30
0.0
 10
3.8231383852
 20
4.6921753804
 30
0.0
 10
3.8278353983
 20
4.69244833
 30
0.0
 10
3.8343383726
 20
4.6927648497
 30
0.0
 10
3.8428560446
 20
4.6931013535
 30
0.0
 10
3.8522656842
 20
4.6934042633
 30
0.0
 10
3.8624782764
 20
4.6936712675
 30
0.0
 10
3.8733966777
 20
4.6939002389
 30
0.0
 10
3.8849152131
 20
4.6940894133
 30
0.0
 10
3.8969225366
 20
4.6942382237
 30
0.0
 10
3.9135671822
 20
4.6943823582
 30
0.0
 10
3.9261969793
 20
4.694423697
 30
0.0
 10
3.9346866438
 20
4.6944236826
 30
0.0
  0
SPLINE
  5
279
100
AcDbEntity
  8
0
100
AcDbSpline
 62
7
  6
CONTINUOUS
 70
0
 71
3
 72
25
 73
21
 74
0
 42
0.0000001
 43
0.0000001
 44
0.0000000001
 40
0.0
 40
0.0
 40
0.0
 40
0.0
 40
0.0624761382
 40
0.1249954009
 40
0.1562557976
 40
0.1875118745
 40
0.2187668905
 40
0.250023732
 40
0.3125231743
 40
0.3750219732
 40
0.4375196058
 40
0.5000176018
 40
0.5625159024
 40
0.6250136346
 40
0.6875131693
 40
0.7500123783
 40
0.8125046258
 40
0.8750036435
 40
0.9375239785
 40
1.0
 40
1.0
 40
1.0
 40
1.0
 10
3.9346866438
 20
3.1173857681
 30
0.0
 10
3.9313930716
 20
3.1173860232
 30
0.0
 10
3.9247993243
 20
3.1177181843
 30
0.0
 10
3.916640516
 20
3.1189524384
 30
0.0
 10
3.9102131957
 20
3.1204252173
 30
0.0
 10
3.9054537475
 20
3.1217688849
 30
0.0
 10
3.9007674758
 20
3.1233485015
 30
0.0
 10
3.8946335103
 20
3.1257641935
 30
0.0
 10
3.887202097
 20
3.129352016
 30
0.0
 10
3.8787577925
 20
3.134519707
 30
0.0
 10
3.8708643562
 20
3.1404956515
 30
0.0
 10
3.863599438
 20
3.1472212659
 30
0.0
 10
3.8570286452
 20
3.1546263514
 30
0.0
 10
3.8512137637
 20
3.1626386518
 30
0.0
 10
3.8462050873
 20
3.1711779844
 30
0.0
 10
3.8420474628
 20
3.1801621288
 30
0.0
 10
3.8387780797
 20
3.189506015
 30
0.0
 10
3.8364241351
 20
3.199122727
 30
0.0
 10
3.8350048429
 20
3.2089191066
 30
0.0
 10
3.8346868578
 20
3.2155128542
 30
0.0
 10
3.8346866438
 20
3.2188064202
 30
0.0
  0
SPLINE
  5
27A
100
AcDbEntity
  8
0
100
AcDbSpline
 62
7
  6
CONTINUOUS
 70
0
 71
3
 72
25
 73
21
 74
0
 42
0.0000001
 43
0.0000001
 44
0.0000000001
 40
0.0
 40
0.0
 40
0.0
 40
0.0
 40
0.0624760113
 40
0.1249961214
 40
0.1874950149
 40
0.2499872862
 40
0.3124864241
 40
0.3749859331
 40
0.4374835975
 40
0.4999817988
 40
0.5624798861
 40
0.6249775933
 40
0.6874764432
 40
0.7499759763
 40
0.7812327999
 40
0.8124877729
 40
0.8437438596
 40
0.8750043508
 40
0.9375238762
 40
1.0
 40
1.0
 40
1.0
 40
1.0
 10
4.4746866438
 20
3.2188064202
 30
0.0
 10
4.4746863938
 20
3.2155128547
 30
0.0
 10
4.4743684921
 20
3.2089191221
 30
0.0
 10
4.472949301
 20
3.1991227375
 30
0.0
 10
4.4705951423
 20
3.1895060901
 30
0.0
 10
4.4673256357
 20
3.1801622649
 30
0.0
 10
4.4631681113
 20
3.1711780852
 30
0.0
 10
4.4581596349
 20
3.1626386485
 30
0.0
 10
4.4523449104
 20
3.1546262361
 30
0.0
 10
4.445773948
 20
3.1472212909
 30
0.0
 10
4.4385088385
 20
3.1404958897
 30
0.0
 10
4.4306154579
 20
3.1345198703
 30
0.0
 10
4.4221712704
 20
3.1293519691
 30
0.0
 10
4.4147399185
 20
3.1257639924
 30
0.0
 10
4.4086059457
 20
3.1233483087
 30
0.0
 10
4.4039196404
 20
3.1217687964
 30
0.0
 10
4.3991601504
 20
3.1204252643
 30
0.0
 10
4.3927327762
 20
3.1189526414
 30
0.0
 10
4.384573977
 20
3.1177182887
 30
0.0
 10
4.3779802153
 20
3.1173859872
 30
0.0
 10
4.3746866438
 20
3.1173857681
 30
0.0
  0
SPLINE
  5
27B
100
AcDbEntity
  8
0
100
AcDbSpline
 62
7
  6
CONTINUOUS
 70
0
 71
3
 72
35
 73
31
 74
0
 42
0.0000001
 43
0.0000001
 44
0.0000000001
 40
0.0
 40
0.0
 40
0.0
 40
0.0
 40
0.1953108874
 40
0.2905560394
 40
0.3829356521
 40
0.471568208
 40
0.5555828686
 40
0.6341752816
 40
0.7065950841
 40
0.7721687298
 40
0.8302814144
 40
0.85637466
 40
0.8804085954
 40
0.9023321291
 40
0.9221002889
 40
0.93966893
 40
0.955000077
 40
0.9680696071
 40
0.9737504442
 40
0.9788594526
 40
0.983395623
 40
0.9873597017
 40
0.9907557986
 40
0.993591527
 40
0.9958809412
 40
0.9976522461
 40
0.9983626687
 40
0.9989734943
 40
0.9995078752
 40
1.0
 40
1.0
 40
1.0
 40
1.0
 10
4.3746866438
 20
4.2447886461
 30
0.0
 10
4.383176314
 20
4.2447886281
 30
0.0
 10
4.3958061149
 20
4.2448300633
 30
0.0
 10
4.4124507626
 20
4.2449740798
 30
0.0
 10
4.4244580794
 20
4.2451228601
 30
0.0
 10
4.4359766053
 20
4.245312086
 30
0.0
 10
4.446894998
 20
4.2455410826
 30
0.0
 10
4.4571075837
 20
4.2458080702
 30
0.0
 10
4.4665172219
 20
4.2461109196
 30
0.0
 10
4.475034899
 20
4.2464474033
 30
0.0
 10
4.4815378778
 20
4.2467639996
 30
0.0
 10
4.486234897
 20
4.2470369954
 30
0.0
 10
4.4893601199
 20
4.247241309
 30
0.0
 10
4.4922093013
 20
4.2474521139
 30
0.0
 10
4.4947761129
 20
4.2476689162
 30
0.0
 10
4.4970547301
 20
4.2478911622
 30
0.0
 10
4.4990400359
 20
4.2481184174
 30
0.0
 10
4.5005079959
 20
4.2483193324
 30
0.0
 10
4.5015317791
 20
4.2484853606
 30
0.0
 10
4.5021872009
 20
4.2486049169
 30
0.0
 10
4.502766459
 20
4.2487252772
 30
0.0
 10
4.5032693133
 20
4.2488463476
 30
0.0
 10
4.5036956382
 20
4.2489679505
 30
0.0
 10
4.5040457729
 20
4.2490899002
 30
0.0
 10
4.5043198327
 20
4.2492120588
 30
0.0
 10
4.5044979756
 20
4.2493209513
 30
0.0
 10
4.5045979374
 20
4.2494114705
 30
0.0
 10
4.504648314
 20
4.2494750959
 30
0.0
 10
4.5046794264
 20
4.2495399205
 30
0.0
 10
4.5046866318
 20
4.249584773
 30
0.0
 10
4.5046866438
 20
4.2496061644
 30
0.0
  0
SPLINE
  5
27C
100
AcDbEntity
  8
0
100
AcDbSpline
 62
7
  6
CONTINUOUS
 70
0
 71
3
 72
23
 73
19
 74
0
 42
0.0000001
 43
0.0000001
 44
0.0000000001
 40
0.0
 40
0.0
 40
0.0
 40
0.0
 40
0.064417314
 40
0.0965807911
 40
0.1286159414
 40
0.1921795799
 40
0.2552606087
 40
0.2866730486
 40
0.3179870909
 40
0.3803948009
 40
0.44258202
 40
0.5046261843
 40
0.5665720638
 40
0.6284586385
 40
0.6903195454
 40
0.752178985
 40
0.8759737695
 40
1.0
 40
1.0
 40
1.0
 40
1.0
 10
4.3746866438
 20
5.7611026875
 30
0.0
 10
4.3763648308
 20
5.7611023647
 30
0.0
 10
4.3788975754
 20
5.7607243356
 30
0.0
 10
4.3820474128
 20
5.7595648236
 30
0.0
 10
4.3850123722
 20
5.7580343931
 30
0.0
 10
4.3883344941
 20
5.7555218578
 30
0.0
 10
4.3911380326
 20
5.7524830145
 30
0.0
 10
4.3930930385
 20
5.7498501157
 30
0.0
 10
4.3948691614
 20
5.7471141914
 30
0.0
 10
4.3967861949
 20
5.7435243804
 30
0.0
 10
4.3986776656
 20
5.7390394244
 30
0.0
 10
4.4002190506
 20
5.7344364403
 30
0.0
 10
4.4014630818
 20
5.7297537629
 30
0.0
 10
4.4024531918
 20
5.7250165039
 30
0.0
 10
4.4032239871
 20
5.7202414565
 30
0.0
 10
4.4040007316
 20
5.7138388478
 30
0.0
 10
4.4045636646
 20
5.705785515
 30
0.0
 10
4.4046866438
 20
5.6993283775
 30
0.0
 10
4.4046866438
 20
5.6960972708
 30
0.0
  0
SPLINE
  5
27D
100
AcDbEntity
  8
0
100
AcDbSpline
 62
7
  6
CONTINUOUS
 70
0
 71
3
 72
24
 73
20
 74
0
 42
0.0000001
 43
0.0000001
 44
0.0000000001
 40
0.0
 40
0.0
 40
0.0
 40
0.0
 40
0.1240059378
 40
0.2477805468
 40
0.3096300744
 40
0.3714808781
 40
0.4333571201
 40
0.4952921204
 40
0.5573269294
 40
0.6195053651
 40
0.6819033941
 40
0.7132123131
 40
0.7446194014
 40
0.8076877023
 40
0.8712452251
 40
0.9032760741
 40
0.9354326135
 40
0.9677188704
 40
1.0
 40
1.0
 40
1.0
 40
1.0
 10
4.4046866438
 20
3.2431150573
 30
0.0
 10
4.4046866435
 20
3.2398839507
 30
0.0
 10
4.4045636631
 20
3.2334268111
 30
0.0
 10
4.4040007242
 20
3.2253734723
 30
0.0
 10
4.4032239888
 20
3.2189708537
 30
0.0
 10
4.4024531334
 20
3.2141958164
 30
0.0
 10
4.4014631112
 20
3.2094585656
 30
0.0
 10
4.4002191448
 20
3.2047758749
 30
0.0
 10
4.39867778
 20
3.200172842
 30
0.0
 10
4.3967860789
 20
3.1956878947
 30
0.0
 10
4.3948687228
 20
3.1920982076
 30
0.0
 10
4.3930926853
 20
3.189362231
 30
0.0
 10
4.3911383476
 20
3.1867289366
 30
0.0
 10
4.3883354519
 20
3.1836893841
 30
0.0
 10
4.3850115675
 20
3.1811783541
 30
0.0
 10
4.3820478028
 20
3.1796476652
 30
0.0
 10
4.3796818118
 20
3.1787767889
 30
0.0
 10
4.377212398
 20
3.1782357937
 30
0.0
 10
4.375527763
 20
3.1781097743
 30
0.0
 10
4.3746866438
 20
3.1781096413
 30
0.0
  0
SPLINE
  5
27E
100
AcDbEntity
  8
0
100
AcDbSpline
 62
7
  6
CONTINUOUS
 70
0
 71
3
 72
35
 73
31
 74
0
 42
0.0000001
 43
0.0000001
 44
0.0000000001
 40
0.0
 40
0.0
 40
0.0
 40
0.0
 40
0.1953109345
 40
0.2905560963
 40
0.3829357084
 40
0.4715682674
 40
0.5555829333
 40
0.6341753501
 40
0.7065951602
 40
0.7721688105
 40
0.8302814848
 40
0.8563747229
 40
0.8804086518
 40
0.9023321784
 40
0.9221003338
 40
0.9396689762
 40
0.9550001288
 40
0.9680696621
 40
0.973750498
 40
0.9788595027
 40
0.9833956661
 40
0.9873597355
 40
0.9907558232
 40
0.9935915452
 40
0.9958809572
 40
0.9976522641
 40
0.9983626878
 40
0.9989735127
 40
0.9995078884
 40
1.0
 40
1.0
 40
1.0
 40
1.0
 10
4.3746866438
 20
4.6944236826
 30
0.0
 10
4.3831763156
 20
4.6944237006
 30
0.0
 10
4.3958061183
 20
4.6943822305
 30
0.0
 10
4.4124507679
 20
4.6942382469
 30
0.0
 10
4.4244580848
 20
4.6940894822
 30
0.0
 10
4.4359766105
 20
4.6939002526
 30
0.0
 10
4.4468950031
 20
4.6936712497
 30
0.0
 10
4.4571075889
 20
4.6934042555
 30
0.0
 10
4.4665172271
 20
4.6931013979
 30
0.0
 10
4.4750349037
 20
4.6927649126
 30
0.0
 10
4.4815378822
 20
4.6924483257
 30
0.0
 10
4.4862349004
 20
4.6921753365
 30
0.0
 10
4.4893601224
 20
4.6919710253
 30
0.0
 10
4.4922093029
 20
4.6917602206
 30
0.0
 10
4.4947761139
 20
4.6915434174
 30
0.0
 10
4.4970547311
 20
4.6913211706
 30
0.0
 10
4.4990400371
 20
4.6910939155
 30
0.0
 10
4.5005079974
 20
4.6908930004
 30
0.0
 10
4.5015317804
 20
4.6907269716
 30
0.0
 10
4.5021872015
 20
4.6906074145
 30
0.0
 10
4.5027664584
 20
4.6904870529
 30
0.0
 10
4.5032693111
 20
4.6903659806
 30
0.0
 10
4.5036956343
 20
4.6902443755
 30
0.0
 10
4.5040457675
 20
4.6901224241
 30
0.0
 10
4.5043198264
 20
4.6900002642
 30
0.0
 10
4.5044979692
 20
4.6898913718
 30
0.0
 10
4.504597932
 20
4.6898008535
 30
0.0
 10
4.5046483096
 20
4.6897372293
 30
0.0
 10
4.5046794237
 20
4.6896724066
 30
0.0
 10
4.504686631
 20
4.6896275552
 30
0.0
 10
4.5046866438
 20
4.6896061644
 30
0.0
  0
SPLINE
  5
27F
100
AcDbEntity
  8
0
100
AcDbSpline
 62
7
  6
CONTINUOUS
 70
0
 71
3
 72
23
 73
19
 74
0
 42
0.0000001
 43
0.0000001
 44
0.0000000001
 40
0.0
 40
0.0
 40
0.0
 40
0.0
 40
0.0624951731
 40
0.1249702831
 40
0.1874440469
 40
0.2499277489
 40
0.3124157766
 40
0.3749068356
 40
0.4374016015
 40
0.4999009132
 40
0.562403478
 40
0.6249101838
 40
0.6874214184
 40
0.7499336533
 40
0.8124421711
 40
0.8749624716
 40
0.9375048525
 40
1.0
 40
1.0
 40
1.0
 40
1.0
 10
4.5037980835
 20
3.2035132379
 30
0.0
 10
4.5033411477
 20
3.199589499
 30
0.0
 10
4.5020747546
 20
3.1917796944
 30
0.0
 10
4.4991315033
 20
3.1802872413
 30
0.0
 10
4.4951683297
 20
3.1691051873
 30
0.0
 10
4.4902156582
 20
3.1583241429
 30
0.0
 10
4.4843113985
 20
3.1480319707
 30
0.0
 10
4.4775015139
 20
3.1383143208
 30
0.0
 10
4.4698397314
 20
3.1292521769
 30
0.0
 10
4.4613876997
 20
3.1209210335
 30
0.0
 10
4.4522126232
 20
3.1133922943
 30
0.0
 10
4.4423899445
 20
3.1067290294
 30
0.0
 10
4.4319991076
 20
3.1009905619
 30
0.0
 10
4.4211277862
 20
3.0962242032
 30
0.0
 10
4.409865043
 20
3.0924735353
 30
0.0
 10
4.3983039432
 20
3.089769498
 30
0.0
 10
4.3865450955
 20
3.0881401014
 30
0.0
 10
4.3786368975
 20
3.0877751877
 30
0.0
 10
4.3746866438
 20
3.0877751025
 30
0.0
  0
SPLINE
  5
280
100
AcDbEntity
  8
0
100
AcDbSpline
 62
7
  6
CONTINUOUS
 70
0
 71
3
 72
23
 73
19
 74
0
 42
0.0000001
 43
0.0000001
 44
0.0000000001
 40
0.0
 40
0.0
 40
0.0
 40
0.0
 40
0.0624951821
 40
0.1250375958
 40
0.187557883
 40
0.2500663554
 40
0.3125785145
 40
0.3750896648
 40
0.4375963143
 40
0.5000988527
 40
0.562598165
 40
0.6250929456
 40
0.6875840342
 40
0.7500721156
 40
0.8125558871
 40
0.8750297015
 40
0.9375048368
 40
1.0
 40
1.0
 40
1.0
 40
1.0
 10
3.9346866438
 20
3.0877751025
 30
0.0
 10
3.9307362939
 20
3.0877752068
 30
0.0
 10
3.9228279052
 20
3.0881401383
 30
0.0
 10
3.9110687731
 20
3.0897695785
 30
0.0
 10
3.8995074159
 20
3.0924737585
 30
0.0
 10
3.8882444468
 20
3.0962246156
 30
0.0
 10
3.8773729197
 20
3.1009911773
 30
0.0
 10
3.8669819112
 20
3.1067298926
 30
0.0
 10
3.8571590983
 20
3.1133934463
 30
0.0
 10
3.8479839342
 20
3.1209225173
 30
0.0
 10
3.8395318532
 20
3.1292540131
 30
0.0
 10
3.8318700711
 20
3.1383165317
 30
0.0
 10
3.8250602266
 20
3.1480345633
 30
0.0
 10
3.8191560732
 20
3.1583271346
 30
0.0
 10
3.8142035676
 20
3.1691085791
 30
0.0
 10
3.8102406266
 20
3.1802910261
 30
0.0
 10
3.8072976656
 20
3.1917838496
 30
0.0
 10
3.8060314869
 20
3.199593881
 30
0.0
 10
3.8055746684
 20
3.2035177276
 30
0.0
  0
SPLINE
  5
281
100
AcDbEntity
  8
0
100
AcDbSpline
 62
7
  6
CONTINUOUS
 70
0
 71
3
 72
24
 73
20
 74
0
 42
0.0000001
 43
0.0000001
 44
0.0000000001
 40
0.0
 40
0.0
 40
0.0
 40
0.0
 40
0.0624612635
 40
0.1249498548
 40
0.1874445479
 40
0.2499506504
 40
0.3748646453
 40
0.4373760266
 40
0.4998790468
 40
0.5623986581
 40
0.6249027806
 40
0.6874182288
 40
0.718684713
 40
0.7499598399
 40
0.8124648295
 40
0.8749578034
 40
0.9062334483
 40
0.9375245708
 40
1.0
 40
1.0
 40
1.0
 40
1.0
 10
3.8746866438
 20
5.6960972708
 30
0.0
 10
3.8746866424
 20
5.6985593778
 30
0.0
 10
3.8747865869
 20
5.7034854515
 30
0.0
 10
3.8752732586
 20
5.7108607527
 30
0.0
 10
3.876134846
 20
5.7182049179
 30
0.0
 10
3.8778308725
 20
5.7279122505
 30
0.0
 10
3.8804376011
 20
5.73745217
 30
0.0
 10
3.8841022079
 20
5.7466067555
 30
0.0
 10
3.8874224316
 20
5.7532224887
 30
0.0
 10
3.8913432798
 20
5.7595027934
 30
0.0
 10
3.8958886051
 20
5.7653503259
 30
0.0
 10
3.9002053581
 20
5.7697676474
 30
0.0
 10
3.9039643417
 20
5.7729613974
 30
0.0
 10
3.9079220314
 20
5.7759044711
 30
0.0
 10
3.9132272485
 20
5.7790764515
 30
0.0
 10
3.9189408825
 20
5.7814440618
 30
0.0
 10
3.9236852618
 20
5.7827996824
 30
0.0
 10
3.9285193861
 20
5.7837794803
 30
0.0
 10
3.9322239784
 20
5.7840823413
 30
0.0
 10
3.9346866438
 20
5.7840822703
 30
0.0
  0
SPLINE
  5
282
100
AcDbEntity
  8
0
100
AcDbSpline
 62
7
  6
CONTINUOUS
 70
0
 71
3
 72
23
 73
19
 74
0
 42
0.0000001
 43
0.0000001
 44
0.0000000001
 40
0.0
 40
0.0
 40
0.0
 40
0.0
 40
0.0624752683
 40
0.0937655055
 40
0.125040125
 40
0.1875330352
 40
0.250040721
 40
0.2813148715
 40
0.3125813551
 40
0.3750999286
 40
0.4376069858
 40
0.5001290011
 40
0.5626336192
 40
0.6251491888
 40
0.7500690259
 40
0.812578831
 40
0.8750766568
 40
1.0
 40
1.0
 40
1.0
 40
1.0
 10
4.3746866438
 20
5.7840822703
 30
0.0
 10
4.3771492025
 20
5.7840822236
 30
0.0
 10
4.3808535543
 20
5.7837776175
 30
0.0
 10
4.3856869683
 20
5.7827959884
 30
0.0
 10
4.3904309398
 20
5.7814400333
 30
0.0
 10
4.3961447673
 20
5.7790738521
 30
0.0
 10
4.4014519053
 20
5.77590542
 30
0.0
 10
4.4054102831
 20
5.7729634169
 30
0.0
 10
4.4091689218
 20
5.7697693942
 30
0.0
 10
4.413484268
 20
5.7653507073
 30
0.0
 10
4.4180291287
 20
5.7595028826
 30
0.0
 10
4.4219506324
 20
5.7532230205
 30
0.0
 10
4.425270968
 20
5.7466073006
 30
0.0
 10
4.4289354828
 20
5.7374525995
 30
0.0
 10
4.4315420914
 20
5.7279126108
 30
0.0
 10
4.4332381633
 20
5.718204948
 30
0.0
 10
4.434386741
 20
5.7084162644
 30
0.0
 10
4.4346866434
 20
5.7010213162
 30
0.0
 10
4.4346866438
 20
5.6960972708
 30
0.0
  0
SPLINE
  5
283
100
AcDbEntity
  8
0
100
AcDbSpline
 62
7
  6
CONTINUOUS
 70
0
 71
3
 72
25
 73
21
 74
0
 42
0.0000001
 43
0.0000001
 44
0.0000000001
 40
0.0
 40
0.0
 40
0.0
 40
0.0
 40
0.0624759204
 40
0.124995893
 40
0.187494674
 40
0.2499868739
 40
0.3124859985
 40
0.3749855136
 40
0.4374831266
 40
0.499981248
 40
0.5624793513
 40
0.6249771083
 40
0.6874759385
 40
0.7499754751
 40
0.7812323194
 40
0.8124873289
 40
0.8437434689
 40
0.8750040345
 40
0.9375237654
 40
1.0
 40
1.0
 40
1.0
 40
1.0
 10
4.4746866438
 20
5.7204059085
 30
0.0
 10
4.4746863789
 20
5.723699469
 30
0.0
 10
4.4743684004
 20
5.7302931871
 30
0.0
 10
4.4729491378
 20
5.740089537
 30
0.0
 10
4.4705950928
 20
5.7497061905
 30
0.0
 10
4.4673256742
 20
5.7590500373
 30
0.0
 10
4.4631681788
 20
5.7680342262
 30
0.0
 10
4.4581597229
 20
5.77657367
 30
0.0
 10
4.4523450009
 20
5.784586079
 30
0.0
 10
4.4457739368
 20
5.7919909292
 30
0.0
 10
4.4385087541
 20
5.7987162409
 30
0.0
 10
4.4306154403
 20
5.8046923427
 30
0.0
 10
4.4221713127
 20
5.8098603487
 30
0.0
 10
4.4147399719
 20
5.8134483508
 30
0.0
 10
4.4086060049
 20
5.8158640557
 30
0.0
 10
4.4039197036
 20
5.8174435962
 30
0.0
 10
4.399160215
 20
5.8187871636
 30
0.0
 10
4.3927328304
 20
5.8202598199
 30
0.0
 10
4.3845740019
 20
5.8214941336
 30
0.0
 10
4.3779802209
 20
5.8218263692
 30
0.0
 10
4.3746866438
 20
5.8218265606
 30
0.0
  0
SPLINE
  5
284
100
AcDbEntity
  8
0
100
AcDbSpline
 62
7
  6
CONTINUOUS
 70
0
 71
3
 72
25
 73
21
 74
0
 42
0.0000001
 43
0.0000001
 44
0.0000000001
 40
0.0
 40
0.0
 40
0.0
 40
0.0
 40
0.0624760483
 40
0.1249951689
 40
0.1562555034
 40
0.1875115275
 40
0.2187665073
 40
0.2500233366
 40
0.312522774
 40
0.37502156
 40
0.4375191412
 40
0.500017066
 40
0.5625153822
 40
0.6250131503
 40
0.6875126552
 40
0.7500118772
 40
0.8125041885
 40
0.8750033357
 40
0.9375238721
 40
1.0
 40
1.0
 40
1.0
 40
1.0
 10
3.9346866438
 20
5.8218265606
 30
0.0
 10
3.9313930767
 20
5.8218262905
 30
0.0
 10
3.9247993445
 20
5.8214940534
 30
0.0
 10
3.9166405655
 20
5.8202597435
 30
0.0
 10
3.9102132503
 20
5.8187870095
 30
0.0
 10
3.9054537968
 20
5.8174433925
 30
0.0
 10
3.9007675145
 20
5.8158638254
 30
0.0
 10
3.8946335325
 20
5.8134481845
 30
0.0
 10
3.8872020994
 20
5.8098604054
 30
0.0
 10
3.8787577981
 20
5.8046927148
 30
0.0
 10
3.8708644025
 20
5.7987167255
 30
0.0
 10
3.8635995847
 20
5.7919910111
 30
0.0
 10
3.8570288433
 20
5.7845858915
 30
0.0
 10
3.851213843
 20
5.7765736814
 30
0.0
 10
3.8462050753
 20
5.7680343977
 30
0.0
 10
3.8420474429
 20
5.7590502541
 30
0.0
 10
3.8387780211
 20
5.7497063735
 30
0.0
 10
3.8364240002
 20
5.740089658
 30
0.0
 10
3.8350047529
 20
5.7302932459
 30
0.0
 10
3.8346868299
 20
5.7236994799
 30
0.0
 10
3.8346866438
 20
5.7204059085
 30
0.0
  0
SPLINE
  5
285
100
AcDbEntity
  8
0
100
AcDbSpline
 62
7
  6
CONTINUOUS
 70
0
 71
3
 72
23
 73
19
 74
0
 42
0.0000001
 43
0.0000001
 44
0.0000000001
 40
0.0
 40
0.0
 40
0.0
 40
0.0
 40
0.0624951419
 40
0.124970227
 40
0.1874439671
 40
0.2499276393
 40
0.3124156482
 40
0.3749066977
 40
0.4374014487
 40
0.4999007412
 40
0.5624032946
 40
0.6249100033
 40
0.687421268
 40
0.7499335399
 40
0.8124420909
 40
0.8749624332
 40
0.937504849
 40
1.0
 40
1.0
 40
1.0
 40
1.0
 10
4.5037982901
 20
5.7356972825
 30
0.0
 10
4.5033414062
 20
5.7396210636
 30
0.0
 10
4.5020751105
 20
5.7474309576
 30
0.0
 10
4.4991319753
 20
5.7589235533
 30
0.0
 10
4.4951688935
 20
5.7701057555
 30
0.0
 10
4.4902162946
 20
5.7808869539
 30
0.0
 10
4.4843120849
 20
5.7911792818
 30
0.0
 10
4.4775022339
 20
5.8008970915
 30
0.0
 10
4.4698404535
 20
5.8099593835
 30
0.0
 10
4.4613884025
 20
5.8182906659
 30
0.0
 10
4.4522132865
 20
5.8258195339
 30
0.0
 10
4.4423905543
 20
5.8324829257
 30
0.0
 10
4.4319996428
 20
5.8382215035
 30
0.0
 10
4.4211282335
 20
5.8429879621
 30
0.0
 10
4.4098653859
 20
5.8467387014
 30
0.0
 10
4.3983041748
 20
5.849442793
 30
0.0
 10
4.3865452134
 20
5.8510722369
 30
0.0
 10
4.3786369357
 20
5.8514371542
 30
0.0
 10
4.3746866438
 20
5.8514372262
 30
0.0
  0
SPLINE
  5
286
100
AcDbEntity
  8
0
100
AcDbSpline
 62
7
  6
CONTINUOUS
 70
0
 71
3
 72
23
 73
19
 74
0
 42
0.0000001
 43
0.0000001
 44
0.0000000001
 40
0.0
 40
0.0
 40
0.0
 40
0.0
 40
0.0624951751
 40
0.1250375614
 40
0.1875578226
 40
0.2500662772
 40
0.3125784137
 40
0.3750895402
 40
0.4375961788
 40
0.5000987107
 40
0.5625980122
 40
0.6250927774
 40
0.6875838595
 40
0.7500719602
 40
0.8125557707
 40
0.8750296198
 40
0.9375047947
 40
1.0
 40
1.0
 40
1.0
 40
1.0
 10
3.9346866438
 20
5.8514372262
 30
0.0
 10
3.9307363261
 20
5.8514371153
 30
0.0
 10
3.922828004
 20
5.8510721869
 30
0.0
 10
3.911068968
 20
5.8494427789
 30
0.0
 10
3.8995077028
 20
5.8467386457
 30
0.0
 10
3.8882448183
 20
5.8429878518
 30
0.0
 10
3.8773733635
 20
5.8382213735
 30
0.0
 10
3.8669824189
 20
5.8324827478
 30
0.0
 10
3.8571596568
 20
5.8258192943
 30
0.0
 10
3.8479845296
 20
5.8182903325
 30
0.0
 10
3.8395324621
 20
5.8099589625
 30
0.0
 10
3.8318706776
 20
5.8008965741
 30
0.0
 10
3.8250608057
 20
5.7911786788
 30
0.0
 10
3.8191566119
 20
5.7808862372
 30
0.0
 10
3.8142040426
 20
5.7701049208
 30
0.0
 10
3.8102410256
 20
5.7589225945
 30
0.0
 10
3.8072979677
 20
5.7474298874
 30
0.0
 10
3.8060317012
 20
5.7396199299
 30
0.0
 10
3.8055748365
 20
5.735696118
 30
0.0
  0
ENDSEC
  0
SECTION
  2
OBJECTS
  0
DICTIONARY
  5
C
100
AcDbDictionary
280
0
281
1
  3
ACAD_GROUP
350
D
  3
ACAD_MLINESTYLE
350
17
  3
ACAD_LAYOUT
350
1A
  3
ACAD_PLOTSETTINGS
350
19
  3
ACAD_PLOTSTYLENAME
350
E
  0
DICTIONARY
  5
D
102
{ACAD_REACTORS
330
C
102
}
100
AcDbDictionary
280
0
281
1
  0
ACDBDICTIONARYWDFLT
  5
E
102
{ACAD_REACTORS
330
C
102
}
100
AcDbDictionary
281
1
  3
Normal
350
F
100
AcDbDictionaryWithDefault
340
F
  0
DICTIONARY
  5
17
102
{ACAD_REACTORS
330
C
102
}
100
AcDbDictionary
280
0
281
1
  3
Standard
350
18
  0
DICTIONARY
  5
19
102
{ACAD_REACTORS
330
C
102
}
100
AcDbDictionary
281
1
  0
DICTIONARY
  5
1A
102
{ACAD_REACTORS
330
C
102
}
100
AcDbDictionary
281
1
  3
Model
350
287
  3
Layout1
350
288
  0
ACDBPLACEHOLDER
  5
F
102
{ACAD_REACTORS
330
E
102
}
  0
MLINESTYLE
  5
18
102
{ACAD_REACTORS
330
17
102
}
100
AcDbMlineStyle
  2
STANDARD
 70
0
  3

 62
256
 51
90.0
 52
90.0
 71
2
 49
0.5
 62
256
  6
BYLAYER
 49
-0.5
 62
256
  6
BYLAYER
  0
LAYOUT
  5
287
102
{ACAD_REACTORS
330
1A
102
}
100
AcDbPlotSettings
  1

  2
none_device
  4
ANSI_A_(11.00_x_8.50_Inches)
  6

 40
0.0
 41
0.0
 42
0.0
 43
0.0
 44
279.4
 45
215.9
 46
0.0
 47
0.0
 48
0.0
 49
0.0
140
0.0
141
0.0
142
1.0
143
1.0
 70
1024
 72
0
 73
0
 74
0
  7

 75
0
147
1.0
148
0.0
149
0.0
100
AcDbLayout
  1
Model
 70
0
 71
0
 10
0.0
 20
0.0
 11
11.0
 21
8.5
 12
0.0
 22
0.0
 32
0.0
 14
0.0
 24
0.0
 34
0.0
 15
0.0
 25
0.0
 35
0.0
146
0.0
 13
0.0
 23
0.0
 33
0.0
 16
1.0
 26
0.0
 36
0.0
 17
0.0
 27
1.0
 37
0.0
 76
0
330
203
345
0
346
0
  0
LAYOUT
  5
288
102
{ACAD_REACTORS
330
1A
102
}
100
AcDbPlotSettings
  1

  2
none_device
  4
ANSI_A_(11.00_x_8.50_Inches)
  6

 40
0.0
 41
0.0
 42
0.0
 43
0.0
 44
279.4
 45
215.9
 46
0.0
 47
0.0
 48
0.0
 49
0.0
140
0.0
141
0.0
142
1.0
143
1.0
 70
0
 72
0
 73
0
 74
0
  7

 75
0
147
1.0
148
0.0
149
0.0
100
AcDbLayout
  1
Layout1
 70
0
 71
1
 10
0.0
 20
0.0
 11
11.0
 21
8.5
 12
0.0
 22
0.0
 32
0.0
 14
0.0
 24
0.0
 34
0.0
 15
0.0
 25
0.0
 35
0.0
146
0.0
 13
0.0
 23
0.0
 33
0.0
 16
1.0
 26
0.0
 36
0.0
 17
0.0
 27
1.0
 37
0.0
 76
0
330
204
345
0
346
0
  0
ENDSEC
  0
EOF
