999
DXF file: 4-3284bp_top.dxf
999
Pro/ENGINEER 2023134 by Parametric Technology Corporation
  0
SECTION
  2
HEADER
  9
$ACADVER
  1
AC1032
  9
$DWGCODEPAGE
  3
ANSI_1252
  9
$EXTMAX
 10
11.0
 20
8.5
 30
0.0
  9
$EXTMIN
 10
0.0
 20
0.0
 30
0.0
  9
$LIMMIN
 10
0.0
 20
0.0
  9
$LIMMAX
 10
11.0
 20
8.5
  9
$VIEWCTR
 10
5.5
 20
4.25
  9
$VIEWSIZE
 40
8.5
  9
$CLAYER
  8
0
  9
$LTSCALE
 40
0.605
  9
$CELTYPE
  6
BYLAYER
  9
$DIMSCALE
 40
1.0
  9
$DIMASZ
 40
0.1
  9
$DIMEXO
 40
0.0625
  9
$DIMDLI
 40
0.418
  9
$DIMEXE
 40
0.125
  9
$DIMCEN
 40
0.099
  9
$DIMLFAC
 40
1.0
  9
$DIMBLK
  1
_FILLED
  9
$DIMALT
 70
1
  9
$DIMALTD
 70
2
  9
$DIMALTTD
 70
2
  9
$DIMALTF
 40
25.4
  9
$DIMTXT
 40
0.08
  9
$DIMTOL
 70
1
  9
$DIMLIM
 70
0
  9
$DIMTFAC
 40
1.0
  9
$DIMTP
 40
0.001
  9
$DIMTM
 40
0.001
  9
$DIMGAP
 40
0.09
  9
$DIMDSEP
 70
46
  9
$AUNITS
 70
0
  9
$PDMODE
 70
3
  9
$PDSIZE
 40
0.3125
  9
$HANDSEED
  5
289
  9
$TILEMODE
 70
1
  9
$MEASUREMENT
 70
0
  9
$INSUNITS
 70
1
  0
ENDSEC
  0
SECTION
  2
CLASSES
  0
CLASS
  1
ACDBDICTIONARYWDFLT
  2
AcDbDictionaryWithDefault
  3
AutoCAD 2000
 90
0
 91
1
280
0
281
0
  0
CLASS
  1
ACDBPLACEHOLDER
  2
AcDbPlaceHolder
  3
AutoCAD 2000
 90
0
 91
1
280
0
281
0
  0
CLASS
  1
LAYOUT
  2
AcDbLayout
  3
AutoCAD 2000
 90
0
 91
0
280
0
281
0
  0
ENDSEC
  0
SECTION
  2
TABLES
  0
TABLE
  2
VPORT
  5
8
100
AcDbSymbolTable
 70
2
  0
VPORT
  5
1F4
100
AcDbSymbolTableRecord
100
AcDbViewportTableRecord
  2
*ACTIVE
 70
0
 10
0.0
 20
0.0
 11
1.0
 21
1.0
 12
5.5
 22
4.25
 13
0.0
 23
0.0
 14
1.0
 24
1.0
 15
0.0
 25
0.0
 16
0.0
 26
0.0
 36
1.0
 17
0.0
 27
0.0
 37
0.0
 40
8.5
 41
1.2941176471
 42
50.0
 43
0.0
 44
0.0
 50
0.0
 51
0.0
 71
0
 72
100
 73
1
 74
1
 75
0
 76
0
 77
0
 78
0
  0
ENDTAB
  0
TABLE
  2
LTYPE
  5
5
100
AcDbSymbolTable
 70
6
  0
LTYPE
  5
14
100
AcDbSymbolTableRecord
100
AcDbLinetypeTableRecord
  2
BYBLOCK
 70
0
  3

 72
65
 73
0
 40
0.0
  0
LTYPE
  5
15
100
AcDbSymbolTableRecord
100
AcDbLinetypeTableRecord
  2
BYLAYER
 70
0
  3

 72
65
 73
0
 40
0.0
  0
LTYPE
  5
16
100
AcDbSymbolTableRecord
100
AcDbLinetypeTableRecord
  2
CONTINUOUS
 70
64
  3
Solid line
 72
65
 73
0
 40
0.0
  0
LTYPE
  5
1F5
100
AcDbSymbolTableRecord
100
AcDbLinetypeTableRecord
  2
CENTER
 70
64
  3
____ _ ____ _ ____ _ ____ _ ____ _ ____ _ ____
 72
65
 73
4
 40
0.6
 49
0.375
 74
0
 49
-0.075
 74
0
 49
0.075
 74
0
 49
-0.075
 74
0
  0
LTYPE
  5
1F6
100
AcDbSymbolTableRecord
100
AcDbLinetypeTableRecord
  2
HIDDEN
 70
64
  3
- - - - - - - - - - - - - - - - - - - -
 72
65
 73
2
 40
0.2
 49
0.1
 74
0
 49
-0.1
 74
0
  0
LTYPE
  5
1F7
100
AcDbSymbolTableRecord
100
AcDbLinetypeTableRecord
  2
PHANTOM
 70
64
  3
_____ _ _ _____ _ _ _____ _ _ _____
 72
65
 73
6
 40
0.8
 49
0.45
 74
0
 49
-0.05
 74
0
 49
0.1
 74
0
 49
-0.05
 74
0
 49
0.1
 74
0
 49
-0.05
 74
0
  0
LTYPE
  5
1F8
100
AcDbSymbolTableRecord
100
AcDbLinetypeTableRecord
  2
DOT
 70
64
  3
. . . . . . . . . . . . . . . . . . . .
 72
65
 73
2
 40
0.2
 49
0.1
 74
0
 49
-0.1
 74
0
  0
LTYPE
  5
1F9
100
AcDbSymbolTableRecord
100
AcDbLinetypeTableRecord
  2
DASHED
 70
64
  3
- - - - - - - - - - - - - - - - - - - -
 72
65
 73
2
 40
0.2
 49
0.1
 74
0
 49
-0.1
 74
0
  0
ENDTAB
  0
TABLE
  2
LAYER
  5
2
100
AcDbSymbolTable
 70
36
  0
LAYER
  5
10
100
AcDbSymbolTableRecord
100
AcDbLayerTableRecord
  2
0
 70
0
 62
7
  6
CONTINUOUS
370
-3
390
F
  0
LAYER
  5
1FA
100
AcDbSymbolTableRecord
100
AcDbLayerTableRecord
  2
DEFAULT_1
 70
0
 62
7
  6
CENTER
370
-3
390
F
  0
LAYER
  5
1FB
100
AcDbSymbolTableRecord
100
AcDbLayerTableRecord
  2
DEFAULT_2
 70
0
 62
8
  6
HIDDEN
370
-3
390
F
  0
LAYER
  5
1FC
100
AcDbSymbolTableRecord
100
AcDbLayerTableRecord
  2
DEFAULT_3
 70
0
 62
7
  6
PHANTOM
370
-3
390
F
  0
LAYER
  5
1FD
100
AcDbSymbolTableRecord
100
AcDbLayerTableRecord
  2
DEFAULT_COORDINATE_SYSTEM
 70
0
 62
7
  6
CONTINUOUS
370
-3
390
F
  0
LAYER
  5
1FE
100
AcDbSymbolTableRecord
100
AcDbLayerTableRecord
  2
DEFAULT_DATUM_AXES
 70
0
 62
7
  6
CONTINUOUS
370
-3
390
F
  0
LAYER
  5
1FF
100
AcDbSymbolTableRecord
100
AcDbLayerTableRecord
  2
DEFAULT_DATUM_CURVES
 70
0
 62
7
  6
CONTINUOUS
370
-3
390
F
  0
LAYER
  5
200
100
AcDbSymbolTableRecord
100
AcDbLayerTableRecord
  2
DEFAULT_DATUM_PLANES
 70
0
 62
7
  6
CONTINUOUS
370
-3
390
F
  0
ENDTAB
  0
TABLE
  2
STYLE
  5
3
100
AcDbSymbolTable
 70
1
  0
STYLE
  5
11
100
AcDbSymbolTableRecord
100
AcDbTextStyleTableRecord
  2
STANDARD
 70
0
 40
0.0
 41
0.8
 50
0.0
 71
0
 42
0.2
  3
txt
  4

  0
STYLE
  5
201
100
AcDbSymbolTableRecord
100
AcDbTextStyleTableRecord
  2
TEXTSTYLE_1
 70
0
 40
0.0
 41
0.8
 50
0.0
 71
0
 42
0.2
  3
gdt
  4

  0
ENDTAB
  0
TABLE
  2
VIEW
  5
6
100
AcDbSymbolTable
 70
0
  0
ENDTAB
  0
TABLE
  2
UCS
  5
7
100
AcDbSymbolTable
 70
0
  0
ENDTAB
  0
TABLE
  2
APPID
  5
9
100
AcDbSymbolTable
 70
1
  0
APPID
  5
202
100
AcDbSymbolTableRecord
100
AcDbRegAppTableRecord
  2
ACAD
 70
0
  0
ENDTAB
  0
TABLE
  2
BLOCK_RECORD
  5
1
100
AcDbSymbolTable
 70
0
  0
BLOCK_RECORD
  5
203
100
AcDbSymbolTableRecord
100
AcDbBlockTableRecord
  2
*Model_Space
  0
BLOCK_RECORD
  5
204
100
AcDbSymbolTableRecord
100
AcDbBlockTableRecord
  2
*Paper_Space
  0
BLOCK_RECORD
  5
205
100
AcDbSymbolTableRecord
100
AcDbBlockTableRecord
  2
_FILLED
  0
ENDTAB
  0
TABLE
  2
DIMSTYLE
  5
A
100
AcDbSymbolTable
 70
1
100
AcDbDimStyleTable
 71
0
  0
DIMSTYLE
105
206
100
AcDbSymbolTableRecord
100
AcDbDimStyleTableRecord
  2
STANDARD
 70
0
  3

  4

 40
1.0
 41
0.1
 42
0.0625
 43
0.38
 44
0.125
 45
0.0
 46
0.0
 47
0.001
 48
0.001
140
0.08
141
0.09
142
0.0
143
25.4
144
1.0
145
0.0
146
1.0
147
0.09
 71
1
 72
0
 73
1
 74
1
 75
0
 76
0
 77
0
 78
4
 79
1
170
1
171
2
172
0
173
0
174
0
175
0
176
0
177
0
178
0
270
2
179
3
271
3
272
3
273
2
274
2
275
0
280
0
281
0
282
0
283
1
284
4
285
0
286
0
287
3
288
0
340
11
278
46
341
205
342
205
343
205
344
205
  0
ENDTAB
  0
ENDSEC
  0
SECTION
  2
BLOCKS
  0
BLOCK
  5
20
100
AcDbEntity
  8
0
100
AcDbBlockBegin
  2
*Model_Space
 70
0
 10
0.0
 20
0.0
 30
0.0
  3
*Model_Space
  1

  0
ENDBLK
  5
21
100
AcDbEntity
  8
0
100
AcDbBlockEnd
  0
BLOCK
  5
1C
100
AcDbEntity
  8
0
100
AcDbBlockBegin
  2
*Paper_Space
 70
0
 10
0.0
 20
0.0
 30
0.0
  3
*Paper_Space
  1

  0
ENDBLK
  5
1D
100
AcDbEntity
  8
0
100
AcDbBlockEnd
  0
BLOCK
  5
207
100
AcDbEntity
  8
0
100
AcDbBlockBegin
  2
_FILLED
 70
64
 10
0.0
 20
0.0
  3
_FILLED
  1

  0
SOLID
  5
208
100
AcDbEntity
  8
0
  6
BYBLOCK
 62
0
100
AcDbTrace
 10
0.0
 20
0.0
 11
-1.0
 21
0.2
 12
-1.0
 22
-0.2
 13
-1.0
 23
-0.2
  0
ENDBLK
  5
209
100
AcDbEntity
  8
0
  6
BYBLOCK
 62
0
100
AcDbBlockEnd
  0
ENDSEC
  0
SECTION
  2
ENTITIES
  0
MTEXT
  5
20A
100
AcDbEntity
  8
0
100
AcDbMText
 62
2
  6
CONTINUOUS
  7
STANDARD
 71
3
 72
1
 10
6.0305222603
 20
2.0655513699
 30
0.0
 11
1.0
 21
0.0
 31
0.0
 73
2
 44
0.9
  1
SCALE 1.000
 40
0.08
 41
0.704
  0
LINE
  5
20B
100
AcDbEntity
  8
0
100
AcDbLine
 62
7
  6
CONTINUOUS
 10
0.0
 20
0.0
 11
0.0
 21
8.5
  0
LINE
  5
20C
100
AcDbEntity
  8
0
100
AcDbLine
 62
7
  6
CONTINUOUS
 10
0.0
 20
0.0
 11
11.0
 21
0.0
  0
LINE
  5
20D
100
AcDbEntity
  8
0
100
AcDbLine
 62
7
  6
CONTINUOUS
 10
0.0
 20
8.5
 11
11.0
 21
8.5
  0
LINE
  5
20E
100
AcDbEntity
  8
0
100
AcDbLine
 62
7
  6
CONTINUOUS
 10
11.0
 20
0.0
 11
11.0
 21
8.5
  0
LINE
  5
20F
100
AcDbEntity
  8
0
100
AcDbLine
 62
7
  6
CONTINUOUS
 10
2.3366866438
 20
6.112142904
 11
2.3366866438
 21
6.2516061644
  0
LINE
  5
210
100
AcDbEntity
  8
0
100
AcDbLine
 62
7
  6
CONTINUOUS
 10
4.3166866438
 20
2.6876061644
 11
6.8566866438
 21
2.6876061644
  0
LINE
  5
211
100
AcDbEntity
  8
0
100
AcDbLine
 62
7
  6
CONTINUOUS
 10
4.3358868997
 20
2.7176061644
 11
5.3366866438
 21
2.7176061644
  0
LINE
  5
212
100
AcDbEntity
  8
0
100
AcDbLine
 62
7
  6
CONTINUOUS
 10
5.8366866438
 20
2.7176061644
 11
6.837486388
 21
2.7176061644
  0
LINE
  5
213
100
AcDbEntity
  8
0
100
AcDbLine
 62
7
  6
CONTINUOUS
 10
6.8131777502
 20
2.7576061644
 11
5.8366866438
 21
2.7576061644
  0
LINE
  5
214
100
AcDbEntity
  8
0
100
AcDbLine
 62
7
  6
CONTINUOUS
 10
5.3366866438
 20
2.7576061644
 11
4.3601955374
 21
2.7576061644
  0
LINE
  5
215
100
AcDbEntity
  8
0
100
AcDbLine
 62
7
  6
CONTINUOUS
 10
6.8131778526
 20
2.7876061644
 11
5.8366866438
 21
2.7876061644
  0
LINE
  5
216
100
AcDbEntity
  8
0
100
AcDbLine
 62
7
  6
CONTINUOUS
 10
5.3366866438
 20
2.7876061644
 11
4.3601955377
 21
2.7876061644
  0
LINE
  5
217
100
AcDbEntity
  8
0
100
AcDbLine
 62
7
  6
CONTINUOUS
 10
4.1866866438
 20
2.8176061644
 11
4.2344662476
 21
2.8176061644
  0
LINE
  5
218
100
AcDbEntity
  8
0
100
AcDbLine
 62
7
  6
CONTINUOUS
 10
4.2722105379
 20
2.8176061644
 11
6.9011627497
 21
2.8176061644
  0
LINE
  5
219
100
AcDbEntity
  8
0
100
AcDbLine
 62
7
  6
CONTINUOUS
 10
6.9389070401
 20
2.8176061644
 11
6.9866866438
 21
2.8176061644
  0
LINE
  5
21A
100
AcDbEntity
  8
0
100
AcDbLine
 62
7
  6
CONTINUOUS
 10
4.1866866438
 20
3.2576061644
 11
4.1866866438
 21
2.8176061644
  0
LINE
  5
21B
100
AcDbEntity
  8
0
100
AcDbLine
 62
7
  6
CONTINUOUS
 10
4.204855582
 20
3.2576061644
 11
4.204855582
 21
2.8176061644
  0
LINE
  5
21C
100
AcDbEntity
  8
0
100
AcDbLine
 62
7
  6
CONTINUOUS
 10
4.2344662476
 20
3.2576061644
 11
4.2344662476
 21
2.8176061644
  0
LINE
  5
21D
100
AcDbEntity
  8
0
100
AcDbLine
 62
7
  6
CONTINUOUS
 10
4.2722105379
 20
2.8176061644
 11
4.2722105379
 21
3.2576061644
  0
LINE
  5
21E
100
AcDbEntity
  8
0
100
AcDbLine
 62
7
  6
CONTINUOUS
 10
4.2951901207
 20
2.8176061644
 11
4.2951901207
 21
3.2576061644
  0
LINE
  5
21F
100
AcDbEntity
  8
0
100
AcDbLine
 62
7
  6
CONTINUOUS
 10
4.3358868997
 20
2.7176061644
 11
4.3358868997
 21
2.6876061644
  0
LINE
  5
220
100
AcDbEntity
  8
0
100
AcDbLine
 62
7
  6
CONTINUOUS
 10
4.3358868997
 20
3.3576061644
 11
4.3358868999
 21
3.3876061644
  0
LINE
  5
221
100
AcDbEntity
  8
0
100
AcDbLine
 62
7
  6
CONTINUOUS
 10
4.3601955374
 20
3.3176061644
 11
4.3601955374
 21
3.2876061644
  0
LINE
  5
222
100
AcDbEntity
  8
0
100
AcDbLine
 62
7
  6
CONTINUOUS
 10
4.3601955374
 20
2.7576061644
 11
4.3601955374
 21
2.7876061644
  0
LINE
  5
223
100
AcDbEntity
  8
0
100
AcDbLine
 62
7
  6
CONTINUOUS
 10
4.2344662476
 20
3.2576061644
 11
4.1866866438
 21
3.2576061644
  0
LINE
  5
224
100
AcDbEntity
  8
0
100
AcDbLine
 62
7
  6
CONTINUOUS
 10
4.2722105379
 20
3.2576061644
 11
6.9011627497
 21
3.2576061644
  0
LINE
  5
225
100
AcDbEntity
  8
0
100
AcDbLine
 62
7
  6
CONTINUOUS
 10
6.9389070401
 20
3.2576061644
 11
6.9866866438
 21
3.2576061644
  0
LINE
  5
226
100
AcDbEntity
  8
0
100
AcDbLine
 62
7
  6
CONTINUOUS
 10
4.4616866438
 20
5.8686061644
 11
4.4616866438
 21
5.9386061644
  0
LINE
  5
227
100
AcDbEntity
  8
0
100
AcDbLine
 62
7
  6
CONTINUOUS
 10
4.4866866438
 20
2.7876061644
 11
4.4866866438
 21
3.2876061644
  0
LINE
  5
228
100
AcDbEntity
  8
0
100
AcDbLine
 62
7
  6
CONTINUOUS
 10
4.5416866438
 20
5.6186061644
 11
4.5416866438
 21
5.7886061644
  0
LINE
  5
229
100
AcDbEntity
  8
0
100
AcDbLine
 62
7
  6
CONTINUOUS
 10
4.3601955374
 20
3.2876061644
 11
5.3366866438
 21
3.2876061644
  0
LINE
  5
22A
100
AcDbEntity
  8
0
100
AcDbLine
 62
7
  6
CONTINUOUS
 10
5.8366866438
 20
3.2876061644
 11
6.8131777532
 21
3.2876061644
  0
LINE
  5
22B
100
AcDbEntity
  8
0
100
AcDbLine
 62
7
  6
CONTINUOUS
 10
4.3601955374
 20
3.3176061644
 11
5.3366866438
 21
3.3176061644
  0
LINE
  5
22C
100
AcDbEntity
  8
0
100
AcDbLine
 62
7
  6
CONTINUOUS
 10
5.8366866438
 20
3.3176061644
 11
6.8131777502
 21
3.3176061644
  0
LINE
  5
22D
100
AcDbEntity
  8
0
100
AcDbLine
 62
7
  6
CONTINUOUS
 10
6.837486388
 20
3.3576061644
 11
5.8366866438
 21
3.3576061644
  0
LINE
  5
22E
100
AcDbEntity
  8
0
100
AcDbLine
 62
7
  6
CONTINUOUS
 10
5.3366866438
 20
3.3576061644
 11
4.3358868997
 21
3.3576061644
  0
LINE
  5
22F
100
AcDbEntity
  8
0
100
AcDbLine
 62
7
  6
CONTINUOUS
 10
4.3166866438
 20
3.3876061644
 11
6.8566866438
 21
3.3876061644
  0
LINE
  5
230
100
AcDbEntity
  8
0
100
AcDbLine
 62
7
  6
CONTINUOUS
 10
6.0441866438
 20
3.4186061644
 11
5.1291866438
 21
3.4186061644
  0
LINE
  5
231
100
AcDbEntity
  8
0
100
AcDbLine
 62
7
  6
CONTINUOUS
 10
6.0741866438
 20
3.4486061644
 11
5.0991866438
 21
3.4486061644
  0
LINE
  5
232
100
AcDbEntity
  8
0
100
AcDbLine
 62
7
  6
CONTINUOUS
 10
5.0116866438
 20
2.6876061644
 11
5.0116866438
 21
3.3876061644
  0
LINE
  5
233
100
AcDbEntity
  8
0
100
AcDbLine
 62
7
  6
CONTINUOUS
 10
5.0991866438
 20
5.5486061644
 11
5.0991866438
 21
3.4486061644
  0
LINE
  5
234
100
AcDbEntity
  8
0
100
AcDbLine
 62
7
  6
CONTINUOUS
 10
5.1616866438
 20
5.5786061644
 11
5.1616866438
 21
5.5886061644
  0
LINE
  5
235
100
AcDbEntity
  8
0
100
AcDbLine
 62
7
  6
CONTINUOUS
 10
5.3279127042
 20
3.4186061644
 11
5.3279127042
 21
3.3876061644
  0
LINE
  5
236
100
AcDbEntity
  8
0
100
AcDbLine
 62
7
  6
CONTINUOUS
 10
5.3366866438
 20
2.7176061644
 11
5.3366866438
 21
3.3576061644
  0
LINE
  5
237
100
AcDbEntity
  8
0
100
AcDbLine
 62
7
  6
CONTINUOUS
 10
5.3618691256
 20
2.8176061644
 11
5.3618691256
 21
3.2576061644
  0
LINE
  5
238
100
AcDbEntity
  8
0
100
AcDbLine
 62
7
  6
CONTINUOUS
 10
5.8115041621
 20
3.2576061644
 11
5.8115041621
 21
2.8176061644
  0
LINE
  5
239
100
AcDbEntity
  8
0
100
AcDbLine
 62
7
  6
CONTINUOUS
 10
5.8366866438
 20
3.3576061644
 11
5.8366866438
 21
2.7176061644
  0
LINE
  5
23A
100
AcDbEntity
  8
0
100
AcDbLine
 62
7
  6
CONTINUOUS
 10
5.8454605835
 20
3.4186061644
 11
5.8454605835
 21
3.3876061644
  0
LINE
  5
23B
100
AcDbEntity
  8
0
100
AcDbLine
 62
7
  6
CONTINUOUS
 10
6.0116866438
 20
5.5786061644
 11
6.0116866438
 21
5.5886061644
  0
LINE
  5
23C
100
AcDbEntity
  8
0
100
AcDbLine
 62
7
  6
CONTINUOUS
 10
6.0741866438
 20
5.5486061644
 11
6.0741866438
 21
3.4486061644
  0
LINE
  5
23D
100
AcDbEntity
  8
0
100
AcDbLine
 62
7
  6
CONTINUOUS
 10
6.1616866438
 20
2.6876061644
 11
6.1616866438
 21
3.3876061644
  0
LINE
  5
23E
100
AcDbEntity
  8
0
100
AcDbLine
 62
7
  6
CONTINUOUS
 10
6.6316866438
 20
5.6186061644
 11
6.6316866438
 21
5.7886061644
  0
LINE
  5
23F
100
AcDbEntity
  8
0
100
AcDbLine
 62
7
  6
CONTINUOUS
 10
6.6866866438
 20
2.7876061644
 11
6.6866866438
 21
3.2876061644
  0
LINE
  5
240
100
AcDbEntity
  8
0
100
AcDbLine
 62
7
  6
CONTINUOUS
 10
6.7116866438
 20
5.8686061644
 11
6.7116866438
 21
5.9386061644
  0
LINE
  5
241
100
AcDbEntity
  8
0
100
AcDbLine
 62
7
  6
CONTINUOUS
 10
6.8131777502
 20
3.3176061644
 11
6.8131777502
 21
3.2876061644
  0
LINE
  5
242
100
AcDbEntity
  8
0
100
AcDbLine
 62
7
  6
CONTINUOUS
 10
6.8131777502
 20
2.7576061644
 11
6.8131777502
 21
2.7876061644
  0
LINE
  5
243
100
AcDbEntity
  8
0
100
AcDbLine
 62
7
  6
CONTINUOUS
 10
6.837486388
 20
2.7176061644
 11
6.8374863877
 21
2.6876061644
  0
LINE
  5
244
100
AcDbEntity
  8
0
100
AcDbLine
 62
7
  6
CONTINUOUS
 10
6.837486388
 20
3.3576061644
 11
6.837486388
 21
3.3876061644
  0
LINE
  5
245
100
AcDbEntity
  8
0
100
AcDbLine
 62
7
  6
CONTINUOUS
 10
6.0741866438
 20
5.5486061644
 11
5.0991866438
 21
5.5486061644
  0
LINE
  5
246
100
AcDbEntity
  8
0
100
AcDbLine
 62
7
  6
CONTINUOUS
 10
6.0441866438
 20
5.5786061644
 11
5.1291866438
 21
5.5786061644
  0
LINE
  5
247
100
AcDbEntity
  8
0
100
AcDbLine
 62
7
  6
CONTINUOUS
 10
6.6016866438
 20
5.5886061644
 11
4.5716866438
 21
5.5886061644
  0
LINE
  5
248
100
AcDbEntity
  8
0
100
AcDbLine
 62
7
  6
CONTINUOUS
 10
6.6316866438
 20
5.6186061644
 11
4.5416866438
 21
5.6186061644
  0
LINE
  5
249
100
AcDbEntity
  8
0
100
AcDbLine
 62
7
  6
CONTINUOUS
 10
6.878183167
 20
3.2576061644
 11
6.878183167
 21
2.8176061644
  0
LINE
  5
24A
100
AcDbEntity
  8
0
100
AcDbLine
 62
7
  6
CONTINUOUS
 10
6.9011627497
 20
3.2576061644
 11
6.9011627497
 21
2.8176061644
  0
LINE
  5
24B
100
AcDbEntity
  8
0
100
AcDbLine
 62
7
  6
CONTINUOUS
 10
6.9389070401
 20
2.8176061644
 11
6.9389070401
 21
3.2576061644
  0
LINE
  5
24C
100
AcDbEntity
  8
0
100
AcDbLine
 62
7
  6
CONTINUOUS
 10
6.9685177057
 20
2.8176061644
 11
6.9685177057
 21
3.2576061644
  0
LINE
  5
24D
100
AcDbEntity
  8
0
100
AcDbLine
 62
7
  6
CONTINUOUS
 10
6.9866866438
 20
3.2576061644
 11
6.9866866438
 21
2.8176061644
  0
LINE
  5
24E
100
AcDbEntity
  8
0
100
AcDbLine
 62
7
  6
CONTINUOUS
 10
4.5416866438
 20
5.7886061644
 11
6.6316866438
 21
5.7886061644
  0
LINE
  5
24F
100
AcDbEntity
  8
0
100
AcDbLine
 62
7
  6
CONTINUOUS
 10
4.4916866438
 20
5.8386061644
 11
6.6816866438
 21
5.8386061644
  0
LINE
  5
250
100
AcDbEntity
  8
0
100
AcDbLine
 62
7
  6
CONTINUOUS
 10
6.7116866438
 20
5.8686061644
 11
4.4616866438
 21
5.8686061644
  0
LINE
  5
251
100
AcDbEntity
  8
0
100
AcDbLine
 62
7
  6
CONTINUOUS
 10
8.6695301336
 20
5.9386061644
 11
2.5038431541
 21
5.9386061644
  0
LINE
  5
252
100
AcDbEntity
  8
0
100
AcDbLine
 62
7
  6
CONTINUOUS
 10
8.7289047952
 20
5.9805431741
 11
2.4444684925
 21
5.9805431741
  0
LINE
  5
253
100
AcDbEntity
  8
0
100
AcDbLine
 62
7
  6
CONTINUOUS
 10
8.7982383282
 20
6.0541238141
 11
2.3751349595
 21
6.0541238141
  0
LINE
  5
254
100
AcDbEntity
  8
0
100
AcDbLine
 62
7
  6
CONTINUOUS
 10
8.8366866438
 20
6.112142904
 11
2.3366866438
 21
6.112142904
  0
LINE
  5
255
100
AcDbEntity
  8
0
100
AcDbLine
 62
7
  6
CONTINUOUS
 10
2.3366866438
 20
6.2516061644
 11
8.8366866438
 21
6.2516061644
  0
LINE
  5
256
100
AcDbEntity
  8
0
100
AcDbLine
 62
7
  6
CONTINUOUS
 10
8.8366866438
 20
6.112142904
 11
8.8366866438
 21
6.2516061644
  0
ARC
  5
257
100
AcDbEntity
  8
0
100
AcDbCircle
 62
7
  6
CONTINUOUS
 10
6.8374689863
 20
3.2552542954
 40
0.1323518702
100
AcDbArc
 50
83.3588321841
 51
89.992466702
  0
ARC
  5
258
100
AcDbEntity
  8
0
100
AcDbCircle
 62
7
  6
CONTINUOUS
 10
4.3359037749
 20
2.8199510032
 40
0.1323448399
100
AcDbArc
 50
263.3582706346
 51
269.9926942366
  0
ARC
  5
259
100
AcDbEntity
  8
0
100
AcDbCircle
 62
7
  6
CONTINUOUS
 10
4.335897182
 20
3.2553785719
 40
0.1322275929
100
AcDbArc
 50
90.0044554516
 51
96.6452770902
  0
ARC
  5
25A
100
AcDbEntity
  8
0
100
AcDbCircle
 62
7
  6
CONTINUOUS
 10
6.837476385
 20
2.8198297839
 40
0.1322236199
100
AcDbArc
 50
270.0043345465
 51
276.6467644147
  0
ARC
  5
25B
100
AcDbEntity
  8
0
100
AcDbCircle
 62
7
  6
CONTINUOUS
 10
6.8566866438
 20
2.8176061644
 40
0.13
100
AcDbArc
 50
270.0
 51
360.0
  0
ARC
  5
25C
100
AcDbEntity
  8
0
100
AcDbCircle
 62
7
  6
CONTINUOUS
 10
6.8566866438
 20
3.2576061644
 40
0.13
100
AcDbArc
 50
0.0
 51
90.0
  0
ARC
  5
25D
100
AcDbEntity
  8
0
100
AcDbCircle
 62
7
  6
CONTINUOUS
 10
4.3166866438
 20
2.8176061644
 40
0.13
100
AcDbArc
 50
180.0
 51
270.0
  0
ARC
  5
25E
100
AcDbEntity
  8
0
100
AcDbCircle
 62
7
  6
CONTINUOUS
 10
4.3166866438
 20
3.2576061644
 40
0.13
100
AcDbArc
 50
90.0
 51
180.0
  0
ARC
  5
25F
100
AcDbEntity
  8
0
100
AcDbCircle
 62
7
  6
CONTINUOUS
 10
2.3262518612
 20
5.9386061644
 40
0.1254347826
100
AcDbArc
 50
19.5319940446
 51
67.0635891141
  0
ARC
  5
260
100
AcDbEntity
  8
0
100
AcDbCircle
 62
7
  6
CONTINUOUS
 10
8.8471214264
 20
5.9386061644
 40
0.1254347826
100
AcDbArc
 50
112.9364108859
 51
160.4680059554
  0
ARC
  5
261
100
AcDbEntity
  8
0
100
AcDbCircle
 62
7
  6
CONTINUOUS
 10
8.7736866438
 20
6.112142904
 40
0.063
100
AcDbArc
 50
292.9364108859
 51
360.0
  0
ARC
  5
262
100
AcDbEntity
  8
0
100
AcDbCircle
 62
7
  6
CONTINUOUS
 10
2.3996866438
 20
6.112142904
 40
0.063
100
AcDbArc
 50
180.0
 51
247.0635891141
  0
ARC
  5
263
100
AcDbEntity
  8
0
100
AcDbCircle
 62
7
  6
CONTINUOUS
 10
8.6695301336
 20
6.0016061644
 40
0.063
100
AcDbArc
 50
270.0
 51
340.4680059554
  0
ARC
  5
264
100
AcDbEntity
  8
0
100
AcDbCircle
 62
7
  6
CONTINUOUS
 10
2.5038431541
 20
6.0016061644
 40
0.063
100
AcDbArc
 50
199.5319940446
 51
270.0
  0
ARC
  5
265
100
AcDbEntity
  8
0
100
AcDbCircle
 62
7
  6
CONTINUOUS
 10
4.4916866438
 20
5.7886061644
 40
0.05
100
AcDbArc
 50
0.0
 51
90.0
  0
ARC
  5
266
100
AcDbEntity
  8
0
100
AcDbCircle
 62
7
  6
CONTINUOUS
 10
6.6816866438
 20
5.7886061644
 40
0.05
100
AcDbArc
 50
90.0
 51
180.0
  0
ARC
  5
267
100
AcDbEntity
  8
0
100
AcDbCircle
 62
7
  6
CONTINUOUS
 10
5.1291866438
 20
5.5486061644
 40
0.03
100
AcDbArc
 50
90.0
 51
180.0
  0
ARC
  5
268
100
AcDbEntity
  8
0
100
AcDbCircle
 62
7
  6
CONTINUOUS
 10
6.0441866438
 20
5.5486061644
 40
0.03
100
AcDbArc
 50
0.0
 51
90.0
  0
ARC
  5
269
100
AcDbEntity
  8
0
100
AcDbCircle
 62
7
  6
CONTINUOUS
 10
5.1291866438
 20
3.4486061644
 40
0.03
100
AcDbArc
 50
180.0
 51
270.0
  0
ARC
  5
26A
100
AcDbEntity
  8
0
100
AcDbCircle
 62
7
  6
CONTINUOUS
 10
6.0441866438
 20
3.4486061644
 40
0.03
100
AcDbArc
 50
270.0
 51
360.0
  0
ARC
  5
26B
100
AcDbEntity
  8
0
100
AcDbCircle
 62
7
  6
CONTINUOUS
 10
4.5716866438
 20
5.6186061644
 40
0.03
100
AcDbArc
 50
180.0
 51
270.0
  0
ARC
  5
26C
100
AcDbEntity
  8
0
100
AcDbCircle
 62
7
  6
CONTINUOUS
 10
6.6016866438
 20
5.6186061644
 40
0.03
100
AcDbArc
 50
270.0
 51
360.0
  0
ARC
  5
26D
100
AcDbEntity
  8
0
100
AcDbCircle
 62
7
  6
CONTINUOUS
 10
4.4916866438
 20
5.8686061644
 40
0.03
100
AcDbArc
 50
180.0
 51
270.0
  0
ARC
  5
26E
100
AcDbEntity
  8
0
100
AcDbCircle
 62
7
  6
CONTINUOUS
 10
6.6816866438
 20
5.8686061644
 40
0.03
100
AcDbArc
 50
270.0
 51
360.0
  0
ARC
  5
26F
100
AcDbEntity
  8
0
100
AcDbCircle
 62
7
  6
CONTINUOUS
 10
5.8066866438
 20
2.7176061644
 40
0.03
100
AcDbArc
 50
270.0000000001
 51
360.0
  0
ARC
  5
270
100
AcDbEntity
  8
0
100
AcDbCircle
 62
7
  6
CONTINUOUS
 10
5.8066866438
 20
3.3576061644
 40
0.03
100
AcDbArc
 50
0.0000000004
 51
90.0
  0
ARC
  5
271
100
AcDbEntity
  8
0
100
AcDbCircle
 62
7
  6
CONTINUOUS
 10
5.3666866438
 20
2.7176061644
 40
0.03
100
AcDbArc
 50
180.0000000004
 51
270.0
  0
ARC
  5
272
100
AcDbEntity
  8
0
100
AcDbCircle
 62
7
  6
CONTINUOUS
 10
5.3666866438
 20
3.3576061644
 40
0.03
100
AcDbArc
 50
90.0000000002
 51
180.0
  0
SPLINE
  5
273
100
AcDbEntity
  8
0
100
AcDbSpline
 62
7
  6
CONTINUOUS
 70
0
 71
3
 72
23
 73
19
 74
0
 42
0.0000001
 43
0.0000001
 44
0.0000000001
 40
0.0
 40
0.0
 40
0.0
 40
0.0
 40
0.0624951902
 40
0.1249703081
 40
0.1874440752
 40
0.2499277815
 40
0.312415811
 40
0.3749068699
 40
0.4374016399
 40
0.4999009606
 40
0.5624035332
 40
0.6249102385
 40
0.6874214592
 40
0.749933678
 40
0.8124421834
 40
0.874962471
 40
0.9375048468
 40
1.0
 40
1.0
 40
1.0
 40
1.0
 10
6.8527809908
 20
2.6884948887
 30
0.0
 10
6.8567046961
 20
2.6889518645
 30
0.0
 10
6.8645144296
 20
2.6902183319
 30
0.0
 10
6.8760067687
 20
2.6931616741
 30
0.0
 10
6.8871887031
 20
2.6971249199
 30
0.0
 10
6.8979696241
 20
2.7020776468
 30
0.0
 10
6.9082616724
 20
2.707981943
 30
0.0
 10
6.9179791992
 20
2.7147918478
 30
0.0
 10
6.9270412252
 20
2.722453632
 30
0.0
 10
6.9353722571
 20
2.7309056495
 30
0.0
 10
6.9429008943
 20
2.740080695
 30
0.0
 10
6.9495640646
 20
2.7499033291
 30
0.0
 10
6.9553024459
 20
2.7602941091
 30
0.0
 10
6.9600687284
 20
2.7711653629
 30
0.0
 10
6.9638193438
 20
2.782428026
 30
0.0
 10
6.9665233435
 20
2.7939890409
 30
0.0
 10
6.9681527029
 20
2.8057478026
 30
0.0
 10
6.9685176121
 20
2.8136559401
 30
0.0
 10
6.9685177057
 20
2.8176061644
 30
0.0
  0
SPLINE
  5
274
100
AcDbEntity
  8
0
100
AcDbSpline
 62
7
  6
CONTINUOUS
 70
0
 71
3
 72
23
 73
19
 74
0
 42
0.0000001
 43
0.0000001
 44
0.0000000001
 40
0.0
 40
0.0
 40
0.0
 40
0.0
 40
0.0624951901
 40
0.125037623
 40
0.1875579228
 40
0.2500663992
 40
0.3125785609
 40
0.3750897129
 40
0.4375963612
 40
0.5000989008
 40
0.562598218
 40
0.6250930044
 40
0.6875840943
 40
0.7500721676
 40
0.8125559242
 40
0.8750297251
 40
0.9375048462
 40
1.0
 40
1.0
 40
1.0
 40
1.0
 10
6.9685177057
 20
3.2576061644
 30
0.0
 10
6.9685176038
 20
3.261556504
 30
0.0
 10
6.9681526761
 20
3.2694648731
 30
0.0
 10
6.9665232439
 20
3.2812239761
 30
0.0
 10
6.9638190746
 20
3.2927853047
 30
0.0
 10
6.9600682345
 20
3.3040482464
 30
0.0
 10
6.9553016961
 20
3.3149197488
 30
0.0
 10
6.9495630115
 20
3.3253107373
 30
0.0
 10
6.9428994917
 20
3.3351335341
 30
0.0
 10
6.935370459
 20
3.344308688
 30
0.0
 10
6.9270390026
 20
3.3527607633
 30
0.0
 10
6.9179765261
 20
3.3604225461
 30
0.0
 10
6.9082585369
 20
3.3672323943
 30
0.0
 10
6.8979660114
 20
3.3731365595
 30
0.0
 10
6.887184613
 20
3.3780890819
 30
0.0
 10
6.8760022132
 20
3.3820520505
 30
0.0
 10
6.8645094342
 20
3.3849950458
 30
0.0
 10
6.8566994294
 20
3.3862612446
 30
0.0
 10
6.8527755956
 20
3.3867180746
 30
0.0
  0
SPLINE
  5
275
100
AcDbEntity
  8
0
100
AcDbSpline
 62
7
  6
CONTINUOUS
 70
0
 71
3
 72
23
 73
19
 74
0
 42
0.0000001
 43
0.0000001
 44
0.0000000001
 40
0.0
 40
0.0
 40
0.0
 40
0.0
 40
0.0624951751
 40
0.1250375614
 40
0.1875578226
 40
0.2500662772
 40
0.3125784137
 40
0.3750895402
 40
0.4375961788
 40
0.5000987107
 40
0.5625980122
 40
0.6250927774
 40
0.6875838595
 40
0.7500719602
 40
0.8125557707
 40
0.8750296198
 40
0.9375047947
 40
1.0
 40
1.0
 40
1.0
 40
1.0
 10
4.204855582
 20
2.8176061644
 30
0.0
 10
4.204855693
 20
2.8136558467
 30
0.0
 10
4.2052206213
 20
2.8057475245
 30
0.0
 10
4.2068500293
 20
2.7939884886
 30
0.0
 10
4.2095541625
 20
2.7824272234
 30
0.0
 10
4.2133049564
 20
2.7711643388
 30
0.0
 10
4.2180714347
 20
2.760292884
 30
0.0
 10
4.2238100604
 20
2.7499019394
 30
0.0
 10
4.2304735139
 20
2.7400791773
 30
0.0
 10
4.2380024757
 20
2.7309040501
 30
0.0
 10
4.2463338457
 20
2.7224519826
 30
0.0
 10
4.2553962341
 20
2.7147901982
 30
0.0
 10
4.2651141294
 20
2.7079803263
 30
0.0
 10
4.275406571
 20
2.7020761324
 30
0.0
 10
4.2861878874
 20
2.6971235631
 30
0.0
 10
4.2973702138
 20
2.6931605461
 30
0.0
 10
4.3088629208
 20
2.6902174882
 30
0.0
 10
4.3166728784
 20
2.6889512217
 30
0.0
 10
4.3205966903
 20
2.6884943571
 30
0.0
  0
SPLINE
  5
276
100
AcDbEntity
  8
0
100
AcDbSpline
 62
7
  6
CONTINUOUS
 70
0
 71
3
 72
23
 73
19
 74
0
 42
0.0000001
 43
0.0000001
 44
0.0000000001
 40
0.0
 40
0.0
 40
0.0
 40
0.0
 40
0.0624951419
 40
0.124970227
 40
0.1874439671
 40
0.2499276393
 40
0.3124156482
 40
0.3749066977
 40
0.4374014487
 40
0.4999007412
 40
0.5624032946
 40
0.6249100033
 40
0.687421268
 40
0.7499335399
 40
0.8124420909
 40
0.8749624332
 40
0.937504849
 40
1.0
 40
1.0
 40
1.0
 40
1.0
 10
4.3205955257
 20
3.3867178106
 30
0.0
 10
4.3166717446
 20
3.3862609268
 30
0.0
 10
4.3088618506
 20
3.384994631
 30
0.0
 10
4.2973692549
 20
3.3820514959
 30
0.0
 10
4.2861870527
 20
3.378088414
 30
0.0
 10
4.2754058543
 20
3.3731358152
 30
0.0
 10
4.2651135264
 20
3.3672316054
 30
0.0
 10
4.2553957167
 20
3.3604217545
 30
0.0
 10
4.2463334248
 20
3.3527599741
 30
0.0
 10
4.2380021423
 20
3.3443079231
 30
0.0
 10
4.2304732743
 20
3.3351328071
 30
0.0
 10
4.2238098825
 20
3.3253100749
 30
0.0
 10
4.2180713047
 20
3.3149191634
 30
0.0
 10
4.2133048461
 20
3.3040477541
 30
0.0
 10
4.2095541068
 20
3.2927849065
 30
0.0
 10
4.2068500153
 20
3.2812236953
 30
0.0
 10
4.2052205713
 20
3.2694647339
 30
0.0
 10
4.204855654
 20
3.2615564562
 30
0.0
 10
4.204855582
 20
3.2576061644
 30
0.0
  0
SPLINE
  5
277
100
AcDbEntity
  8
0
100
AcDbSpline
 62
7
  6
CONTINUOUS
 70
0
 71
3
 72
35
 73
31
 74
0
 42
0.0000001
 43
0.0000001
 44
0.0000000001
 40
0.0
 40
0.0
 40
0.0
 40
0.0
 40
0.0004920865
 40
0.0010264565
 40
0.001637286
 40
0.0023477177
 40
0.0041190365
 40
0.0064084462
 40
0.0092441516
 40
0.0126402136
 40
0.0166042543
 40
0.0211403934
 40
0.0262493817
 40
0.0319302087
 40
0.0449997435
 40
0.0603309139
 40
0.0778995732
 40
0.0976677265
 40
0.1195912272
 40
0.143625104
 40
0.1697182504
 40
0.2278307505
 40
0.2934043767
 40
0.3658242366
 40
0.4444167019
 40
0.5284314425
 40
0.6170641095
 40
0.7094438746
 40
0.8046891528
 40
1.0
 40
1.0
 40
1.0
 40
1.0
 10
5.8066866438
 20
3.3876061644
 30
0.0
 10
5.8067080336
 20
3.3876061492
 30
0.0
 10
5.8067528827
 20
3.3875989374
 30
0.0
 10
5.8068177018
 20
3.3875678188
 30
0.0
 10
5.8068813239
 20
3.3875174384
 30
0.0
 10
5.806971841
 20
3.3874174732
 30
0.0
 10
5.8070807346
 20
3.3872393307
 30
0.0
 10
5.8072028983
 20
3.3869652737
 30
0.0
 10
5.8073248545
 20
3.3866151443
 30
0.0
 10
5.807446464
 20
3.3861888256
 30
0.0
 10
5.8075675393
 20
3.3856859772
 30
0.0
 10
5.8076879012
 20
3.3851067235
 30
0.0
 10
5.8078074567
 20
3.3844513043
 30
0.0
 10
5.8079734823
 20
3.3834275219
 30
0.0
 10
5.8081743944
 20
3.381959561
 30
0.0
 10
5.8084016559
 20
3.3799742543
 30
0.0
 10
5.8086239288
 20
3.3776956386
 30
0.0
 10
5.8088407623
 20
3.3751288308
 30
0.0
 10
5.809051583
 20
3.3722796552
 30
0.0
 10
5.8092558753
 20
3.3691544395
 30
0.0
 10
5.8095287811
 20
3.3644574306
 30
0.0
 10
5.8098452438
 20
3.3579544597
 30
0.0
 10
5.8101818008
 20
3.3494367937
 30
0.0
 10
5.8104847937
 20
3.3400271574
 30
0.0
 10
5.8107518095
 20
3.3298145654
 30
0.0
 10
5.8109807483
 20
3.3188961623
 30
0.0
 10
5.8111698688
 20
3.3073776213
 30
0.0
 10
5.811318656
 20
3.2953702896
 30
0.0
 10
5.8114628083
 20
3.278725635
 30
0.0
 10
5.8115041701
 20
3.2660958316
 30
0.0
 10
5.8115041621
 20
3.2576061644
 30
0.0
  0
SPLINE
  5
278
100
AcDbEntity
  8
0
100
AcDbSpline
 62
7
  6
CONTINUOUS
 70
0
 71
3
 72
35
 73
31
 74
0
 42
0.0000001
 43
0.0000001
 44
0.0000000001
 40
0.0
 40
0.0
 40
0.0
 40
0.0
 40
0.1953109345
 40
0.2905560963
 40
0.3829357084
 40
0.4715682674
 40
0.5555829333
 40
0.6341753501
 40
0.7065951602
 40
0.7721688105
 40
0.8302814848
 40
0.8563747229
 40
0.8804086518
 40
0.9023321784
 40
0.9221003338
 40
0.9396689762
 40
0.9550001288
 40
0.9680696621
 40
0.973750498
 40
0.9788595027
 40
0.9833956661
 40
0.9873597355
 40
0.9907558232
 40
0.9935915452
 40
0.9958809572
 40
0.9976522641
 40
0.9983626878
 40
0.9989735127
 40
0.9995078884
 40
1.0
 40
1.0
 40
1.0
 40
1.0
 10
5.3618691256
 20
3.2576061644
 30
0.0
 10
5.3618691076
 20
3.2660958362
 30
0.0
 10
5.3619105777
 20
3.2787256389
 30
0.0
 10
5.3620545613
 20
3.2953702884
 30
0.0
 10
5.3622033261
 20
3.3073776054
 30
0.0
 10
5.3623925556
 20
3.3188961311
 30
0.0
 10
5.3626215585
 20
3.3298145237
 30
0.0
 10
5.3628885527
 20
3.3400271095
 30
0.0
 10
5.3631914103
 20
3.3494367476
 30
0.0
 10
5.3635278956
 20
3.3579544243
 30
0.0
 10
5.3638444825
 20
3.3644574027
 30
0.0
 10
5.3641174717
 20
3.369154421
 30
0.0
 10
5.3643217829
 20
3.372279643
 30
0.0
 10
5.3645325876
 20
3.3751288234
 30
0.0
 10
5.3647493908
 20
3.3776956345
 30
0.0
 10
5.3649716376
 20
3.3799742516
 30
0.0
 10
5.3651988927
 20
3.3819595577
 30
0.0
 10
5.3653998078
 20
3.383427518
 30
0.0
 10
5.3655658366
 20
3.384451301
 30
0.0
 10
5.3656853938
 20
3.3851067221
 30
0.0
 10
5.3658057554
 20
3.385685979
 30
0.0
 10
5.3659268277
 20
3.3861888316
 30
0.0
 10
5.3660484327
 20
3.3866151549
 30
0.0
 10
5.3661703842
 20
3.386965288
 30
0.0
 10
5.366292544
 20
3.387239347
 30
0.0
 10
5.3664014364
 20
3.3874174898
 30
0.0
 10
5.3664919547
 20
3.3875174525
 30
0.0
 10
5.3665555789
 20
3.3875678301
 30
0.0
 10
5.3666204016
 20
3.3875989443
 30
0.0
 10
5.366665253
 20
3.3876061515
 30
0.0
 10
5.3666866438
 20
3.3876061644
 30
0.0
  0
SPLINE
  5
279
100
AcDbEntity
  8
0
100
AcDbSpline
 62
7
  6
CONTINUOUS
 70
0
 71
3
 72
35
 73
31
 74
0
 42
0.0000001
 43
0.0000001
 44
0.0000000001
 40
0.0
 40
0.0
 40
0.0
 40
0.0
 40
0.1953108138
 40
0.2905559287
 40
0.3829355236
 40
0.471568058
 40
0.555582676
 40
0.6341750518
 40
0.7065948439
 40
0.7721685071
 40
0.8302812484
 40
0.8563745211
 40
0.8804084729
 40
0.9023320255
 40
0.9221001972
 40
0.9396688341
 40
0.9549999736
 40
0.9680695094
 40
0.9737503571
 40
0.9788593827
 40
0.9833955771
 40
0.9873596867
 40
0.9907558149
 40
0.9935915677
 40
0.9958809926
 40
0.9976522892
 40
0.9983627006
 40
0.9989735123
 40
0.9995078803
 40
1.0
 40
1.0
 40
1.0
 40
1.0
 10
5.8115041621
 20
2.8176061644
 30
0.0
 10
5.8115041818
 20
2.8091164971
 30
0.0
 10
5.811462798
 20
2.7964867001
 30
0.0
 10
5.8113187518
 20
2.7798420574
 30
0.0
 10
5.8111699353
 20
2.7678347439
 30
0.0
 10
5.8109806819
 20
2.7563162215
 30
0.0
 10
5.8107517143
 20
2.7453978322
 30
0.0
 10
5.8104847825
 20
2.7351852484
 30
0.0
 10
5.8101819504
 20
2.7257756105
 30
0.0
 10
5.8098454438
 20
2.717257931
 30
0.0
 10
5.8095288002
 20
2.7107549497
 30
0.0
 10
5.8092557799
 20
2.7060579274
 30
0.0
 10
5.8090514635
 20
2.7029327019
 30
0.0
 10
5.8088406675
 20
2.7000835177
 30
0.0
 10
5.8086238784
 20
2.6975167037
 30
0.0
 10
5.8084016432
 20
2.6952380852
 30
0.0
 10
5.8081743908
 20
2.6932527793
 30
0.0
 10
5.8079734745
 20
2.691784819
 30
0.0
 10
5.8078074446
 20
2.6907610345
 30
0.0
 10
5.8076878871
 20
2.6901056106
 30
0.0
 10
5.8075675262
 20
2.6895263495
 30
0.0
 10
5.807446456
 20
2.6890234913
 30
0.0
 10
5.8073248539
 20
2.6885971622
 30
0.0
 10
5.8072029055
 20
2.688247024
 30
0.0
 10
5.8070807483
 20
2.6879729623
 30
0.0
 10
5.8069718569
 20
2.6877948191
 30
0.0
 10
5.8068813378
 20
2.6876948589
 30
0.0
 10
5.8068177125
 20
2.6876444848
 30
0.0
 10
5.8067528875
 20
2.6876133761
 30
0.0
 10
5.806708035
 20
2.6876061744
 30
0.0
 10
5.8066866438
 20
2.6876061644
 30
0.0
  0
SPLINE
  5
27A
100
AcDbEntity
  8
0
100
AcDbSpline
 62
7
  6
CONTINUOUS
 70
0
 71
3
 72
35
 73
31
 74
0
 42
0.0000001
 43
0.0000001
 44
0.0000000001
 40
0.0
 40
0.0
 40
0.0
 40
0.0
 40
0.0004920471
 40
0.0010263843
 40
0.0016371904
 40
0.0023476078
 40
0.0041189208
 40
0.0064083454
 40
0.0092440772
 40
0.0126401691
 40
0.0166042368
 40
0.0211403954
 40
0.0262493972
 40
0.0319302329
 40
0.0449997728
 40
0.0603309373
 40
0.0778995926
 40
0.0976677584
 40
0.1195912827
 40
0.1436251882
 40
0.1697183803
 40
0.227830965
 40
0.2934046023
 40
0.3658244552
 40
0.444416939
 40
0.5284316742
 40
0.6170643103
 40
0.7094440132
 40
0.8046892085
 40
1.0
 40
1.0
 40
1.0
 40
1.0
 10
5.3666866438
 20
2.6876061644
 30
0.0
 10
5.3666652558
 20
2.6876061783
 30
0.0
 10
5.3666204093
 20
2.687613388
 30
0.0
 10
5.3665555938
 20
2.6876445045
 30
0.0
 10
5.3664919744
 20
2.6876948834
 30
0.0
 10
5.3664014594
 20
2.6877948478
 30
0.0
 10
5.3662925666
 20
2.6879729906
 30
0.0
 10
5.3661704017
 20
2.6882470486
 30
0.0
 10
5.3660484428
 20
2.6885971803
 30
0.0
 10
5.3659268298
 20
2.6890235018
 30
0.0
 10
5.3658057511
 20
2.6895263528
 30
0.0
 10
5.3656853867
 20
2.6901056087
 30
0.0
 10
5.3655658297
 20
2.6907610294
 30
0.0
 10
5.3653998036
 20
2.6917848129
 30
0.0
 10
5.3651988938
 20
2.6932527745
 30
0.0
 10
5.3649716388
 20
2.6952380816
 30
0.0
 10
5.3647493771
 20
2.6975166985
 30
0.0
 10
5.3645325535
 20
2.7000835084
 30
0.0
 10
5.3643217345
 20
2.7029326869
 30
0.0
 10
5.3641174278
 20
2.7060579057
 30
0.0
 10
5.3638444782
 20
2.7107549188
 30
0.0
 10
5.3635279586
 20
2.7172578931
 30
0.0
 10
5.3631914547
 20
2.7257755652
 30
0.0
 10
5.3628885449
 20
2.7351852048
 30
0.0
 10
5.3626215408
 20
2.7453977969
 30
0.0
 10
5.3623925693
 20
2.7563161982
 30
0.0
 10
5.3622033949
 20
2.7678347337
 30
0.0
 10
5.3620545845
 20
2.7798420572
 30
0.0
 10
5.3619104501
 20
2.7964867028
 30
0.0
 10
5.3618691112
 20
2.8091164999
 30
0.0
 10
5.3618691256
 20
2.8176061644
 30
0.0
  0
SPLINE
  5
27B
100
AcDbEntity
  8
0
100
AcDbSpline
 62
7
  6
CONTINUOUS
 70
0
 71
3
 72
24
 73
20
 74
0
 42
0.0000001
 43
0.0000001
 44
0.0000000001
 40
0.0
 40
0.0
 40
0.0
 40
0.0
 40
0.1240057355
 40
0.247780261
 40
0.309630109
 40
0.3714814815
 40
0.4333584224
 40
0.4952937841
 40
0.557328322
 40
0.6195060495
 40
0.6819036813
 40
0.7132126033
 40
0.7446204899
 40
0.8076916046
 40
0.87124788
 40
0.9032774319
 40
0.9354337588
 40
0.9677192276
 40
1.0
 40
1.0
 40
1.0
 40
1.0
 10
4.3601955374
 20
2.7876061644
 30
0.0
 10
4.356964436
 20
2.7876061635
 30
0.0
 10
4.350507304
 20
2.7877291468
 30
0.0
 10
4.3424539619
 20
2.788292056
 30
0.0
 10
4.3360513225
 20
2.7890688028
 30
0.0
 10
4.3312762537
 20
2.789839726
 30
0.0
 10
4.3265389717
 20
2.7908298075
 30
0.0
 10
4.3218562752
 20
2.7920738302
 30
0.0
 10
4.3172532589
 20
2.793615196
 30
0.0
 10
4.3127683188
 20
2.7955067923
 30
0.0
 10
4.3091784589
 20
2.7974237679
 30
0.0
 10
4.3064424535
 20
2.7991997949
 30
0.0
 10
4.3038093657
 20
2.801154595
 30
0.0
 10
4.3007703217
 20
2.8039580388
 30
0.0
 10
4.2982586794
 20
2.8072814286
 30
0.0
 10
4.2967279309
 20
2.8102451091
 30
0.0
 10
4.2958571391
 20
2.8126110634
 30
0.0
 10
4.2953161166
 20
2.8150804351
 30
0.0
 10
4.295190184
 20
2.8167650545
 30
0.0
 10
4.2951901207
 20
2.8176061644
 30
0.0
  0
SPLINE
  5
27C
100
AcDbEntity
  8
0
100
AcDbSpline
 62
7
  6
CONTINUOUS
 70
0
 71
3
 72
23
 73
19
 74
0
 42
0.0000001
 43
0.0000001
 44
0.0000000001
 40
0.0
 40
0.0
 40
0.0
 40
0.0
 40
0.0644180816
 40
0.0965810155
 40
0.1286182938
 40
0.1921854964
 40
0.2552631451
 40
0.286675904
 40
0.3179913607
 40
0.3804004356
 40
0.4425855942
 40
0.5046298364
 40
0.5665763755
 40
0.6284632724
 40
0.6903227581
 40
0.7521810544
 40
0.8759744519
 40
1.0
 40
1.0
 40
1.0
 40
1.0
 10
6.878183167
 20
2.8176061644
 30
0.0
 10
6.8781828856
 20
2.8159279599
 30
0.0
 10
6.8778052573
 20
2.8133951101
 30
0.0
 10
6.8766451209
 20
2.8102454077
 30
0.0
 10
6.8751143892
 20
2.8072805274
 30
0.0
 10
6.8726031488
 20
2.8039573429
 30
0.0
 10
6.8695634489
 20
2.8011545197
 30
0.0
 10
6.8669300985
 20
2.7992002521
 30
0.0
 10
6.8641942547
 20
2.7974238943
 30
0.0
 10
6.8606047832
 20
2.7955061688
 30
0.0
 10
6.8561196852
 20
2.7936150175
 30
0.0
 10
6.851516629
 20
2.7920740422
 30
0.0
 10
6.8468340609
 20
2.7908295357
 30
0.0
 10
6.8420968096
 20
2.7898394403
 30
0.0
 10
6.8373218176
 20
2.7890687171
 30
0.0
 10
6.8309192973
 20
2.7882921828
 30
0.0
 10
6.822866073
 20
2.7877291458
 30
0.0
 10
6.8164089963
 20
2.7876061755
 30
0.0
 10
6.8131779122
 20
2.7876061644
 30
0.0
  0
SPLINE
  5
27D
100
AcDbEntity
  8
0
100
AcDbSpline
 62
7
  6
CONTINUOUS
 70
0
 71
3
 72
23
 73
19
 74
0
 42
0.0000001
 43
0.0000001
 44
0.0000000001
 40
0.0
 40
0.0
 40
0.0
 40
0.0
 40
0.064417314
 40
0.0965807911
 40
0.1286159414
 40
0.1921795799
 40
0.2552606087
 40
0.2866730486
 40
0.3179870909
 40
0.3803948009
 40
0.44258202
 40
0.5046261843
 40
0.5665720638
 40
0.6284586385
 40
0.6903195454
 40
0.752178985
 40
0.8759737695
 40
1.0
 40
1.0
 40
1.0
 40
1.0
 10
4.2951901207
 20
3.2576061644
 30
0.0
 10
4.2951904435
 20
3.2592843514
 30
0.0
 10
4.2955684726
 20
3.261817096
 30
0.0
 10
4.2967279846
 20
3.2649669334
 30
0.0
 10
4.2982584151
 20
3.2679318928
 30
0.0
 10
4.3007709504
 20
3.2712540147
 30
0.0
 10
4.3038097937
 20
3.2740575531
 30
0.0
 10
4.3064426926
 20
3.2760125591
 30
0.0
 10
4.3091786169
 20
3.277788682
 30
0.0
 10
4.3127684278
 20
3.2797057154
 30
0.0
 10
4.3172533838
 20
3.2815971861
 30
0.0
 10
4.321856368
 20
3.2831385711
 30
0.0
 10
4.3265390454
 20
3.2843826024
 30
0.0
 10
4.3312763043
 20
3.2853727123
 30
0.0
 10
4.3360513517
 20
3.2861435076
 30
0.0
 10
4.3424539604
 20
3.2869202521
 30
0.0
 10
4.3505072932
 20
3.2874831851
 30
0.0
 10
4.3569644308
 20
3.2876061643
 30
0.0
 10
4.3601955374
 20
3.2876061644
 30
0.0
  0
SPLINE
  5
27E
100
AcDbEntity
  8
0
100
AcDbSpline
 62
7
  6
CONTINUOUS
 70
0
 71
3
 72
24
 73
20
 74
0
 42
0.0000001
 43
0.0000001
 44
0.0000000001
 40
0.0
 40
0.0
 40
0.0
 40
0.0
 40
0.1240059375
 40
0.2477805463
 40
0.309630074
 40
0.3714808776
 40
0.4333571197
 40
0.49529212
 40
0.557326929
 40
0.6195053648
 40
0.6819033938
 40
0.7132123129
 40
0.7446194013
 40
0.8076877022
 40
0.8712452251
 40
0.9032760741
 40
0.9354326135
 40
0.9677188704
 40
1.0
 40
1.0
 40
1.0
 40
1.0
 10
6.8131777551
 20
3.2876061644
 30
0.0
 10
6.8164088615
 20
3.2876061641
 30
0.0
 10
6.8228660008
 20
3.2874831835
 30
0.0
 10
6.8309193391
 20
3.2869202445
 30
0.0
 10
6.8373219573
 20
3.2861435089
 30
0.0
 10
6.8420969943
 20
3.2853726535
 30
0.0
 10
6.8468342448
 20
3.2843826312
 30
0.0
 10
6.8515169353
 20
3.2831386648
 30
0.0
 10
6.8561199679
 20
3.2815972999
 30
0.0
 10
6.8606049149
 20
3.2797055988
 30
0.0
 10
6.8641946018
 20
3.2777882427
 30
0.0
 10
6.8669305782
 20
3.2760122051
 30
0.0
 10
6.8695638724
 20
3.2740578675
 30
0.0
 10
6.8726034247
 20
3.2712549718
 30
0.0
 10
6.8751144544
 20
3.2679310875
 30
0.0
 10
6.8766451432
 20
3.264967323
 30
0.0
 10
6.8775160194
 20
3.2626013321
 30
0.0
 10
6.8780570145
 20
3.2601319184
 30
0.0
 10
6.8781830339
 20
3.2584472835
 30
0.0
 10
6.878183167
 20
3.2576061644
 30
0.0
  0
SPLINE
  5
27F
100
AcDbEntity
  8
0
100
AcDbSpline
 62
7
  6
CONTINUOUS
 70
0
 71
3
 72
25
 73
21
 74
0
 42
0.0000001
 43
0.0000001
 44
0.0000000001
 40
0.0
 40
0.0
 40
0.0
 40
0.0
 40
0.0624760588
 40
0.1249962118
 40
0.1874951433
 40
0.2499874585
 40
0.3124865942
 40
0.3749860914
 40
0.4374837771
 40
0.4999819955
 40
0.562480089
 40
0.6249778064
 40
0.6874766312
 40
0.7499761504
 40
0.7812329909
 40
0.8124879764
 40
0.8437440489
 40
0.8750044938
 40
0.9375238982
 40
1.0
 40
1.0
 40
1.0
 40
1.0
 10
6.837486388
 20
2.7176061644
 30
0.0
 10
6.8407799562
 20
2.7176064077
 30
0.0
 10
6.847373695
 20
2.717924257
 30
0.0
 10
6.8571700977
 20
2.719343403
 30
0.0
 10
6.8667867321
 20
2.7216976542
 30
0.0
 10
6.8761305397
 20
2.7249672168
 30
0.0
 10
6.8851147261
 20
2.7291247293
 30
0.0
 10
6.8936541665
 20
2.7341332032
 30
0.0
 10
6.9016665755
 20
2.7399479347
 30
0.0
 10
6.9090715442
 20
2.7465188731
 30
0.0
 10
6.9157969788
 20
2.7537839553
 30
0.0
 10
6.9217730147
 20
2.7616773251
 30
0.0
 10
6.9269408839
 20
2.7701215343
 30
0.0
 10
6.9305287825
 20
2.777552923
 30
0.0
 10
6.9329444392
 20
2.7836869069
 30
0.0
 10
6.934523962
 20
2.7883732093
 30
0.0
 10
6.9358675175
 20
2.7931326901
 30
0.0
 10
6.9373401746
 20
2.7995600473
 30
0.0
 10
6.9385745189
 20
2.8077188405
 30
0.0
 10
6.9389068048
 20
2.8143125939
 30
0.0
 10
6.9389070401
 20
2.8176061644
 30
0.0
  0
SPLINE
  5
280
100
AcDbEntity
  8
0
100
AcDbSpline
 62
7
  6
CONTINUOUS
 70
0
 71
3
 72
24
 73
20
 74
0
 42
0.0000001
 43
0.0000001
 44
0.0000000001
 40
0.0
 40
0.0
 40
0.0
 40
0.0
 40
0.0624774094
 40
0.1249979325
 40
0.1562589567
 40
0.1875156694
 40
0.2500092596
 40
0.3125099113
 40
0.3750099213
 40
0.4375087974
 40
0.5000080295
 40
0.5625075557
 40
0.6250065123
 40
0.6875072438
 40
0.7500076647
 40
0.8125011576
 40
0.8750013305
 40
0.9375227776
 40
1.0
 40
1.0
 40
1.0
 40
1.0
 10
6.9389070401
 20
3.2576061644
 30
0.0
 10
6.9389067917
 20
3.2608997395
 30
0.0
 10
6.9385746811
 20
3.2674935061
 30
0.0
 10
6.9373405026
 20
3.2756522829
 30
0.0
 10
6.9358675994
 20
3.282079693
 30
0.0
 10
6.9340765728
 20
3.2884242159
 30
0.0
 10
6.9312454973
 20
3.2961752413
 30
0.0
 10
6.9269408305
 20
3.3050903118
 30
0.0
 10
6.92177305
 20
3.3135351283
 30
0.0
 10
6.9157971335
 20
3.3214284325
 30
0.0
 10
6.9090715399
 20
3.3286934156
 30
0.0
 10
6.9016664781
 20
3.3352642276
 30
0.0
 10
6.8936541747
 20
3.3410791105
 30
0.0
 10
6.8851148159
 20
3.3460877435
 30
0.0
 10
6.8761306357
 20
3.3502452891
 30
0.0
 10
6.8667867582
 20
3.3535146802
 30
0.0
 10
6.8571700682
 20
3.355868688
 30
0.0
 10
6.8473736933
 20
3.3572879641
 30
0.0
 10
6.8407799533
 20
3.3576059351
 30
0.0
 10
6.837486388
 20
3.3576061644
 30
0.0
  0
SPLINE
  5
281
100
AcDbEntity
  8
0
100
AcDbSpline
 62
7
  6
CONTINUOUS
 70
0
 71
3
 72
24
 73
20
 74
0
 42
0.0000001
 43
0.0000001
 44
0.0000000001
 40
0.0
 40
0.0
 40
0.0
 40
0.0
 40
0.0624614464
 40
0.1249504971
 40
0.1874456199
 40
0.2499523567
 40
0.3748667483
 40
0.4373787397
 40
0.4998817713
 40
0.5624020205
 40
0.6249066552
 40
0.6874229149
 40
0.7186890771
 40
0.7499632113
 40
0.8124683222
 40
0.8749609973
 40
0.90623556
 40
0.9375254101
 40
1.0
 40
1.0
 40
1.0
 40
1.0
 10
6.8131777502
 20
3.3176061644
 30
0.0
 10
6.8156398625
 20
3.3176061634
 30
0.0
 10
6.8205659575
 20
3.3175061577
 30
0.0
 10
6.8279412858
 20
3.317019345
 30
0.0
 10
6.835285492
 20
3.316157664
 30
0.0
 10
6.8449928943
 20
3.3144617779
 30
0.0
 10
6.8545329666
 20
3.3118554219
 30
0.0
 10
6.8636877259
 20
3.3081911596
 30
0.0
 10
6.8703036121
 20
3.304871133
 30
0.0
 10
6.8765839772
 20
3.3009503014
 30
0.0
 10
6.8824316457
 20
3.296405043
 30
0.0
 10
6.886849
 20
3.2920882445
 30
0.0
 10
6.8900423787
 20
3.2883289662
 30
0.0
 10
6.8929845923
 20
3.2843706756
 30
0.0
 10
6.896154877
 20
3.2790645615
 30
0.0
 10
6.8985227933
 20
3.2733512269
 30
0.0
 10
6.8998791229
 20
3.2686071579
 30
0.0
 10
6.9008595963
 20
3.2637733008
 30
0.0
 10
6.9011627055
 20
3.2600687947
 30
0.0
 10
6.9011627497
 20
3.2576061644
 30
0.0
  0
SPLINE
  5
282
100
AcDbEntity
  8
0
100
AcDbSpline
 62
7
  6
CONTINUOUS
 70
0
 71
3
 72
22
 73
18
 74
0
 42
0.0000001
 43
0.0000001
 44
0.0000000001
 40
0.0
 40
0.0
 40
0.0
 40
0.0
 40
0.0624812516
 40
0.1249870352
 40
0.1562536952
 40
0.1875211376
 40
0.2500303924
 40
0.3125376141
 40
0.375048033
 40
0.4375655587
 40
0.5000741056
 40
0.5625949029
 40
0.6251025506
 40
0.7500383087
 40
0.8125459936
 40
0.8750530155
 40
1.0
 40
1.0
 40
1.0
 40
1.0
 10
6.9011627497
 20
2.8176061644
 30
0.0
 10
6.9011626679
 20
2.8151434442
 30
0.0
 10
6.9007570158
 20
2.8102089342
 30
0.0
 10
6.8992885461
 20
2.8042017333
 30
0.0
 10
6.8975776354
 20
2.7995753006
 30
0.0
 10
6.8955236845
 20
2.7950906328
 30
0.0
 10
6.8923547065
 20
2.7897823662
 30
0.0
 10
6.8877317495
 20
2.7839894769
 30
0.0
 10
6.8824338362
 20
2.7788102077
 30
0.0
 10
6.8765887611
 20
2.774261937
 30
0.0
 10
6.8703076376
 20
2.770341825
 30
0.0
 10
6.8636911969
 20
2.7670239878
 30
0.0
 10
6.8545362867
 20
2.7633584035
 30
0.0
 10
6.8449963688
 20
2.7607516112
 30
0.0
 10
6.8352882122
 20
2.759054831
 30
0.0
 10
6.8254985654
 20
2.7579065705
 30
0.0
 10
6.8181025789
 20
2.7576062158
 30
0.0
 10
6.8131777502
 20
2.7576061644
 30
0.0
  0
SPLINE
  5
283
100
AcDbEntity
  8
0
100
AcDbSpline
 62
7
  6
CONTINUOUS
 70
0
 71
3
 72
24
 73
20
 74
0
 42
0.0000001
 43
0.0000001
 44
0.0000000001
 40
0.0
 40
0.0
 40
0.0
 40
0.0
 40
0.0624612635
 40
0.1249498548
 40
0.1874445479
 40
0.2499506504
 40
0.3748646453
 40
0.4373760266
 40
0.4998790468
 40
0.5623986581
 40
0.6249027806
 40
0.6874182288
 40
0.718684713
 40
0.7499598399
 40
0.8124648295
 40
0.8749578034
 40
0.9062334483
 40
0.9375245708
 40
1.0
 40
1.0
 40
1.0
 40
1.0
 10
4.3601955374
 20
2.7576061644
 30
0.0
 10
4.3577334304
 20
2.757606163
 30
0.0
 10
4.3528073567
 20
2.7577061074
 30
0.0
 10
4.3454320556
 20
2.7581927791
 30
0.0
 10
4.3380878903
 20
2.7590543666
 30
0.0
 10
4.3283805577
 20
2.760750393
 30
0.0
 10
4.3188406382
 20
2.7633571216
 30
0.0
 10
4.3096860528
 20
2.7670217285
 30
0.0
 10
4.3030703195
 20
2.7703419522
 30
0.0
 10
4.2967900148
 20
2.7742628004
 30
0.0
 10
4.2909424824
 20
2.7788081257
 30
0.0
 10
4.2865251608
 20
2.7831248786
 30
0.0
 10
4.2833314109
 20
2.7868838622
 30
0.0
 10
4.2803883371
 20
2.7908415519
 30
0.0
 10
4.2772163567
 20
2.7961467691
 30
0.0
 10
4.2748487464
 20
2.801860403
 30
0.0
 10
4.2734931258
 20
2.8066047824
 30
0.0
 10
4.272513328
 20
2.8114389066
 30
0.0
 10
4.2722104669
 20
2.815143499
 30
0.0
 10
4.2722105379
 20
2.8176061644
 30
0.0
  0
SPLINE
  5
284
100
AcDbEntity
  8
0
100
AcDbSpline
 62
7
  6
CONTINUOUS
 70
0
 71
3
 72
23
 73
19
 74
0
 42
0.0000001
 43
0.0000001
 44
0.0000000001
 40
0.0
 40
0.0
 40
0.0
 40
0.0
 40
0.0624752683
 40
0.0937655055
 40
0.125040125
 40
0.1875330352
 40
0.250040721
 40
0.2813148715
 40
0.3125813551
 40
0.3750999286
 40
0.4376069858
 40
0.5001290011
 40
0.5626336192
 40
0.6251491888
 40
0.7500690259
 40
0.812578831
 40
0.8750766568
 40
1.0
 40
1.0
 40
1.0
 40
1.0
 10
4.2722105379
 20
3.2576061644
 30
0.0
 10
4.2722105846
 20
3.260068723
 30
0.0
 10
4.2725151907
 20
3.2637730748
 30
0.0
 10
4.2734968199
 20
3.2686064888
 30
0.0
 10
4.2748527749
 20
3.2733504604
 30
0.0
 10
4.2772189562
 20
3.2790642878
 30
0.0
 10
4.2803873883
 20
3.2843714258
 30
0.0
 10
4.2833293914
 20
3.2883298037
 30
0.0
 10
4.286523414
 20
3.2920884423
 30
0.0
 10
4.2909421009
 20
3.2964037885
 30
0.0
 10
4.2967899257
 20
3.3009486492
 30
0.0
 10
4.3030697878
 20
3.304870153
 30
0.0
 10
4.3096855076
 20
3.3081904885
 30
0.0
 10
4.3188402087
 20
3.3118550033
 30
0.0
 10
4.3283801974
 20
3.314461612
 30
0.0
 10
4.3380878603
 20
3.3161576839
 30
0.0
 10
4.3478765438
 20
3.3173062615
 30
0.0
 10
4.355271492
 20
3.3176061639
 30
0.0
 10
4.3601955374
 20
3.3176061644
 30
0.0
  0
SPLINE
  5
285
100
AcDbEntity
  8
0
100
AcDbSpline
 62
7
  6
CONTINUOUS
 70
0
 71
3
 72
25
 73
21
 74
0
 42
0.0000001
 43
0.0000001
 44
0.0000000001
 40
0.0
 40
0.0
 40
0.0
 40
0.0
 40
0.0624759204
 40
0.124995893
 40
0.187494674
 40
0.2499868739
 40
0.3124859985
 40
0.3749855136
 40
0.4374831266
 40
0.499981248
 40
0.5624793513
 40
0.6249771083
 40
0.6874759385
 40
0.7499754751
 40
0.7812323194
 40
0.8124873289
 40
0.8437434689
 40
0.8750040345
 40
0.9375237654
 40
1.0
 40
1.0
 40
1.0
 40
1.0
 10
4.3358868997
 20
3.3576061644
 30
0.0
 10
4.3325933392
 20
3.3576058994
 30
0.0
 10
4.3259996211
 20
3.357287921
 30
0.0
 10
4.3162032712
 20
3.3558686583
 30
0.0
 10
4.3065866177
 20
3.3535146133
 30
0.0
 10
4.2972427709
 20
3.3502451947
 30
0.0
 10
4.288258582
 20
3.3460876994
 30
0.0
 10
4.2797191382
 20
3.3410792434
 30
0.0
 10
4.2717067292
 20
3.3352645214
 30
0.0
 10
4.264301879
 20
3.3286934574
 30
0.0
 10
4.2575765673
 20
3.3214282747
 30
0.0
 10
4.2516004655
 20
3.3135349608
 30
0.0
 10
4.2464324595
 20
3.3050908333
 30
0.0
 10
4.2428444575
 20
3.2976594924
 30
0.0
 10
4.2404287525
 20
3.2915255254
 30
0.0
 10
4.238849212
 20
3.2868392241
 30
0.0
 10
4.2375056447
 20
3.2820797355
 30
0.0
 10
4.2360329883
 20
3.2756523509
 30
0.0
 10
4.2347986746
 20
3.2674935225
 30
0.0
 10
4.2344664391
 20
3.2608997414
 30
0.0
 10
4.2344662476
 20
3.2576061644
 30
0.0
  0
SPLINE
  5
286
100
AcDbEntity
  8
0
100
AcDbSpline
 62
7
  6
CONTINUOUS
 70
0
 71
3
 72
25
 73
21
 74
0
 42
0.0000001
 43
0.0000001
 44
0.0000000001
 40
0.0
 40
0.0
 40
0.0
 40
0.0
 40
0.0624760483
 40
0.1249951689
 40
0.1562555034
 40
0.1875115275
 40
0.2187665073
 40
0.2500233366
 40
0.312522774
 40
0.37502156
 40
0.4375191412
 40
0.500017066
 40
0.5625153822
 40
0.6250131503
 40
0.6875126552
 40
0.7500118772
 40
0.8125041885
 40
0.8750033357
 40
0.9375238721
 40
1.0
 40
1.0
 40
1.0
 40
1.0
 10
4.2344662476
 20
2.8176061644
 30
0.0
 10
4.2344665177
 20
2.8143125973
 30
0.0
 10
4.2347987548
 20
2.807718865
 30
0.0
 10
4.2360330648
 20
2.799560086
 30
0.0
 10
4.2375057987
 20
2.7931327709
 30
0.0
 10
4.2388494157
 20
2.7883733173
 30
0.0
 10
4.2404289829
 20
2.7836870351
 30
0.0
 10
4.2428446237
 20
2.777553053
 30
0.0
 10
4.2464324028
 20
2.7701216199
 30
0.0
 10
4.2516000934
 20
2.7616773186
 30
0.0
 10
4.2575760827
 20
2.7537839231
 30
0.0
 10
4.2643017971
 20
2.7465191052
 30
0.0
 10
4.2717069167
 20
2.7399483638
 30
0.0
 10
4.2797191268
 20
2.7341333635
 30
0.0
 10
4.2882584105
 20
2.7291245959
 30
0.0
 10
4.2972425541
 20
2.7249669634
 30
0.0
 10
4.3065864347
 20
2.7216975416
 30
0.0
 10
4.3162031502
 20
2.7193435207
 30
0.0
 10
4.3259995623
 20
2.7179242734
 30
0.0
 10
4.3325933284
 20
2.7176063505
 30
0.0
 10
4.3358868997
 20
2.7176061644
 30
0.0
  0
ENDSEC
  0
SECTION
  2
OBJECTS
  0
DICTIONARY
  5
C
100
AcDbDictionary
280
0
281
1
  3
ACAD_GROUP
350
D
  3
ACAD_MLINESTYLE
350
17
  3
ACAD_LAYOUT
350
1A
  3
ACAD_PLOTSETTINGS
350
19
  3
ACAD_PLOTSTYLENAME
350
E
  0
DICTIONARY
  5
D
102
{ACAD_REACTORS
330
C
102
}
100
AcDbDictionary
280
0
281
1
  0
ACDBDICTIONARYWDFLT
  5
E
102
{ACAD_REACTORS
330
C
102
}
100
AcDbDictionary
281
1
  3
Normal
350
F
100
AcDbDictionaryWithDefault
340
F
  0
DICTIONARY
  5
17
102
{ACAD_REACTORS
330
C
102
}
100
AcDbDictionary
280
0
281
1
  3
Standard
350
18
  0
DICTIONARY
  5
19
102
{ACAD_REACTORS
330
C
102
}
100
AcDbDictionary
281
1
  0
DICTIONARY
  5
1A
102
{ACAD_REACTORS
330
C
102
}
100
AcDbDictionary
281
1
  3
Model
350
287
  3
Layout1
350
288
  0
ACDBPLACEHOLDER
  5
F
102
{ACAD_REACTORS
330
E
102
}
  0
MLINESTYLE
  5
18
102
{ACAD_REACTORS
330
17
102
}
100
AcDbMlineStyle
  2
STANDARD
 70
0
  3

 62
256
 51
90.0
 52
90.0
 71
2
 49
0.5
 62
256
  6
BYLAYER
 49
-0.5
 62
256
  6
BYLAYER
  0
LAYOUT
  5
287
102
{ACAD_REACTORS
330
1A
102
}
100
AcDbPlotSettings
  1

  2
none_device
  4
ANSI_A_(11.00_x_8.50_Inches)
  6

 40
0.0
 41
0.0
 42
0.0
 43
0.0
 44
279.4
 45
215.9
 46
0.0
 47
0.0
 48
0.0
 49
0.0
140
0.0
141
0.0
142
1.0
143
1.0
 70
1024
 72
0
 73
0
 74
0
  7

 75
0
147
1.0
148
0.0
149
0.0
100
AcDbLayout
  1
Model
 70
0
 71
0
 10
0.0
 20
0.0
 11
11.0
 21
8.5
 12
0.0
 22
0.0
 32
0.0
 14
0.0
 24
0.0
 34
0.0
 15
0.0
 25
0.0
 35
0.0
146
0.0
 13
0.0
 23
0.0
 33
0.0
 16
1.0
 26
0.0
 36
0.0
 17
0.0
 27
1.0
 37
0.0
 76
0
330
203
345
0
346
0
  0
LAYOUT
  5
288
102
{ACAD_REACTORS
330
1A
102
}
100
AcDbPlotSettings
  1

  2
none_device
  4
ANSI_A_(11.00_x_8.50_Inches)
  6

 40
0.0
 41
0.0
 42
0.0
 43
0.0
 44
279.4
 45
215.9
 46
0.0
 47
0.0
 48
0.0
 49
0.0
140
0.0
141
0.0
142
1.0
143
1.0
 70
0
 72
0
 73
0
 74
0
  7

 75
0
147
1.0
148
0.0
149
0.0
100
AcDbLayout
  1
Layout1
 70
0
 71
1
 10
0.0
 20
0.0
 11
11.0
 21
8.5
 12
0.0
 22
0.0
 32
0.0
 14
0.0
 24
0.0
 34
0.0
 15
0.0
 25
0.0
 35
0.0
146
0.0
 13
0.0
 23
0.0
 33
0.0
 16
1.0
 26
0.0
 36
0.0
 17
0.0
 27
1.0
 37
0.0
 76
0
330
204
345
0
346
0
  0
ENDSEC
  0
EOF
