999
DXF file: C:\Prowork\plots\416_top.dxf
999
Pro/ENGINEER 2018500 by Parametric Technology Corporation
  0
SECTION
  2
HEADER
  9
$ACADVER
  1
AC1032
  9
$DWGCODEPAGE
  3
ANSI_1252
  9
$EXTMAX
 10
11.0
 20
8.5
 30
0.0
  9
$EXTMIN
 10
0.0
 20
0.0
 30
0.0
  9
$LIMMIN
 10
0.0
 20
0.0
  9
$LIMMAX
 10
11.0
 20
8.5
  9
$VIEWCTR
 10
5.5
 20
4.25
  9
$VIEWSIZE
 40
8.5
  9
$CLAYER
  8
0
  9
$LTSCALE
 40
0.605
  9
$CELTYPE
  6
BYLAYER
  9
$DIMSCALE
 40
1.0
  9
$DIMASZ
 40
0.1
  9
$DIMEXO
 40
0.0625
  9
$DIMDLI
 40
0.418
  9
$DIMEXE
 40
0.125
  9
$DIMCEN
 40
0.099
  9
$DIMLFAC
 40
1.0
  9
$DIMBLK
  1
_FILLED
  9
$DIMALT
 70
1
  9
$DIMALTD
 70
2
  9
$DIMALTTD
 70
2
  9
$DIMALTF
 40
25.4
  9
$DIMTXT
 40
0.08
  9
$DIMTOL
 70
1
  9
$DIMLIM
 70
0
  9
$DIMTFAC
 40
1.0
  9
$DIMTP
 40
0.001
  9
$DIMTM
 40
0.001
  9
$DIMGAP
 40
0.09
  9
$DIMDSEP
 70
46
  9
$AUNITS
 70
0
  9
$PDMODE
 70
3
  9
$PDSIZE
 40
0.06
  9
$HANDSEED
  5
314
  9
$TILEMODE
 70
1
  9
$MEASUREMENT
 70
0
  9
$INSUNITS
 70
1
  0
ENDSEC
  0
SECTION
  2
CLASSES
  0
CLASS
  1
ACDBDICTIONARYWDFLT
  2
AcDbDictionaryWithDefault
  3
AutoCAD 2000
 90
0
 91
1
280
0
281
0
  0
CLASS
  1
ACDBPLACEHOLDER
  2
AcDbPlaceHolder
  3
AutoCAD 2000
 90
0
 91
1
280
0
281
0
  0
CLASS
  1
LAYOUT
  2
AcDbLayout
  3
AutoCAD 2000
 90
0
 91
0
280
0
281
0
  0
ENDSEC
  0
SECTION
  2
TABLES
  0
TABLE
  2
VPORT
  5
8
100
AcDbSymbolTable
 70
2
  0
VPORT
  5
1F4
100
AcDbSymbolTableRecord
100
AcDbViewportTableRecord
  2
*ACTIVE
 70
0
 10
0.0
 20
0.0
 11
1.0
 21
1.0
 12
5.5
 22
4.25
 13
0.0
 23
0.0
 14
1.0
 24
1.0
 15
0.0
 25
0.0
 16
0.0
 26
0.0
 36
1.0
 17
0.0
 27
0.0
 37
0.0
 40
8.5
 41
1.2941176471
 42
50.0
 43
0.0
 44
0.0
 50
0.0
 51
0.0
 71
0
 72
100
 73
1
 74
1
 75
0
 76
0
 77
0
 78
0
  0
ENDTAB
  0
TABLE
  2
LTYPE
  5
5
100
AcDbSymbolTable
 70
6
  0
LTYPE
  5
14
100
AcDbSymbolTableRecord
100
AcDbLinetypeTableRecord
  2
BYBLOCK
 70
0
  3

 72
65
 73
0
 40
0.0
  0
LTYPE
  5
15
100
AcDbSymbolTableRecord
100
AcDbLinetypeTableRecord
  2
BYLAYER
 70
0
  3

 72
65
 73
0
 40
0.0
  0
LTYPE
  5
16
100
AcDbSymbolTableRecord
100
AcDbLinetypeTableRecord
  2
CONTINUOUS
 70
64
  3
Solid line
 72
65
 73
0
 40
0.0
  0
LTYPE
  5
1F5
100
AcDbSymbolTableRecord
100
AcDbLinetypeTableRecord
  2
CENTER
 70
64
  3
____ _ ____ _ ____ _ ____ _ ____ _ ____ _ ____
 72
65
 73
4
 40
0.6
 49
0.375
 74
0
 49
-0.075
 74
0
 49
0.075
 74
0
 49
-0.075
 74
0
  0
LTYPE
  5
1F6
100
AcDbSymbolTableRecord
100
AcDbLinetypeTableRecord
  2
HIDDEN
 70
64
  3
- - - - - - - - - - - - - - - - - - - -
 72
65
 73
2
 40
0.2
 49
0.1
 74
0
 49
-0.1
 74
0
  0
LTYPE
  5
1F7
100
AcDbSymbolTableRecord
100
AcDbLinetypeTableRecord
  2
PHANTOM
 70
64
  3
_____ _ _ _____ _ _ _____ _ _ _____
 72
65
 73
6
 40
0.8
 49
0.45
 74
0
 49
-0.05
 74
0
 49
0.1
 74
0
 49
-0.05
 74
0
 49
0.1
 74
0
 49
-0.05
 74
0
  0
LTYPE
  5
1F8
100
AcDbSymbolTableRecord
100
AcDbLinetypeTableRecord
  2
DOT
 70
64
  3
. . . . . . . . . . . . . . . . . . . .
 72
65
 73
2
 40
0.2
 49
0.1
 74
0
 49
-0.1
 74
0
  0
LTYPE
  5
1F9
100
AcDbSymbolTableRecord
100
AcDbLinetypeTableRecord
  2
DASHED
 70
64
  3
- - - - - - - - - - - - - - - - - - - -
 72
65
 73
2
 40
0.2
 49
0.1
 74
0
 49
-0.1
 74
0
  0
ENDTAB
  0
TABLE
  2
LAYER
  5
2
100
AcDbSymbolTable
 70
36
  0
LAYER
  5
10
100
AcDbSymbolTableRecord
100
AcDbLayerTableRecord
  2
0
 70
0
 62
7
  6
CONTINUOUS
370
-3
390
F
  0
LAYER
  5
1FA
100
AcDbSymbolTableRecord
100
AcDbLayerTableRecord
  2
DEFAULT_1
 70
0
 62
7
  6
CENTER
370
-3
390
F
  0
LAYER
  5
1FB
100
AcDbSymbolTableRecord
100
AcDbLayerTableRecord
  2
DEFAULT_2
 70
0
 62
8
  6
HIDDEN
370
-3
390
F
  0
LAYER
  5
1FC
100
AcDbSymbolTableRecord
100
AcDbLayerTableRecord
  2
DEFAULT_3
 70
0
 62
7
  6
PHANTOM
370
-3
390
F
  0
LAYER
  5
1FD
100
AcDbSymbolTableRecord
100
AcDbLayerTableRecord
  2
50350
 70
0
 62
7
  6
CONTINUOUS
370
-3
390
F
  0
LAYER
  5
1FE
100
AcDbSymbolTableRecord
100
AcDbLayerTableRecord
  2
50355
 70
0
 62
7
  6
CONTINUOUS
370
-3
390
F
  0
LAYER
  5
1FF
100
AcDbSymbolTableRecord
100
AcDbLayerTableRecord
  2
50359
 70
0
 62
7
  6
CONTINUOUS
370
-3
390
F
  0
LAYER
  5
200
100
AcDbSymbolTableRecord
100
AcDbLayerTableRecord
  2
50378
 70
0
 62
7
  6
CONTINUOUS
370
-3
390
F
  0
LAYER
  5
201
100
AcDbSymbolTableRecord
100
AcDbLayerTableRecord
  2
50673
 70
0
 62
7
  6
CONTINUOUS
370
-3
390
F
  0
LAYER
  5
202
100
AcDbSymbolTableRecord
100
AcDbLayerTableRecord
  2
50674
 70
0
 62
7
  6
CONTINUOUS
370
-3
390
F
  0
LAYER
  5
203
100
AcDbSymbolTableRecord
100
AcDbLayerTableRecord
  2
50674_1
 70
0
 62
7
  6
CONTINUOUS
370
-3
390
F
  0
LAYER
  5
204
100
AcDbSymbolTableRecord
100
AcDbLayerTableRecord
  2
50675
 70
0
 62
7
  6
CONTINUOUS
370
-3
390
F
  0
LAYER
  5
205
100
AcDbSymbolTableRecord
100
AcDbLayerTableRecord
  2
50677
 70
0
 62
7
  6
CONTINUOUS
370
-3
390
F
  0
LAYER
  5
206
100
AcDbSymbolTableRecord
100
AcDbLayerTableRecord
  2
50685
 70
0
 62
7
  6
CONTINUOUS
370
-3
390
F
  0
LAYER
  5
207
100
AcDbSymbolTableRecord
100
AcDbLayerTableRecord
  2
50854
 70
0
 62
7
  6
CONTINUOUS
370
-3
390
F
  0
LAYER
  5
208
100
AcDbSymbolTableRecord
100
AcDbLayerTableRecord
  2
6-416
 70
0
 62
7
  6
CONTINUOUS
370
-3
390
F
  0
LAYER
  5
209
100
AcDbSymbolTableRecord
100
AcDbLayerTableRecord
  2
92073
 70
0
 62
7
  6
CONTINUOUS
370
-3
390
F
  0
LAYER
  5
20A
100
AcDbSymbolTableRecord
100
AcDbLayerTableRecord
  2
COLOR103
 70
0
 62
7
  6
CONTINUOUS
370
-3
390
F
  0
LAYER
  5
20B
100
AcDbSymbolTableRecord
100
AcDbLayerTableRecord
  2
COLOR122
 70
0
 62
7
  6
CONTINUOUS
370
-3
390
F
  0
LAYER
  5
20C
100
AcDbSymbolTableRecord
100
AcDbLayerTableRecord
  2
COLOR135
 70
0
 62
7
  6
CONTINUOUS
370
-3
390
F
  0
LAYER
  5
20D
100
AcDbSymbolTableRecord
100
AcDbLayerTableRecord
  2
COLOR32
 70
0
 62
7
  6
CONTINUOUS
370
-3
390
F
  0
LAYER
  5
20E
100
AcDbSymbolTableRecord
100
AcDbLayerTableRecord
  2
COLOR36
 70
0
 62
7
  6
CONTINUOUS
370
-3
390
F
  0
LAYER
  5
20F
100
AcDbSymbolTableRecord
100
AcDbLayerTableRecord
  2
COLOR67
 70
0
 62
7
  6
CONTINUOUS
370
-3
390
F
  0
LAYER
  5
210
100
AcDbSymbolTableRecord
100
AcDbLayerTableRecord
  2
DEFAULT_COORDINATE_SYSTEM
 70
0
 62
7
  6
CONTINUOUS
370
-3
390
F
  0
LAYER
  5
211
100
AcDbSymbolTableRecord
100
AcDbLayerTableRecord
  2
DEFAULT_DATUM_AXES
 70
0
 62
7
  6
CONTINUOUS
370
-3
390
F
  0
LAYER
  5
212
100
AcDbSymbolTableRecord
100
AcDbLayerTableRecord
  2
DEFAULT_DATUM_PLANES
 70
0
 62
7
  6
CONTINUOUS
370
-3
390
F
  0
LAYER
  5
213
100
AcDbSymbolTableRecord
100
AcDbLayerTableRecord
  2
INTF_50350
 70
0
 62
7
  6
CONTINUOUS
370
-3
390
F
  0
LAYER
  5
214
100
AcDbSymbolTableRecord
100
AcDbLayerTableRecord
  2
INTF_50355
 70
0
 62
7
  6
CONTINUOUS
370
-3
390
F
  0
LAYER
  5
215
100
AcDbSymbolTableRecord
100
AcDbLayerTableRecord
  2
INTF_50359
 70
0
 62
7
  6
CONTINUOUS
370
-3
390
F
  0
LAYER
  5
216
100
AcDbSymbolTableRecord
100
AcDbLayerTableRecord
  2
INTF_50378
 70
0
 62
7
  6
CONTINUOUS
370
-3
390
F
  0
LAYER
  5
217
100
AcDbSymbolTableRecord
100
AcDbLayerTableRecord
  2
INTF_50673
 70
0
 62
7
  6
CONTINUOUS
370
-3
390
F
  0
LAYER
  5
218
100
AcDbSymbolTableRecord
100
AcDbLayerTableRecord
  2
INTF_50675
 70
0
 62
7
  6
CONTINUOUS
370
-3
390
F
  0
LAYER
  5
219
100
AcDbSymbolTableRecord
100
AcDbLayerTableRecord
  2
INTF_50677
 70
0
 62
7
  6
CONTINUOUS
370
-3
390
F
  0
LAYER
  5
21A
100
AcDbSymbolTableRecord
100
AcDbLayerTableRecord
  2
INTF_50685
 70
0
 62
7
  6
CONTINUOUS
370
-3
390
F
  0
LAYER
  5
21B
100
AcDbSymbolTableRecord
100
AcDbLayerTableRecord
  2
INTF_50854
 70
0
 62
7
  6
CONTINUOUS
370
-3
390
F
  0
LAYER
  5
21C
100
AcDbSymbolTableRecord
100
AcDbLayerTableRecord
  2
INTF_92073
 70
0
 62
7
  6
CONTINUOUS
370
-3
390
F
  0
LAYER
  5
21D
100
AcDbSymbolTableRecord
100
AcDbLayerTableRecord
  2
INTF_BLANK
 70
0
 62
7
  6
CONTINUOUS
370
-3
390
F
  0
LAYER
  5
21E
100
AcDbSymbolTableRecord
100
AcDbLayerTableRecord
  2
INTF_CYAN
 70
0
 62
7
  6
CONTINUOUS
370
-3
390
F
  0
LAYER
  5
21F
100
AcDbSymbolTableRecord
100
AcDbLayerTableRecord
  2
NONE
 70
0
 62
7
  6
CONTINUOUS
370
-3
390
F
  0
LAYER
  5
220
100
AcDbSymbolTableRecord
100
AcDbLayerTableRecord
  2
PLATED_SURFACE
 70
0
 62
7
  6
CONTINUOUS
370
-3
390
F
  0
LAYER
  5
221
100
AcDbSymbolTableRecord
100
AcDbLayerTableRecord
  2
_BLACK_HOLE
 70
0
 62
7
  6
CONTINUOUS
370
-3
390
F
  0
ENDTAB
  0
TABLE
  2
STYLE
  5
3
100
AcDbSymbolTable
 70
1
  0
STYLE
  5
11
100
AcDbSymbolTableRecord
100
AcDbTextStyleTableRecord
  2
STANDARD
 70
0
 40
0.0
 41
0.8
 50
0.0
 71
0
 42
0.2
  3
txt
  4

  0
STYLE
  5
222
100
AcDbSymbolTableRecord
100
AcDbTextStyleTableRecord
  2
TEXTSTYLE_1
 70
0
 40
0.0
 41
0.8
 50
0.0
 71
0
 42
0.2
  3
gdt
  4

  0
ENDTAB
  0
TABLE
  2
VIEW
  5
6
100
AcDbSymbolTable
 70
0
  0
ENDTAB
  0
TABLE
  2
UCS
  5
7
100
AcDbSymbolTable
 70
0
  0
ENDTAB
  0
TABLE
  2
APPID
  5
9
100
AcDbSymbolTable
 70
1
  0
APPID
  5
223
100
AcDbSymbolTableRecord
100
AcDbRegAppTableRecord
  2
ACAD
 70
0
  0
ENDTAB
  0
TABLE
  2
BLOCK_RECORD
  5
1
100
AcDbSymbolTable
 70
0
  0
BLOCK_RECORD
  5
224
100
AcDbSymbolTableRecord
100
AcDbBlockTableRecord
  2
*Model_Space
  0
BLOCK_RECORD
  5
225
100
AcDbSymbolTableRecord
100
AcDbBlockTableRecord
  2
*Paper_Space
  0
BLOCK_RECORD
  5
226
100
AcDbSymbolTableRecord
100
AcDbBlockTableRecord
  2
_FILLED
  0
ENDTAB
  0
TABLE
  2
DIMSTYLE
  5
A
100
AcDbSymbolTable
 70
1
100
AcDbDimStyleTable
 71
0
  0
DIMSTYLE
105
227
100
AcDbSymbolTableRecord
100
AcDbDimStyleTableRecord
  2
STANDARD
 70
0
  3

  4

 40
1.0
 41
0.1
 42
0.0625
 43
0.38
 44
0.125
 45
0.0
 46
0.0
 47
0.001
 48
0.001
140
0.08
141
0.09
142
0.0
143
25.4
144
1.0
145
0.0
146
1.0
147
0.09
 71
1.0
 72
0.0
 73
1
 74
1
 75
0
 76
0
 77
0
 78
4
 79
1
170
1
171
2
172
0
173
0
174
0
175
0
176
0
177
0
178
0
270
2
179
3
271
3
272
3
273
2
274
2
275
0
280
0
281
0
282
0
283
1
284
4
285
0
286
0
287
3
288
0
340
11
278
46
341
226
342
226
343
226
344
226
  0
ENDTAB
  0
ENDSEC
  0
SECTION
  2
BLOCKS
  0
BLOCK
  5
20
100
AcDbEntity
  8
0
100
AcDbBlockBegin
  2
*Model_Space
 70
0
 10
0.0
 20
0.0
 30
0.0
  3
*Model_Space
  1

  0
ENDBLK
  5
21
100
AcDbEntity
  8
0
100
AcDbBlockEnd
  0
BLOCK
  5
1C
100
AcDbEntity
  8
0
100
AcDbBlockBegin
  2
*Paper_Space
 70
0
 10
0.0
 20
0.0
 30
0.0
  3
*Paper_Space
  1

  0
ENDBLK
  5
1D
100
AcDbEntity
  8
0
100
AcDbBlockEnd
  0
BLOCK
  5
228
100
AcDbEntity
  8
0
100
AcDbBlockBegin
  2
_FILLED
 70
64
 10
0.0
 20
0.0
  3
_FILLED
  1

  0
SOLID
  5
229
100
AcDbEntity
  8
0
  6
BYBLOCK
 62
0
100
AcDbTrace
 10
0.0
 20
0.0
 11
-1.0
 21
0.2
 12
-1.0
 22
-0.2
 13
-1.0
 23
-0.2
  0
ENDBLK
  5
22A
100
AcDbEntity
  8
0
  6
BYBLOCK
 62
0
100
AcDbBlockEnd
  0
ENDSEC
  0
SECTION
  2
ENTITIES
  0
MTEXT
  5
22B
100
AcDbEntity
  8
0
100
AcDbMText
 62
7
  6
CONTINUOUS
  7
STANDARD
 71
1
 72
1
 10
9.4373253106
 20
0.3872631988
 30
0.0
 11
1.0
 21
0.0
 31
0.0
 73
2
 44
0.9
  1
SCALE: 1.15
 40
0.08
 41
0.704
  0
LINE
  5
22C
100
AcDbEntity
  8
0
100
AcDbLine
 62
7
  6
CONTINUOUS
 10
0.0
 20
0.0
 11
0.0
 21
8.5
  0
LINE
  5
22D
100
AcDbEntity
  8
0
100
AcDbLine
 62
7
  6
CONTINUOUS
 10
0.0
 20
0.0
 11
11.0
 21
0.0
  0
LINE
  5
22E
100
AcDbEntity
  8
0
100
AcDbLine
 62
7
  6
CONTINUOUS
 10
0.0
 20
8.5
 11
11.0
 21
8.5
  0
LINE
  5
22F
100
AcDbEntity
  8
0
100
AcDbLine
 62
7
  6
CONTINUOUS
 10
11.0
 20
0.0
 11
11.0
 21
8.5
  0
LINE
  5
230
100
AcDbEntity
  8
0
100
AcDbLine
 62
7
  6
CONTINUOUS
 10
4.3874692248
 20
8.3827572622
 11
4.3678843168
 21
8.3706977689
  0
LINE
  5
231
100
AcDbEntity
  8
0
100
AcDbLine
 62
7
  6
CONTINUOUS
 10
5.9376309558
 20
0.1914234505
 11
5.920492441
 21
0.1903115416
  0
LINE
  5
232
100
AcDbEntity
  8
0
100
AcDbLine
 62
7
  6
CONTINUOUS
 10
5.9376343168
 20
0.1914167147
 11
5.9374186942
 21
0.1914029977
  0
LINE
  5
233
100
AcDbEntity
  8
0
100
AcDbLine
 62
9
  6
CONTINUOUS
 10
5.5700879078
 20
0.1887254899
 11
5.6032329956
 21
0.1887254899
  0
LINE
  5
234
100
AcDbEntity
  8
0
100
AcDbLine
 62
9
  6
CONTINUOUS
 10
5.8925351384
 20
0.1887254899
 11
5.9256807258
 21
0.1887254899
  0
LINE
  5
235
100
AcDbEntity
  8
0
100
AcDbLine
 62
9
  6
CONTINUOUS
 10
5.5742216023
 20
0.1677049254
 11
5.9215470313
 21
0.1677049254
  0
LINE
  5
236
100
AcDbEntity
  8
0
100
AcDbLine
 62
7
  6
CONTINUOUS
 10
5.5583475105
 20
0.1914031609
 11
5.5581343168
 21
0.191416716
  0
LINE
  5
237
100
AcDbEntity
  8
0
100
AcDbLine
 62
7
  6
CONTINUOUS
 10
5.5583475105
 20
0.1914031609
 11
5.5581343168
 21
0.191416716
  0
LINE
  5
238
100
AcDbEntity
  8
0
100
AcDbLine
 62
7
  6
CONTINUOUS
 10
5.1251603525
 20
0.5213727689
 11
6.370608281
 21
0.5213727689
  0
LINE
  5
239
100
AcDbEntity
  8
0
100
AcDbLine
 62
7
  6
CONTINUOUS
 10
5.9290093168
 20
0.5478227689
 11
5.5667593168
 21
0.5478227689
  0
LINE
  5
23A
100
AcDbEntity
  8
0
100
AcDbLine
 62
7
  6
CONTINUOUS
 10
5.5316843168
 20
0.5828977689
 11
5.9640843168
 21
0.5828977689
  0
LINE
  5
23B
100
AcDbEntity
  8
0
100
AcDbLine
 62
7
  6
CONTINUOUS
 10
5.3862097912
 20
1.1141977689
 11
6.1095588424
 21
1.1141977689
  0
LINE
  5
23C
100
AcDbEntity
  8
0
100
AcDbLine
 62
7
  6
CONTINUOUS
 10
6.1095593168
 20
1.1429477689
 11
5.3862093168
 21
1.1429477689
  0
LINE
  5
23D
100
AcDbEntity
  8
0
100
AcDbLine
 62
7
  6
CONTINUOUS
 10
5.2447593168
 20
1.2089069872
 11
5.3862093168
 21
1.1429477689
  0
LINE
  5
23E
100
AcDbEntity
  8
0
100
AcDbLine
 62
7
  6
CONTINUOUS
 10
6.0870300894
 20
1.5265781141
 11
6.0878364687
 21
1.526601114
  0
LINE
  5
23F
100
AcDbEntity
  8
0
100
AcDbLine
 62
7
  6
CONTINUOUS
 10
5.7476960738
 20
1.53710513
 11
5.7351696061
 21
1.5368419773
  0
LINE
  5
240
100
AcDbEntity
  8
0
100
AcDbLine
 62
7
  6
CONTINUOUS
 10
5.7290555649
 20
1.5510884774
 11
5.7643878187
 21
1.5518308667
  0
LINE
  5
241
100
AcDbEntity
  8
0
100
AcDbLine
 62
7
  6
CONTINUOUS
 10
5.7696015936
 20
1.512377379
 11
5.7340063188
 21
1.5116799456
  0
LINE
  5
242
100
AcDbEntity
  8
0
100
AcDbLine
 62
7
  6
CONTINUOUS
 10
5.729091174
 20
1.5187754871
 11
5.7667140798
 21
1.5195126503
  0
LINE
  5
243
100
AcDbEntity
  8
0
100
AcDbLine
 62
7
  6
CONTINUOUS
 10
5.2533843168
 20
1.4706977689
 11
6.2423843168
 21
1.4706977689
  0
LINE
  5
244
100
AcDbEntity
  8
0
100
AcDbLine
 62
7
  6
CONTINUOUS
 10
5.2533843168
 20
1.4994477689
 11
6.2423843168
 21
1.4994477689
  0
LINE
  5
245
100
AcDbEntity
  8
0
100
AcDbLine
 62
7
  6
CONTINUOUS
 10
5.2911611659
 20
1.5684477689
 11
6.1886576135
 21
1.5684477689
  0
LINE
  5
246
100
AcDbEntity
  8
0
100
AcDbLine
 62
7
  6
CONTINUOUS
 10
5.2303843168
 20
1.6834477689
 11
5.6466104297
 21
1.6834477689
  0
LINE
  5
247
100
AcDbEntity
  8
0
100
AcDbLine
 62
7
  6
CONTINUOUS
 10
5.8491582039
 20
1.6834477689
 11
6.2653843168
 21
1.6834477689
  0
LINE
  5
248
100
AcDbEntity
  8
0
100
AcDbLine
 62
7
  6
CONTINUOUS
 10
5.2809594919
 20
1.5547705904
 11
5.3124020096
 21
1.5366062482
  0
LINE
  5
249
100
AcDbEntity
  8
0
100
AcDbLine
 62
7
  6
CONTINUOUS
 10
5.5316843168
 20
0.5828977689
 11
5.5667593168
 21
0.5478227689
  0
LINE
  5
24A
100
AcDbEntity
  8
0
100
AcDbLine
 62
7
  6
CONTINUOUS
 10
6.2423843168
 20
1.4706977689
 11
6.2510093168
 21
1.4666758654
  0
LINE
  5
24B
100
AcDbEntity
  8
0
100
AcDbLine
 62
7
  6
CONTINUOUS
 10
5.9241083378
 20
0.1905343154
 11
5.9256807258
 21
0.1887254899
  0
LINE
  5
24C
100
AcDbEntity
  8
0
100
AcDbLine
 62
7
  6
CONTINUOUS
 10
5.7478843168
 20
1.6249772629
 11
5.3885093168
 21
1.8324625159
  0
LINE
  5
24D
100
AcDbEntity
  8
0
100
AcDbLine
 62
7
  6
CONTINUOUS
 10
6.2148110246
 20
1.5338076937
 11
6.1836159269
 21
1.5518301235
  0
LINE
  5
24E
100
AcDbEntity
  8
0
100
AcDbLine
 62
7
  6
CONTINUOUS
 10
5.3124021459
 20
1.5367808956
 11
5.3120938452
 21
1.5371282145
  0
LINE
  5
24F
100
AcDbEntity
  8
0
100
AcDbLine
 62
7
  6
CONTINUOUS
 10
5.2806968168
 20
1.5550768327
 11
5.2809594915
 21
1.554769939
  0
LINE
  5
250
100
AcDbEntity
  8
0
100
AcDbLine
 62
7
  6
CONTINUOUS
 10
5.2303843168
 20
2.3964477689
 11
5.6466104297
 21
2.3964477689
  0
LINE
  5
251
100
AcDbEntity
  8
0
100
AcDbLine
 62
7
  6
CONTINUOUS
 10
5.8491582039
 20
2.3964477689
 11
6.2653843168
 21
2.3964477689
  0
LINE
  5
252
100
AcDbEntity
  8
0
100
AcDbLine
 62
7
  6
CONTINUOUS
 10
5.2879210652
 20
2.6551977689
 11
6.2078475683
 21
2.6551977689
  0
LINE
  5
253
100
AcDbEntity
  8
0
100
AcDbLine
 62
7
  6
CONTINUOUS
 10
5.7478843168
 20
2.4549182749
 11
6.1072593168
 21
2.2474330219
  0
LINE
  5
254
100
AcDbEntity
  8
0
100
AcDbLine
 62
7
  6
CONTINUOUS
 10
6.1836159142
 20
1.5518143547
 11
6.1839321095
 21
1.5514696654
  0
LWPOLYLINE
  5
255
100
AcDbEntity
  8
0
100
AcDbPolyline
 62
7
  6
CONTINUOUS
 90
12
 70
0
 10
5.1323950596
 20
0.3141688365
 10
5.1327795849
 20
0.309627332
 10
5.133783405
 20
0.3044472675
 10
5.1353863935
 20
0.2993832333
 10
5.1375658202
 20
0.294531317
 10
5.1402694808
 20
0.289994839
 10
5.1434994738
 20
0.2857699979
 10
5.147193169
 20
0.281948338
 10
5.1512753189
 20
0.2785984327
 10
5.1557574782
 20
0.2757141626
 10
5.1605848932
 20
0.2733502209
 10
5.1645353584
 20
0.2719029882
  0
LINE
  5
256
100
AcDbEntity
  8
0
100
AcDbLine
 62
7
  6
CONTINUOUS
 10
6.3516343168
 20
7.1100490358
 11
7.1278843168
 21
8.3706977689
  0
LINE
  5
257
100
AcDbEntity
  8
0
100
AcDbLine
 62
7
  6
CONTINUOUS
 10
5.1323950376
 20
0.3141688358
 11
5.1251593168
 21
0.5213727689
  0
LINE
  5
258
100
AcDbEntity
  8
0
100
AcDbLine
 62
9
  6
CONTINUOUS
 10
5.4855259638
 20
0.5213727689
 11
5.4910623178
 21
0.316225983
  0
LINE
  5
259
100
AcDbEntity
  8
0
100
AcDbLine
 62
7
  6
CONTINUOUS
 10
5.2303843168
 20
2.3964477689
 11
5.2303843168
 21
1.6834477689
  0
LINE
  5
25A
100
AcDbEntity
  8
0
100
AcDbLine
 62
7
  6
CONTINUOUS
 10
5.2447593168
 20
1.2089213367
 11
5.2447593168
 21
1.4666615159
  0
LINE
  5
25B
100
AcDbEntity
  8
0
100
AcDbLine
 62
7
  6
CONTINUOUS
 10
5.2533843168
 20
1.4706977689
 11
5.2533843168
 21
1.4994477689
  0
LINE
  5
25C
100
AcDbEntity
  8
0
100
AcDbLine
 62
9
  6
CONTINUOUS
 10
5.2735093168
 20
1.4377803118
 11
5.2735093168
 21
1.2378025407
  0
LINE
  5
25D
100
AcDbEntity
  8
0
100
AcDbLine
 62
7
  6
CONTINUOUS
 10
5.2806968168
 20
1.5622574475
 11
5.2806968168
 21
1.5550786518
  0
LINE
  5
25E
100
AcDbEntity
  8
0
100
AcDbLine
 62
7
  6
CONTINUOUS
 10
5.2806968168
 20
1.5047687059
 11
5.2806968168
 21
1.4994477689
  0
LINE
  5
25F
100
AcDbEntity
  8
0
100
AcDbLine
 62
7
  6
CONTINUOUS
 10
5.2878843168
 20
2.3964477689
 11
5.2878843168
 21
2.6551977689
  0
LINE
  5
260
100
AcDbEntity
  8
0
100
AcDbLine
 62
7
  6
CONTINUOUS
 10
5.3120938452
 20
1.5369713558
 11
5.3120938455
 21
1.5229003057
  0
LINE
  5
261
100
AcDbEntity
  8
0
100
AcDbLine
 62
7
  6
CONTINUOUS
 10
5.3252593168
 20
1.5684477689
 11
5.3252593168
 21
1.6834477689
  0
LINE
  5
262
100
AcDbEntity
  8
0
100
AcDbLine
 62
7
  6
CONTINUOUS
 10
5.3568843168
 20
2.6551977689
 11
5.3568843168
 21
7.0826977689
  0
LINE
  5
263
100
AcDbEntity
  8
0
100
AcDbLine
 62
7
  6
CONTINUOUS
 10
5.3862093168
 20
1.1429477689
 11
5.3862093168
 21
1.1141977689
  0
LINE
  5
264
100
AcDbEntity
  8
0
100
AcDbLine
 62
7
  6
CONTINUOUS
 10
5.3885093168
 20
1.8324625159
 11
5.3885093168
 21
2.2474330219
  0
LINE
  5
265
100
AcDbEntity
  8
0
100
AcDbLine
 62
7
  6
CONTINUOUS
 10
5.5316843168
 20
1.1141977689
 11
5.5316843168
 21
0.5828977689
  0
LINE
  5
266
100
AcDbEntity
  8
0
100
AcDbLine
 62
7
  6
CONTINUOUS
 10
5.5335287982
 20
1.6834477689
 11
5.5335287982
 21
1.7487354793
  0
LINE
  5
267
100
AcDbEntity
  8
0
100
AcDbLine
 62
7
  6
CONTINUOUS
 10
5.5335287982
 20
2.3311600586
 11
5.5335287982
 21
2.3964477689
  0
LINE
  5
268
100
AcDbEntity
  8
0
100
AcDbLine
 62
7
  6
CONTINUOUS
 10
5.5667593168
 20
0.5213727689
 11
5.5667593168
 21
0.5478227689
  0
LINE
  5
269
100
AcDbEntity
  8
0
100
AcDbLine
 62
9
  6
CONTINUOUS
 10
5.7191343168
 20
1.2378025407
 11
5.7191343168
 21
1.4377803118
  0
LINE
  5
26A
100
AcDbEntity
  8
0
100
AcDbLine
 62
7
  6
CONTINUOUS
 10
5.7297718168
 20
0.1468743225
 11
5.7297718168
 21
0.1319731744
  0
LINE
  5
26B
100
AcDbEntity
  8
0
100
AcDbLine
 62
7
  6
CONTINUOUS
 10
5.7478843168
 20
0.1849888594
 11
5.7478843168
 21
0.1677222222
  0
LINE
  5
26C
100
AcDbEntity
  8
0
100
AcDbLine
 62
7
  6
CONTINUOUS
 10
5.7659968168
 20
0.1468743225
 11
5.7659968168
 21
0.1319731744
  0
LINE
  5
26D
100
AcDbEntity
  8
0
100
AcDbLine
 62
9
  6
CONTINUOUS
 10
5.7766343168
 20
1.4377803118
 11
5.7766343168
 21
1.2378025407
  0
LINE
  5
26E
100
AcDbEntity
  8
0
100
AcDbLine
 62
7
  6
CONTINUOUS
 10
5.9290093168
 20
0.5478227689
 11
5.9290093168
 21
0.5213727689
  0
LINE
  5
26F
100
AcDbEntity
  8
0
100
AcDbLine
 62
7
  6
CONTINUOUS
 10
5.9622398353
 20
1.6834477689
 11
5.9622398353
 21
1.7487354793
  0
LINE
  5
270
100
AcDbEntity
  8
0
100
AcDbLine
 62
7
  6
CONTINUOUS
 10
5.9622398353
 20
2.3311600586
 11
5.9622398353
 21
2.3964477689
  0
LINE
  5
271
100
AcDbEntity
  8
0
100
AcDbLine
 62
7
  6
CONTINUOUS
 10
5.9640843168
 20
0.5828977689
 11
5.9640843168
 21
1.1141977689
  0
LINE
  5
272
100
AcDbEntity
  8
0
100
AcDbLine
 62
7
  6
CONTINUOUS
 10
6.1072593168
 20
2.2474330219
 11
6.1072593168
 21
1.8324625159
  0
LINE
  5
273
100
AcDbEntity
  8
0
100
AcDbLine
 62
7
  6
CONTINUOUS
 10
6.1095593168
 20
1.1429477689
 11
6.1095593168
 21
1.1141977689
  0
LINE
  5
274
100
AcDbEntity
  8
0
100
AcDbLine
 62
7
  6
CONTINUOUS
 10
6.1388843168
 20
2.6551977689
 11
6.1388843168
 21
7.0826977689
  0
LINE
  5
275
100
AcDbEntity
  8
0
100
AcDbLine
 62
7
  6
CONTINUOUS
 10
6.1705093168
 20
1.5684477689
 11
6.1705093168
 21
1.6834477689
  0
LINE
  5
276
100
AcDbEntity
  8
0
100
AcDbLine
 62
7
  6
CONTINUOUS
 10
6.1838377492
 20
1.4994477689
 11
6.1838377492
 21
1.508294138
  0
LINE
  5
277
100
AcDbEntity
  8
0
100
AcDbLine
 62
7
  6
CONTINUOUS
 10
6.1839321095
 20
1.5514698925
 11
6.1839321095
 21
1.5658749919
  0
LINE
  5
278
100
AcDbEntity
  8
0
100
AcDbLine
 62
7
  6
CONTINUOUS
 10
6.2078843168
 20
2.3964477689
 11
6.2078843168
 21
2.6551977689
  0
LINE
  5
279
100
AcDbEntity
  8
0
100
AcDbLine
 62
7
  6
CONTINUOUS
 10
6.2150718168
 20
1.526326832
 11
6.2150718168
 21
1.5335187059
  0
LINE
  5
27A
100
AcDbEntity
  8
0
100
AcDbLine
 62
9
  6
CONTINUOUS
 10
6.2222593168
 20
1.2378025407
 11
6.2222593168
 21
1.4377803118
  0
LINE
  5
27B
100
AcDbEntity
  8
0
100
AcDbLine
 62
7
  6
CONTINUOUS
 10
6.2423843168
 20
1.4994477689
 11
6.2423843168
 21
1.4706977689
  0
LINE
  5
27C
100
AcDbEntity
  8
0
100
AcDbLine
 62
7
  6
CONTINUOUS
 10
6.2510093168
 20
1.4666615159
 11
6.2510093168
 21
1.2089213367
  0
LINE
  5
27D
100
AcDbEntity
  8
0
100
AcDbLine
 62
7
  6
CONTINUOUS
 10
6.2653843168
 20
1.6834477689
 11
6.2653843168
 21
2.3964477689
  0
LINE
  5
27E
100
AcDbEntity
  8
0
100
AcDbLine
 62
9
  6
CONTINUOUS
 10
6.0047039657
 20
0.316226104
 11
6.0102426697
 21
0.5213727689
  0
LINE
  5
27F
100
AcDbEntity
  8
0
100
AcDbLine
 62
7
  6
CONTINUOUS
 10
6.363373596
 20
0.3141688355
 11
6.3706093168
 21
0.5213727689
  0
LINE
  5
280
100
AcDbEntity
  8
0
100
AcDbLine
 62
7
  6
CONTINUOUS
 10
4.3678843168
 20
8.3706977689
 11
5.1441343168
 21
7.1100490358
  0
LINE
  5
281
100
AcDbEntity
  8
0
100
AcDbLine
 62
7
  6
CONTINUOUS
 10
5.2806968168
 20
1.5622687016
 11
5.2809744098
 21
1.5625841941
  0
LINE
  5
282
100
AcDbEntity
  8
0
100
AcDbLine
 62
7
  6
CONTINUOUS
 10
5.2806968168
 20
1.5047687059
 11
5.2809751764
 21
1.5050846295
  0
LINE
  5
283
100
AcDbEntity
  8
0
100
AcDbLine
 62
7
  6
CONTINUOUS
 10
5.3885093168
 20
2.2474330219
 11
5.7478843168
 21
2.4549182749
  0
LINE
  5
284
100
AcDbEntity
  8
0
100
AcDbLine
 62
7
  6
CONTINUOUS
 10
6.1836231729
 20
1.5080466361
 11
6.1838377492
 21
1.5083327679
  0
LINE
  5
285
100
AcDbEntity
  8
0
100
AcDbLine
 62
7
  6
CONTINUOUS
 10
6.2150718168
 20
1.526326832
 11
6.2148330938
 21
1.5260342666
  0
LINE
  5
286
100
AcDbEntity
  8
0
100
AcDbLine
 62
7
  6
CONTINUOUS
 10
6.1836353382
 20
1.5655119488
 11
6.1839321095
 21
1.5658446787
  0
LINE
  5
287
100
AcDbEntity
  8
0
100
AcDbLine
 62
7
  6
CONTINUOUS
 10
5.2911339619
 20
1.5684477689
 11
5.2809744137
 21
1.562578466
  0
LINE
  5
288
100
AcDbEntity
  8
0
100
AcDbLine
 62
7
  6
CONTINUOUS
 10
5.3123543577
 20
1.5232042235
 11
5.2809751827
 21
1.5050752754
  0
LINE
  5
289
100
AcDbEntity
  8
0
100
AcDbLine
 62
7
  6
CONTINUOUS
 10
6.1072593168
 20
1.8324625159
 11
5.7478843168
 21
1.6249772629
  0
LINE
  5
28A
100
AcDbEntity
  8
0
100
AcDbLine
 62
7
  6
CONTINUOUS
 10
5.2533843168
 20
1.4706977689
 11
5.2447593168
 21
1.4666758654
  0
LINE
  5
28B
100
AcDbEntity
  8
0
100
AcDbLine
 62
7
  6
CONTINUOUS
 10
5.5716603189
 20
0.1905343421
 11
5.5700879078
 21
0.1887254899
  0
LINE
  5
28C
100
AcDbEntity
  8
0
100
AcDbLine
 62
7
  6
CONTINUOUS
 10
6.1836353186
 20
1.5655367921
 11
6.1886731595
 21
1.5684477689
  0
LINE
  5
28D
100
AcDbEntity
  8
0
100
AcDbLine
 62
7
  6
CONTINUOUS
 10
6.1836231727
 20
1.5080469275
 11
6.2148330658
 21
1.5260789514
  0
LINE
  5
28E
100
AcDbEntity
  8
0
100
AcDbLine
 62
7
  6
CONTINUOUS
 10
5.9290093168
 20
0.5478227689
 11
5.9640843168
 21
0.5828977689
  0
LINE
  5
28F
100
AcDbEntity
  8
0
100
AcDbLine
 62
7
  6
CONTINUOUS
 10
5.1930965869
 20
7.0826977689
 11
6.3026720467
 21
7.0826977689
  0
LINE
  5
290
100
AcDbEntity
  8
0
100
AcDbLine
 62
9
  6
CONTINUOUS
 10
5.1441343168
 20
7.1100490358
 11
6.3516343168
 21
7.1100490358
  0
LINE
  5
291
100
AcDbEntity
  8
0
100
AcDbLine
 62
7
  6
CONTINUOUS
 10
6.2510093168
 20
1.2089069872
 11
6.1095593168
 21
1.1429477689
  0
LWPOLYLINE
  5
292
100
AcDbEntity
  8
0
100
AcDbPolyline
 62
7
  6
CONTINUOUS
 90
12
 70
0
 10
6.3312332276
 20
0.271902973
 10
6.3351837413
 20
0.2733502212
 10
6.3400111567
 20
0.2757141632
 10
6.3444933162
 20
0.2785984337
 10
6.3485754661
 20
0.2819483393
 10
6.3522691612
 20
0.2857699995
 10
6.355499154
 20
0.2899948408
 10
6.3582028143
 20
0.294531319
 10
6.3603822407
 20
0.2993832352
 10
6.3619852289
 20
0.3044472694
 10
6.3629890488
 20
0.3096273337
 10
6.3633735738
 20
0.3141688363
  0
LINE
  5
293
100
AcDbEntity
  8
0
100
AcDbLine
 62
7
  6
CONTINUOUS
 10
7.1278843168
 20
8.3706977689
 11
4.3678843168
 21
8.3706977689
  0
LINE
  5
294
100
AcDbEntity
  8
0
100
AcDbLine
 62
7
  6
CONTINUOUS
 10
4.3874692248
 20
8.3827572622
 11
7.1082994087
 21
8.3827572622
  0
LINE
  5
295
100
AcDbEntity
  8
0
100
AcDbLine
 62
7
  6
CONTINUOUS
 10
7.1278843168
 20
8.3706977689
 11
7.1082994087
 21
8.3827572622
  0
ARC
  5
296
100
AcDbEntity
  8
0
100
AcDbCircle
 62
7
  6
CONTINUOUS
 10
5.5192528283
 20
-2.9366488776
 40
4.4999566013
100
AcDbArc
 50
91.8119234698
 51
92.3323857449
  0
ARC
  5
297
100
AcDbEntity
  8
0
100
AcDbCircle
 62
7
  6
CONTINUOUS
 10
5.4412245019
 20
-0.9582976513
 40
2.5272579646
100
AcDbArc
 50
92.2597259284
 51
92.629273473
  0
ARC
  5
298
100
AcDbEntity
  8
0
100
AcDbCircle
 62
7
  6
CONTINUOUS
 10
5.4393277322
 20
-0.9327202991
 40
2.4944360726
100
AcDbArc
 50
92.3712990581
 51
92.6186665622
  0
ARC
  5
299
100
AcDbEntity
  8
0
100
AcDbCircle
 62
7
  6
CONTINUOUS
 10
5.497270624
 20
0.6351069089
 40
0.8315910695
100
AcDbArc
 50
93.0920578504
 51
95.1200712443
  0
ARC
  5
29A
100
AcDbEntity
  8
0
100
AcDbCircle
 62
9
  6
CONTINUOUS
 10
5.1269762153
 20
6.1840799661
 40
5.8791384621
100
AcDbArc
 50
273.247955418
 51
273.5505123962
  0
ARC
  5
29B
100
AcDbEntity
  8
0
100
AcDbCircle
 62
9
  6
CONTINUOUS
 10
5.2904859787
 20
3.0739711663
 40
2.7650297221
100
AcDbArc
 50
273.5165470807
 51
274.1599120592
  0
ARC
  5
29C
100
AcDbEntity
  8
0
100
AcDbCircle
 62
7
  6
CONTINUOUS
 10
5.1930965869
 20
7.1401977689
 40
0.0575
100
AcDbArc
 50
211.6228670355
 51
270.0
  0
ARC
  5
29D
100
AcDbEntity
  8
0
100
AcDbCircle
 62
7
  6
CONTINUOUS
 10
5.7189297551
 20
-7.8370225527
 40
9.3854746753
100
AcDbArc
 50
91.6686881721
 51
91.8155161292
  0
ARC
  5
29E
100
AcDbEntity
  8
0
100
AcDbCircle
 62
7
  6
CONTINUOUS
 10
5.7058863442
 20
-7.4261954327
 40
8.9600723569
100
AcDbArc
 50
91.7110053759
 51
91.8693353425
  0
ARC
  5
29F
100
AcDbEntity
  8
0
100
AcDbCircle
 62
7
  6
CONTINUOUS
 10
5.6609945622
 20
-7.3788862321
 40
8.8941733117
100
AcDbArc
 50
91.6266121234
 51
91.7725872609
  0
ARC
  5
2A0
100
AcDbEntity
  8
0
100
AcDbCircle
 62
7
  6
CONTINUOUS
 10
5.6439166127
 20
-6.7586462528
 40
8.3239855467
100
AcDbArc
 50
91.6716793144
 51
91.837767443
  0
ARC
  5
2A1
100
AcDbEntity
  8
0
100
AcDbCircle
 62
7
  6
CONTINUOUS
 10
5.6333970771
 20
-5.1604408722
 40
6.7075268301
100
AcDbArc
 50
91.8096067474
 51
91.997638952
  0
ARC
  5
2A2
100
AcDbEntity
  8
0
100
AcDbCircle
 62
7
  6
CONTINUOUS
 10
5.6176380907
 20
-4.7096113526
 40
6.2420553276
100
AcDbArc
 50
91.8731392383
 51
92.0790458599
  0
ARC
  5
2A3
100
AcDbEntity
  8
0
100
AcDbCircle
 62
7
  6
CONTINUOUS
 10
5.5304444645
 20
-3.2480900281
 40
4.8187877278
100
AcDbArc
 50
91.7509357341
 51
92.2462350195
  0
ARC
  5
2A4
100
AcDbEntity
  8
0
100
AcDbCircle
 62
7
  6
CONTINUOUS
 10
5.5588820406
 20
-3.0442703307
 40
4.5900449464
100
AcDbArc
 50
91.9888560011
 51
92.23648199
  0
ARC
  5
2A5
100
AcDbEntity
  8
0
100
AcDbCircle
 62
7
  6
CONTINUOUS
 10
5.5803293168
 20
0.1798227689
 40
0.01357
100
AcDbArc
 50
139.0
 51
243.0893094774
  0
ARC
  5
2A6
100
AcDbEntity
  8
0
100
AcDbCircle
 62
7
  6
CONTINUOUS
 10
5.7426505809
 20
-10.165835914
 40
11.7326054189
100
AcDbArc
 50
91.5393517469
 51
91.6682454325
  0
ARC
  5
2A7
100
AcDbEntity
  8
0
100
AcDbCircle
 62
7
  6
CONTINUOUS
 10
5.7478884235
 20
0.6329272008
 40
0.4863900847
100
AcDbArc
 50
268.5778144249
 51
272.1336256197
  0
ARC
  5
2A8
100
AcDbEntity
  8
0
100
AcDbCircle
 62
7
  6
CONTINUOUS
 10
5.7478700258
 20
0.6326123387
 40
0.4860750617
100
AcDbArc
 50
267.8661922493
 51
268.5778360258
  0
ARC
  5
2A9
100
AcDbEntity
  8
0
100
AcDbCircle
 62
7
  6
CONTINUOUS
 10
5.7478843168
 20
0.509939043
 40
0.3837745819
100
AcDbArc
 50
243.0893094774
 51
251.2473120573
  0
ARC
  5
2AA
100
AcDbEntity
  8
0
100
AcDbCircle
 62
7
  6
CONTINUOUS
 10
5.7478843168
 20
0.509939043
 40
0.3837745819
100
AcDbArc
 50
288.7526879428
 51
296.9106905226
  0
ARC
  5
2AB
100
AcDbEntity
  8
0
100
AcDbCircle
 62
7
  6
CONTINUOUS
 10
5.7478843168
 20
0.509939043
 40
0.3833469278
100
AcDbArc
 50
251.2788334834
 51
260.3886398641
  0
ARC
  5
2AC
100
AcDbEntity
  8
0
100
AcDbCircle
 62
7
  6
CONTINUOUS
 10
5.7478843168
 20
0.509939043
 40
0.3833469278
100
AcDbArc
 50
279.6113601359
 51
288.7211665166
  0
ARC
  5
2AD
100
AcDbEntity
  8
0
100
AcDbCircle
 62
7
  6
CONTINUOUS
 10
5.7478843168
 20
2.1221727689
 40
1.94005
100
AcDbArc
 50
275.6128877567
 51
287.4989033749
  0
ARC
  5
2AE
100
AcDbEntity
  8
0
100
AcDbCircle
 62
7
  6
CONTINUOUS
 10
5.7478843168
 20
2.1221727689
 40
1.94005
100
AcDbArc
 50
252.5010966186
 51
264.3871122433
  0
CIRCLE
  5
2AF
100
AcDbEntity
  8
0
100
AcDbCircle
 62
7
  6
CONTINUOUS
 10
5.7478843168
 20
2.0399477689
 40
0.359375
  0
CIRCLE
  5
2B0
100
AcDbEntity
  8
0
100
AcDbCircle
 62
7
  6
CONTINUOUS
 10
5.7478843168
 20
2.0399477689
 40
0.2447104167
  0
CIRCLE
  5
2B1
100
AcDbEntity
  8
0
100
AcDbCircle
 62
7
  6
CONTINUOUS
 10
5.7478843168
 20
2.0399477689
 40
0.22425
  0
CIRCLE
  5
2B2
100
AcDbEntity
  8
0
100
AcDbCircle
 62
7
  6
CONTINUOUS
 10
5.7478843168
 20
2.0399477689
 40
0.2185
  0
CIRCLE
  5
2B3
100
AcDbEntity
  8
0
100
AcDbCircle
 62
7
  6
CONTINUOUS
 10
5.7478843168
 20
2.0399477689
 40
0.1725
  0
ARC
  5
2B4
100
AcDbEntity
  8
0
100
AcDbCircle
 62
7
  6
CONTINUOUS
 10
5.9154393168
 20
0.1798227689
 40
0.01357
100
AcDbArc
 50
296.9106905226
 51
41.0
  0
ARC
  5
2B5
100
AcDbEntity
  8
0
100
AcDbCircle
 62
7
  6
CONTINUOUS
 10
5.6820836194
 20
15.8465033784
 40
14.3256497661
100
AcDbArc
 50
271.4451076046
 51
271.6198088732
  0
ARC
  5
2B6
100
AcDbEntity
  8
0
100
AcDbCircle
 62
7
  6
CONTINUOUS
 10
5.7377263431
 20
13.8014341246
 40
12.2870142906
100
AcDbArc
 50
271.5042497053
 51
271.6234013179
  0
ARC
  5
2B7
100
AcDbEntity
  8
0
100
AcDbCircle
 62
7
  6
CONTINUOUS
 10
5.7447095027
 20
12.0227884001
 40
10.4831195539
100
AcDbArc
 50
271.6078948957
 51
271.7518709394
  0
ARC
  5
2B8
100
AcDbEntity
  8
0
100
AcDbCircle
 62
7
  6
CONTINUOUS
 10
5.7757703393
 20
10.9173658297
 40
9.4203677689
100
AcDbArc
 50
271.6728324265
 51
271.8196162125
  0
ARC
  5
2B9
100
AcDbEntity
  8
0
100
AcDbCircle
 62
7
  6
CONTINUOUS
 10
5.7840929928
 20
10.7279914025
 40
9.1733558277
100
AcDbArc
 50
271.6806760358
 51
271.8345649839
  0
ARC
  5
2BA
100
AcDbEntity
  8
0
100
AcDbCircle
 62
7
  6
CONTINUOUS
 10
5.8436319203
 20
8.8153974446
 40
7.2742036292
100
AcDbArc
 50
271.7453921131
 51
271.9348195363
  0
ARC
  5
2BB
100
AcDbEntity
  8
0
100
AcDbCircle
 62
7
  6
CONTINUOUS
 10
5.7441656269
 20
3.043471118
 40
2.8586029304
100
AcDbArc
 50
273.3701001438
 51
273.5364127069
  0
ARC
  5
2BC
100
AcDbEntity
  8
0
100
AcDbCircle
 62
7
  6
CONTINUOUS
 10
5.74801415
 20
2.9834342911
 40
2.7984439205
100
AcDbArc
 50
270.3635859066
 51
273.3637003964
  0
ARC
  5
2BD
100
AcDbEntity
  8
0
100
AcDbCircle
 62
7
  6
CONTINUOUS
 10
5.7477074225
 20
2.9819171722
 40
2.7969264237
100
AcDbArc
 50
266.6349186121
 51
269.6366884585
  0
ARC
  5
2BE
100
AcDbEntity
  8
0
100
AcDbCircle
 62
7
  6
CONTINUOUS
 10
5.7477811713
 20
2.9805334266
 40
2.7955444786
100
AcDbArc
 50
270.0021140064
 51
270.3687380819
  0
ARC
  5
2BF
100
AcDbEntity
  8
0
100
AcDbCircle
 62
7
  6
CONTINUOUS
 10
5.7479226738
 20
2.9594834521
 40
2.774494593
100
AcDbArc
 50
269.6293058092
 51
269.9992078927
  0
ARC
  5
2C0
100
AcDbEntity
  8
0
100
AcDbCircle
 62
7
  6
CONTINUOUS
 10
5.7459076519
 20
2.9515475439
 40
2.7665035253
100
AcDbArc
 50
266.1126013588
 51
266.635209207
  0
ARC
  5
2C1
100
AcDbEntity
  8
0
100
AcDbCircle
 62
7
  6
CONTINUOUS
 10
6.7070366971
 20
-50.9422583762
 40
52.4701494019
100
AcDbArc
 50
91.0679481111
 51
91.3701205947
  0
ARC
  5
2C2
100
AcDbEntity
  8
0
100
AcDbCircle
 62
9
  6
CONTINUOUS
 10
6.2050987558
 20
3.0712444057
 40
2.7622968549
100
AcDbArc
 50
265.8397407512
 51
266.4837869575
  0
ARC
  5
2C3
100
AcDbEntity
  8
0
100
AcDbCircle
 62
7
  6
CONTINUOUS
 10
6.1066411967
 20
2.954568783
 40
1.4265074386
100
AcDbArc
 50
272.854972017
 51
273.0574424297
  0
ARC
  5
2C4
100
AcDbEntity
  8
0
100
AcDbCircle
 62
7
  6
CONTINUOUS
 10
5.9980057966
 20
0.6282507252
 40
0.8384638315
100
AcDbArc
 50
84.8874834369
 51
86.8989783867
  0
ARC
  5
2C5
100
AcDbEntity
  8
0
100
AcDbCircle
 62
7
  6
CONTINUOUS
 10
6.3026720467
 20
7.1401977689
 40
0.0575
100
AcDbArc
 50
270.0
 51
328.3771329645
  0
SPLINE
  5
2C6
100
AcDbEntity
  8
0
100
AcDbSpline
 62
7
  6
CONTINUOUS
 70
0
 71
3
 72
20
 73
16
 74
0
 42
0.0000001
 43
0.0000001
 44
0.0000000001
 40
0.0
 40
0.0
 40
0.0
 40
0.0
 40
0.024603115
 40
0.0490969486
 40
0.0761658857
 40
0.1078646085
 40
0.1455135576
 40
0.1899095165
 40
0.2413969901
 40
0.3000241048
 40
0.3657212438
 40
0.4383516125
 40
0.6035221619
 40
0.7922411559
 40
1.0
 40
1.0
 40
1.0
 40
1.0
 10
5.2447593168
 20
1.2378025407
 30
0.0
 10
5.2447593168
 20
1.2380525398
 30
0.0
 10
5.244836724
 20
1.2385572771
 30
0.0
 10
5.2452286004
 20
1.2392427985
 30
0.0
 10
5.2458702969
 20
1.2398116951
 30
0.0
 10
5.2467435258
 20
1.2402700748
 30
0.0
 10
5.2478477003
 20
1.2406250711
 30
0.0
 10
5.2491836679
 20
1.2408762745
 30
0.0
 10
5.2507482795
 20
1.241024535
 30
0.0
 10
5.2525352531
 20
1.2410701746
 30
0.0
 10
5.2545365294
 20
1.2410127775
 30
0.0
 10
5.2576130761
 20
1.2407882668
 30
0.0
 10
5.2619139101
 20
1.2402271453
 30
0.0
 10
5.2675288039
 20
1.2391965891
 30
0.0
 10
5.2714589347
 20
1.2383051919
 30
0.0
 10
5.2735093168
 20
1.2378025407
 30
0.0
  0
SPLINE
  5
2C7
100
AcDbEntity
  8
0
100
AcDbSpline
 62
7
  6
CONTINUOUS
 70
0
 71
3
 72
21
 73
17
 74
0
 42
0.0000001
 43
0.0000001
 44
0.0000000001
 40
0.0
 40
0.0
 40
0.0
 40
0.0
 40
0.1253760655
 40
0.187954867
 40
0.2504635353
 40
0.3129088151
 40
0.3753006934
 40
0.437657917
 40
0.4999999969
 40
0.5623420755
 40
0.6246992967
 40
0.687091174
 40
0.7495364535
 40
0.8120451216
 40
0.8746239267
 40
1.0
 40
1.0
 40
1.0
 40
1.0
 10
5.2735093168
 20
1.2378025407
 30
0.0
 10
5.2917926589
 20
1.2333203794
 30
0.0
 10
5.3193612604
 20
1.2272175978
 30
0.0
 10
5.3563794853
 20
1.220572306
 30
0.0
 10
5.3842308758
 20
1.2164029611
 30
0.0
 10
5.4121694472
 20
1.2130942544
 30
0.0
 10
5.4401779414
 20
1.2106881305
 30
0.0
 10
5.4682368649
 20
1.2092341046
 30
0.0
 10
5.4963218151
 20
1.2087511606
 30
0.0
 10
5.524406765
 20
1.2092341024
 30
0.0
 10
5.5524656876
 20
1.2106881325
 30
0.0
 10
5.5804741813
 20
1.2130942554
 30
0.0
 10
5.6084127528
 20
1.2164029596
 30
0.0
 10
5.6362641435
 20
1.2205723063
 30
0.0
 10
5.67328237
 20
1.2272175989
 30
0.0
 10
5.7008509735
 20
1.2333203791
 30
0.0
 10
5.7191343168
 20
1.2378025407
 30
0.0
  0
SPLINE
  5
2C8
100
AcDbEntity
  8
0
100
AcDbSpline
 62
7
  6
CONTINUOUS
 70
0
 71
3
 72
11
 73
7
 74
0
 42
0.0000001
 43
0.0000001
 44
0.0000000001
 40
0.0
 40
0.0
 40
0.0
 40
0.0
 40
0.2352653854
 40
0.4829265478
 40
0.7392624425
 40
1.0
 40
1.0
 40
1.0
 40
1.0
 10
5.7191343168
 20
1.2378025407
 30
0.0
 10
5.7213428876
 20
1.2383439718
 30
0.0
 10
5.7259175169
 20
1.2392920319
 30
0.0
 10
5.7329953573
 20
1.240301414
 30
0.0
 10
5.740365252
 20
1.2409159176
 30
0.0
 10
5.7453641458
 20
1.2410535038
 30
0.0
 10
5.7478843168
 20
1.2410535038
 30
0.0
  0
SPLINE
  5
2C9
100
AcDbEntity
  8
0
100
AcDbSpline
 62
9
  6
CONTINUOUS
 70
0
 71
3
 72
46
 73
42
 74
0
 42
0.0000001
 43
0.0000001
 44
0.0000000001
 40
0.0
 40
0.0
 40
0.0
 40
0.0
 40
0.0000159165
 40
0.000035811
 40
0.0000636615
 40
0.0001432267
 40
0.0002546037
 40
0.0003977842
 40
0.0005727601
 40
0.000779523
 40
0.0010180646
 40
0.0015904509
 40
0.002289853
 40
0.0031162048
 40
0.0040694403
 40
0.0051494936
 40
0.0063562989
 40
0.0091499023
 40
0.0124497252
 40
0.0162552435
 40
0.0205659342
 40
0.0253812752
 40
0.0307007458
 40
0.0365238262
 40
0.0496787425
 40
0.0648418904
 40
0.0820088508
 40
0.1011706888
 40
0.122315039
 40
0.145429553
 40
0.1705020009
 40
0.1975202776
 40
0.25734644
 40
0.3248124695
 40
0.3998021994
 40
0.4821850276
 40
0.5718342785
 40
0.6686268759
 40
0.7723986686
 40
0.8829291999
 40
1.0
 40
1.0
 40
1.0
 40
1.0
 10
6.3633735962
 20
0.3141688431
 30
0.0
 10
6.3633741407
 20
0.3141704954
 30
0.0
 10
6.3633666388
 20
0.3141674326
 30
0.0
 10
6.3633615577
 20
0.3141684024
 30
0.0
 10
6.3633466137
 20
0.3141666271
 30
0.0
 10
6.3633235449
 20
0.3141656111
 30
0.0
 10
6.3632867284
 20
0.3141628338
 30
0.0
 10
6.3632400365
 20
0.3141597692
 30
0.0
 10
6.3631827398
 20
0.3141558532
 30
0.0
 10
6.3631151148
 20
0.3141513036
 30
0.0
 10
6.3630041234
 20
0.3141438331
 30
0.0
 10
6.3628394166
 20
0.3141328144
 30
0.0
 10
6.3626105918
 20
0.3141175969
 30
0.0
 10
6.3623402268
 20
0.3140997341
 30
0.0
 10
6.3620283372
 20
0.3140792601
 30
0.0
 10
6.3616749436
 20
0.3140562128
 30
0.0
 10
6.3611208076
 20
0.3140203108
 30
0.0
 10
6.3603245225
 20
0.313969255
 30
0.0
 10
6.3592447199
 20
0.313900942
 30
0.0
 10
6.3579993627
 20
0.3138232219
 30
0.0
 10
6.3565886054
 20
0.31373639
 30
0.0
 10
6.355012602
 20
0.3136407422
 30
0.0
 10
6.3532715071
 20
0.3135365734
 30
0.0
 10
6.3506203826
 20
0.3133802468
 30
0.0
 10
6.3468949114
 20
0.3131655655
 30
0.0
 10
6.3419311122
 20
0.3128881459
 30
0.0
 10
6.3363112577
 20
0.3125834817
 30
0.0
 10
6.3300379104
 20
0.3122565798
 30
0.0
 10
6.3231144387
 20
0.3119141653
 30
0.0
 10
6.3155446302
 20
0.3115625461
 30
0.0
 10
6.3073322728
 20
0.3112081929
 30
0.0
 10
6.2951092513
 20
0.3107238948
 30
0.0
 10
6.2782524792
 20
0.3101536096
 30
0.0
 10
6.2561500832
 20
0.3095814866
 30
0.0
 10
6.2315782272
 20
0.3091653324
 30
0.0
 10
6.2045787214
 20
0.3089797894
 30
0.0
 10
6.1751956244
 20
0.3090973628
 30
0.0
 10
6.1434781756
 20
0.3095906209
 30
0.0
 10
6.1094874902
 20
0.3105347188
 30
0.0
 10
6.0732972385
 20
0.3120101379
 30
0.0
 10
6.0484560991
 20
0.3133628648
 30
0.0
 10
6.0356842702
 20
0.3141476205
 30
0.0
  0
SPLINE
  5
2CA
100
AcDbEntity
  8
0
100
AcDbSpline
 62
7
  6
CONTINUOUS
 70
0
 71
3
 72
11
 73
7
 74
0
 42
0.0000001
 43
0.0000001
 44
0.0000000001
 40
0.0
 40
0.0
 40
0.0
 40
0.0
 40
0.2352681434
 40
0.4829265093
 40
0.7392599635
 40
1.0
 40
1.0
 40
1.0
 40
1.0
 10
5.7766343168
 20
1.2378025407
 30
0.0
 10
5.7744257202
 20
1.2383439782
 30
0.0
 10
5.7698510871
 20
1.2392920156
 30
0.0
 10
5.7627732743
 20
1.2403014173
 30
0.0
 10
5.7554034043
 20
1.2409158895
 30
0.0
 10
5.7504045115
 20
1.2410535038
 30
0.0
 10
5.7478843168
 20
1.2410535038
 30
0.0
  0
SPLINE
  5
2CB
100
AcDbEntity
  8
0
100
AcDbSpline
 62
7
  6
CONTINUOUS
 70
0
 71
3
 72
21
 73
17
 74
0
 42
0.0000001
 43
0.0000001
 44
0.0000000001
 40
0.0
 40
0.0
 40
0.0
 40
0.0
 40
0.1253760655
 40
0.187954867
 40
0.2504635353
 40
0.3129088151
 40
0.3753006934
 40
0.437657917
 40
0.4999999969
 40
0.5623420755
 40
0.6246992967
 40
0.687091174
 40
0.7495364535
 40
0.8120451216
 40
0.8746239267
 40
1.0
 40
1.0
 40
1.0
 40
1.0
 10
5.7766343168
 20
1.2378025407
 30
0.0
 10
5.7949176589
 20
1.2333203794
 30
0.0
 10
5.8224862604
 20
1.2272175978
 30
0.0
 10
5.8595044853
 20
1.220572306
 30
0.0
 10
5.8873558758
 20
1.2164029611
 30
0.0
 10
5.9152944472
 20
1.2130942544
 30
0.0
 10
5.9433029414
 20
1.2106881305
 30
0.0
 10
5.9713618649
 20
1.2092341046
 30
0.0
 10
5.9994468151
 20
1.2087511606
 30
0.0
 10
6.027531765
 20
1.2092341024
 30
0.0
 10
6.0555906876
 20
1.2106881325
 30
0.0
 10
6.0835991813
 20
1.2130942554
 30
0.0
 10
6.1115377528
 20
1.2164029596
 30
0.0
 10
6.1393891435
 20
1.2205723063
 30
0.0
 10
6.17640737
 20
1.2272175989
 30
0.0
 10
6.2039759735
 20
1.2333203791
 30
0.0
 10
6.2222593168
 20
1.2378025407
 30
0.0
  0
SPLINE
  5
2CC
100
AcDbEntity
  8
0
100
AcDbSpline
 62
7
  6
CONTINUOUS
 70
0
 71
3
 72
20
 73
16
 74
0
 42
0.0000001
 43
0.0000001
 44
0.0000000001
 40
0.0
 40
0.0
 40
0.0
 40
0.0
 40
0.2077594513
 40
0.3964800933
 40
0.5616527522
 40
0.6342831831
 40
0.6999797858
 40
0.7586061708
 40
0.810093086
 40
0.8544888717
 40
0.8921374028
 40
0.92383544
 40
0.950903669
 40
0.975397022
 40
1.0
 40
1.0
 40
1.0
 40
1.0
 10
6.2222593168
 20
1.2378025407
 30
0.0
 10
6.2243097051
 20
1.2383051934
 30
0.0
 10
6.2282398575
 20
1.2391966013
 30
0.0
 10
6.2338547935
 20
1.2402271763
 30
0.0
 10
6.238155666
 20
1.2407883127
 30
0.0
 10
6.2412322315
 20
1.2410128032
 30
0.0
 10
6.2432334967
 20
1.241070176
 30
0.0
 10
6.2450204515
 20
1.2410245119
 30
0.0
 10
6.2465850461
 20
1.2408762317
 30
0.0
 10
6.2479210021
 20
1.2406250321
 30
0.0
 10
6.2490251662
 20
1.2402700453
 30
0.0
 10
6.2498983797
 20
1.2398116752
 30
0.0
 10
6.2505400584
 20
1.239242786
 30
0.0
 10
6.2509319165
 20
1.2385572694
 30
0.0
 10
6.2510093168
 20
1.2380525385
 30
0.0
 10
6.2510093168
 20
1.2378025407
 30
0.0
  0
SPLINE
  5
2CD
100
AcDbEntity
  8
0
100
AcDbSpline
 62
7
  6
CONTINUOUS
 70
0
 71
3
 72
11
 73
7
 74
0
 42
0.0000001
 43
0.0000001
 44
0.0000000001
 40
0.0
 40
0.0
 40
0.0
 40
0.0
 40
0.2607379565
 40
0.5170743054
 40
0.764734989
 40
1.0
 40
1.0
 40
1.0
 40
1.0
 10
5.7478843168
 20
1.4345293487
 30
0.0
 10
5.745364142
 20
1.4345293487
 30
0.0
 10
5.74036524
 20
1.4346669392
 30
0.0
 10
5.7329953416
 20
1.4352814403
 30
0.0
 10
5.7259175046
 20
1.4362908194
 30
0.0
 10
5.7213428841
 20
1.4372388816
 30
0.0
 10
5.7191343168
 20
1.4377803118
 30
0.0
  0
SPLINE
  5
2CE
100
AcDbEntity
  8
0
100
AcDbSpline
 62
7
  6
CONTINUOUS
 70
0
 71
3
 72
14
 73
10
 74
0
 42
0.0000001
 43
0.0000001
 44
0.0000000001
 40
0.0
 40
0.0
 40
0.0
 40
0.0
 40
0.2507892452
 40
0.3759286957
 40
0.5009101959
 40
0.6257574643
 40
0.7505205495
 40
0.8752536882
 40
1.0
 40
1.0
 40
1.0
 40
1.0
 10
5.7191343168
 20
1.4377803118
 30
0.0
 10
5.6972824101
 20
1.4431373067
 30
0.0
 10
5.6642959106
 20
1.4502881069
 30
0.0
 10
5.6199524102
 20
1.4576176616
 30
0.0
 10
5.5865793979
 20
1.4619061938
 30
0.0
 10
5.5531005254
 20
1.4649191204
 30
0.0
 10
5.519548165
 20
1.466571219
 30
0.0
 10
5.4859658665
 20
1.4668352432
 30
0.0
 10
5.4635893395
 20
1.4660901681
 30
0.0
 10
5.4524142702
 20
1.4654873123
 30
0.0
  0
SPLINE
  5
2CF
100
AcDbEntity
  8
0
100
AcDbSpline
 62
7
  6
CONTINUOUS
 70
0
 71
3
 72
11
 73
7
 74
0
 42
0.0000001
 43
0.0000001
 44
0.0000000001
 40
0.0
 40
0.0
 40
0.0
 40
0.0
 40
0.2494475945
 40
0.4992343522
 40
0.7494131111
 40
1.0
 40
1.0
 40
1.0
 40
1.0
 10
5.4230567643
 20
1.4633798167
 30
0.0
 10
5.4104799049
 20
1.4622556763
 30
0.0
 10
5.3853557764
 20
1.4594491577
 30
0.0
 10
5.3478528109
 20
1.4536757407
 30
0.0
 10
5.3105427211
 20
1.446462133
 30
0.0
 10
5.2858291841
 20
1.4408005273
 30
0.0
 10
5.2735093168
 20
1.4377803118
 30
0.0
  0
SPLINE
  5
2D0
100
AcDbEntity
  8
0
100
AcDbSpline
 62
7
  6
CONTINUOUS
 70
0
 71
3
 72
20
 73
16
 74
0
 42
0.0000001
 43
0.0000001
 44
0.0000000001
 40
0.0
 40
0.0
 40
0.0
 40
0.0
 40
0.2077592335
 40
0.3964795075
 40
0.5616518063
 40
0.6342822199
 40
0.699978883
 40
0.7586053357
 40
0.8100922744
 40
0.8544880333
 40
0.892136627
 40
0.9238348447
 40
0.9509033315
 40
0.9753969256
 40
1.0
 40
1.0
 40
1.0
 40
1.0
 10
5.2735093168
 20
1.4377803118
 30
0.0
 10
5.2714589298
 20
1.4372776595
 30
0.0
 10
5.2675287799
 20
1.4363862603
 30
0.0
 10
5.2619138479
 20
1.4353557051
 30
0.0
 10
5.2576129815
 20
1.4347945728
 30
0.0
 10
5.2545364195
 20
1.4345700661
 30
0.0
 10
5.252535153
 20
1.4345126775
 30
0.0
 10
5.2507481956
 20
1.4345583256
 30
0.0
 10
5.2491835984
 20
1.434706593
 30
0.0
 10
5.2478476403
 20
1.4349577889
 30
0.0
 10
5.2467434744
 20
1.4353127798
 30
0.0
 10
5.2458702588
 20
1.435771158
 30
0.0
 10
5.2452285785
 20
1.4363400562
 30
0.0
 10
5.2448367187
 20
1.4370255787
 30
0.0
 10
5.2447593168
 20
1.437530313
 30
0.0
 10
5.2447593168
 20
1.4377803118
 30
0.0
  0
SPLINE
  5
2D1
100
AcDbEntity
  8
0
100
AcDbSpline
 62
7
  6
CONTINUOUS
 70
0
 71
3
 72
20
 73
16
 74
0
 42
0.0000001
 43
0.0000001
 44
0.0000000001
 40
0.0
 40
0.0
 40
0.0
 40
0.0
 40
0.0246030187
 40
0.0490966116
 40
0.0761652915
 40
0.107863834
 40
0.1455127201
 40
0.1899087051
 40
0.2413961544
 40
0.3000232006
 40
0.3657202782
 40
0.4383506634
 40
0.6035215736
 40
0.792240937
 40
1.0
 40
1.0
 40
1.0
 40
1.0
 10
6.2510093168
 20
1.4377803118
 30
0.0
 10
6.2510093168
 20
1.4375303138
 30
0.0
 10
6.2509319112
 20
1.43702558
 30
0.0
 10
6.2505400365
 20
1.4363400645
 30
0.0
 10
6.2498983416
 20
1.4357711767
 30
0.0
 10
6.2490251148
 20
1.4353128052
 30
0.0
 10
6.247920942
 20
1.4349578129
 30
0.0
 10
6.2465849766
 20
1.434706606
 30
0.0
 10
6.2450203676
 20
1.4345583326
 30
0.0
 10
6.2432333966
 20
1.4345126771
 30
0.0
 10
6.2412321216
 20
1.4345700584
 30
0.0
 10
6.2381555715
 20
1.4347945527
 30
0.0
 10
6.2338547313
 20
1.4353556784
 30
0.0
 10
6.2282398335
 20
1.4363862544
 30
0.0
 10
6.2243097003
 20
1.4372776603
 30
0.0
 10
6.2222593168
 20
1.4377803118
 30
0.0
  0
SPLINE
  5
2D2
100
AcDbEntity
  8
0
100
AcDbSpline
 62
7
  6
CONTINUOUS
 70
0
 71
3
 72
11
 73
7
 74
0
 42
0.0000001
 43
0.0000001
 44
0.0000000001
 40
0.0
 40
0.0
 40
0.0
 40
0.0
 40
0.2505868459
 40
0.5007655866
 40
0.7505523669
 40
1.0
 40
1.0
 40
1.0
 40
1.0
 10
6.2222593168
 20
1.4377803118
 30
0.0
 10
6.209940349
 20
1.4408003068
 30
0.0
 10
6.1852286223
 20
1.4464615267
 30
0.0
 10
6.1479212813
 20
1.4536747519
 30
0.0
 10
6.1104210886
 20
1.4594480172
 30
0.0
 10
6.0852988199
 20
1.4622546087
 30
0.0
 10
6.0727228893
 20
1.4633788308
 30
0.0
  0
SPLINE
  5
2D3
100
AcDbEntity
  8
0
100
AcDbSpline
 62
7
  6
CONTINUOUS
 70
0
 71
3
 72
14
 73
10
 74
0
 42
0.0000001
 43
0.0000001
 44
0.0000000001
 40
0.0
 40
0.0
 40
0.0
 40
0.0
 40
0.1247463318
 40
0.249479474
 40
0.3742425503
 40
0.4990898055
 40
0.624071293
 40
0.7492107385
 40
1.0
 40
1.0
 40
1.0
 40
1.0
 10
6.0433638537
 20
1.465486799
 30
0.0
 10
6.032188395
 20
1.4660898052
 30
0.0
 10
6.0098110837
 20
1.4668351523
 30
0.0
 10
5.976227595
 20
1.4665714414
 30
0.0
 10
5.9426740378
 20
1.4649195508
 30
0.0
 10
5.9091939667
 20
1.4619067297
 30
0.0
 10
5.8758197582
 20
1.4576182017
 30
0.0
 10
5.8314746703
 20
1.4502885176
 30
0.0
 10
5.7984869963
 20
1.4431374962
 30
0.0
 10
5.7766343168
 20
1.4377803118
 30
0.0
  0
SPLINE
  5
2D4
100
AcDbEntity
  8
0
100
AcDbSpline
 62
7
  6
CONTINUOUS
 70
0
 71
3
 72
11
 73
7
 74
0
 42
0.0000001
 43
0.0000001
 44
0.0000000001
 40
0.0
 40
0.0
 40
0.0
 40
0.0
 40
0.235265373
 40
0.482926526
 40
0.7392624412
 40
1.0
 40
1.0
 40
1.0
 40
1.0
 10
5.7766343168
 20
1.4377803118
 30
0.0
 10
5.7744257461
 20
1.4372388807
 30
0.0
 10
5.7698511173
 20
1.4362908191
 30
0.0
 10
5.7627732762
 20
1.4352814422
 30
0.0
 10
5.7554033815
 20
1.4346669404
 30
0.0
 10
5.7504044877
 20
1.4345293487
 30
0.0
 10
5.7478843168
 20
1.4345293487
 30
0.0
  0
SPLINE
  5
2D5
100
AcDbEntity
  8
0
100
AcDbSpline
 62
9
  6
CONTINUOUS
 70
0
 71
3
 72
44
 73
40
 74
0
 42
0.0000001
 43
0.0000001
 44
0.0000000001
 40
0.0
 40
0.0
 40
0.0
 40
0.0
 40
0.1170708021
 40
0.2276013677
 40
0.3313732235
 40
0.4281658903
 40
0.5178151565
 40
0.600197962
 40
0.6751876557
 40
0.7426536574
 40
0.8024797881
 40
0.8294980484
 40
0.8545704812
 40
0.877684983
 40
0.8988293251
 40
0.9179911607
 40
0.9351581247
 40
0.9503212732
 40
0.9634761864
 40
0.9692992644
 40
0.9746187321
 40
0.9794340701
 40
0.9837447577
 40
0.9875502732
 40
0.9908500936
 40
0.9936436951
 40
0.9948504998
 40
0.9959305526
 40
0.9968837879
 40
0.9977101397
 40
0.9984095421
 40
0.9989819291
 40
0.9994272346
 40
0.9996022111
 40
0.9997453924
 40
0.9998567703
 40
0.9999363363
 40
0.9999840823
 40
1.0
 40
1.0
 40
1.0
 40
1.0
 10
5.460084052
 20
0.3141476471
 30
0.0
 10
5.447312235
 20
0.3133628944
 30
0.0
 10
5.4224711149
 20
0.3120101785
 30
0.0
 10
5.3862808861
 20
0.3105347823
 30
0.0
 10
5.3522902146
 20
0.309590703
 30
0.0
 10
5.3205727802
 20
0.3090974467
 30
0.0
 10
5.2911897047
 20
0.3089798539
 30
0.0
 10
5.2641902294
 20
0.3091653706
 30
0.0
 10
5.2396184059
 20
0.3095814998
 30
0.0
 10
5.2175160414
 20
0.3101536153
 30
0.0
 10
5.2006592936
 20
0.310723895
 30
0.0
 10
5.1884362906
 20
0.3112081898
 30
0.0
 10
5.1802239458
 20
0.3115625415
 30
0.0
 10
5.1726541484
 20
0.3119141604
 30
0.0
 10
5.165730686
 20
0.3122565762
 30
0.0
 10
5.1594573456
 20
0.3125834809
 30
0.0
 10
5.1538374966
 20
0.3128881509
 30
0.0
 10
5.1488737022
 20
0.3131655726
 30
0.0
 10
5.145148235
 20
0.3133802531
 30
0.0
 10
5.142497114
 20
0.3135365781
 30
0.0
 10
5.1407560215
 20
0.3136407454
 30
0.0
 10
5.1391800206
 20
0.3137363915
 30
0.0
 10
5.1377692654
 20
0.3138232216
 30
0.0
 10
5.1365239103
 20
0.3139009399
 30
0.0
 10
5.1354441094
 20
0.3139692512
 30
0.0
 10
5.1346478256
 20
0.314020306
 30
0.0
 10
5.1340936903
 20
0.314056207
 30
0.0
 10
5.1337402973
 20
0.3140792545
 30
0.0
 10
5.1334284075
 20
0.3140997265
 30
0.0
 10
5.1331580446
 20
0.3141175946
 30
0.0
 10
5.1329292146
 20
0.3141327965
 30
0.0
 10
5.1327419742
 20
0.314145367
 30
0.0
 10
5.1326118632
 20
0.3141540374
 30
0.0
 10
5.1325286773
 20
0.3141598079
 30
0.0
 10
5.1324816888
 20
0.3141627048
 30
0.0
 10
5.1324456348
 20
0.3141659185
 30
0.0
 10
5.132418743
 20
0.3141660406
 30
0.0
 10
5.1324046393
 20
0.3141700158
 30
0.0
 10
5.1323961291
 20
0.3141674857
 30
0.0
 10
5.1323950374
 20
0.3141688404
 30
0.0
  0
SPLINE
  5
2D6
100
AcDbEntity
  8
0
100
AcDbSpline
 62
9
  6
CONTINUOUS
 70
0
 71
3
 72
15
 73
11
 74
0
 42
0.0000001
 43
0.0000001
 44
0.0000000001
 40
0.0
 40
0.0
 40
0.0
 40
0.0
 40
0.130427623
 40
0.2650751814
 40
0.4009553273
 40
0.5345645559
 40
0.662853076
 40
0.7838082454
 40
0.8961119143
 40
1.0
 40
1.0
 40
1.0
 40
1.0
 10
5.4910661764
 20
0.3162261821
 30
0.0
 10
5.4912060636
 20
0.3137759524
 30
0.0
 10
5.4918030347
 20
0.3088091937
 30
0.0
 10
5.493636942
 20
0.3014688696
 30
0.0
 10
5.4964879882
 20
0.2943922837
 30
0.0
 10
5.500252717
 20
0.2878894157
 30
0.0
 10
5.5048398816
 20
0.2822928868
 30
0.0
 10
5.5099905055
 20
0.2777935843
 30
0.0
 10
5.5154878635
 20
0.2745559183
 30
0.0
 10
5.5193465427
 20
0.2731772062
 30
0.0
 10
5.5212446877
 20
0.2727098558
 30
0.0
  0
LINE
  5
2D7
100
AcDbEntity
  8
0
100
AcDbLine
 62
7
  6
CONTINUOUS
 10
5.3123426881
 20
1.5230721501
 11
5.3120878198
 21
1.5227528462
  0
SPLINE
  5
2D8
100
AcDbEntity
  8
0
100
AcDbSpline
 62
7
  6
CONTINUOUS
 70
0
 71
3
 72
24
 73
20
 74
0
 42
0.0000001
 43
0.0000001
 44
0.0000000001
 40
0.0
 40
0.0
 40
0.0
 40
0.0
 40
0.0078638363
 40
0.0160448515
 40
0.0251447253
 40
0.0355982156
 40
0.0476868864
 40
0.0615864223
 40
0.0951965081
 40
0.1368738029
 40
0.1864865445
 40
0.2436950962
 40
0.3080902816
 40
0.3791842947
 40
0.4562957282
 40
0.5386849885
 40
0.62560357
 40
0.8095706154
 40
1.0
 40
1.0
 40
1.0
 40
1.0
 10
5.7297718168
 20
0.1319731744
 30
0.0
 10
5.7297718168
 20
0.1318496165
 30
0.0
 10
5.7297334033
 20
0.1315957206
 30
0.0
 10
5.7295569482
 20
0.1312365504
 30
0.0
 10
5.7292698425
 20
0.1309038853
 30
0.0
 10
5.7288766824
 20
0.1305959193
 30
0.0
 10
5.7283784935
 20
0.1303106931
 30
0.0
 10
5.727518519
 20
0.1299366254
 30
0.0
 10
5.726166849
 20
0.1295483881
 30
0.0
 10
5.7242335752
 20
0.1292018939
 30
0.0
 10
5.7219121892
 20
0.1289521123
 30
0.0
 10
5.7192253651
 20
0.1288020763
 30
0.0
 10
5.7161973574
 20
0.1287547899
 30
0.0
 10
5.7128569521
 20
0.1288124237
 30
0.0
 10
5.7092370084
 20
0.1289734017
 30
0.0
 10
5.705373838
 20
0.1292362522
 30
0.0
 10
5.6998447754
 20
0.1297300183
 30
0.0
 10
5.6926456852
 20
0.1305868907
 30
0.0
 10
5.6868291475
 20
0.1314736077
 30
0.0
 10
5.6838790888
 20
0.1319731744
 30
0.0
  0
SPLINE
  5
2D9
100
AcDbEntity
  8
0
100
AcDbSpline
 62
7
  6
CONTINUOUS
 70
0
 71
3
 72
24
 73
20
 74
0
 42
0.0000001
 43
0.0000001
 44
0.0000000001
 40
0.0
 40
0.0
 40
0.0
 40
0.0
 40
0.1904300244
 40
0.3743983819
 40
0.4613173061
 40
0.5437064459
 40
0.6208175492
 40
0.6919112738
 40
0.7563062193
 40
0.8135144963
 40
0.8631270351
 40
0.9048042922
 40
0.9384142508
 40
0.9523136316
 40
0.9644021283
 40
0.9748554582
 40
0.9839552146
 40
0.9921361728
 40
1.0
 40
1.0
 40
1.0
 40
1.0
 10
5.8118895447
 20
0.1319731744
 30
0.0
 10
5.8089394756
 20
0.1314736059
 30
0.0
 10
5.8031229056
 20
0.130586889
 30
0.0
 10
5.7959237783
 20
0.1297300124
 30
0.0
 10
5.790394691
 20
0.1292362407
 30
0.0
 10
5.7865315214
 20
0.1289733926
 30
0.0
 10
5.7829115883
 20
0.1288124194
 30
0.0
 10
5.7795711958
 20
0.1287547898
 30
0.0
 10
5.7765432002
 20
0.12880208
 30
0.0
 10
5.7738563872
 20
0.1289521211
 30
0.0
 10
5.7715350093
 20
0.1292019067
 30
0.0
 10
5.7696017407
 20
0.1295483973
 30
0.0
 10
5.7682500735
 20
0.1299366279
 30
0.0
 10
5.7673901062
 20
0.1303106948
 30
0.0
 10
5.7668919254
 20
0.1305959202
 30
0.0
 10
5.7664987741
 20
0.1309038861
 30
0.0
 10
5.7662116766
 20
0.1312365516
 30
0.0
 10
5.7660352282
 20
0.1315957218
 30
0.0
 10
5.7659968168
 20
0.1318496166
 30
0.0
 10
5.7659968168
 20
0.1319731744
 30
0.0
  0
SPLINE
  5
2DA
100
AcDbEntity
  8
0
100
AcDbSpline
 62
7
  6
CONTINUOUS
 70
0
 71
3
 72
27
 73
23
 74
0
 42
0.0000001
 43
0.0000001
 44
0.0000000001
 40
0.0
 40
0.0
 40
0.0
 40
0.0
 40
0.002301836
 40
0.0039605452
 40
0.0060456068
 40
0.0085871537
 40
0.0116016299
 40
0.0190835589
 40
0.0285369198
 40
0.0399819842
 40
0.0534297994
 40
0.0688869048
 40
0.1058080095
 40
0.1506219911
 40
0.203173282
 40
0.2633013488
 40
0.3308430504
 40
0.4056337472
 40
0.4875218966
 40
0.5764039713
 40
0.7747759139
 40
1.0
 40
1.0
 40
1.0
 40
1.0
 10
6.1838834213
 20
1.5514696123
 30
0.0
 10
6.1838800412
 20
1.5513967312
 30
0.0
 10
6.1837973828
 20
1.5512821244
 30
0.0
 10
6.1836437841
 20
1.5511719845
 30
0.0
 10
6.183467352
 20
1.5510764564
 30
0.0
 10
6.1832443644
 20
1.5509822153
 30
0.0
 10
6.1828539921
 20
1.5508455681
 30
0.0
 10
6.1822428683
 20
1.5506809207
 30
0.0
 10
6.1813630061
 20
1.5504927855
 30
0.0
 10
6.1802906854
 20
1.5503038842
 30
0.0
 10
6.1790257992
 20
1.5501141823
 30
0.0
 10
6.1769567547
 20
1.5498445916
 30
0.0
 10
6.1738933134
 20
1.5495165241
 30
0.0
 10
6.1696535534
 20
1.5491396018
 30
0.0
 10
6.164675854
 20
1.5487613611
 30
0.0
 10
6.1589760866
 20
1.548382006
 30
0.0
 10
6.1525700798
 20
1.5480019823
 30
0.0
 10
6.1454733113
 20
1.5476214058
 30
0.0
 10
6.1376992808
 20
1.5472402825
 30
0.0
 10
6.1260107847
 20
1.5467121533
 30
0.0
 10
6.1097802127
 20
1.546059345
 30
0.0
 10
6.0963622717
 20
1.5455823852
 30
0.0
 10
6.0892276107
 20
1.5453409664
 30
0.0
  0
SPLINE
  5
2DB
100
AcDbEntity
  8
0
100
AcDbSpline
 62
7
  6
CONTINUOUS
 70
0
 71
3
 72
11
 73
7
 74
0
 42
0.0000001
 43
0.0000001
 44
0.0000000001
 40
0.0
 40
0.0
 40
0.0
 40
0.0
 40
0.219664024
 40
0.46500332
 40
0.7278987072
 40
1.0
 40
1.0
 40
1.0
 40
1.0
 10
6.0388593029
 20
1.5437964889
 30
0.0
 10
6.0175427315
 20
1.5431959533
 30
0.0
 10
5.9724149658
 20
1.5420333469
 30
0.0
 10
5.9017693544
 20
1.5403960953
 30
0.0
 10
5.8260320196
 20
1.5387511636
 30
0.0
 10
5.7741058973
 20
1.5376599049
 30
0.0
 10
5.7476960738
 20
1.53710513
 30
0.0
  0
SPLINE
  5
2DC
100
AcDbEntity
  8
0
100
AcDbSpline
 62
7
  6
CONTINUOUS
 70
0
 71
3
 72
11
 73
7
 74
0
 42
0.0000001
 43
0.0000001
 44
0.0000000001
 40
0.0
 40
0.0
 40
0.0
 40
0.0
 40
0.2765951995
 40
0.5418321645
 40
0.7862262536
 40
1.0
 40
1.0
 40
1.0
 40
1.0
 10
5.7351696061
 20
1.5368419773
 30
0.0
 10
5.70780216
 20
1.5362669346
 30
0.0
 10
5.6541911437
 20
1.5351382924
 30
0.0
 10
5.5764002178
 20
1.5334337713
 30
0.0
 10
5.5048279037
 20
1.5317366421
 30
0.0
 10
5.4595012121
 20
1.5305144991
 30
0.0
 10
5.438354362
 20
1.5298820167
 30
0.0
  0
SPLINE
  5
2DD
100
AcDbEntity
  8
0
100
AcDbSpline
 62
7
  6
CONTINUOUS
 70
0
 71
3
 72
17
 73
13
 74
0
 42
0.0000001
 43
0.0000001
 44
0.0000000001
 40
0.0
 40
0.0
 40
0.0
 40
0.0
 40
0.1970811999
 40
0.3750751902
 40
0.5331281887
 40
0.6704602375
 40
0.7864069567
 40
0.880321961
 40
0.918821253
 40
0.9515870162
 40
0.9786258549
 40
1.0
 40
1.0
 40
1.0
 40
1.0
 10
5.3911873522
 20
1.5283350062
 30
0.0
 10
5.3861309692
 20
1.5281504931
 30
0.0
 10
5.3765084321
 20
1.5277847425
 30
0.0
 10
5.3628332367
 20
1.5272098836
 30
0.0
 10
5.3506934771
 20
1.5266358787
 30
0.0
 10
5.3401485696
 20
1.5260634325
 30
0.0
 10
5.3312530397
 20
1.5254934167
 30
0.0
 10
5.3248956832
 20
1.5249964978
 30
0.0
 10
5.3206747261
 20
1.5245861533
 30
0.0
 10
5.3181669876
 20
1.5243001492
 30
0.0
 10
5.316102216
 20
1.5240155822
 30
0.0
 10
5.3148768908
 20
1.5238037556
 30
0.0
 10
5.3143395481
 20
1.5236924607
 30
0.0
  0
LINE
  5
2DE
100
AcDbEntity
  8
0
100
AcDbLine
 62
7
  6
CONTINUOUS
 10
5.3143395481
 20
1.5236924607
 11
5.3123426881
 21
1.5230721501
  0
LINE
  5
2DF
100
AcDbEntity
  8
0
100
AcDbLine
 62
7
  6
CONTINUOUS
 10
5.3134996188
 20
1.5363844285
 11
5.3123997551
 21
1.5367809248
  0
SPLINE
  5
2E0
100
AcDbEntity
  8
0
100
AcDbSpline
 62
7
  6
CONTINUOUS
 70
0
 71
3
 72
25
 73
21
 74
0
 42
0.0000001
 43
0.0000001
 44
0.0000000001
 40
0.0
 40
0.0
 40
0.0
 40
0.0
 40
0.002555728
 40
0.0042506086
 40
0.0063217697
 40
0.0117278814
 40
0.0189394267
 40
0.0280219766
 40
0.039010522
 40
0.0519270203
 40
0.0667870188
 40
0.1023826711
 40
0.1458747936
 40
0.1973238952
 40
0.2567346866
 40
0.3239710581
 40
0.3988706605
 40
0.5710028576
 40
0.771811947
 40
1.0
 40
1.0
 40
1.0
 40
1.0
 10
5.3120938534
 20
1.5371282143
 30
0.0
 10
5.3120940688
 20
1.5371862258
 30
0.0
 10
5.3121425148
 20
1.5372805786
 30
0.0
 10
5.3122477245
 20
1.5373770644
 30
0.0
 10
5.3124209386
 20
1.5374945316
 30
0.0
 10
5.3127258587
 20
1.537632763
 30
0.0
 10
5.3131930251
 20
1.53778982
 30
0.0
 10
5.3137922821
 20
1.5379475354
 30
0.0
 10
5.3145241642
 20
1.5381063064
 30
0.0
 10
5.3153896685
 20
1.5382655914
 30
0.0
 10
5.3168102447
 20
1.5384923764
 30
0.0
 10
5.3189251244
 20
1.5387687944
 30
0.0
 10
5.321871247
 20
1.5390860721
 30
0.0
 10
5.3253604914
 20
1.5394043507
 30
0.0
 10
5.3293905272
 20
1.5397232583
 30
0.0
 10
5.3339542637
 20
1.5400428954
 30
0.0
 10
5.3410737426
 20
1.5404907374
 30
0.0
 10
5.3512244937
 20
1.5410403131
 30
0.0
 10
5.364854659
 20
1.5416759007
 30
0.0
 10
5.3745842078
 20
1.5420757273
 30
0.0
 10
5.3797598384
 20
1.542278246
 30
0.0
  0
SPLINE
  5
2E1
100
AcDbEntity
  8
0
100
AcDbSpline
 62
7
  6
CONTINUOUS
 70
0
 71
3
 72
11
 73
7
 74
0
 42
0.0000001
 43
0.0000001
 44
0.0000000001
 40
0.0
 40
0.0
 40
0.0
 40
0.0
 40
0.2162128161
 40
0.4608214292
 40
0.7249269597
 40
1.0
 40
1.0
 40
1.0
 40
1.0
 10
5.4456248666
 20
1.5444719614
 30
0.0
 10
5.4660488738
 20
1.5450689127
 30
0.0
 10
5.5095825529
 20
1.546227203
 30
0.0
 10
5.5780711678
 20
1.5478444727
 30
0.0
 10
5.6521235245
 20
1.5494679965
 30
0.0
 10
5.7030661175
 20
1.5505421641
 30
0.0
 10
5.7290555649
 20
1.5510884774
 30
0.0
  0
SPLINE
  5
2E2
100
AcDbEntity
  8
0
100
AcDbSpline
 62
7
  6
CONTINUOUS
 70
0
 71
3
 72
11
 73
7
 74
0
 42
0.0000001
 43
0.0000001
 44
0.0000000001
 40
0.0
 40
0.0
 40
0.0
 40
0.0
 40
0.2755324504
 40
0.53971707
 40
0.7839362986
 40
1.0
 40
1.0
 40
1.0
 40
1.0
 10
5.7643878187
 20
1.5518308667
 30
0.0
 10
5.790909418
 20
1.5523884977
 30
0.0
 10
5.8428602296
 20
1.5534851812
 30
0.0
 10
5.9183171576
 20
1.5551424865
 30
0.0
 10
5.9880472964
 20
1.5567923398
 30
0.0
 10
6.0323464734
 20
1.5579709536
 30
0.0
 10
6.0531394839
 20
1.5585818726
 30
0.0
  0
SPLINE
  5
2E3
100
AcDbEntity
  8
0
100
AcDbSpline
 62
7
  6
CONTINUOUS
 70
0
 71
3
 72
11
 73
7
 74
0
 42
0.0000001
 43
0.0000001
 44
0.0000000001
 40
0.0
 40
0.0
 40
0.0
 40
0.0
 40
0.3001600877
 40
0.5675979066
 40
0.8012532963
 40
1.0
 40
1.0
 40
1.0
 40
1.0
 10
6.077766315
 20
1.5593375689
 30
0.0
 10
6.0852254772
 20
1.5595774565
 30
0.0
 10
6.0993299728
 20
1.5600521078
 30
0.0
 10
6.119237847
 20
1.5608023581
 30
0.0
 10
6.1366222852
 20
1.5615504287
 30
0.0
 10
6.1473598859
 20
1.5620909539
 30
0.0
 10
6.1522936103
 20
1.5623686062
 30
0.0
  0
LINE
  5
2E4
100
AcDbEntity
  8
0
100
AcDbLine
 62
7
  6
CONTINUOUS
 10
6.1522936103
 20
1.5623686062
 11
6.1736997655
 21
1.563886106
  0
SPLINE
  5
2E5
100
AcDbEntity
  8
0
100
AcDbSpline
 62
7
  6
CONTINUOUS
 70
0
 71
3
 72
13
 73
9
 74
0
 42
0.0000001
 43
0.0000001
 44
0.0000000001
 40
0.0
 40
0.0
 40
0.0
 40
0.0
 40
0.3629695881
 40
0.6506775611
 40
0.7662142521
 40
0.8628681181
 40
0.9407174949
 40
1.0
 40
1.0
 40
1.0
 40
1.0
 10
6.1736997655
 20
1.563886106
 30
0.0
 10
6.1748815261
 20
1.5640003714
 30
0.0
 10
6.1769984216
 20
1.5642218194
 30
0.0
 10
6.1794843717
 20
1.5645455338
 30
0.0
 10
6.1810974106
 20
1.5648145105
 30
0.0
 10
6.1820280553
 20
1.5650004731
 30
0.0
 10
6.1827702196
 20
1.5651853951
 30
0.0
 10
6.1831975109
 20
1.5653254567
 30
0.0
 10
6.1833763674
 20
1.5654003737
 30
0.0
  0
SPLINE
  5
2E6
100
AcDbEntity
  8
0
100
AcDbSpline
 62
7
  6
CONTINUOUS
 70
0
 71
3
 72
12
 73
8
 74
0
 42
0.0000001
 43
0.0000001
 44
0.0000000001
 40
0.0
 40
0.0
 40
0.0
 40
0.0
 40
0.0593998699
 40
0.1369390452
 40
0.3482436641
 40
0.635780461
 40
1.0
 40
1.0
 40
1.0
 40
1.0
 10
5.28096085
 20
1.5547699321
 30
0.0
 10
5.2810531819
 20
1.5547161688
 30
0.0
 10
5.2812786338
 20
1.5546143983
 30
0.0
 10
5.2818724063
 20
1.5544139806
 30
0.0
 10
5.2828842048
 20
1.5541792555
 30
0.0
 10
5.2844133141
 20
1.5539116813
 30
0.0
 10
5.2855749467
 20
1.553751137
 30
0.0
 10
5.2862247912
 20
1.5536680714
 30
0.0
  0
SPLINE
  5
2E7
100
AcDbEntity
  8
0
100
AcDbSpline
 62
7
  6
CONTINUOUS
 70
0
 71
3
 72
12
 73
8
 74
0
 42
0.0000001
 43
0.0000001
 44
0.0000000001
 40
0.0
 40
0.0
 40
0.0
 40
0.0
 40
0.0582016056
 40
0.1349018927
 40
0.3455715171
 40
0.6338029968
 40
1.0
 40
1.0
 40
1.0
 40
1.0
 10
6.2148315153
 20
1.5260459284
 30
0.0
 10
6.2147427029
 20
1.525993365
 30
0.0
 10
6.214524079
 20
1.525893716
 30
0.0
 10
6.2139438945
 20
1.5256958043
 30
0.0
 10
6.2129485723
 20
1.5254614504
 30
0.0
 10
6.2114386478
 20
1.5251913983
 30
0.0
 10
6.2102893923
 20
1.5250283565
 30
0.0
 10
6.2096455877
 20
1.5249438235
 30
0.0
  0
SPLINE
  5
2E8
100
AcDbEntity
  8
0
100
AcDbSpline
 62
7
  6
CONTINUOUS
 70
0
 71
3
 72
17
 73
13
 74
0
 42
0.0000001
 43
0.0000001
 44
0.0000000001
 40
0.0
 40
0.0
 40
0.0
 40
0.0
 40
0.0247390358
 40
0.0548100225
 40
0.090190007
 40
0.1308233036
 40
0.2275860103
 40
0.3445617991
 40
0.4811512038
 40
0.6365236261
 40
0.8097856176
 40
1.0
 40
1.0
 40
1.0
 40
1.0
 10
6.2096455877
 20
1.5249438235
 30
0.0
 10
6.2086416275
 20
1.5248120011
 30
0.0
 10
6.2064125093
 20
1.5245567668
 30
0.0
 10
6.202737264
 20
1.5242092792
 30
0.0
 10
6.1984088716
 20
1.5238633774
 30
0.0
 10
6.1913538943
 20
1.5233748531
 30
0.0
 10
6.1809588031
 20
1.5227841484
 30
0.0
 10
6.1666357085
 20
1.5221059918
 30
0.0
 10
6.1499116012
 20
1.5214227334
 30
0.0
 10
6.1308821809
 20
1.5207355304
 30
0.0
 10
6.1096566581
 20
1.5200465251
 30
0.0
 10
6.09478592
 20
1.5196068886
 30
0.0
 10
6.0870035333
 20
1.5193852476
 30
0.0
  0
LINE
  5
2E9
100
AcDbEntity
  8
0
100
AcDbLine
 62
7
  6
CONTINUOUS
 10
6.0870035333
 20
1.5193852476
 11
6.0858163175
 21
1.519351502
  0
LINE
  5
2EA
100
AcDbEntity
  8
0
100
AcDbLine
 62
7
  6
CONTINUOUS
 10
6.0602739123
 20
1.5186541769
 11
6.0583224844
 21
1.5186029123
  0
SPLINE
  5
2EB
100
AcDbEntity
  8
0
100
AcDbSpline
 62
7
  6
CONTINUOUS
 70
0
 71
3
 72
11
 73
7
 74
0
 42
0.0000001
 43
0.0000001
 44
0.0000000001
 40
0.0
 40
0.0
 40
0.0
 40
0.0
 40
0.220197994
 40
0.4650525172
 40
0.7275112066
 40
1.0
 40
1.0
 40
1.0
 40
1.0
 10
6.0583224844
 20
1.5186029123
 30
0.0
 10
6.0371328798
 20
1.518047646
 30
0.0
 10
5.9923785922
 20
1.5169661344
 30
0.0
 10
5.9223629868
 20
1.5154370115
 30
0.0
 10
5.8473126667
 20
1.5139051216
 30
0.0
 10
5.79582709
 20
1.5128916494
 30
0.0
 10
5.7696015936
 20
1.512377379
 30
0.0
  0
SPLINE
  5
2EC
100
AcDbEntity
  8
0
100
AcDbSpline
 62
7
  6
CONTINUOUS
 70
0
 71
3
 72
11
 73
7
 74
0
 42
0.0000001
 43
0.0000001
 44
0.0000000001
 40
0.0
 40
0.0
 40
0.0
 40
0.0
 40
0.2715938233
 40
0.533829267
 40
0.7790300893
 40
1.0
 40
1.0
 40
1.0
 40
1.0
 10
5.7340063188
 20
1.5116799456
 30
0.0
 10
5.7075125768
 20
1.5111607707
 30
0.0
 10
5.6554380383
 20
1.510138081
 30
0.0
 10
5.579445434
 20
1.5085927105
 30
0.0
 10
5.5083930783
 20
1.5070522825
 30
0.0
 10
5.4629227219
 20
1.5059641608
 30
0.0
 10
5.4413704665
 20
1.5054029283
 30
0.0
  0
LINE
  5
2ED
100
AcDbEntity
  8
0
100
AcDbLine
 62
7
  6
CONTINUOUS
 10
5.4413704665
 20
1.5054029283
 11
5.4375015541
 21
1.505301665
  0
LINE
  5
2EE
100
AcDbEntity
  8
0
100
AcDbLine
 62
7
  6
CONTINUOUS
 10
5.4375015541
 20
1.505301665
 11
5.4154150061
 21
1.5047025125
  0
SPLINE
  5
2EF
100
AcDbEntity
  8
0
100
AcDbSpline
 62
7
  6
CONTINUOUS
 70
0
 71
3
 72
11
 73
7
 74
0
 42
0.0000001
 43
0.0000001
 44
0.0000000001
 40
0.0
 40
0.0
 40
0.0
 40
0.0
 40
0.302430302
 40
0.5715534948
 40
0.8048435661
 40
1.0
 40
1.0
 40
1.0
 40
1.0
 10
5.4154150061
 20
1.5047025125
 30
0.0
 10
5.4055115486
 20
1.5044252376
 30
0.0
 10
5.3867959645
 20
1.5038777921
 30
0.0
 10
5.3604437165
 20
1.5030260905
 30
0.0
 10
5.337607395
 20
1.5021851728
 30
0.0
 10
5.3235855927
 20
1.5015562527
 30
0.0
 10
5.3172013756
 20
1.5012184986
 30
0.0
  0
SPLINE
  5
2F0
100
AcDbEntity
  8
0
100
AcDbSpline
 62
7
  6
CONTINUOUS
 70
0
 71
3
 72
11
 73
7
 74
0
 42
0.0000001
 43
0.0000001
 44
0.0000000001
 40
0.0
 40
0.0
 40
0.0
 40
0.0
 40
0.1551899769
 40
0.3726469896
 40
0.6540270466
 40
1.0
 40
1.0
 40
1.0
 40
1.0
 10
5.2809785734
 20
1.5625843693
 30
0.0
 10
5.2811186791
 20
1.5626637296
 30
0.0
 10
5.2814802478
 20
1.5628074983
 30
0.0
 10
5.2821327117
 20
1.5629935344
 30
0.0
 10
5.2829895516
 20
1.5631814038
 30
0.0
 10
5.2836303767
 20
1.5632958306
 30
0.0
 10
5.2839845225
 20
1.5633544951
 30
0.0
  0
LINE
  5
2F1
100
AcDbEntity
  8
0
100
AcDbLine
 62
7
  6
CONTINUOUS
 10
5.2839845225
 20
1.5633544951
 11
5.2898371525
 21
1.5640819199
  0
SPLINE
  5
2F2
100
AcDbEntity
  8
0
100
AcDbSpline
 62
7
  6
CONTINUOUS
 70
0
 71
3
 72
11
 73
7
 74
0
 42
0.0000001
 43
0.0000001
 44
0.0000000001
 40
0.0
 40
0.0
 40
0.0
 40
0.0
 40
0.1810145284
 40
0.4085411901
 40
0.6818027173
 40
1.0
 40
1.0
 40
1.0
 40
1.0
 10
5.2898371525
 20
1.5640819199
 30
0.0
 10
5.2919701916
 20
1.56429412
 30
0.0
 10
5.2967918413
 20
1.5646968412
 30
0.0
 10
5.304847602
 20
1.5652393735
 30
0.0
 10
5.3145307716
 20
1.5657855913
 30
0.0
 10
5.3215265575
 20
1.5661264294
 30
0.0
 10
5.3252906502
 20
1.5662997744
 30
0.0
  0
SPLINE
  5
2F3
100
AcDbEntity
  8
0
100
AcDbSpline
 62
7
  6
CONTINUOUS
 70
0
 71
3
 72
13
 73
9
 74
0
 42
0.0000001
 43
0.0000001
 44
0.0000000001
 40
0.0
 40
0.0
 40
0.0
 40
0.0
 40
0.0580905922
 40
0.1347187164
 40
0.2304052088
 40
0.3453928486
 40
0.6336778511
 40
1.0
 40
1.0
 40
1.0
 40
1.0
 10
6.2148091589
 20
1.5338204021
 30
0.0
 10
6.2147122438
 20
1.533876337
 30
0.0
 10
6.2144738871
 20
1.5339818005
 30
0.0
 10
6.2140523616
 20
1.5341211825
 30
0.0
 10
6.2135168081
 20
1.5342619829
 30
0.0
 10
6.2125776094
 20
1.5344668389
 30
0.0
 10
6.2111152602
 20
1.5347142073
 30
0.0
 10
6.2098655685
 20
1.5348829977
 30
0.0
 10
6.2091653368
 20
1.5349701674
 30
0.0
  0
LINE
  5
2F4
100
AcDbEntity
  8
0
100
AcDbLine
 62
7
  6
CONTINUOUS
 10
5.2810782697
 20
1.5618988714
 11
5.2806987268
 21
1.5622687947
  0
SPLINE
  5
2F5
100
AcDbEntity
  8
0
100
AcDbSpline
 62
7
  6
CONTINUOUS
 70
0
 71
3
 72
13
 73
9
 74
0
 42
0.0000001
 43
0.0000001
 44
0.0000000001
 40
0.0
 40
0.0
 40
0.0
 40
0.0
 40
0.0586766778
 40
0.1357199976
 40
0.2316515364
 40
0.3467168691
 40
0.634664205
 40
1.0
 40
1.0
 40
1.0
 40
1.0
 10
5.28097722
 20
1.5050885258
 30
0.0
 10
5.2810777772
 20
1.5051457435
 30
0.0
 10
5.2813239974
 20
1.5052534618
 30
0.0
 10
5.2817583472
 20
1.5053953063
 30
0.0
 10
5.2823084535
 20
1.5055378677
 30
0.0
 10
5.283270523
 20
1.5057442258
 30
0.0
 10
5.2847658066
 20
1.5059920394
 30
0.0
 10
5.2860429404
 20
1.5061605405
 30
0.0
 10
5.2867580317
 20
1.5062474563
 30
0.0
  0
SPLINE
  5
2F6
100
AcDbEntity
  8
0
100
AcDbSpline
 62
7
  6
CONTINUOUS
 70
0
 71
3
 72
11
 73
7
 74
0
 42
0.0000001
 43
0.0000001
 44
0.0000000001
 40
0.0
 40
0.0
 40
0.0
 40
0.0
 40
0.1716548244
 40
0.3961228985
 40
0.6726110194
 40
1.0
 40
1.0
 40
1.0
 40
1.0
 10
5.2867580317
 20
1.5062474563
 30
0.0
 10
5.2885424094
 20
1.5064643387
 30
0.0
 10
5.292671705
 20
1.5068676472
 30
0.0
 10
5.2996946708
 20
1.507404466
 30
0.0
 10
5.3083521176
 20
1.5079465137
 30
0.0
 10
5.3146668222
 20
1.5082826557
 30
0.0
 10
5.3180908419
 20
1.5084539983
 30
0.0
  0
SPLINE
  5
2F7
100
AcDbEntity
  8
0
100
AcDbSpline
 62
7
  6
CONTINUOUS
 70
0
 71
3
 72
10
 73
6
 74
0
 42
0.0000001
 43
0.0000001
 44
0.0000000001
 40
0.0
 40
0.0
 40
0.0
 40
0.0
 40
0.20568404
 40
0.4417550129
 40
1.0
 40
1.0
 40
1.0
 40
1.0
 10
5.3180908419
 20
1.5084539983
 30
0.0
 10
5.3227358235
 20
1.5086864395
 30
0.0
 10
5.3327141696
 20
1.509142801
 30
0.0
 10
5.3553076133
 20
1.5100442739
 30
0.0
 10
5.3732584911
 20
1.5106401016
 30
0.0
 10
5.3858751102
 20
1.5110309883
 30
0.0
  0
LINE
  5
2F8
100
AcDbEntity
  8
0
100
AcDbLine
 62
7
  6
CONTINUOUS
 10
5.4085252365
 20
1.51170307
 11
5.424269377
 21
1.5121408138
  0
LINE
  5
2F9
100
AcDbEntity
  8
0
100
AcDbLine
 62
7
  6
CONTINUOUS
 10
5.424269377
 20
1.5121408138
 11
5.4371708235
 21
1.5124850596
  0
LINE
  5
2FA
100
AcDbEntity
  8
0
100
AcDbLine
 62
7
  6
CONTINUOUS
 10
5.4371708235
 20
1.5124850596
 11
5.4409655363
 21
1.5125841265
  0
LINE
  5
2FB
100
AcDbEntity
  8
0
100
AcDbLine
 62
7
  6
CONTINUOUS
 10
5.4409655363
 20
1.5125841265
 11
5.4524318083
 21
1.5128780128
  0
SPLINE
  5
2FC
100
AcDbEntity
  8
0
100
AcDbSpline
 62
7
  6
CONTINUOUS
 70
0
 71
3
 72
10
 73
6
 74
0
 42
0.0000001
 43
0.0000001
 44
0.0000000001
 40
0.0
 40
0.0
 40
0.0
 40
0.0
 40
0.5308103139
 40
0.7763336694
 40
1.0
 40
1.0
 40
1.0
 40
1.0
 10
5.7667140798
 20
1.5195126503
 30
0.0
 10
5.815665608
 20
1.5204722997
 30
0.0
 10
5.8872593327
 20
1.5218809873
 30
0.0
 10
5.9794760483
 20
1.5238682758
 30
0.0
 10
6.0227412497
 20
1.524888429
 30
0.0
 10
6.0433652137
 20
1.5254099554
 30
0.0
  0
SPLINE
  5
2FD
100
AcDbEntity
  8
0
100
AcDbSpline
 62
7
  6
CONTINUOUS
 70
0
 71
3
 72
11
 73
7
 74
0
 42
0.0000001
 43
0.0000001
 44
0.0000000001
 40
0.0
 40
0.0
 40
0.0
 40
0.0
 40
0.2996637592
 40
0.5675578854
 40
0.8016467835
 40
1.0
 40
1.0
 40
1.0
 40
1.0
 10
6.0878364687
 20
1.526601114
 30
0.0
 10
6.0968143013
 20
1.5268575271
 30
0.0
 10
6.1138175585
 20
1.5273646554
 30
0.0
 10
6.1378312047
 20
1.5281641334
 30
0.0
 10
6.1588065941
 20
1.5289600846
 30
0.0
 10
6.1717551073
 20
1.5295356119
 30
0.0
 10
6.1776927426
 20
1.5298319125
 30
0.0
  0
LINE
  5
2FE
100
AcDbEntity
  8
0
100
AcDbLine
 62
7
  6
CONTINUOUS
 10
6.1827269885
 20
1.5300918879
 11
6.201499418
 21
1.5313074311
  0
SPLINE
  5
2FF
100
AcDbEntity
  8
0
100
AcDbSpline
 62
7
  6
CONTINUOUS
 70
0
 71
3
 72
12
 73
8
 74
0
 42
0.0000001
 43
0.0000001
 44
0.0000000001
 40
0.0
 40
0.0
 40
0.0
 40
0.0
 40
0.3412594678
 40
0.6217396172
 40
0.8412966785
 40
0.9282377678
 40
1.0
 40
1.0
 40
1.0
 40
1.0
 10
6.201499418
 20
1.5313074311
 30
0.0
 10
6.2028768107
 20
1.5314207839
 30
0.0
 10
6.2053851527
 20
1.5316423339
 30
0.0
 10
6.2087729884
 20
1.5320055804
 30
0.0
 10
6.2111296084
 20
1.5323230561
 30
0.0
 10
6.2126388174
 20
1.5325866763
 30
0.0
 10
6.2132679219
 20
1.5327195868
 30
0.0
 10
6.2135503628
 20
1.5327880753
 30
0.0
  0
SPLINE
  5
300
100
AcDbEntity
  8
0
100
AcDbSpline
 62
7
  6
CONTINUOUS
 70
0
 71
3
 72
14
 73
10
 74
0
 42
0.0000001
 43
0.0000001
 44
0.0000000001
 40
0.0
 40
0.0
 40
0.0
 40
0.0
 40
0.3944973836
 40
0.5529344165
 40
0.6860461962
 40
0.7946651013
 40
0.8803718329
 40
0.9464541555
 40
1.0
 40
1.0
 40
1.0
 40
1.0
 10
6.2135503628
 20
1.5327880753
 30
0.0
 10
6.2137738494
 20
1.5328422681
 30
0.0
 10
6.2140857566
 20
1.5329251532
 30
0.0
 10
6.2144639482
 20
1.5330557368
 30
0.0
 10
6.2146792809
 20
1.5331459646
 30
0.0
 10
6.2148482227
 20
1.533235707
 30
0.0
 10
6.2149713623
 20
1.5333256192
 30
0.0
 10
6.2150508617
 20
1.5334175317
 30
0.0
 10
6.2150718168
 20
1.5334874926
 30
0.0
 10
6.2150718168
 20
1.5335187059
 30
0.0
  0
LINE
  5
301
100
AcDbEntity
  8
0
100
AcDbLine
 62
7
  6
CONTINUOUS
 10
5.3172013756
 20
1.5012184986
 11
5.3028943505
 21
1.5004063641
  0
SPLINE
  5
302
100
AcDbEntity
  8
0
100
AcDbSpline
 62
7
  6
CONTINUOUS
 70
0
 71
3
 72
10
 73
6
 74
0
 42
0.0000001
 43
0.0000001
 44
0.0000000001
 40
0.0
 40
0.0
 40
0.0
 40
0.0
 40
0.5294707066
 40
0.774587376
 40
1.0
 40
1.0
 40
1.0
 40
1.0
 10
5.6967287924
 20
1.5684477689
 30
0.0
 10
5.6542305384
 20
1.5675979135
 30
0.0
 10
5.5920574535
 20
1.5663732689
 30
0.0
 10
5.5117949392
 20
1.5646218036
 30
0.0
 10
5.4740306317
 20
1.5637281438
 30
0.0
 10
5.4559398432
 20
1.5632741557
 30
0.0
  0
LINE
  5
303
100
AcDbEntity
  8
0
100
AcDbLine
 62
7
  6
CONTINUOUS
 10
5.4559398432
 20
1.5632741557
 11
5.4373774228
 21
1.5627983326
  0
LINE
  5
304
100
AcDbEntity
  8
0
100
AcDbLine
 62
7
  6
CONTINUOUS
 10
5.4373774228
 20
1.5627983326
 11
5.4274714504
 21
1.5625353297
  0
SPLINE
  5
305
100
AcDbEntity
  8
0
100
AcDbSpline
 62
7
  6
CONTINUOUS
 70
0
 71
3
 72
10
 73
6
 74
0
 42
0.0000001
 43
0.0000001
 44
0.0000000001
 40
0.0
 40
0.0
 40
0.0
 40
0.0
 40
0.5661022997
 40
0.7998746519
 40
1.0
 40
1.0
 40
1.0
 40
1.0
 10
5.3253608311
 20
1.5591109284
 30
0.0
 10
5.3196652467
 20
1.5588493776
 30
0.0
 10
5.3116188257
 20
1.5584496916
 30
0.0
 10
5.3015659591
 20
1.5578333366
 30
0.0
 10
5.2972068544
 20
1.5575220726
 30
0.0
 10
5.2951975588
 20
1.5573628636
 30
0.0
  0
SPLINE
  5
306
100
AcDbEntity
  8
0
100
AcDbSpline
 62
7
  6
CONTINUOUS
 70
0
 71
3
 72
12
 73
8
 74
0
 42
0.0000001
 43
0.0000001
 44
0.0000000001
 40
0.0
 40
0.0
 40
0.0
 40
0.0
 40
0.3373052595
 40
0.6164909651
 40
0.8373876763
 40
0.9259689164
 40
1.0
 40
1.0
 40
1.0
 40
1.0
 10
5.2951975588
 20
1.5573628636
 30
0.0
 10
5.2937662589
 20
1.5572494528
 30
0.0
 10
5.2911513292
 20
1.5570277401
 30
0.0
 10
5.2876051947
 20
1.5566655647
 30
0.0
 10
5.2851189259
 20
1.5563488699
 30
0.0
 10
5.2835076268
 20
1.5560859918
 30
0.0
 10
5.2828280778
 20
1.5559532186
 30
0.0
 10
5.2825204371
 20
1.5558849548
 30
0.0
  0
SPLINE
  5
307
100
AcDbEntity
  8
0
100
AcDbSpline
 62
7
  6
CONTINUOUS
 70
0
 71
3
 72
14
 73
10
 74
0
 42
0.0000001
 43
0.0000001
 44
0.0000000001
 40
0.0
 40
0.0
 40
0.0
 40
0.0
 40
0.3985490667
 40
0.5581593643
 40
0.691812722
 40
0.8002640931
 40
0.8849833879
 40
0.9491447358
 40
1.0
 40
1.0
 40
1.0
 40
1.0
 10
5.2825204371
 20
1.5558849548
 30
0.0
 10
5.2822528267
 20
1.5558255735
 30
0.0
 10
5.2818793933
 20
1.5557347092
 30
0.0
 10
5.2814256538
 20
1.5555907567
 30
0.0
 10
5.281167684
 20
1.555491226
 30
0.0
 10
5.2809653744
 20
1.5553921377
 30
0.0
 10
5.2808181072
 20
1.5552927109
 30
0.0
 10
5.2807225302
 20
1.5551910684
 30
0.0
 10
5.2806968197
 20
1.5551118089
 30
0.0
 10
5.2806968816
 20
1.555076831
 30
0.0
  0
SPLINE
  5
308
100
AcDbEntity
  8
0
100
AcDbSpline
 62
7
  6
CONTINUOUS
 70
0
 71
3
 72
20
 73
16
 74
0
 42
0.0000001
 43
0.0000001
 44
0.0000000001
 40
0.0
 40
0.0
 40
0.0
 40
0.0
 40
0.2053945106
 40
0.38975736
 40
0.5521679668
 40
0.6915957727
 40
0.7523620338
 40
0.806988455
 40
0.8553512324
 40
0.8973505107
 40
0.9328941862
 40
0.9618951568
 40
0.9842774323
 40
0.9929714235
 40
1.0
 40
1.0
 40
1.0
 40
1.0
 10
6.0748948606
 20
1.5017483023
 30
0.0
 10
6.0822890684
 20
1.5019839635
 30
0.0
 10
6.0963197362
 20
1.5024506507
 30
0.0
 10
6.1161943738
 20
1.5031854626
 30
0.0
 10
6.1336912844
 20
1.5039175568
 30
0.0
 10
6.1467365448
 20
1.504549944
 30
0.0
 10
6.1559003223
 20
1.505065161
 30
0.0
 10
6.1617870646
 20
1.505433258
 30
0.0
 10
6.1669964347
 20
1.5058008027
 30
0.0
 10
6.1715165766
 20
1.5061674996
 30
0.0
 10
6.1753370012
 20
1.5065321788
 30
0.0
 10
6.1784470108
 20
1.5068947603
 30
0.0
 10
6.1805884797
 20
1.5072121927
 30
0.0
 10
6.1819351101
 20
1.5074783351
 30
0.0
 10
6.1824855713
 20
1.5076130925
 30
0.0
 10
6.1827288184
 20
1.5076832319
 30
0.0
  0
LINE
  5
309
100
AcDbEntity
  8
0
100
AcDbLine
 62
7
  6
CONTINUOUS
 10
6.1827288184
 20
1.5076832319
 11
6.18363473
 21
1.5080466855
  0
LINE
  5
30A
100
AcDbEntity
  8
0
100
AcDbLine
 62
7
  6
CONTINUOUS
 10
6.1821702028
 20
1.5522854055
 11
6.1835870182
 21
1.5518142955
  0
SPLINE
  5
30B
100
AcDbEntity
  8
0
100
AcDbSpline
 62
9
  6
CONTINUOUS
 70
0
 71
3
 72
46
 73
42
 74
0
 42
0.0000001
 43
0.0000001
 44
0.0000000001
 40
0.0
 40
0.0
 40
0.0
 40
0.0
 40
0.0000159167
 40
0.0000358112
 40
0.0000636617
 40
0.000143227
 40
0.000254604
 40
0.0003977847
 40
0.0005727605
 40
0.0007795234
 40
0.001018065
 40
0.0015904513
 40
0.0022898532
 40
0.0031162048
 40
0.0040694401
 40
0.0051494931
 40
0.006356298
 40
0.0091499005
 40
0.0124497225
 40
0.0162552398
 40
0.0205659293
 40
0.0253812691
 40
0.0307007385
 40
0.0365238178
 40
0.049678732
 40
0.0648418783
 40
0.0820088372
 40
0.1011706716
 40
0.1223150161
 40
0.1454295232
 40
0.1705019634
 40
0.1975202322
 40
0.2573463807
 40
0.3248124001
 40
0.3998021184
 40
0.4821849413
 40
0.5718342012
 40
0.6686268267
 40
0.7723986446
 40
0.8829291918
 40
1.0
 40
1.0
 40
1.0
 40
1.0
 10
6.3633735961
 20
0.3141688402
 30
0.0
 10
6.3633742319
 20
0.3141704596
 30
0.0
 10
6.3633665859
 20
0.3141674485
 30
0.0
 10
6.3633615794
 20
0.3141683914
 30
0.0
 10
6.3633465929
 20
0.3141666314
 30
0.0
 10
6.3633235556
 20
0.3141656039
 30
0.0
 10
6.3632867239
 20
0.314162832
 30
0.0
 10
6.363240038
 20
0.3141597652
 30
0.0
 10
6.3631827391
 20
0.3141558499
 30
0.0
 10
6.3631151149
 20
0.3141513001
 30
0.0
 10
6.3630041232
 20
0.3141438297
 30
0.0
 10
6.3628394166
 20
0.3141328109
 30
0.0
 10
6.3626105919
 20
0.3141175936
 30
0.0
 10
6.3623402271
 20
0.314099731
 30
0.0
 10
6.3620283377
 20
0.3140792572
 30
0.0
 10
6.3616749443
 20
0.3140562101
 30
0.0
 10
6.3611208086
 20
0.3140203085
 30
0.0
 10
6.3603245239
 20
0.3139692532
 30
0.0
 10
6.359244722
 20
0.313900941
 30
0.0
 10
6.3579993656
 20
0.3138232217
 30
0.0
 10
6.3565886091
 20
0.3137363905
 30
0.0
 10
6.3550126066
 20
0.3136407434
 30
0.0
 10
6.3532715127
 20
0.3135365751
 30
0.0
 10
6.3506203896
 20
0.3133802491
 30
0.0
 10
6.3468949202
 20
0.3131655679
 30
0.0
 10
6.3419311234
 20
0.3128881473
 30
0.0
 10
6.3363112718
 20
0.3125834805
 30
0.0
 10
6.330037928
 20
0.3122565765
 30
0.0
 10
6.3231144606
 20
0.3119141602
 30
0.0
 10
6.3155446571
 20
0.3115625399
 30
0.0
 10
6.3073323051
 20
0.3112081864
 30
0.0
 10
6.295109291
 20
0.3107238894
 30
0.0
 10
6.2782525282
 20
0.310153609
 30
0.0
 10
6.2561501435
 20
0.3095814994
 30
0.0
 10
6.2315782987
 20
0.3091653707
 30
0.0
 10
6.2045788031
 20
0.3089798528
 30
0.0
 10
6.1751957131
 20
0.3090974426
 30
0.0
 10
6.1434782688
 20
0.3095906966
 30
0.0
 10
6.1094875872
 20
0.3105347707
 30
0.0
 10
6.0732973417
 20
0.31201016
 30
0.0
 10
6.0484562075
 20
0.3133628704
 30
0.0
 10
6.0356843819
 20
0.3141476202
 30
0.0
  0
SPLINE
  5
30C
100
AcDbEntity
  8
0
100
AcDbSpline
 62
9
  6
CONTINUOUS
 70
0
 71
3
 72
29
 73
25
 74
0
 42
0.0000001
 43
0.0000001
 44
0.0000000001
 40
0.0
 40
0.0
 40
0.0
 40
0.0
 40
0.0002561466
 40
0.0010241704
 40
0.002303465
 40
0.0040934258
 40
0.006393449
 40
0.0092029326
 40
0.0163478779
 40
0.0255234708
 40
0.0367249417
 40
0.0499475421
 40
0.0651865455
 40
0.0824357695
 40
0.1016831796
 40
0.146119043
 40
0.1983886708
 40
0.2583889909
 40
0.3260103175
 40
0.4011096559
 40
0.483539708
 40
0.5731585438
 40
0.7733084025
 40
1.0
 40
1.0
 40
1.0
 40
1.0
 10
5.1645353584
 20
0.2719029882
 30
0.0
 10
5.1645658048
 20
0.2719015235
 30
0.0
 10
5.1646872242
 20
0.2718905043
 30
0.0
 10
5.1649607163
 20
0.2718722999
 30
0.0
 10
5.1654160855
 20
0.2718380979
 30
0.0
 10
5.1660534217
 20
0.2717928222
 30
0.0
 10
5.166872396
 20
0.2717345864
 30
0.0
 10
5.1683271331
 20
0.2716329121
 30
0.0
 10
5.1705982974
 20
0.2714773633
 30
0.0
 10
5.1738661902
 20
0.2712596725
 30
0.0
 10
5.177856211
 20
0.2710012544
 30
0.0
 10
5.1825668332
 20
0.2707049816
 30
0.0
 10
5.1879963481
 20
0.2703736365
 30
0.0
 10
5.1941421904
 20
0.2700102824
 30
0.0
 10
5.2037578642
 20
0.2694667919
 30
0.0
 10
5.2175380752
 20
0.2687551474
 30
0.0
 10
5.2361682225
 20
0.2679331519
 30
0.0
 10
5.2575619406
 20
0.267167347
 30
0.0
 10
5.2816775314
 20
0.2665200299
 30
0.0
 10
5.3084674658
 20
0.2660778766
 30
0.0
 10
5.3378785631
 20
0.265926881
 30
0.0
 10
5.3821703051
 20
0.2662406752
 30
0.0
 10
5.443614499
 20
0.2679138978
 30
0.0
 10
5.4943374471
 20
0.2707793262
 30
0.0
 10
5.521244701
 20
0.2727098763
 30
0.0
  0
SPLINE
  5
30D
100
AcDbEntity
  8
0
100
AcDbSpline
 62
9
  6
CONTINUOUS
 70
0
 71
3
 72
23
 73
19
 74
0
 42
0.0000001
 43
0.0000001
 44
0.0000000001
 40
0.0
 40
0.0
 40
0.0
 40
0.0
 40
0.0481975036
 40
0.1019789907
 40
0.1606159846
 40
0.2233726984
 40
0.2895075397
 40
0.3582273508
 40
0.4286789394
 40
0.5000013612
 40
0.571323735
 40
0.6417751809
 40
0.7104947725
 40
0.776629337
 40
0.8393856781
 40
0.8980221402
 40
0.9518029885
 40
1.0
 40
1.0
 40
1.0
 40
1.0
 10
6.0047039655
 20
0.3162260942
 30
0.0
 10
5.9964667393
 20
0.3167575576
 30
0.0
 10
5.9790237496
 20
0.3176627005
 30
0.0
 10
5.9515333901
 20
0.3186451002
 30
0.0
 10
5.9215409926
 20
0.3193716579
 30
0.0
 10
5.8894285558
 20
0.3198861412
 30
0.0
 10
5.8555871086
 20
0.3202355272
 30
0.0
 10
5.8204267838
 20
0.320457083
 30
0.0
 10
5.7843775571
 20
0.3205759909
 30
0.0
 10
5.7478824489
 20
0.3206165523
 30
0.0
 10
5.7113873652
 20
0.3205759837
 30
0.0
 10
5.6753382088
 20
0.3204570647
 30
0.0
 10
5.6401779935
 20
0.3202354971
 30
0.0
 10
5.6063366952
 20
0.3198860977
 30
0.0
 10
5.5742244609
 20
0.3193715999
 30
0.0
 10
5.5442323284
 20
0.3186450147
 30
0.0
 10
5.5167422553
 20
0.3176625729
 30
0.0
 10
5.4992994606
 20
0.3167574155
 30
0.0
 10
5.4910623185
 20
0.3162259575
 30
0.0
  0
SPLINE
  5
30E
100
AcDbEntity
  8
0
100
AcDbSpline
 62
9
  6
CONTINUOUS
 70
0
 71
3
 72
15
 73
11
 74
0
 42
0.0000001
 43
0.0000001
 44
0.0000000001
 40
0.0
 40
0.0
 40
0.0
 40
0.0
 40
0.130100446
 40
0.2645020934
 40
0.4002435921
 40
0.533825045
 40
0.6621954187
 40
0.783315588
 40
0.8958456757
 40
1.0
 40
1.0
 40
1.0
 40
1.0
 10
6.0047024663
 20
0.3162261818
 30
0.0
 10
6.0045629295
 20
0.3137821008
 30
0.0
 10
6.0039681216
 20
0.308826053
 30
0.0
 10
6.0021405481
 20
0.3014980809
 30
0.0
 10
5.999297228
 20
0.2944268659
 30
0.0
 10
5.9955386169
 20
0.2879223546
 30
0.0
 10
5.9909538118
 20
0.282318577
 30
0.0
 10
5.9858003138
 20
0.2778088771
 30
0.0
 10
5.9802941594
 20
0.2745614306
 30
0.0
 10
5.9764269525
 20
0.2731784148
 30
0.0
 10
5.9745239447
 20
0.2727098677
 30
0.0
  0
SPLINE
  5
30F
100
AcDbEntity
  8
0
100
AcDbSpline
 62
9
  6
CONTINUOUS
 70
0
 71
3
 72
21
 73
17
 74
0
 42
0.0000001
 43
0.0000001
 44
0.0000000001
 40
0.0
 40
0.0
 40
0.0
 40
0.0
 40
0.0483420525
 40
0.1021779683
 40
0.1608184321
 40
0.2235657462
 40
0.2896932828
 40
0.3583754507
 40
0.4999993729
 40
0.6416235594
 40
0.7103058033
 40
0.7764331521
 40
0.839179968
 40
0.8978200693
 40
0.9516563281
 40
1.0
 40
1.0
 40
1.0
 40
1.0
 10
5.5212446756
 20
0.2727098587
 30
0.0
 10
5.5285325097
 20
0.2732327388
 30
0.0
 10
5.5439523215
 20
0.2741168897
 30
0.0
 10
5.5682411715
 20
0.2750642852
 30
0.0
 10
5.5947165254
 20
0.2757567433
 30
0.0
 10
5.6230542013
 20
0.2762445038
 30
0.0
 10
5.6529118522
 20
0.2765779422
 30
0.0
 10
5.6946920948
 20
0.2768534209
 30
0.0
 10
5.7478840608
 20
0.276933571
 30
0.0
 10
5.8010760382
 20
0.2768534086
 30
0.0
 10
5.8428563039
 20
0.2765779337
 30
0.0
 10
5.8727138627
 20
0.2762445084
 30
0.0
 10
5.9010513805
 20
0.2757567723
 30
0.0
 10
5.9275266567
 20
0.2750643314
 30
0.0
 10
5.9518157484
 20
0.2741169266
 30
0.0
 10
5.9672358558
 20
0.2732327503
 30
0.0
 10
5.9745239342
 20
0.2727098547
 30
0.0
  0
SPLINE
  5
310
100
AcDbEntity
  8
0
100
AcDbSpline
 62
9
  6
CONTINUOUS
 70
0
 71
3
 72
34
 73
30
 74
0
 42
0.0000001
 43
0.0000001
 44
0.0000000001
 40
0.0
 40
0.0
 40
0.0
 40
0.0
 40
0.2266884147
 40
0.330185658
 40
0.4268435456
 40
0.516462415
 40
0.5988921851
 40
0.6739910837
 40
0.7416119701
 40
0.8016119742
 40
0.8538814037
 40
0.8983171474
 40
0.9175645149
 40
0.9348137011
 40
0.9500526678
 40
0.9632752323
 40
0.9744766685
 40
0.9836522283
 40
0.9874788155
 40
0.9907971433
 40
0.9936066123
 40
0.9959066217
 40
0.9976965693
 40
0.9984000814
 40
0.9989758517
 40
0.9994238044
 40
0.9997438639
 40
0.9999359544
 40
1.0
 40
1.0
 40
1.0
 40
1.0
 10
5.9745239557
 20
0.2727098704
 30
0.0
 10
6.0014309573
 20
0.270779324
 30
0.0
 10
6.0406691131
 20
0.2685628505
 30
0.0
 10
6.0914359603
 20
0.2668440108
 30
0.0
 10
6.1259136077
 20
0.2661534626
 30
0.0
 10
6.1578899931
 20
0.265926857
 30
0.0
 10
6.187301125
 20
0.2660778653
 30
0.0
 10
6.2140910521
 20
0.2665200201
 30
0.0
 10
6.2382066127
 20
0.2671673439
 30
0.0
 10
6.2596003181
 20
0.2679331513
 30
0.0
 10
6.2782304775
 20
0.2687551474
 30
0.0
 10
6.2920107105
 20
0.2694667912
 30
0.0
 10
6.301626406
 20
0.2700102809
 30
0.0
 10
6.3077722631
 20
0.2703736348
 30
0.0
 10
6.3132017912
 20
0.2707049792
 30
0.0
 10
6.3179124206
 20
0.271001254
 30
0.0
 10
6.3219024544
 20
0.2712596666
 30
0.0
 10
6.3247763234
 20
0.2714511245
 30
0.0
 10
6.3267140159
 20
0.2715830718
 30
0.0
 10
6.3278957279
 20
0.2716646463
 30
0.0
 10
6.328896373
 20
0.2717346364
 30
0.0
 10
6.3297148821
 20
0.2717926811
 30
0.0
 10
6.3302849353
 20
0.2718335421
 30
0.0
 10
6.3306475562
 20
0.2718599493
 30
0.0
 10
6.3308560431
 20
0.2718749516
 30
0.0
 10
6.3310065143
 20
0.2718865711
 30
0.0
 10
6.3311408471
 20
0.2718952099
 30
0.0
 10
6.3311734559
 20
0.2718999133
 30
0.0
 10
6.3312408855
 20
0.2719025795
 30
0.0
 10
6.331233275
 20
0.2719029879
 30
0.0
  0
SPLINE
  5
311
100
AcDbEntity
  8
0
100
AcDbSpline
 62
9
  6
CONTINUOUS
 70
0
 71
3
 72
47
 73
43
 74
0
 42
0.0000001
 43
0.0000001
 44
0.0000000001
 40
0.0
 40
0.0
 40
0.0
 40
0.0
 40
0.1170726331
 40
0.2276009354
 40
0.33136255
 40
0.3806381393
 40
0.4281449799
 40
0.5177910305
 40
0.6001788847
 40
0.6751787106
 40
0.7426537771
 40
0.7735304528
 40
0.8024838728
 40
0.8295023799
 40
0.8545742195
 40
0.8776875422
 40
0.8988304057
 40
0.9179907793
 40
0.935156633
 40
0.950319187
 40
0.963473943
 40
0.9692970755
 40
0.9746166691
 40
0.9794321909
 40
0.9837431065
 40
0.9875488801
 40
0.9908489744
 40
0.9936428506
 40
0.9948497882
 40
0.9959299685
 40
0.9968833239
 40
0.9977097863
 40
0.998409288
 40
0.9989817609
 40
0.9994271367
 40
0.999602142
 40
0.9997453474
 40
0.9998567445
 40
0.9999363247
 40
0.9999641807
 40
0.9999840793
 40
1.0
 40
1.0
 40
1.0
 40
1.0
 10
5.4600715052
 20
0.3143852053
 30
0.0
 10
5.4472960206
 20
0.3136618768
 30
0.0
 10
5.4224539356
 20
0.312345603
 30
0.0
 10
5.3862705984
 20
0.3107568782
 30
0.0
 10
5.3574778671
 20
0.3098094187
 30
0.0
 10
5.3355639616
 20
0.3093148616
 30
0.0
 10
5.3151896772
 20
0.3090052091
 30
0.0
 10
5.2911935582
 20
0.3088873614
 30
0.0
 10
5.264193156
 20
0.309096673
 30
0.0
 10
5.2396197803
 20
0.3095588121
 30
0.0
 10
5.220679581
 20
0.3100803915
 30
0.0
 10
5.2067726789
 20
0.3105362826
 30
0.0
 10
5.1972864066
 20
0.3108801437
 30
0.0
 10
5.1884352967
 20
0.3112303178
 30
0.0
 10
5.1802230861
 20
0.3115814591
 30
0.0
 10
5.1726535107
 20
0.3119281056
 30
0.0
 10
5.1657303052
 20
0.3122648017
 30
0.0
 10
5.1594572007
 20
0.3125861856
 30
0.0
 10
5.1538375397
 20
0.3128866277
 30
0.0
 10
5.1488738766
 20
0.3131616505
 30
0.0
 10
5.1451484805
 20
0.3133754462
 30
0.0
 10
5.1424973833
 20
0.3135316627
 30
0.0
 10
5.1407562815
 20
0.3136359778
 30
0.0
 10
5.1391802613
 20
0.3137319552
 30
0.0
 10
5.1377694795
 20
0.3138192582
 30
0.0
 10
5.1365240924
 20
0.3138975496
 30
0.0
 10
5.1354442568
 20
0.3139664925
 30
0.0
 10
5.1346479445
 20
0.3140181115
 30
0.0
 10
5.1340937867
 20
0.3140544598
 30
0.0
 10
5.1337403763
 20
0.3140778139
 30
0.0
 10
5.1334284715
 20
0.3140985786
 30
0.0
 10
5.1331580901
 20
0.314116709
 30
0.0
 10
5.132929257
 20
0.314132171
 30
0.0
 10
5.1327419769
 20
0.3141448997
 30
0.0
 10
5.1326119223
 20
0.3141538406
 30
0.0
 10
5.1325286322
 20
0.3141595348
 30
0.0
 10
5.1324818473
 20
0.3141628655
 30
0.0
 10
5.1324452568
 20
0.3141651588
 30
0.0
 10
5.132421712
 20
0.3141673089
 30
0.0
 10
5.1324074038
 20
0.3141676221
 30
0.0
 10
5.1324012052
 20
0.314169259
 30
0.0
 10
5.1323958615
 20
0.3141673078
 30
0.0
 10
5.1323950374
 20
0.3141688404
 30
0.0
  0
ENDSEC
  0
SECTION
  2
OBJECTS
  0
DICTIONARY
  5
C
100
AcDbDictionary
280
0
281
1
  3
ACAD_GROUP
350
D
  3
ACAD_MLINESTYLE
350
17
  3
ACAD_LAYOUT
350
1A
  3
ACAD_PLOTSETTINGS
350
19
  3
ACAD_PLOTSTYLENAME
350
E
  0
DICTIONARY
  5
D
102
{ACAD_REACTORS
330
C
102
}
100
AcDbDictionary
280
0
281
1
  0
ACDBDICTIONARYWDFLT
  5
E
102
{ACAD_REACTORS
330
C
102
}
100
AcDbDictionary
281
1
  3
Normal
350
F
100
AcDbDictionaryWithDefault
340
F
  0
DICTIONARY
  5
17
102
{ACAD_REACTORS
330
C
102
}
100
AcDbDictionary
280
0
281
1
  3
Standard
350
18
  0
DICTIONARY
  5
19
102
{ACAD_REACTORS
330
C
102
}
100
AcDbDictionary
281
1
  0
DICTIONARY
  5
1A
102
{ACAD_REACTORS
330
C
102
}
100
AcDbDictionary
281
1
  3
Model
350
312
  3
Layout1
350
313
  0
ACDBPLACEHOLDER
  5
F
102
{ACAD_REACTORS
330
E
102
}
  0
MLINESTYLE
  5
18
102
{ACAD_REACTORS
330
17
102
}
100
AcDbMlineStyle
  2
STANDARD
 70
0
  3

 62
256
 51
90.0
 52
90.0
 71
2
 49
0.5
 62
256
  6
BYLAYER
 49
-0.5
 62
256
  6
BYLAYER
  0
LAYOUT
  5
312
102
{ACAD_REACTORS
330
1A
102
}
100
AcDbPlotSettings
  1

  2
none_device
  4
ANSI_A_(11.00_x_8.50_Inches)
  6

 40
0.0
 41
0.0
 42
0.0
 43
0.0
 44
279.4
 45
215.9
 46
0.0
 47
0.0
 48
0.0
 49
0.0
140
0.0
141
0.0
142
1.0
143
1.0
 70
1024
 72
0
 73
0
 74
0
  7

 75
0
147
1.0
148
0.0
149
0.0
100
AcDbLayout
  1
Model
 70
0
 71
0
 10
0.0
 20
0.0
 11
11.0
 21
8.5
 12
0.0
 22
0.0
 32
0.0
 14
0.0
 24
0.0
 34
0.0
 15
0.0
 25
0.0
 35
0.0
146
0.0
 13
0.0
 23
0.0
 33
0.0
 16
1.0
 26
0.0
 36
0.0
 17
0.0
 27
1.0
 37
0.0
 76
0
330
224
345
0
346
0
  0
LAYOUT
  5
313
102
{ACAD_REACTORS
330
1A
102
}
100
AcDbPlotSettings
  1

  2
none_device
  4
ANSI_A_(11.00_x_8.50_Inches)
  6

 40
0.0
 41
0.0
 42
0.0
 43
0.0
 44
279.4
 45
215.9
 46
0.0
 47
0.0
 48
0.0
 49
0.0
140
0.0
141
0.0
142
1.0
143
1.0
 70
0
 72
0
 73
0
 74
0
  7

 75
0
147
1.0
148
0.0
149
0.0
100
AcDbLayout
  1
Layout1
 70
0
 71
1
 10
0.0
 20
0.0
 11
11.0
 21
8.5
 12
0.0
 22
0.0
 32
0.0
 14
0.0
 24
0.0
 34
0.0
 15
0.0
 25
0.0
 35
0.0
146
0.0
 13
0.0
 23
0.0
 33
0.0
 16
1.0
 26
0.0
 36
0.0
 17
0.0
 27
1.0
 37
0.0
 76
0
330
225
345
0
346
0
  0
ENDSEC
  0
EOF
