999
DXF file: 4775_top.dxf
999
Pro/ENGINEER 2018400 by Parametric Technology Corporation
  0
SECTION
  2
HEADER
  9
$ACADVER
  1
AC1027
  9
$DWGCODEPAGE
  3
ANSI_1252
  9
$EXTMAX
 10
11.0
 20
8.5
 30
0.0
  9
$EXTMIN
 10
0.0
 20
0.0
 30
0.0
  9
$LIMMIN
 10
0.0
 20
0.0
  9
$LIMMAX
 10
11.0
 20
8.5
  9
$VIEWCTR
 10
5.5
 20
4.25
  9
$VIEWSIZE
 40
8.5
  9
$CLAYER
  8
0
  9
$LTSCALE
 40
0.605
  9
$CELTYPE
  6
BYLAYER
  9
$DIMSCALE
 40
1.0
  9
$DIMASZ
 40
0.1
  9
$DIMEXO
 40
0.0625
  9
$DIMDLI
 40
0.418
  9
$DIMEXE
 40
0.125
  9
$DIMCEN
 40
0.099
  9
$DIMLFAC
 40
1.0
  9
$DIMBLK
  1
_FILLED
  9
$DIMALT
 70
1
  9
$DIMALTD
 70
1
  9
$DIMALTTD
 70
2
  9
$DIMALTF
 40
25.4
  9
$DIMTXT
 40
0.08
  9
$DIMTOL
 70
1
  9
$DIMLIM
 70
0
  9
$DIMTFAC
 40
1.0
  9
$DIMTP
 40
0.01
  9
$DIMTM
 40
0.01
  9
$DIMGAP
 40
0.09
  9
$DIMDSEP
 70
46
  9
$AUNITS
 70
0
  9
$PDMODE
 70
3
  9
$PDSIZE
 40
0.3125
  9
$HANDSEED
  5
2EB
  9
$TILEMODE
 70
1
  9
$MEASUREMENT
 70
0
  9
$INSUNITS
 70
1
  0
ENDSEC
  0
SECTION
  2
CLASSES
  0
CLASS
  1
ACDBDICTIONARYWDFLT
  2
AcDbDictionaryWithDefault
  3
AutoCAD 2000
 90
0
 91
1
280
0
281
0
  0
CLASS
  1
ACDBPLACEHOLDER
  2
AcDbPlaceHolder
  3
AutoCAD 2000
 90
0
 91
1
280
0
281
0
  0
CLASS
  1
LAYOUT
  2
AcDbLayout
  3
AutoCAD 2000
 90
0
 91
0
280
0
281
0
  0
ENDSEC
  0
SECTION
  2
TABLES
  0
TABLE
  2
VPORT
  5
8
100
AcDbSymbolTable
 70
2
  0
VPORT
  5
1F4
100
AcDbSymbolTableRecord
100
AcDbViewportTableRecord
  2
*ACTIVE
 70
0
 10
0.0
 20
0.0
 11
1.0
 21
1.0
 12
5.5
 22
4.25
 13
0.0
 23
0.0
 14
1.0
 24
1.0
 15
0.0
 25
0.0
 16
0.0
 26
0.0
 36
1.0
 17
0.0
 27
0.0
 37
0.0
 40
8.5
 41
1.2941176471
 42
50.0
 43
0.0
 44
0.0
 50
0.0
 51
0.0
 71
0
 72
100
 73
1
 74
1
 75
0
 76
0
 77
0
 78
0
  0
ENDTAB
  0
TABLE
  2
LTYPE
  5
5
100
AcDbSymbolTable
 70
6
  0
LTYPE
  5
14
100
AcDbSymbolTableRecord
100
AcDbLinetypeTableRecord
  2
BYBLOCK
 70
0
  3

 72
65
 73
0
 40
0.0
  0
LTYPE
  5
15
100
AcDbSymbolTableRecord
100
AcDbLinetypeTableRecord
  2
BYLAYER
 70
0
  3

 72
65
 73
0
 40
0.0
  0
LTYPE
  5
16
100
AcDbSymbolTableRecord
100
AcDbLinetypeTableRecord
  2
CONTINUOUS
 70
64
  3
Solid line
 72
65
 73
0
 40
0.0
  0
LTYPE
  5
1F5
100
AcDbSymbolTableRecord
100
AcDbLinetypeTableRecord
  2
CENTER
 70
64
  3
____ _ ____ _ ____ _ ____ _ ____ _ ____ _ ____
 72
65
 73
4
 40
0.6
 49
0.375
 74
0
 49
-0.075
 74
0
 49
0.075
 74
0
 49
-0.075
 74
0
  0
LTYPE
  5
1F6
100
AcDbSymbolTableRecord
100
AcDbLinetypeTableRecord
  2
HIDDEN
 70
64
  3
- - - - - - - - - - - - - - - - - - - -
 72
65
 73
2
 40
0.2
 49
0.1
 74
0
 49
-0.1
 74
0
  0
LTYPE
  5
1F7
100
AcDbSymbolTableRecord
100
AcDbLinetypeTableRecord
  2
PHANTOM
 70
64
  3
_____ _ _ _____ _ _ _____ _ _ _____
 72
65
 73
6
 40
0.8
 49
0.45
 74
0
 49
-0.05
 74
0
 49
0.1
 74
0
 49
-0.05
 74
0
 49
0.1
 74
0
 49
-0.05
 74
0
  0
LTYPE
  5
1F8
100
AcDbSymbolTableRecord
100
AcDbLinetypeTableRecord
  2
DOT
 70
64
  3
. . . . . . . . . . . . . . . . . . . .
 72
65
 73
2
 40
0.2
 49
0.1
 74
0
 49
-0.1
 74
0
  0
LTYPE
  5
1F9
100
AcDbSymbolTableRecord
100
AcDbLinetypeTableRecord
  2
DASHED
 70
64
  3
- - - - - - - - - - - - - - - - - - - -
 72
65
 73
2
 40
0.2
 49
0.1
 74
0
 49
-0.1
 74
0
  0
ENDTAB
  0
TABLE
  2
LAYER
  5
2
100
AcDbSymbolTable
 70
36
  0
LAYER
  5
10
100
AcDbSymbolTableRecord
100
AcDbLayerTableRecord
  2
0
 70
0
 62
7
  6
CONTINUOUS
370
-3
390
F
  0
LAYER
  5
1FA
100
AcDbSymbolTableRecord
100
AcDbLayerTableRecord
  2
DEFAULT_1
 70
0
 62
7
  6
CENTER
370
-3
390
F
  0
LAYER
  5
1FB
100
AcDbSymbolTableRecord
100
AcDbLayerTableRecord
  2
DEFAULT_2
 70
0
 62
8
  6
HIDDEN
370
-3
390
F
  0
LAYER
  5
1FC
100
AcDbSymbolTableRecord
100
AcDbLayerTableRecord
  2
DEFAULT_3
 70
0
 62
7
  6
PHANTOM
370
-3
390
F
  0
LAYER
  5
1FD
100
AcDbSymbolTableRecord
100
AcDbLayerTableRecord
  2
ALL_ASSEMBLY_MEMBERS
 70
0
 62
7
  6
CONTINUOUS
370
-3
390
F
  0
LAYER
  5
1FE
100
AcDbSymbolTableRecord
100
AcDbLayerTableRecord
  2
ALL_FEATURES
 70
0
 62
7
  6
CONTINUOUS
370
-3
390
F
  0
LAYER
  5
1FF
100
AcDbSymbolTableRecord
100
AcDbLayerTableRecord
  2
AXES_FEATURES
 70
0
 62
7
  6
CONTINUOUS
370
-3
390
F
  0
LAYER
  5
200
100
AcDbSymbolTableRecord
100
AcDbLayerTableRecord
  2
CHAMFER_FEATURES
 70
0
 62
7
  6
CONTINUOUS
370
-3
390
F
  0
LAYER
  5
201
100
AcDbSymbolTableRecord
100
AcDbLayerTableRecord
  2
CURVE_1
 70
0
 62
7
  6
CONTINUOUS
370
-3
390
F
  0
LAYER
  5
202
100
AcDbSymbolTableRecord
100
AcDbLayerTableRecord
  2
CURVE_2
 70
0
 62
7
  6
CONTINUOUS
370
-3
390
F
  0
LAYER
  5
203
100
AcDbSymbolTableRecord
100
AcDbLayerTableRecord
  2
CUT_FEATURES
 70
0
 62
7
  6
CONTINUOUS
370
-3
390
F
  0
LAYER
  5
204
100
AcDbSymbolTableRecord
100
AcDbLayerTableRecord
  2
DATUM_PLANES
 70
0
 62
7
  6
CONTINUOUS
370
-3
390
F
  0
LAYER
  5
205
100
AcDbSymbolTableRecord
100
AcDbLayerTableRecord
  2
DEFAULT_COORDINATE_SYSTEM
 70
0
 62
7
  6
CONTINUOUS
370
-3
390
F
  0
LAYER
  5
206
100
AcDbSymbolTableRecord
100
AcDbLayerTableRecord
  2
DEFAULT_DATUM_AXES
 70
0
 62
7
  6
CONTINUOUS
370
-3
390
F
  0
LAYER
  5
207
100
AcDbSymbolTableRecord
100
AcDbLayerTableRecord
  2
DEFAULT_DATUM_CURVES
 70
0
 62
7
  6
CONTINUOUS
370
-3
390
F
  0
LAYER
  5
208
100
AcDbSymbolTableRecord
100
AcDbLayerTableRecord
  2
DEFAULT_DATUM_PLANES
 70
0
 62
7
  6
CONTINUOUS
370
-3
390
F
  0
LAYER
  5
209
100
AcDbSymbolTableRecord
100
AcDbLayerTableRecord
  2
DEFAULT_SURFACES
 70
0
 62
7
  6
CONTINUOUS
370
-3
390
F
  0
LAYER
  5
20A
100
AcDbSymbolTableRecord
100
AcDbLayerTableRecord
  2
DIMENSIONS
 70
0
 62
7
  6
CONTINUOUS
370
-3
390
F
  0
LAYER
  5
20B
100
AcDbSymbolTableRecord
100
AcDbLayerTableRecord
  2
HOLE_FEATURES
 70
0
 62
7
  6
CONTINUOUS
370
-3
390
F
  0
LAYER
  5
20C
100
AcDbSymbolTableRecord
100
AcDbLayerTableRecord
  2
NOTES
 70
0
 62
7
  6
CONTINUOUS
370
-3
390
F
  0
LAYER
  5
20D
100
AcDbSymbolTableRecord
100
AcDbLayerTableRecord
  2
PART_REFERENCE_DIMENSIONS
 70
0
 62
7
  6
CONTINUOUS
370
-3
390
F
  0
LAYER
  5
20E
100
AcDbSymbolTableRecord
100
AcDbLayerTableRecord
  2
PLATED_SURFACE
 70
0
 62
7
  6
CONTINUOUS
370
-3
390
F
  0
LAYER
  5
20F
100
AcDbSymbolTableRecord
100
AcDbLayerTableRecord
  2
PROTRUSION_FEATURES
 70
0
 62
7
  6
CONTINUOUS
370
-3
390
F
  0
LAYER
  5
210
100
AcDbSymbolTableRecord
100
AcDbLayerTableRecord
  2
QUILT
 70
0
 62
7
  6
CONTINUOUS
370
-3
390
F
  0
LAYER
  5
211
100
AcDbSymbolTableRecord
100
AcDbLayerTableRecord
  2
QUILTS
 70
0
 62
7
  6
CONTINUOUS
370
-3
390
F
  0
LAYER
  5
212
100
AcDbSymbolTableRecord
100
AcDbLayerTableRecord
  2
REFERENCE_DIMENSIONS
 70
0
 62
7
  6
CONTINUOUS
370
-3
390
F
  0
LAYER
  5
213
100
AcDbSymbolTableRecord
100
AcDbLayerTableRecord
  2
ROUND_FEATURES
 70
0
 62
7
  6
CONTINUOUS
370
-3
390
F
  0
LAYER
  5
214
100
AcDbSymbolTableRecord
100
AcDbLayerTableRecord
  2
WETTED_SURFACE
 70
0
 62
7
  6
CONTINUOUS
370
-3
390
F
  0
ENDTAB
  0
TABLE
  2
STYLE
  5
3
100
AcDbSymbolTable
 70
1
  0
STYLE
  5
11
100
AcDbSymbolTableRecord
100
AcDbTextStyleTableRecord
  2
STANDARD
 70
0
 40
0.0
 41
0.8
 50
0.0
 71
0
 42
0.2
  3
txt
  4

  0
STYLE
  5
215
100
AcDbSymbolTableRecord
100
AcDbTextStyleTableRecord
  2
TEXTSTYLE_1
 70
0
 40
0.0
 41
0.8
 50
0.0
 71
0
 42
0.2
  3
gdt
  4

  0
ENDTAB
  0
TABLE
  2
VIEW
  5
6
100
AcDbSymbolTable
 70
0
  0
ENDTAB
  0
TABLE
  2
UCS
  5
7
100
AcDbSymbolTable
 70
0
  0
ENDTAB
  0
TABLE
  2
APPID
  5
9
100
AcDbSymbolTable
 70
1
  0
APPID
  5
216
100
AcDbSymbolTableRecord
100
AcDbRegAppTableRecord
  2
ACAD
 70
0
  0
ENDTAB
  0
TABLE
  2
BLOCK_RECORD
  5
1
100
AcDbSymbolTable
 70
0
  0
BLOCK_RECORD
  5
217
100
AcDbSymbolTableRecord
100
AcDbBlockTableRecord
  2
*Model_Space
  0
BLOCK_RECORD
  5
218
100
AcDbSymbolTableRecord
100
AcDbBlockTableRecord
  2
*Paper_Space
  0
BLOCK_RECORD
  5
219
100
AcDbSymbolTableRecord
100
AcDbBlockTableRecord
  2
_FILLED
  0
ENDTAB
  0
TABLE
  2
DIMSTYLE
  5
A
100
AcDbSymbolTable
 70
1
100
AcDbDimStyleTable
 71
0
  0
DIMSTYLE
105
21A
100
AcDbSymbolTableRecord
100
AcDbDimStyleTableRecord
  2
STANDARD
 70
0
  3

  4

 40
1.0
 41
0.1
 42
0.0625
 43
0.38
 44
0.125
 45
0.0
 46
0.0
 47
0.01
 48
0.01
140
0.08
141
0.09
142
0.0
143
25.4
144
1.0
145
0.0
146
1.0
147
0.09
 71
1.0
 72
0.0
 73
1
 74
1
 75
0
 76
0
 77
0
 78
4
 79
1
170
1
171
1
172
0
173
0
174
0
175
0
176
0
177
0
178
0
270
2
179
2
271
2
272
2
273
2
274
2
275
0
280
0
281
0
282
0
283
1
284
4
285
0
286
0
287
3
288
0
340
11
278
46
341
219
342
219
343
219
344
219
  0
ENDTAB
  0
ENDSEC
  0
SECTION
  2
BLOCKS
  0
BLOCK
  5
20
100
AcDbEntity
  8
0
100
AcDbBlockBegin
  2
*Model_Space
 70
0
 10
0.0
 20
0.0
 30
0.0
  3
*Model_Space
  1

  0
ENDBLK
  5
21
100
AcDbEntity
  8
0
100
AcDbBlockEnd
  0
BLOCK
  5
1C
100
AcDbEntity
  8
0
100
AcDbBlockBegin
  2
*Paper_Space
 70
0
 10
0.0
 20
0.0
 30
0.0
  3
*Paper_Space
  1

  0
ENDBLK
  5
1D
100
AcDbEntity
  8
0
100
AcDbBlockEnd
  0
BLOCK
  5
21B
100
AcDbEntity
  8
0
100
AcDbBlockBegin
  2
_FILLED
 70
64
 10
0.0
 20
0.0
  3
_FILLED
  1

  0
SOLID
  5
21C
100
AcDbEntity
  8
0
  6
BYBLOCK
 62
0
100
AcDbTrace
 10
0.0
 20
0.0
 11
-1.0
 21
0.2
 12
-1.0
 22
-0.2
 13
-1.0
 23
-0.2
  0
ENDBLK
  5
21D
100
AcDbEntity
  8
0
  6
BYBLOCK
 62
0
100
AcDbBlockEnd
  0
ENDSEC
  0
SECTION
  2
ENTITIES
  0
MTEXT
  5
21E
100
AcDbEntity
  8
0
100
AcDbMText
 62
2
  6
CONTINUOUS
  7
STANDARD
 71
3
 72
1
 10
5.0157608696
 20
2.8297078191
 30
0.0
 11
1.0
 21
0.0
 31
0.0
 73
2
 44
0.9
  1
SCALE  .250
 40
0.08
 41
0.704
  0
LINE
  5
21F
100
AcDbEntity
  8
0
100
AcDbLine
 62
7
  6
CONTINUOUS
 10
0.0
 20
0.0
 11
0.0
 21
8.5
  0
LINE
  5
220
100
AcDbEntity
  8
0
100
AcDbLine
 62
7
  6
CONTINUOUS
 10
0.0
 20
0.0
 11
11.0
 21
0.0
  0
LINE
  5
221
100
AcDbEntity
  8
0
100
AcDbLine
 62
7
  6
CONTINUOUS
 10
0.0
 20
8.5
 11
11.0
 21
8.5
  0
LINE
  5
222
100
AcDbEntity
  8
0
100
AcDbLine
 62
7
  6
CONTINUOUS
 10
11.0
 20
0.0
 11
11.0
 21
8.5
  0
LINE
  5
223
100
AcDbEntity
  8
ALL_FEATURES
100
AcDbLine
 62
7
  6
CONTINUOUS
 10
4.2357793278
 20
5.2755251002
 11
4.2315217391
 21
5.2729034712
  0
LINE
  5
224
100
AcDbEntity
  8
ALL_FEATURES
100
AcDbLine
 62
7
  6
CONTINUOUS
 10
4.5315673856
 20
3.4896559749
 11
4.5315204053
 21
3.4896534712
  0
LINE
  5
225
100
AcDbEntity
  8
ALL_FEATURES
100
AcDbLine
 62
7
  6
CONTINUOUS
 10
4.5315675108
 20
3.4896540739
 11
4.5315215479
 21
3.4896534712
  0
LINE
  5
226
100
AcDbEntity
  8
ALL_FEATURES
100
AcDbLine
 62
7
  6
CONTINUOUS
 10
4.5315778406
 20
3.4896537065
 11
4.5315204053
 21
3.4896534712
  0
LINE
  5
227
100
AcDbEntity
  8
ALL_FEATURES
100
AcDbLine
 62
7
  6
CONTINUOUS
 10
4.5315782192
 20
3.4896534882
 11
4.5314733043
 21
3.4896534798
  0
LINE
  5
228
100
AcDbEntity
  8
ALL_FEATURES
100
AcDbLine
 62
7
  6
CONTINUOUS
 10
4.5314767383
 20
3.4896558872
 11
4.5315220522
 21
3.4896534712
  0
LINE
  5
229
100
AcDbEntity
  8
ALL_FEATURES
100
AcDbLine
 62
7
  6
CONTINUOUS
 10
4.4549724117
 20
3.5087136778
 11
4.4549700725
 21
3.5087149503
  0
LINE
  5
22A
100
AcDbEntity
  8
0
100
AcDbLine
 62
7
  6
CONTINUOUS
 10
4.6101458179
 20
3.6954034712
 11
4.4528976604
 21
3.6954034712
  0
LINE
  5
22B
100
AcDbEntity
  8
0
100
AcDbLine
 62
7
  6
CONTINUOUS
 10
4.4528967391
 20
3.7016534712
 11
4.6101467391
 21
3.7016534712
  0
LINE
  5
22C
100
AcDbEntity
  8
0
100
AcDbLine
 62
7
  6
CONTINUOUS
 10
4.4221467391
 20
3.7159924317
 11
4.4528967391
 21
3.7016534712
  0
LINE
  5
22D
100
AcDbEntity
  8
ALL_FEATURES
100
AcDbLine
 62
7
  6
CONTINUOUS
 10
4.6080734058
 20
3.6053419922
 11
4.6080710665
 21
3.6053432646
  0
LINE
  5
22E
100
AcDbEntity
  8
0
100
AcDbLine
 62
7
  6
CONTINUOUS
 10
4.4643638414
 20
3.7715883166
 11
4.4638802452
 21
3.7715496843
  0
LINE
  5
22F
100
AcDbEntity
  8
0
100
AcDbLine
 62
7
  6
CONTINUOUS
 10
4.4643638067
 20
3.7715889747
 11
4.463879991
 21
3.7715543317
  0
LINE
  5
230
100
AcDbEntity
  8
0
100
AcDbLine
 62
7
  6
CONTINUOUS
 10
4.5314810765
 20
3.7873401178
 11
4.5325533646
 21
3.7873626214
  0
LINE
  5
231
100
AcDbEntity
  8
0
100
AcDbLine
 62
7
  6
CONTINUOUS
 10
4.5310884387
 20
3.781863258
 11
4.5314684907
 21
3.7818707026
  0
LINE
  5
232
100
AcDbEntity
  8
0
100
AcDbLine
 62
7
  6
CONTINUOUS
 10
4.6390217391
 20
3.7729034712
 11
4.4240217391
 21
3.7729034712
  0
LINE
  5
233
100
AcDbEntity
  8
ALL_FEATURES
100
AcDbLine
 62
7
  6
CONTINUOUS
 10
4.6390217391
 20
3.7791534712
 11
4.4240217391
 21
3.7791534712
  0
LINE
  5
234
100
AcDbEntity
  8
0
100
AcDbLine
 62
7
  6
CONTINUOUS
 10
4.432225873
 20
3.7941534712
 11
4.506023857
 21
3.7941534712
  0
LINE
  5
235
100
AcDbEntity
  8
0
100
AcDbLine
 62
7
  6
CONTINUOUS
 10
4.5570196213
 20
3.7941534712
 11
4.6273572928
 21
3.7941534712
  0
LINE
  5
236
100
AcDbEntity
  8
0
100
AcDbLine
 62
7
  6
CONTINUOUS
 10
4.4190217391
 20
3.8191534712
 11
4.4597782847
 21
3.8191534712
  0
LINE
  5
237
100
AcDbEntity
  8
0
100
AcDbLine
 62
7
  6
CONTINUOUS
 10
4.6032651936
 20
3.8191534712
 11
4.6440217391
 21
3.8191534712
  0
LINE
  5
238
100
AcDbEntity
  8
0
100
AcDbLine
 62
7
  6
CONTINUOUS
 10
4.4300176432
 20
3.7911792742
 11
4.4367868031
 21
3.7872686888
  0
LINE
  5
239
100
AcDbEntity
  8
ALL_FEATURES
100
AcDbLine
 62
7
  6
CONTINUOUS
 10
4.5636082881
 20
3.8772784712
 11
4.4994351901
 21
3.8772784712
  0
LINE
  5
23A
100
AcDbEntity
  8
0
100
AcDbLine
 62
7
  6
CONTINUOUS
 10
4.6390217391
 20
3.7729034712
 11
4.6408967391
 21
3.7720291444
  0
LINE
  5
23B
100
AcDbEntity
  8
ALL_FEATURES
100
AcDbLine
 62
7
  6
CONTINUOUS
 10
4.5115217391
 20
3.8892784712
 11
4.5515217391
 21
3.8892784712
  0
LINE
  5
23C
100
AcDbEntity
  8
0
100
AcDbLine
 62
7
  6
CONTINUOUS
 10
4.5067238914
 20
3.9247784712
 11
4.5563195869
 21
3.9247784712
  0
LINE
  5
23D
100
AcDbEntity
  8
0
100
AcDbLine
 62
7
  6
CONTINUOUS
 10
4.6330258351
 20
3.7866276682
 11
4.6262566752
 21
3.7905382537
  0
LINE
  5
23E
100
AcDbEntity
  8
0
100
AcDbLine
 62
7
  6
CONTINUOUS
 10
4.4190217391
 20
3.9741534712
 11
4.4597782847
 21
3.9741534712
  0
LINE
  5
23F
100
AcDbEntity
  8
0
100
AcDbLine
 62
7
  6
CONTINUOUS
 10
4.6032651936
 20
3.9741534712
 11
4.6440217391
 21
3.9741534712
  0
LINE
  5
240
100
AcDbEntity
  8
0
100
AcDbLine
 62
7
  6
CONTINUOUS
 10
4.4315217391
 20
4.0304034712
 11
4.6315217391
 21
4.0304034712
  0
LINE
  5
241
100
AcDbEntity
  8
ALL_FEATURES
100
AcDbLine
 62
7
  6
CONTINUOUS
 10
4.5515217391
 20
3.8892784712
 11
4.5641742742
 21
3.8782362588
  0
LINE
  5
242
100
AcDbEntity
  8
ALL_FEATURES
100
AcDbLine
 62
7
  6
CONTINUOUS
 10
4.8315217391
 20
5.2729034712
 11
4.6627717391
 21
4.9988493988
  0
LINE
  5
243
100
AcDbEntity
  8
0
100
AcDbLine
 62
7
  6
CONTINUOUS
 10
4.4190217391
 20
3.8191534712
 11
4.4190217391
 21
3.9741534712
  0
LINE
  5
244
100
AcDbEntity
  8
0
100
AcDbLine
 62
7
  6
CONTINUOUS
 10
4.4221467391
 20
3.7159931331
 11
4.4221467391
 21
3.7720284429
  0
LINE
  5
245
100
AcDbEntity
  8
0
100
AcDbLine
 62
7
  6
CONTINUOUS
 10
4.4240217391
 20
3.7791534712
 11
4.4240217391
 21
3.7729034712
  0
LINE
  5
246
100
AcDbEntity
  8
0
100
AcDbLine
 62
7
  6
CONTINUOUS
 10
4.4283967391
 20
3.7657475023
 11
4.4283967391
 21
3.7222740738
  0
LINE
  5
247
100
AcDbEntity
  8
0
100
AcDbLine
 62
7
  6
CONTINUOUS
 10
4.4299592391
 20
3.7928101967
 11
4.4299592391
 21
3.7912467458
  0
LINE
  5
248
100
AcDbEntity
  8
0
100
AcDbLine
 62
7
  6
CONTINUOUS
 10
4.4299592391
 20
3.7803101967
 11
4.4299592391
 21
3.7791534712
  0
LINE
  5
249
100
AcDbEntity
  8
0
100
AcDbLine
 62
7
  6
CONTINUOUS
 10
4.4315217391
 20
3.9741534712
 11
4.4315217391
 21
4.0304034712
  0
LINE
  5
24A
100
AcDbEntity
  8
0
100
AcDbLine
 62
7
  6
CONTINUOUS
 10
4.4367242391
 20
3.7873409712
 11
4.4367242391
 21
3.7842159712
  0
LINE
  5
24B
100
AcDbEntity
  8
0
100
AcDbLine
 62
7
  6
CONTINUOUS
 10
4.4396467391
 20
3.7941534712
 11
4.4396467391
 21
3.8191534712
  0
LINE
  5
24C
100
AcDbEntity
  8
0
100
AcDbLine
 62
7
  6
CONTINUOUS
 10
4.4465217391
 20
4.0304034712
 11
4.4465217391
 21
4.9929034712
  0
LINE
  5
24D
100
AcDbEntity
  8
0
100
AcDbLine
 62
7
  6
CONTINUOUS
 10
4.4528967391
 20
3.7016534712
 11
4.4528967391
 21
3.6954034712
  0
LINE
  5
24E
100
AcDbEntity
  8
ALL_FEATURES
100
AcDbLine
 62
7
  6
CONTINUOUS
 10
4.4845217391
 20
3.6954034712
 11
4.4845217391
 21
3.6175601763
  0
LINE
  5
24F
100
AcDbEntity
  8
0
100
AcDbLine
 62
7
  6
CONTINUOUS
 10
4.5252717391
 20
3.7657475023
 11
4.5252717391
 21
3.7222740738
  0
LINE
  5
250
100
AcDbEntity
  8
0
100
AcDbLine
 62
7
  6
CONTINUOUS
 10
4.5377717391
 20
3.7657475023
 11
4.5377717391
 21
3.7222740738
  0
LINE
  5
251
100
AcDbEntity
  8
ALL_FEATURES
100
AcDbLine
 62
7
  6
CONTINUOUS
 10
4.5785217391
 20
3.6954034712
 11
4.5785217391
 21
3.6175610535
  0
LINE
  5
252
100
AcDbEntity
  8
0
100
AcDbLine
 62
7
  6
CONTINUOUS
 10
4.6101467391
 20
3.7016534712
 11
4.6101467391
 21
3.6954034712
  0
LINE
  5
253
100
AcDbEntity
  8
0
100
AcDbLine
 62
7
  6
CONTINUOUS
 10
4.6165217391
 20
4.0304034712
 11
4.6165217391
 21
4.9929034712
  0
LINE
  5
254
100
AcDbEntity
  8
0
100
AcDbLine
 62
7
  6
CONTINUOUS
 10
4.6233967391
 20
3.7941534712
 11
4.6233967391
 21
3.8191534712
  0
LINE
  5
255
100
AcDbEntity
  8
0
100
AcDbLine
 62
7
  6
CONTINUOUS
 10
4.6263192391
 20
3.7791534712
 11
4.6263192391
 21
3.7810909712
  0
LINE
  5
256
100
AcDbEntity
  8
0
100
AcDbLine
 62
7
  6
CONTINUOUS
 10
4.6263192391
 20
3.7904659712
 11
4.6263192391
 21
3.7935909712
  0
LINE
  5
257
100
AcDbEntity
  8
0
100
AcDbLine
 62
7
  6
CONTINUOUS
 10
4.6315217391
 20
3.9741534712
 11
4.6315217391
 21
4.0304034712
  0
LINE
  5
258
100
AcDbEntity
  8
0
100
AcDbLine
 62
7
  6
CONTINUOUS
 10
4.6330842391
 20
3.7865601967
 11
4.6330842391
 21
3.7849967458
  0
LINE
  5
259
100
AcDbEntity
  8
0
100
AcDbLine
 62
7
  6
CONTINUOUS
 10
4.6346467391
 20
3.7657475023
 11
4.6346467391
 21
3.7222740738
  0
LINE
  5
25A
100
AcDbEntity
  8
0
100
AcDbLine
 62
7
  6
CONTINUOUS
 10
4.6390217391
 20
3.7791534712
 11
4.6390217391
 21
3.7729034712
  0
LINE
  5
25B
100
AcDbEntity
  8
0
100
AcDbLine
 62
7
  6
CONTINUOUS
 10
4.6408967391
 20
3.7159931331
 11
4.6408967391
 21
3.7720284429
  0
LINE
  5
25C
100
AcDbEntity
  8
0
100
AcDbLine
 62
7
  6
CONTINUOUS
 10
4.6440217391
 20
3.8191534712
 11
4.6440217391
 21
3.9741534712
  0
LINE
  5
25D
100
AcDbEntity
  8
ALL_FEATURES
100
AcDbLine
 62
7
  6
CONTINUOUS
 10
4.2315217391
 20
5.2729034712
 11
4.4002717391
 21
4.9988493988
  0
LINE
  5
25E
100
AcDbEntity
  8
0
100
AcDbLine
 62
7
  6
CONTINUOUS
 10
4.4299592391
 20
3.7803101967
 11
4.4300176432
 21
3.7803776682
  0
LINE
  5
25F
100
AcDbEntity
  8
ALL_FEATURES
100
AcDbLine
 62
7
  6
CONTINUOUS
 10
4.5115217391
 20
3.8892784712
 11
4.498869204
 21
3.8782362588
  0
LINE
  5
260
100
AcDbEntity
  8
0
100
AcDbLine
 62
7
  6
CONTINUOUS
 10
4.6330258351
 20
3.7849292742
 11
4.6330842391
 21
3.7849967458
  0
LINE
  5
261
100
AcDbEntity
  8
0
100
AcDbLine
 62
7
  6
CONTINUOUS
 10
4.4322260999
 20
3.7941534712
 11
4.4300176432
 21
3.7928776682
  0
LINE
  5
262
100
AcDbEntity
  8
0
100
AcDbLine
 62
7
  6
CONTINUOUS
 10
4.4367868031
 20
3.7842882537
 11
4.4300176432
 21
3.7803776682
  0
LINE
  5
263
100
AcDbEntity
  8
0
100
AcDbLine
 62
7
  6
CONTINUOUS
 10
4.4240217391
 20
3.7729034712
 11
4.4221467391
 21
3.7720291444
  0
LINE
  5
264
100
AcDbEntity
  8
0
100
AcDbLine
 62
7
  6
CONTINUOUS
 10
4.6262566752
 20
3.7935186888
 11
4.6273554333
 21
3.7941534712
  0
LINE
  5
265
100
AcDbEntity
  8
0
100
AcDbLine
 62
7
  6
CONTINUOUS
 10
4.6262566752
 20
3.7810186888
 11
4.6330258351
 21
3.7849292742
  0
LINE
  5
266
100
AcDbEntity
  8
ALL_FEATURES
100
AcDbLine
 62
7
  6
CONTINUOUS
 10
4.4109157109
 20
4.9929034712
 11
4.6521277674
 21
4.9929034712
  0
LINE
  5
267
100
AcDbEntity
  8
ALL_FEATURES
100
AcDbLine
 62
7
  6
CONTINUOUS
 10
4.4002717391
 20
4.9988493988
 11
4.6627717391
 21
4.9988493988
  0
LINE
  5
268
100
AcDbEntity
  8
ALL_FEATURES
100
AcDbLine
 62
7
  6
CONTINUOUS
 10
4.4549700725
 20
3.6053419922
 11
4.4549735171
 21
3.6053438658
  0
LINE
  5
269
100
AcDbEntity
  8
0
100
AcDbLine
 62
7
  6
CONTINUOUS
 10
4.6408967391
 20
3.7159924317
 11
4.6101467391
 21
3.7016534712
  0
LINE
  5
26A
100
AcDbEntity
  8
ALL_FEATURES
100
AcDbLine
 62
7
  6
CONTINUOUS
 10
4.6080699612
 20
3.5087130767
 11
4.6080734058
 21
3.5087149503
  0
LINE
  5
26B
100
AcDbEntity
  8
ALL_FEATURES
100
AcDbLine
 62
7
  6
CONTINUOUS
 10
4.2315217391
 20
5.2729034712
 11
4.8315217391
 21
5.2729034712
  0
LINE
  5
26C
100
AcDbEntity
  8
ALL_FEATURES
100
AcDbLine
 62
7
  6
CONTINUOUS
 10
4.2357793278
 20
5.2755251002
 11
4.8272641504
 21
5.2755251002
  0
LINE
  5
26D
100
AcDbEntity
  8
ALL_FEATURES
100
AcDbLine
 62
7
  6
CONTINUOUS
 10
4.8272641504
 20
5.2755251002
 11
4.8315217391
 21
5.2729034712
  0
ARC
  5
26E
100
AcDbEntity
  8
0
100
AcDbCircle
 62
7
  6
CONTINUOUS
 10
4.4369480887
 20
0.1063531132
 40
3.7801871576
100
AcDbArc
 50
88.0295696676
 51
88.1824372967
  0
ARC
  5
26F
100
AcDbEntity
  8
0
100
AcDbCircle
 62
7
  6
CONTINUOUS
 10
4.4967087846
 20
7.2640325756
 40
3.4859924634
100
AcDbArc
 50
271.4481189981
 51
271.6606450868
  0
ARC
  5
270
100
AcDbEntity
  8
0
100
AcDbCircle
 62
7
  6
CONTINUOUS
 10
4.6158802747
 20
7.3511288349
 40
3.4666961837
100
AcDbArc
 50
268.008627845
 51
268.2148867061
  0
ARC
  5
271
100
AcDbEntity
  8
ALL_FEATURES
100
AcDbCircle
 62
7
  6
CONTINUOUS
 10
4.5315237166
 20
3.6560373641
 40
0.1663838803
100
AcDbArc
 50
267.3739363793
 51
268.3564150583
  0
ARC
  5
272
100
AcDbEntity
  8
ALL_FEATURES
100
AcDbCircle
 62
7
  6
CONTINUOUS
 10
4.531523757
 20
3.6560285069
 40
0.1663750279
100
AcDbArc
 50
268.3563136647
 51
269.9840353011
  0
ARC
  5
273
100
AcDbEntity
  8
ALL_FEATURES
100
AcDbCircle
 62
7
  6
CONTINUOUS
 10
4.5315176089
 20
3.6559061821
 40
0.1662525563
100
AcDbArc
 50
266.44412277
 51
267.3739676874
  0
ARC
  5
274
100
AcDbEntity
  8
ALL_FEATURES
100
AcDbCircle
 62
7
  6
CONTINUOUS
 10
4.5315021369
 20
3.6556596925
 40
0.1660055815
100
AcDbArc
 50
265.4542180721
 51
266.44417607
  0
ARC
  5
275
100
AcDbEntity
  8
ALL_FEATURES
100
AcDbCircle
 62
7
  6
CONTINUOUS
 10
4.5313511238
 20
3.6541986457
 40
0.1645371658
100
AcDbArc
 50
256.9261277704
 51
265.4663160075
  0
CIRCLE
  5
276
100
AcDbEntity
  8
ALL_FEATURES
100
AcDbCircle
 62
7
  6
CONTINUOUS
 10
4.5315217391
 20
3.8966534712
 40
0.105625
  0
CIRCLE
  5
277
100
AcDbEntity
  8
ALL_FEATURES
100
AcDbCircle
 62
7
  6
CONTINUOUS
 10
4.5315217391
 20
3.8966534712
 40
0.0605
  0
ARC
  5
278
100
AcDbEntity
  8
ALL_FEATURES
100
AcDbCircle
 62
7
  6
CONTINUOUS
 10
4.3644677621
 20
3.5570284712
 40
0.055
100
AcDbArc
 50
61.4532700444
 51
298.5467299556
  0
ARC
  5
279
100
AcDbEntity
  8
ALL_FEATURES
100
AcDbCircle
 62
7
  6
CONTINUOUS
 10
4.6985757162
 20
3.5570284712
 40
0.055
100
AcDbArc
 50
241.4532700444
 51
118.5467299556
  0
CIRCLE
  5
27A
100
AcDbEntity
  8
ALL_FEATURES
100
AcDbCircle
 62
7
  6
CONTINUOUS
 10
4.5315217391
 20
3.8966534712
 40
0.0375
  0
ARC
  5
27B
100
AcDbEntity
  8
ALL_FEATURES
100
AcDbCircle
 62
7
  6
CONTINUOUS
 10
4.4109157109
 20
5.0054034712
 40
0.0125
100
AcDbArc
 50
211.6228670355
 51
270.0
  0
ARC
  5
27C
100
AcDbEntity
  8
ALL_FEATURES
100
AcDbCircle
 62
7
  6
CONTINUOUS
 10
4.6521277674
 20
5.0054034712
 40
0.0125
100
AcDbArc
 50
270.0
 51
328.3771329645
  0
SPLINE
  5
27D
100
AcDbEntity
  8
0
100
AcDbSpline
 62
7
  6
CONTINUOUS
 70
0
 71
3
 72
19
 73
15
 74
0
 42
0.0000001
 43
0.0000001
 44
0.0000000001
 40
0.0
 40
0.0
 40
0.0
 40
0.0
 40
0.1253890349
 40
0.2504632666
 40
0.3129078904
 40
0.3753017952
 40
0.4376600599
 40
0.500000007
 40
0.5623399545
 40
0.624698218
 40
0.6870921227
 40
0.7495367448
 40
0.8746109698
 40
1.0
 40
1.0
 40
1.0
 40
1.0
 10
4.6346467391
 20
3.7222740738
 30
0.0
 10
4.6306717861
 20
3.7212996141
 30
0.0
 10
4.6226864419
 20
3.7195317675
 30
0.0
 10
4.6126044662
 20
3.7178616384
 30
0.0
 10
4.60450285
 20
3.7169017071
 30
0.0
 10
4.5984139944
 20
3.7163798131
 30
0.0
 10
4.5923144079
 20
3.7160630916
 30
0.0
 10
4.5862092384
 20
3.7159572411
 30
0.0
 10
4.580104069
 20
3.7160630914
 30
0.0
 10
4.5740044825
 20
3.7163798135
 30
0.0
 10
4.567915627
 20
3.7169017069
 30
0.0
 10
4.5598140112
 20
3.7178616389
 30
0.0
 10
4.5497320359
 20
3.7195317675
 30
0.0
 10
4.541746692
 20
3.7212996141
 30
0.0
 10
4.5377717391
 20
3.7222740738
 30
0.0
  0
SPLINE
  5
27E
100
AcDbEntity
  8
0
100
AcDbSpline
 62
7
  6
CONTINUOUS
 70
0
 71
3
 72
14
 73
10
 74
0
 42
0.0000001
 43
0.0000001
 44
0.0000000001
 40
0.0
 40
0.0
 40
0.0
 40
0.0
 40
0.2508077316
 40
0.3759339191
 40
0.5008965829
 40
0.625732644
 40
0.7504905649
 40
0.8752271561
 40
1.0
 40
1.0
 40
1.0
 40
1.0
 10
4.5252717391
 20
3.7657475023
 30
0.0
 10
4.5202830437
 20
3.766970481
 30
0.0
 10
4.5127498644
 20
3.7685925773
 30
0.0
 10
4.5026201893
 20
3.7702223589
 30
0.0
 10
4.4949963508
 20
3.7711524657
 30
0.0
 10
4.4873483384
 20
3.7717704156
 30
0.0
 10
4.4796853449
 20
3.7720616829
 30
0.0
 10
4.4720183271
 20
3.7720188583
 30
0.0
 10
4.4669128064
 20
3.7717680828
 30
0.0
 10
4.4643638067
 20
3.7715889747
 30
0.0
  0
SPLINE
  5
27F
100
AcDbEntity
  8
0
100
AcDbSpline
 62
7
  6
CONTINUOUS
 70
0
 71
3
 72
10
 73
6
 74
0
 42
0.0000001
 43
0.0000001
 44
0.0000000001
 40
0.0
 40
0.0
 40
0.0
 40
0.0
 40
0.249433059
 40
0.4992080408
 40
1.0
 40
1.0
 40
1.0
 40
1.0
 10
4.463879991
 20
3.7715543317
 30
0.0
 10
4.4608953992
 20
3.7713366346
 30
0.0
 10
4.4549318743
 20
3.7707531783
 30
0.0
 10
4.4430554454
 20
3.7690335447
 30
0.0
 10
4.4342320954
 20
3.7671780399
 30
0.0
 10
4.4283967391
 20
3.7657475023
 30
0.0
  0
SPLINE
  5
280
100
AcDbEntity
  8
0
100
AcDbSpline
 62
7
  6
CONTINUOUS
 70
0
 71
3
 72
19
 73
15
 74
0
 42
0.0000001
 43
0.0000001
 44
0.0000000001
 40
0.0
 40
0.0
 40
0.0
 40
0.0
 40
0.1253890349
 40
0.2504632666
 40
0.3129078904
 40
0.3753017952
 40
0.4376600599
 40
0.500000007
 40
0.5623399545
 40
0.624698218
 40
0.6870921227
 40
0.7495367448
 40
0.8746109698
 40
1.0
 40
1.0
 40
1.0
 40
1.0
 10
4.5252717391
 20
3.7222740738
 30
0.0
 10
4.5212967861
 20
3.7212996141
 30
0.0
 10
4.5133114419
 20
3.7195317675
 30
0.0
 10
4.5032294662
 20
3.7178616384
 30
0.0
 10
4.49512785
 20
3.7169017071
 30
0.0
 10
4.4890389944
 20
3.7163798131
 30
0.0
 10
4.4829394079
 20
3.7160630916
 30
0.0
 10
4.4768342384
 20
3.7159572411
 30
0.0
 10
4.470729069
 20
3.7160630914
 30
0.0
 10
4.4646294825
 20
3.7163798135
 30
0.0
 10
4.458540627
 20
3.7169017069
 30
0.0
 10
4.4504390112
 20
3.7178616389
 30
0.0
 10
4.4403570359
 20
3.7195317675
 30
0.0
 10
4.432371692
 20
3.7212996141
 30
0.0
 10
4.4283967391
 20
3.7222740738
 30
0.0
  0
SPLINE
  5
281
100
AcDbEntity
  8
0
100
AcDbSpline
 62
7
  6
CONTINUOUS
 70
0
 71
3
 72
11
 73
7
 74
0
 42
0.0000001
 43
0.0000001
 44
0.0000000001
 40
0.0
 40
0.0
 40
0.0
 40
0.0
 40
0.2607426732
 40
0.5170780309
 40
0.7647332371
 40
1.0
 40
1.0
 40
1.0
 40
1.0
 10
4.5315217391
 20
3.7229808049
 30
0.0
 10
4.5309738652
 20
3.7229808049
 30
0.0
 10
4.5298871399
 20
3.722950884
 30
0.0
 10
4.5282849912
 20
3.722817307
 30
0.0
 10
4.5267463415
 20
3.7225978729
 30
0.0
 10
4.525751866
 20
3.7223917769
 30
0.0
 10
4.5252717391
 20
3.7222740738
 30
0.0
  0
SPLINE
  5
282
100
AcDbEntity
  8
0
100
AcDbSpline
 62
7
  6
CONTINUOUS
 70
0
 71
3
 72
19
 73
15
 74
0
 42
0.0000001
 43
0.0000001
 44
0.0000000001
 40
0.0
 40
0.0
 40
0.0
 40
0.0
 40
0.1253890349
 40
0.2504632666
 40
0.3129078904
 40
0.3753017952
 40
0.4376600599
 40
0.500000007
 40
0.5623399545
 40
0.624698218
 40
0.6870921227
 40
0.7495367448
 40
0.8746109698
 40
1.0
 40
1.0
 40
1.0
 40
1.0
 10
4.6346467391
 20
3.7657475023
 30
0.0
 10
4.6306717861
 20
3.766721962
 30
0.0
 10
4.6226864419
 20
3.7684898086
 30
0.0
 10
4.6126044662
 20
3.7701599377
 30
0.0
 10
4.60450285
 20
3.771119869
 30
0.0
 10
4.5984139944
 20
3.771641763
 30
0.0
 10
4.5923144079
 20
3.7719584845
 30
0.0
 10
4.5862092384
 20
3.772064335
 30
0.0
 10
4.580104069
 20
3.7719584846
 30
0.0
 10
4.5740044825
 20
3.7716417626
 30
0.0
 10
4.567915627
 20
3.7711198692
 30
0.0
 10
4.5598140112
 20
3.7701599372
 30
0.0
 10
4.5497320359
 20
3.7684898086
 30
0.0
 10
4.541746692
 20
3.766721962
 30
0.0
 10
4.5377717391
 20
3.7657475023
 30
0.0
  0
SPLINE
  5
283
100
AcDbEntity
  8
0
100
AcDbSpline
 62
7
  6
CONTINUOUS
 70
0
 71
3
 72
20
 73
16
 74
0
 42
0.0000001
 43
0.0000001
 44
0.0000000001
 40
0.0
 40
0.0
 40
0.0
 40
0.0
 40
0.2082248971
 40
0.3967410367
 40
0.5615590763
 40
0.6341703988
 40
0.6998721484
 40
0.7585001405
 40
0.8099609127
 40
0.8543504386
 40
0.892048222
 40
0.9237664401
 40
0.9508146982
 40
0.9753215329
 40
1.0
 40
1.0
 40
1.0
 40
1.0
 10
4.4283967391
 20
3.7222740738
 30
0.0
 10
4.4279499349
 20
3.7223836078
 30
0.0
 10
4.4270949277
 20
3.7225778318
 30
0.0
 10
4.4258742964
 20
3.7228019189
 30
0.0
 10
4.4249403816
 20
3.7229232054
 30
0.0
 10
4.4242722772
 20
3.7229719955
 30
0.0
 10
4.4238371785
 20
3.7229844468
 30
0.0
 10
4.4234486931
 20
3.7229745402
 30
0.0
 10
4.4231085785
 20
3.7229422804
 30
0.0
 10
4.4228180725
 20
3.7228877413
 30
0.0
 10
4.4225776885
 20
3.7228111638
 30
0.0
 10
4.4223874092
 20
3.7227120029
 30
0.0
 10
4.4222479385
 20
3.7225880957
 30
0.0
 10
4.4221632934
 20
3.7224385285
 30
0.0
 10
4.4221467391
 20
3.7223285963
 30
0.0
 10
4.4221467391
 20
3.7222740738
 30
0.0
  0
SPLINE
  5
284
100
AcDbEntity
  8
0
100
AcDbSpline
 62
7
  6
CONTINUOUS
 70
0
 71
3
 72
20
 73
16
 74
0
 42
0.0000001
 43
0.0000001
 44
0.0000000001
 40
0.0
 40
0.0
 40
0.0
 40
0.0
 40
0.0246784671
 40
0.0491853018
 40
0.0762335599
 40
0.107951778
 40
0.1456495614
 40
0.1900390873
 40
0.2414998595
 40
0.3001278516
 40
0.3658296012
 40
0.4384409237
 40
0.6032589633
 40
0.7917751029
 40
1.0
 40
1.0
 40
1.0
 40
1.0
 10
4.4221467391
 20
3.7657475023
 30
0.0
 10
4.4221467391
 20
3.7656929798
 30
0.0
 10
4.4221632934
 20
3.7655830476
 30
0.0
 10
4.4222479385
 20
3.7654334804
 30
0.0
 10
4.4223874092
 20
3.7653095732
 30
0.0
 10
4.4225776885
 20
3.7652104123
 30
0.0
 10
4.4228180725
 20
3.7651338348
 30
0.0
 10
4.4231085785
 20
3.7650792957
 30
0.0
 10
4.4234486931
 20
3.7650470359
 30
0.0
 10
4.4238371785
 20
3.7650371293
 30
0.0
 10
4.4242722772
 20
3.7650495806
 30
0.0
 10
4.4249403816
 20
3.7650983707
 30
0.0
 10
4.4258742964
 20
3.7652196572
 30
0.0
 10
4.4270949277
 20
3.7654437442
 30
0.0
 10
4.4279499349
 20
3.7656379682
 30
0.0
 10
4.4283967391
 20
3.7657475023
 30
0.0
  0
SPLINE
  5
285
100
AcDbEntity
  8
0
100
AcDbSpline
 62
7
  6
CONTINUOUS
 70
0
 71
3
 72
11
 73
7
 74
0
 42
0.0000001
 43
0.0000001
 44
0.0000000001
 40
0.0
 40
0.0
 40
0.0
 40
0.0
 40
0.2352667629
 40
0.4829219691
 40
0.7392573268
 40
1.0
 40
1.0
 40
1.0
 40
1.0
 10
4.5252717391
 20
3.7657475023
 30
0.0
 10
4.525751866
 20
3.7656297992
 30
0.0
 10
4.5267463415
 20
3.7654237032
 30
0.0
 10
4.5282849912
 20
3.7652042691
 30
0.0
 10
4.5298871399
 20
3.7650706921
 30
0.0
 10
4.5309738652
 20
3.7650407712
 30
0.0
 10
4.5315217391
 20
3.7650407712
 30
0.0
  0
SPLINE
  5
286
100
AcDbEntity
  8
0
100
AcDbSpline
 62
7
  6
CONTINUOUS
 70
0
 71
3
 72
20
 73
16
 74
0
 42
0.0000001
 43
0.0000001
 44
0.0000000001
 40
0.0
 40
0.0
 40
0.0
 40
0.0
 40
0.0246785706
 40
0.049185914
 40
0.0762351115
 40
0.1079549515
 40
0.1456554835
 40
0.190047157
 40
0.2415085658
 40
0.3001388534
 40
0.3658426235
 40
0.438453345
 40
0.6032673705
 40
0.7917770504
 40
1.0
 40
1.0
 40
1.0
 40
1.0
 10
4.6408967391
 20
3.7222740738
 30
0.0
 10
4.6408967391
 20
3.7223285965
 30
0.0
 10
4.6408801833
 20
3.7224385301
 30
0.0
 10
4.640795533
 20
3.7225880982
 30
0.0
 10
4.6406560571
 20
3.7227120092
 30
0.0
 10
4.6404657663
 20
3.7228111744
 30
0.0
 10
4.6402253659
 20
3.722887748
 30
0.0
 10
4.6399348479
 20
3.7229422864
 30
0.0
 10
4.6395947222
 20
3.7229745487
 30
0.0
 10
4.6392062256
 20
3.7229844459
 30
0.0
 10
4.6387711192
 20
3.7229719878
 30
0.0
 10
4.6381030207
 20
3.7229231998
 30
0.0
 10
4.6371691313
 20
3.722801909
 30
0.0
 10
4.6359485274
 20
3.7225778285
 30
0.0
 10
4.635093539
 20
3.7223836068
 30
0.0
 10
4.6346467391
 20
3.7222740738
 30
0.0
  0
SPLINE
  5
287
100
AcDbEntity
  8
0
100
AcDbSpline
 62
7
  6
CONTINUOUS
 70
0
 71
3
 72
20
 73
16
 74
0
 42
0.0000001
 43
0.0000001
 44
0.0000000001
 40
0.0
 40
0.0
 40
0.0
 40
0.0
 40
0.2082229496
 40
0.3967326295
 40
0.561546655
 40
0.6341573765
 40
0.6998611466
 40
0.7584914342
 40
0.809952843
 40
0.8543445165
 40
0.8920450485
 40
0.9237648885
 40
0.950814086
 40
0.9753214294
 40
1.0
 40
1.0
 40
1.0
 40
1.0
 10
4.6346467391
 20
3.7657475023
 30
0.0
 10
4.635093539
 20
3.7656379693
 30
0.0
 10
4.6359485274
 20
3.7654437476
 30
0.0
 10
4.6371691313
 20
3.7652196671
 30
0.0
 10
4.6381030207
 20
3.7650983763
 30
0.0
 10
4.6387711192
 20
3.7650495883
 30
0.0
 10
4.6392062256
 20
3.7650371302
 30
0.0
 10
4.6395947222
 20
3.7650470274
 30
0.0
 10
4.6399348479
 20
3.7650792897
 30
0.0
 10
4.6402253659
 20
3.7651338281
 30
0.0
 10
4.6404657663
 20
3.7652104017
 30
0.0
 10
4.6406560571
 20
3.7653095669
 30
0.0
 10
4.640795533
 20
3.7654334779
 30
0.0
 10
4.6408801833
 20
3.7655830459
 30
0.0
 10
4.6408967391
 20
3.7656929796
 30
0.0
 10
4.6408967391
 20
3.7657475023
 30
0.0
  0
SPLINE
  5
288
100
AcDbEntity
  8
0
100
AcDbSpline
 62
7
  6
CONTINUOUS
 70
0
 71
3
 72
11
 73
7
 74
0
 42
0.0000001
 43
0.0000001
 44
0.0000000001
 40
0.0
 40
0.0
 40
0.0
 40
0.0
 40
0.2607413459
 40
0.5170768156
 40
0.7647335694
 40
1.0
 40
1.0
 40
1.0
 40
1.0
 10
4.5315217391
 20
3.7650407712
 30
0.0
 10
4.5320696103
 20
3.7650407712
 30
0.0
 10
4.533156333
 20
3.7650706905
 30
0.0
 10
4.5347584823
 20
3.7652042698
 30
0.0
 10
4.5362971351
 20
3.765423702
 30
0.0
 10
4.5372916129
 20
3.7656297994
 30
0.0
 10
4.5377717391
 20
3.7657475023
 30
0.0
  0
SPLINE
  5
289
100
AcDbEntity
  8
0
100
AcDbSpline
 62
7
  6
CONTINUOUS
 70
0
 71
3
 72
11
 73
7
 74
0
 42
0.0000001
 43
0.0000001
 44
0.0000000001
 40
0.0
 40
0.0
 40
0.0
 40
0.0
 40
0.2352664306
 40
0.4829231844
 40
0.7392586541
 40
1.0
 40
1.0
 40
1.0
 40
1.0
 10
4.5377717391
 20
3.7222740738
 30
0.0
 10
4.5372916129
 20
3.7223917767
 30
0.0
 10
4.5362971351
 20
3.7225978741
 30
0.0
 10
4.5347584823
 20
3.7228173063
 30
0.0
 10
4.533156333
 20
3.7229508856
 30
0.0
 10
4.5320696103
 20
3.7229808049
 30
0.0
 10
4.5315217391
 20
3.7229808049
 30
0.0
  0
SPLINE
  5
28A
100
AcDbEntity
  8
ALL_FEATURES
100
AcDbSpline
 62
7
  6
CONTINUOUS
 70
0
 71
3
 72
14
 73
10
 74
0
 42
0.0000001
 43
0.0000001
 44
0.0000000001
 40
0.0
 40
0.0
 40
0.0
 40
0.0
 40
0.105858633
 40
0.218370607
 40
0.3370320183
 40
0.4612605709
 40
0.5903777637
 40
0.7236737615
 40
1.0
 40
1.0
 40
1.0
 40
1.0
 10
4.4905095458
 20
3.4960690179
 30
0.0
 10
4.491470491
 20
3.4960690179
 30
0.0
 10
4.4934531883
 20
3.4961404202
 30
0.0
 10
4.4964998323
 20
3.4964361733
 30
0.0
 10
4.4996911665
 20
3.4969185054
 30
0.0
 10
4.5030040301
 20
3.497578672
 30
0.0
 10
4.5064159465
 20
3.4984055692
 30
0.0
 10
4.5111248355
 20
3.4997287291
 30
0.0
 10
4.5146546443
 20
3.500906249
 30
0.0
 10
4.5170146214
 20
3.5017562554
 30
0.0
  0
SPLINE
  5
28B
100
AcDbEntity
  8
0
100
AcDbSpline
 62
7
  6
CONTINUOUS
 70
0
 71
3
 72
15
 73
11
 74
0
 42
0.0000001
 43
0.0000001
 44
0.0000000001
 40
0.0
 40
0.0
 40
0.0
 40
0.0
 40
0.1519643445
 40
0.2990041388
 40
0.4395468838
 40
0.5721148601
 40
0.6953349835
 40
0.8081044507
 40
0.909716964
 40
1.0
 40
1.0
 40
1.0
 40
1.0
 10
4.5191857693
 20
3.6155706243
 30
0.0
 10
4.5176876367
 20
3.6160090182
 30
0.0
 10
4.514728272
 20
3.6168327405
 30
0.0
 10
4.5103391753
 20
3.6178958095
 30
0.0
 10
4.5061045318
 20
3.6187363006
 30
0.0
 10
4.502074263
 20
3.6193259141
 30
0.0
 10
4.4982990347
 20
3.6196436541
 30
0.0
 10
4.4948274042
 20
3.6196777609
 30
0.0
 10
4.491703409
 20
3.6194267734
 30
0.0
 10
4.4897618846
 20
3.6190531347
 30
0.0
 10
4.4888661683
 20
3.618812889
 30
0.0
  0
SPLINE
  5
28C
100
AcDbEntity
  8
ALL_FEATURES
100
AcDbSpline
 62
7
  6
CONTINUOUS
 70
0
 71
3
 72
15
 73
11
 74
0
 42
0.0000001
 43
0.0000001
 44
0.0000000001
 40
0.0
 40
0.0
 40
0.0
 40
0.0
 40
0.1515907421
 40
0.2983805588
 40
0.4388059591
 40
0.571310838
 40
0.6944750047
 40
0.8072258963
 40
0.9090212557
 40
1.0
 40
1.0
 40
1.0
 40
1.0
 10
4.5460287484
 20
3.5017562936
 30
0.0
 10
4.5477244962
 20
3.5011455263
 30
0.0
 10
4.5510833687
 20
3.500000466
 30
0.0
 10
4.5560897362
 20
3.4985255405
 30
0.0
 10
4.5609442589
 20
3.4973580683
 30
0.0
 10
4.5655848566
 20
3.4965354246
 30
0.0
 10
4.5699468074
 20
3.4960861933
 30
0.0
 10
4.5739681877
 20
3.4960275367
 30
0.0
 10
4.5775929141
 20
3.4963626673
 30
0.0
 10
4.5798379508
 20
3.4968700401
 30
0.0
 10
4.580869554
 20
3.4971954857
 30
0.0
  0
SPLINE
  5
28D
100
AcDbEntity
  8
ALL_FEATURES
100
AcDbSpline
 62
7
  6
CONTINUOUS
 70
0
 71
3
 72
11
 73
7
 74
0
 42
0.0000001
 43
0.0000001
 44
0.0000000001
 40
0.0
 40
0.0
 40
0.0
 40
0.0
 40
0.2107610901
 40
0.4460678963
 40
0.7085222187
 40
1.0
 40
1.0
 40
1.0
 40
1.0
 10
4.5736734121
 20
3.4960896641
 30
0.0
 10
4.5733931328
 20
3.4958471167
 30
0.0
 10
4.5727544363
 20
3.4953852812
 30
0.0
 10
4.5716497801
 20
3.4948020506
 30
0.0
 10
4.5703522942
 20
3.4943014895
 30
0.0
 10
4.5694115317
 20
3.4940425773
 30
0.0
 10
4.5689122492
 20
3.4939264545
 30
0.0
  0
SPLINE
  5
28E
100
AcDbEntity
  8
ALL_FEATURES
100
AcDbSpline
 62
7
  6
CONTINUOUS
 70
0
 71
3
 72
15
 73
11
 74
0
 42
0.0000001
 43
0.0000001
 44
0.0000000001
 40
0.0
 40
0.0
 40
0.0
 40
0.0
 40
0.1234183598
 40
0.2481562281
 40
0.37381973
 40
0.500001386
 40
0.6261825308
 40
0.7518446051
 40
0.8765812786
 40
1.0
 40
1.0
 40
1.0
 40
1.0
 10
4.5170146214
 20
3.5017562554
 30
0.0
 10
4.5181612845
 20
3.5021692556
 30
0.0
 10
4.5204988304
 20
3.5029144044
 30
0.0
 10
4.5240995547
 20
3.5037472202
 30
0.0
 10
4.5277873249
 20
3.5042649146
 30
0.0
 10
4.531521719
 20
3.504440858
 30
0.0
 10
4.5352560982
 20
3.504264919
 30
0.0
 10
4.5389438427
 20
3.5037472609
 30
0.0
 10
4.5425445425
 20
3.5029144358
 30
0.0
 10
4.544882082
 20
3.5021692951
 30
0.0
 10
4.5460287484
 20
3.5017562936
 30
0.0
  0
SPLINE
  5
28F
100
AcDbEntity
  8
0
100
AcDbSpline
 62
7
  6
CONTINUOUS
 70
0
 71
3
 72
15
 73
11
 74
0
 42
0.0000001
 43
0.0000001
 44
0.0000000001
 40
0.0
 40
0.0
 40
0.0
 40
0.0
 40
0.1234186257
 40
0.248168316
 40
0.3738444208
 40
0.5000150316
 40
0.6261853081
 40
0.7518615726
 40
0.8765955253
 40
1.0
 40
1.0
 40
1.0
 40
1.0
 10
4.5438577492
 20
3.6155706229
 30
0.0
 10
4.5428700339
 20
3.6152815911
 30
0.0
 10
4.540864614
 20
3.6147640051
 30
0.0
 10
4.5377976186
 20
3.6141924172
 30
0.0
 10
4.5346742404
 20
3.613840525
 30
0.0
 10
4.5315213843
 20
3.6137216337
 30
0.0
 10
4.5283685279
 20
3.613840567
 30
0.0
 10
4.525245289
 20
3.6141925075
 30
0.0
 10
4.5221785425
 20
3.6147640752
 30
0.0
 10
4.5201733713
 20
3.6152816255
 30
0.0
 10
4.5191857693
 20
3.6155706243
 30
0.0
  0
SPLINE
  5
290
100
AcDbEntity
  8
ALL_FEATURES
100
AcDbSpline
 62
7
  6
CONTINUOUS
 70
0
 71
3
 72
13
 73
9
 74
0
 42
0.0000001
 43
0.0000001
 44
0.0000000001
 40
0.0
 40
0.0
 40
0.0
 40
0.0
 40
0.2166462597
 40
0.3369283623
 40
0.4630313481
 40
0.7271468123
 40
0.8629514529
 40
1.0
 40
1.0
 40
1.0
 40
1.0
 10
4.4549696479
 20
3.5087150006
 30
0.0
 10
4.4528547988
 20
3.5098651398
 30
0.0
 10
4.4494384437
 20
3.5114279211
 30
0.0
 10
4.4445849376
 20
3.5131420614
 30
0.0
 10
4.4391250436
 20
3.5146929248
 30
0.0
 10
4.4333604001
 20
3.5157617848
 30
0.0
 10
4.4274162716
 20
3.5163094626
 30
0.0
 10
4.424383368
 20
3.5164034712
 30
0.0
 10
4.4228604896
 20
3.5164034712
 30
0.0
  0
SPLINE
  5
291
100
AcDbEntity
  8
ALL_FEATURES
100
AcDbSpline
 62
7
  6
CONTINUOUS
 70
0
 71
3
 72
16
 73
12
 74
0
 42
0.0000001
 43
0.0000001
 44
0.0000000001
 40
0.0
 40
0.0
 40
0.0
 40
0.0
 40
0.1370335261
 40
0.2727912139
 40
0.3399414122
 40
0.406456891
 40
0.5369692258
 40
0.6630433665
 40
0.7832964735
 40
0.8961842027
 40
1.0
 40
1.0
 40
1.0
 40
1.0
 10
4.4228604896
 20
3.5976534712
 30
0.0
 10
4.4243835752
 20
3.5976534712
 30
0.0
 10
4.4274163214
 20
3.5977473114
 30
0.0
 10
4.4311811264
 20
3.5980945143
 30
0.0
 10
4.4341475661
 20
3.5985071051
 30
0.0
 10
4.4370421863
 20
3.599002225
 30
0.0
 10
4.4405528284
 20
3.5997699886
 30
0.0
 10
4.4445846227
 20
3.6009145559
 30
0.0
 10
4.4483516884
 20
3.6022453255
 30
0.0
 10
4.4518012755
 20
3.6037096033
 30
0.0
 10
4.4539557852
 20
3.6047906663
 30
0.0
 10
4.4549694524
 20
3.6053419552
 30
0.0
  0
SPLINE
  5
292
100
AcDbEntity
  8
ALL_FEATURES
100
AcDbSpline
 62
7
  6
CONTINUOUS
 70
0
 71
3
 72
13
 73
9
 74
0
 42
0.0000001
 43
0.0000001
 44
0.0000000001
 40
0.0
 40
0.0
 40
0.0
 40
0.0
 40
0.2166463016
 40
0.3369284096
 40
0.4630313936
 40
0.7271468397
 40
0.8629514673
 40
1.0
 40
1.0
 40
1.0
 40
1.0
 10
4.3907513429
 20
3.6053419356
 30
0.0
 10
4.3928661919
 20
3.6041917971
 30
0.0
 10
4.3962825465
 20
3.602629017
 30
0.0
 10
4.4011360514
 20
3.600914878
 30
0.0
 10
4.4065959433
 20
3.599364016
 30
0.0
 10
4.4123605843
 20
3.598295157
 30
0.0
 10
4.41830471
 20
3.5977474797
 30
0.0
 10
4.421337612
 20
3.5976534712
 30
0.0
 10
4.4228604896
 20
3.5976534712
 30
0.0
  0
SPLINE
  5
293
100
AcDbEntity
  8
ALL_FEATURES
100
AcDbSpline
 62
7
  6
CONTINUOUS
 70
0
 71
3
 72
16
 73
12
 74
0
 42
0.0000001
 43
0.0000001
 44
0.0000000001
 40
0.0
 40
0.0
 40
0.0
 40
0.0
 40
0.1370335261
 40
0.2727912139
 40
0.3399414122
 40
0.406456891
 40
0.5369692258
 40
0.6630433665
 40
0.7832964735
 40
0.8961842027
 40
1.0
 40
1.0
 40
1.0
 40
1.0
 10
4.4228604896
 20
3.5164034712
 30
0.0
 10
4.4213374041
 20
3.5164034712
 30
0.0
 10
4.4183046578
 20
3.516309631
 30
0.0
 10
4.4145398528
 20
3.5159624282
 30
0.0
 10
4.4115734131
 20
3.5155498374
 30
0.0
 10
4.408678793
 20
3.5150547175
 30
0.0
 10
4.4051681509
 20
3.5142869539
 30
0.0
 10
4.4011363565
 20
3.5131423865
 30
0.0
 10
4.3973692909
 20
3.5118116169
 30
0.0
 10
4.3939197038
 20
3.5103473391
 30
0.0
 10
4.3917651941
 20
3.5092662762
 30
0.0
 10
4.3907515269
 20
3.5087149872
 30
0.0
  0
SPLINE
  5
294
100
AcDbEntity
  8
ALL_FEATURES
100
AcDbSpline
 62
7
  6
CONTINUOUS
 70
0
 71
3
 72
13
 73
9
 74
0
 42
0.0000001
 43
0.0000001
 44
0.0000000001
 40
0.0
 40
0.0
 40
0.0
 40
0.0
 40
0.2166463015
 40
0.3369284095
 40
0.4630313935
 40
0.7271468397
 40
0.8629514672
 40
1.0
 40
1.0
 40
1.0
 40
1.0
 10
4.6722921353
 20
3.5087150069
 30
0.0
 10
4.6701772864
 20
3.5098651454
 30
0.0
 10
4.6667609318
 20
3.5114279255
 30
0.0
 10
4.6619074269
 20
3.5131420644
 30
0.0
 10
4.6564475349
 20
3.5146929264
 30
0.0
 10
4.650682894
 20
3.5157617855
 30
0.0
 10
4.6447387683
 20
3.5163094627
 30
0.0
 10
4.6417058662
 20
3.5164034712
 30
0.0
 10
4.6401829886
 20
3.5164034712
 30
0.0
  0
SPLINE
  5
295
100
AcDbEntity
  8
ALL_FEATURES
100
AcDbSpline
 62
7
  6
CONTINUOUS
 70
0
 71
3
 72
16
 73
12
 74
0
 42
0.0000001
 43
0.0000001
 44
0.0000000001
 40
0.0
 40
0.0
 40
0.0
 40
0.0
 40
0.1370335261
 40
0.2727912139
 40
0.3399414122
 40
0.406456891
 40
0.5369692258
 40
0.6630433665
 40
0.7832964735
 40
0.8961842027
 40
1.0
 40
1.0
 40
1.0
 40
1.0
 10
4.6401829886
 20
3.5976534712
 30
0.0
 10
4.6417060742
 20
3.5976534712
 30
0.0
 10
4.6447388204
 20
3.5977473114
 30
0.0
 10
4.6485036254
 20
3.5980945143
 30
0.0
 10
4.6514700651
 20
3.5985071051
 30
0.0
 10
4.6543646853
 20
3.599002225
 30
0.0
 10
4.6578753274
 20
3.5997699886
 30
0.0
 10
4.6619071217
 20
3.6009145559
 30
0.0
 10
4.6656741874
 20
3.6022453255
 30
0.0
 10
4.6691237745
 20
3.6037096033
 30
0.0
 10
4.6712782842
 20
3.6047906663
 30
0.0
 10
4.6722919514
 20
3.6053419552
 30
0.0
  0
SPLINE
  5
296
100
AcDbEntity
  8
0
100
AcDbSpline
 62
7
  6
CONTINUOUS
 70
0
 71
3
 72
15
 73
11
 74
0
 42
0.0000001
 43
0.0000001
 44
0.0000000001
 40
0.0
 40
0.0
 40
0.0
 40
0.0
 40
0.0902886101
 40
0.1919057747
 40
0.3046800166
 40
0.4279094476
 40
0.5604866715
 40
0.7010257806
 40
0.8480530343
 40
1.0
 40
1.0
 40
1.0
 40
1.0
 10
4.5741770835
 20
3.6188128857
 30
0.0
 10
4.5732813085
 20
3.6190531033
 30
0.0
 10
4.5713397121
 20
3.6194268118
 30
0.0
 10
4.5682155836
 20
3.6196777936
 30
0.0
 10
4.5647437901
 20
3.6196436764
 30
0.0
 10
4.5609683623
 20
3.6193258106
 30
0.0
 10
4.5569379881
 20
3.6187361093
 30
0.0
 10
4.5527034526
 20
3.6178956272
 30
0.0
 10
4.5483147388
 20
3.6168326035
 30
0.0
 10
4.5453556979
 20
3.6160089627
 30
0.0
 10
4.5438577492
 20
3.6155706229
 30
0.0
  0
SPLINE
  5
297
100
AcDbEntity
  8
ALL_FEATURES
100
AcDbSpline
 62
7
  6
CONTINUOUS
 70
0
 71
3
 72
10
 73
6
 74
0
 42
0.0000001
 43
0.0000001
 44
0.0000000001
 40
0.0
 40
0.0
 40
0.0
 40
0.0
 40
0.2460155737
 40
0.4951734242
 40
1.0
 40
1.0
 40
1.0
 40
1.0
 10
4.6080734058
 20
3.6053419922
 30
0.0
 10
4.6054407777
 20
3.6067741739
 30
0.0
 10
4.6000517058
 20
3.6094949008
 30
0.0
 10
4.5888649528
 20
3.6143291834
 30
0.0
 10
4.5801173613
 20
3.6172198164
 30
0.0
 10
4.5741774063
 20
3.6188127205
 30
0.0
  0
SPLINE
  5
298
100
AcDbEntity
  8
ALL_FEATURES
100
AcDbSpline
 62
7
  6
CONTINUOUS
 70
0
 71
3
 72
10
 73
6
 74
0
 42
0.0000001
 43
0.0000001
 44
0.0000000001
 40
0.0
 40
0.0
 40
0.0
 40
0.0
 40
0.5042838966
 40
0.7534949552
 40
1.0
 40
1.0
 40
1.0
 40
1.0
 10
4.5808692599
 20
3.497195339
 30
0.0
 10
4.585611446
 20
3.4986909483
 30
0.0
 10
4.5925989622
 20
3.5012597846
 30
0.0
 10
4.6015854173
 20
3.5053241761
 30
0.0
 10
4.6059382655
 20
3.5075534079
 30
0.0
 10
4.6080734058
 20
3.5087149503
 30
0.0
  0
SPLINE
  5
299
100
AcDbEntity
  8
ALL_FEATURES
100
AcDbSpline
 62
7
  6
CONTINUOUS
 70
0
 71
3
 72
10
 73
6
 74
0
 42
0.0000001
 43
0.0000001
 44
0.0000000001
 40
0.0
 40
0.0
 40
0.0
 40
0.0
 40
0.2507452057
 40
0.5013309566
 40
1.0
 40
1.0
 40
1.0
 40
1.0
 10
4.53156407
 20
3.4896534766
 30
0.0
 10
4.5347117589
 20
3.4896542802
 30
0.0
 10
4.5410069266
 20
3.4898349873
 30
0.0
 10
4.553518617
 20
3.490905726
 30
0.0
 10
4.5628144231
 20
3.492508451
 30
0.0
 10
4.568911679
 20
3.4939263984
 30
0.0
  0
SPLINE
  5
29A
100
AcDbEntity
  8
ALL_FEATURES
100
AcDbSpline
 62
7
  6
CONTINUOUS
 70
0
 71
3
 72
13
 73
9
 74
0
 42
0.0000001
 43
0.0000001
 44
0.0000000001
 40
0.0
 40
0.0
 40
0.0
 40
0.0
 40
0.2166462597
 40
0.3369283623
 40
0.4630313481
 40
0.7271468123
 40
0.8629514529
 40
1.0
 40
1.0
 40
1.0
 40
1.0
 10
4.6080738303
 20
3.6053419419
 30
0.0
 10
4.6101886794
 20
3.6041918026
 30
0.0
 10
4.6136050346
 20
3.6026290214
 30
0.0
 10
4.6184585406
 20
3.6009148811
 30
0.0
 10
4.6239184347
 20
3.5993640177
 30
0.0
 10
4.6296830782
 20
3.5982951576
 30
0.0
 10
4.6356272067
 20
3.5977474798
 30
0.0
 10
4.6386601103
 20
3.5976534712
 30
0.0
 10
4.6401829886
 20
3.5976534712
 30
0.0
  0
SPLINE
  5
29B
100
AcDbEntity
  8
ALL_FEATURES
100
AcDbSpline
 62
7
  6
CONTINUOUS
 70
0
 71
3
 72
16
 73
12
 74
0
 42
0.0000001
 43
0.0000001
 44
0.0000000001
 40
0.0
 40
0.0
 40
0.0
 40
0.0
 40
0.1370335261
 40
0.2727912139
 40
0.3399414122
 40
0.406456891
 40
0.5369692258
 40
0.6630433665
 40
0.7832964735
 40
0.8961842027
 40
1.0
 40
1.0
 40
1.0
 40
1.0
 10
4.6401829886
 20
3.5164034712
 30
0.0
 10
4.6386599031
 20
3.5164034712
 30
0.0
 10
4.6356271568
 20
3.516309631
 30
0.0
 10
4.6318623519
 20
3.5159624282
 30
0.0
 10
4.6288959121
 20
3.5155498374
 30
0.0
 10
4.626001292
 20
3.5150547175
 30
0.0
 10
4.6224906499
 20
3.5142869539
 30
0.0
 10
4.6184588556
 20
3.5131423865
 30
0.0
 10
4.6146917899
 20
3.5118116169
 30
0.0
 10
4.6112422028
 20
3.5103473391
 30
0.0
 10
4.6090876931
 20
3.5092662762
 30
0.0
 10
4.6080740259
 20
3.5087149872
 30
0.0
  0
SPLINE
  5
29C
100
AcDbEntity
  8
ALL_FEATURES
100
AcDbSpline
 62
7
  6
CONTINUOUS
 70
0
 71
3
 72
10
 73
6
 74
0
 42
0.0000001
 43
0.0000001
 44
0.0000000001
 40
0.0
 40
0.0
 40
0.0
 40
0.0
 40
0.2460114174
 40
0.4951817938
 40
1.0
 40
1.0
 40
1.0
 40
1.0
 10
4.4549700725
 20
3.6053419922
 30
0.0
 10
4.4576026461
 20
3.6067741443
 30
0.0
 10
4.4629917967
 20
3.609494889
 30
0.0
 10
4.4741784881
 20
3.614329203
 30
0.0
 10
4.4829261095
 20
3.6172197844
 30
0.0
 10
4.488865927
 20
3.618812718
 30
0.0
  0
SPLINE
  5
29D
100
AcDbEntity
  8
ALL_FEATURES
100
AcDbSpline
 62
7
  6
CONTINUOUS
 70
0
 71
3
 72
11
 73
7
 74
0
 42
0.0000001
 43
0.0000001
 44
0.0000000001
 40
0.0
 40
0.0
 40
0.0
 40
0.0
 40
0.2254140386
 40
0.4669269932
 40
0.725138763
 40
1.0
 40
1.0
 40
1.0
 40
1.0
 10
4.4821737577
 20
3.4971955352
 30
0.0
 10
4.4827786682
 20
3.4970046935
 30
0.0
 10
4.4840516584
 20
3.4966709063
 30
0.0
 10
4.4860641505
 20
3.4963219074
 30
0.0
 10
4.4882355493
 20
3.4961126753
 30
0.0
 10
4.4897361039
 20
3.4960690179
 30
0.0
 10
4.4905095458
 20
3.4960690179
 30
0.0
  0
SPLINE
  5
29E
100
AcDbEntity
  8
ALL_FEATURES
100
AcDbSpline
 62
7
  6
CONTINUOUS
 70
0
 71
3
 72
10
 73
6
 74
0
 42
0.0000001
 43
0.0000001
 44
0.0000000001
 40
0.0
 40
0.0
 40
0.0
 40
0.0
 40
0.5042873901
 40
0.7534980573
 40
1.0
 40
1.0
 40
1.0
 40
1.0
 10
4.4821742479
 20
3.4971953334
 30
0.0
 10
4.4774320358
 20
3.4986909911
 30
0.0
 10
4.4704444713
 20
3.5012598002
 30
0.0
 10
4.461458012
 20
3.5053242082
 30
0.0
 10
4.457105188
 20
3.5075534214
 30
0.0
 10
4.4549700725
 20
3.5087149503
 30
0.0
  0
SPLINE
  5
29F
100
AcDbEntity
  8
ALL_FEATURES
100
AcDbSpline
 62
7
  6
CONTINUOUS
 70
0
 71
3
 72
11
 73
7
 74
0
 42
0.0000001
 43
0.0000001
 44
0.0000000001
 40
0.0
 40
0.0
 40
0.0
 40
0.0
 40
0.2833866531
 40
0.543749486
 40
0.782129008
 40
1.0
 40
1.0
 40
1.0
 40
1.0
 10
4.4941312347
 20
3.4939264288
 30
0.0
 10
4.4937197434
 20
3.4940221446
 30
0.0
 10
4.4929358886
 20
3.4942320764
 30
0.0
 10
4.4918356119
 20
3.4946221817
 30
0.0
 10
4.490863665
 20
3.4950693683
 30
0.0
 10
4.4902772191
 20
3.4954173189
 30
0.0
 10
4.4900088095
 20
3.495600225
 30
0.0
  0
LINE
  5
2A0
100
AcDbEntity
  8
ALL_FEATURES
100
AcDbLine
 62
7
  6
CONTINUOUS
 10
4.4900088095
 20
3.495600225
 11
4.4893718169
 21
3.4960881435
  0
SPLINE
  5
2A1
100
AcDbEntity
  8
ALL_FEATURES
100
AcDbSpline
 62
7
  6
CONTINUOUS
 70
0
 71
3
 72
13
 73
9
 74
0
 42
0.0000001
 43
0.0000001
 44
0.0000000001
 40
0.0
 40
0.0
 40
0.0
 40
0.0
 40
0.2764374665
 40
0.538642448
 40
0.6627801888
 40
0.7814200587
 40
0.8940076295
 40
1.0
 40
1.0
 40
1.0
 40
1.0
 10
4.520825378
 20
3.4963384529
 30
0.0
 10
4.5189900561
 20
3.4958857232
 30
0.0
 10
4.5154004966
 20
3.495056256
 30
0.0
 10
4.5109429262
 20
3.4942250892
 30
0.0
 10
4.507523201
 20
3.4937418761
 30
0.0
 10
4.5051065274
 20
3.4934821346
 30
0.0
 10
4.5028054669
 20
3.4933229795
 30
0.0
 10
4.5013106151
 20
3.4932845331
 30
0.0
 10
4.5005858175
 20
3.4932845331
 30
0.0
  0
SPLINE
  5
2A2
100
AcDbEntity
  8
ALL_FEATURES
100
AcDbSpline
 62
7
  6
CONTINUOUS
 70
0
 71
3
 72
11
 73
7
 74
0
 42
0.0000001
 43
0.0000001
 44
0.0000000001
 40
0.0
 40
0.0
 40
0.0
 40
0.0
 40
0.276899702
 40
0.5361368031
 40
0.7771869872
 40
1.0
 40
1.0
 40
1.0
 40
1.0
 10
4.5005858175
 20
3.4932845331
 30
0.0
 10
4.499985929
 20
3.4932845331
 30
0.0
 10
4.4988241979
 20
3.4933093144
 30
0.0
 10
4.4971439009
 20
3.4934283097
 30
0.0
 10
4.4955890721
 20
3.4936265887
 30
0.0
 10
4.4946013955
 20
3.493817066
 30
0.0
 10
4.4941312347
 20
3.4939264288
 30
0.0
  0
SPLINE
  5
2A3
100
AcDbEntity
  8
ALL_FEATURES
100
AcDbSpline
 62
7
  6
CONTINUOUS
 70
0
 71
3
 72
19
 73
15
 74
0
 42
0.0000001
 43
0.0000001
 44
0.0000000001
 40
0.0
 40
0.0
 40
0.0
 40
0.0
 40
0.0537664638
 40
0.1078543848
 40
0.1625442097
 40
0.2181208215
 40
0.2748246946
 40
0.3328574414
 40
0.3923789757
 40
0.4535031704
 40
0.5807000692
 40
0.7146153001
 40
0.8547138105
 40
1.0
 40
1.0
 40
1.0
 40
1.0
 10
4.5949318334
 20
3.5052636361
 30
0.0
 10
4.5939989963
 20
3.5052636361
 30
0.0
 10
4.5921261905
 20
3.50536522
 30
0.0
 10
4.5893378969
 20
3.5058205072
 30
0.0
 10
4.5865828952
 20
3.5065762604
 30
0.0
 10
4.5838781575
 20
3.5076274304
 30
0.0
 10
4.5812393591
 20
3.508967477
 30
0.0
 10
4.5786819652
 20
3.5105880829
 30
0.0
 10
4.5762206604
 20
3.5124795677
 30
0.0
 10
4.5730448006
 20
3.5153851202
 30
0.0
 10
4.5693993521
 20
3.5196562544
 30
0.0
 10
4.5656853407
 20
3.5255689708
 30
0.0
 10
4.5626514182
 20
3.5322016052
 30
0.0
 10
4.5611491377
 20
3.5369336153
 30
0.0
 10
4.5605228095
 20
3.5393752478
 30
0.0
  0
SPLINE
  5
2A4
100
AcDbEntity
  8
ALL_FEATURES
100
AcDbSpline
 62
7
  6
CONTINUOUS
 70
0
 71
3
 72
11
 73
7
 74
0
 42
0.0000001
 43
0.0000001
 44
0.0000000001
 40
0.0
 40
0.0
 40
0.0
 40
0.0
 40
0.2450693088
 40
0.492197791
 40
0.7432644464
 40
1.0
 40
1.0
 40
1.0
 40
1.0
 10
4.5949318334
 20
3.5052636361
 30
0.0
 10
4.596052408
 20
3.5052636361
 30
0.0
 10
4.5983056414
 20
3.5054105516
 30
0.0
 10
4.6016489918
 20
3.5060684225
 30
0.0
 10
4.6049335404
 20
3.5071577295
 30
0.0
 10
4.6070386914
 20
3.5081522195
 30
0.0
 10
4.6080699583
 20
3.5087130872
 30
0.0
  0
SPLINE
  5
2A5
100
AcDbEntity
  8
ALL_FEATURES
100
AcDbSpline
 62
7
  6
CONTINUOUS
 70
0
 71
3
 72
20
 73
16
 74
0
 42
0.0000001
 43
0.0000001
 44
0.0000000001
 40
0.0
 40
0.0
 40
0.0
 40
0.0
 40
0.0537588922
 40
0.1078445133
 40
0.1625295679
 40
0.2180999324
 40
0.2747986276
 40
0.3328261802
 40
0.3923419402
 40
0.4534602223
 40
0.5162508109
 40
0.580739549
 40
0.7146428024
 40
0.854727002
 40
1.0
 40
1.0
 40
1.0
 40
1.0
 10
4.4681116448
 20
3.5052636361
 30
0.0
 10
4.4690444385
 20
3.5052636361
 30
0.0
 10
4.4709172458
 20
3.505365263
 30
0.0
 10
4.47370556
 20
3.5058204843
 30
0.0
 10
4.4764606031
 20
3.5065762466
 30
0.0
 10
4.4791653052
 20
3.5076274818
 30
0.0
 10
4.4818041297
 20
3.5089674397
 30
0.0
 10
4.4843615216
 20
3.5105881117
 30
0.0
 10
4.4868227425
 20
3.5124795355
 30
0.0
 10
4.4891736897
 20
3.5146303223
 30
0.0
 10
4.4914008509
 20
3.5170279948
 30
0.0
 10
4.4942231252
 20
3.520578563
 30
0.0
 10
4.4973586248
 20
3.5255696214
 30
0.0
 10
4.500391919
 20
3.5322014081
 30
0.0
 10
4.5018943384
 20
3.5369336069
 30
0.0
 10
4.5025206688
 20
3.5393752478
 30
0.0
  0
SPLINE
  5
2A6
100
AcDbEntity
  8
ALL_FEATURES
100
AcDbSpline
 62
7
  6
CONTINUOUS
 70
0
 71
3
 72
20
 73
16
 74
0
 42
0.0000001
 43
0.0000001
 44
0.0000000001
 40
0.0
 40
0.0
 40
0.0
 40
0.0
 40
0.1452729979
 40
0.2853571975
 40
0.419260451
 40
0.483749189
 40
0.5465397776
 40
0.6076580598
 40
0.6671738197
 40
0.7252013724
 40
0.7819000676
 40
0.8374704321
 40
0.8921554867
 40
0.9462411078
 40
1.0
 40
1.0
 40
1.0
 40
1.0
 10
4.5025206688
 20
3.5746816947
 30
0.0
 10
4.5018943384
 20
3.5771233356
 30
0.0
 10
4.500391919
 20
3.5818555343
 30
0.0
 10
4.4973586248
 20
3.588487321
 30
0.0
 10
4.4942231252
 20
3.5934783795
 30
0.0
 10
4.4914008509
 20
3.5970289477
 30
0.0
 10
4.4891736897
 20
3.5994266201
 30
0.0
 10
4.4868227425
 20
3.601577407
 30
0.0
 10
4.4843615216
 20
3.6034688307
 30
0.0
 10
4.4818041297
 20
3.6050895028
 30
0.0
 10
4.4791653052
 20
3.6064294607
 30
0.0
 10
4.4764606031
 20
3.6074806958
 30
0.0
 10
4.47370556
 20
3.6082364582
 30
0.0
 10
4.4709172458
 20
3.6086916794
 30
0.0
 10
4.4690444385
 20
3.6087933063
 30
0.0
 10
4.4681116448
 20
3.6087933063
 30
0.0
  0
SPLINE
  5
2A7
100
AcDbEntity
  8
ALL_FEATURES
100
AcDbSpline
 62
7
  6
CONTINUOUS
 70
0
 71
3
 72
13
 73
9
 74
0
 42
0.0000001
 43
0.0000001
 44
0.0000000001
 40
0.0
 40
0.0
 40
0.0
 40
0.0
 40
0.2481017741
 40
0.3738067996
 40
0.4999992553
 40
0.6261921462
 40
0.7518983938
 40
1.0
 40
1.0
 40
1.0
 40
1.0
 10
4.5422181261
 20
3.4963384473
 30
0.0
 10
4.5404837564
 20
3.4967662745
 30
0.0
 10
4.5378303885
 20
3.497263679
 30
0.0
 10
4.5342445993
 20
3.4976022215
 30
0.0
 10
4.5315217655
 20
3.4976879793
 30
0.0
 10
4.5287989228
 20
3.4976022227
 30
0.0
 10
4.525213123
 20
3.4972636804
 30
0.0
 10
4.5225597465
 20
3.4967662798
 30
0.0
 10
4.520825378
 20
3.4963384529
 30
0.0
  0
SPLINE
  5
2A8
100
AcDbEntity
  8
ALL_FEATURES
100
AcDbSpline
 62
7
  6
CONTINUOUS
 70
0
 71
3
 72
15
 73
11
 74
0
 42
0.0000001
 43
0.0000001
 44
0.0000000001
 40
0.0
 40
0.0
 40
0.0
 40
0.0
 40
0.1596565092
 40
0.3069392317
 40
0.4427262188
 40
0.5681612147
 40
0.6846743284
 40
0.7940190777
 40
0.8983094177
 40
1.0
 40
1.0
 40
1.0
 40
1.0
 10
4.542218004
 20
3.4963384746
 30
0.0
 10
4.5417810582
 20
3.4958035309
 30
0.0
 10
4.5409122619
 20
3.4947979687
 30
0.0
 10
4.539564017
 20
3.4934352234
 30
0.0
 10
4.5382237842
 20
3.4922798764
 30
0.0
 10
4.5368895138
 20
3.4913315341
 30
0.0
 10
4.5355589179
 20
3.4905899956
 30
0.0
 10
4.5342293421
 20
3.4900562744
 30
0.0
 10
4.5328993097
 20
3.4897320491
 30
0.0
 10
4.5320071069
 20
3.489656191
 30
0.0
 10
4.5315671753
 20
3.4896536152
 30
0.0
  0
SPLINE
  5
2A9
100
AcDbEntity
  8
ALL_FEATURES
100
AcDbSpline
 62
7
  6
CONTINUOUS
 70
0
 71
3
 72
15
 73
11
 74
0
 42
0.0000001
 43
0.0000001
 44
0.0000000001
 40
0.0
 40
0.0
 40
0.0
 40
0.0
 40
0.1596769999
 40
0.3069722399
 40
0.4427690673
 40
0.568217704
 40
0.6847487004
 40
0.7940891572
 40
0.8983355376
 40
1.0
 40
1.0
 40
1.0
 40
1.0
 10
4.5208254907
 20
3.4963384786
 30
0.0
 10
4.5212625445
 20
3.4958034666
 30
0.0
 10
4.5221314878
 20
3.4947977631
 30
0.0
 10
4.523479901
 20
3.4934347961
 30
0.0
 10
4.5248203341
 20
3.4922793116
 30
0.0
 10
4.5261548969
 20
3.4913309289
 30
0.0
 10
4.5274857811
 20
3.4905895169
 30
0.0
 10
4.5288153278
 20
3.4900559218
 30
0.0
 10
4.5301451085
 20
3.4897317373
 30
0.0
 10
4.5310370752
 20
3.4896560812
 30
0.0
 10
4.5314769151
 20
3.4896536044
 30
0.0
  0
SPLINE
  5
2AA
100
AcDbEntity
  8
ALL_FEATURES
100
AcDbSpline
 62
7
  6
CONTINUOUS
 70
0
 71
3
 72
15
 73
11
 74
0
 42
0.0000001
 43
0.0000001
 44
0.0000000001
 40
0.0
 40
0.0
 40
0.0
 40
0.0
 40
0.160715834
 40
0.3105694946
 40
0.4497646967
 40
0.578718437
 40
0.6978441223
 40
0.8075339542
 40
0.9081520195
 40
1.0
 40
1.0
 40
1.0
 40
1.0
 10
4.5025206688
 20
3.5393752478
 30
0.0
 10
4.5029537385
 20
3.5372496662
 30
0.0
 10
4.5039208835
 20
3.5331678317
 30
0.0
 10
4.5056324743
 20
3.5273412385
 30
0.0
 10
4.5074617185
 20
3.5220023205
 30
0.0
 10
4.5093479745
 20
3.5171260036
 30
0.0
 10
4.5112553559
 20
3.5126885349
 30
0.0
 10
4.5131617915
 20
3.5086702428
 30
0.0
 10
4.5150551826
 20
3.5050568455
 30
0.0
 10
4.5163624318
 20
3.5028105459
 30
0.0
 10
4.517014629
 20
3.5017562579
 30
0.0
  0
SPLINE
  5
2AB
100
AcDbEntity
  8
ALL_FEATURES
100
AcDbSpline
 62
7
  6
CONTINUOUS
 70
0
 71
3
 72
15
 73
11
 74
0
 42
0.0000001
 43
0.0000001
 44
0.0000000001
 40
0.0
 40
0.0
 40
0.0
 40
0.0
 40
0.1211783746
 40
0.2456335574
 40
0.3722606961
 40
0.5000000215
 40
0.6277393438
 40
0.754366474
 40
0.8788216431
 40
1.0
 40
1.0
 40
1.0
 40
1.0
 10
4.5025206589
 20
3.5393752559
 30
0.0
 10
4.5048465233
 20
3.5397146738
 30
0.0
 10
4.5095754417
 20
3.5403076965
 30
0.0
 10
4.5167700109
 20
3.5409393307
 30
0.0
 10
4.5241096553
 20
3.5413207464
 30
0.0
 10
4.5315217374
 20
3.5414483827
 30
0.0
 10
4.5389338194
 20
3.5413207447
 30
0.0
 10
4.5462734632
 20
3.5409393274
 30
0.0
 10
4.5534680315
 20
3.540307692
 30
0.0
 10
4.5581969492
 20
3.5397146689
 30
0.0
 10
4.5605228132
 20
3.5393752509
 30
0.0
  0
SPLINE
  5
2AC
100
AcDbEntity
  8
ALL_FEATURES
100
AcDbSpline
 62
7
  6
CONTINUOUS
 70
0
 71
3
 72
11
 73
7
 74
0
 42
0.0000001
 43
0.0000001
 44
0.0000000001
 40
0.0
 40
0.0
 40
0.0
 40
0.0
 40
0.2567357256
 40
0.5077983473
 40
0.7549388824
 40
1.0
 40
1.0
 40
1.0
 40
1.0
 10
4.4549735171
 20
3.6053438659
 30
0.0
 10
4.4560047932
 20
3.6059047174
 30
0.0
 10
4.4581099212
 20
3.6068992068
 30
0.0
 10
4.4613945033
 20
3.6079885384
 30
0.0
 10
4.4647378622
 20
3.6086463491
 30
0.0
 10
4.4669911081
 20
3.6087933063
 30
0.0
 10
4.4681116448
 20
3.6087933063
 30
0.0
  0
SPLINE
  5
2AD
100
AcDbEntity
  8
ALL_FEATURES
100
AcDbSpline
 62
7
  6
CONTINUOUS
 70
0
 71
3
 72
15
 73
11
 74
0
 42
0.0000001
 43
0.0000001
 44
0.0000000001
 40
0.0
 40
0.0
 40
0.0
 40
0.0
 40
0.160710959
 40
0.3105582188
 40
0.4497570189
 40
0.5787087597
 40
0.6978377945
 40
0.8075286422
 40
0.9081443155
 40
1.0
 40
1.0
 40
1.0
 40
1.0
 10
4.5605228095
 20
3.5393752478
 30
0.0
 10
4.5600893686
 20
3.5372498069
 30
0.0
 10
4.5591233932
 20
3.5331678547
 30
0.0
 10
4.5574106002
 20
3.527341688
 30
0.0
 10
4.5555816786
 20
3.5220027477
 30
0.0
 10
4.5536957164
 20
3.517126234
 30
0.0
 10
4.5517885609
 20
3.5126886293
 30
0.0
 10
4.5498822077
 20
3.5086702583
 30
0.0
 10
4.547988403
 20
3.5050569689
 30
0.0
 10
4.5466809338
 20
3.5028107227
 30
0.0
 10
4.5460287836
 20
3.5017562819
 30
0.0
  0
SPLINE
  5
2AE
100
AcDbEntity
  8
ALL_FEATURES
100
AcDbSpline
 62
7
  6
CONTINUOUS
 70
0
 71
3
 72
19
 73
15
 74
0
 42
0.0000001
 43
0.0000001
 44
0.0000000001
 40
0.0
 40
0.0
 40
0.0
 40
0.0
 40
0.1452861897
 40
0.2853847
 40
0.4192999309
 40
0.5464968297
 40
0.6076210244
 40
0.6671425587
 40
0.7251753055
 40
0.7818791785
 40
0.8374557903
 40
0.8921456152
 40
0.9462335362
 40
1.0
 40
1.0
 40
1.0
 40
1.0
 10
4.5605228095
 20
3.5746816947
 30
0.0
 10
4.5611491377
 20
3.5771233271
 30
0.0
 10
4.5626514182
 20
3.5818553373
 30
0.0
 10
4.5656853407
 20
3.5884879717
 30
0.0
 10
4.5693993521
 20
3.5944006881
 30
0.0
 10
4.5730448006
 20
3.5986718223
 30
0.0
 10
4.5762206604
 20
3.6015773748
 30
0.0
 10
4.5786819652
 20
3.6034688596
 30
0.0
 10
4.5812393591
 20
3.6050894654
 30
0.0
 10
4.5838781575
 20
3.6064295121
 30
0.0
 10
4.5865828952
 20
3.6074806821
 30
0.0
 10
4.5893378969
 20
3.6082364352
 30
0.0
 10
4.5921261905
 20
3.6086917225
 30
0.0
 10
4.5939989963
 20
3.6087933063
 30
0.0
 10
4.5949318334
 20
3.6087933063
 30
0.0
  0
SPLINE
  5
2AF
100
AcDbEntity
  8
ALL_FEATURES
100
AcDbSpline
 62
7
  6
CONTINUOUS
 70
0
 71
3
 72
21
 73
17
 74
0
 42
0.0000001
 43
0.0000001
 44
0.0000000001
 40
0.0
 40
0.0
 40
0.0
 40
0.0
 40
0.1180893092
 40
0.240062953
 40
0.3030496318
 40
0.3675245924
 40
0.4333365446
 40
0.4666099501
 40
0.4999998214
 40
0.5333896189
 40
0.5666629844
 40
0.6324746463
 40
0.6969495887
 40
0.759936523
 40
0.8819105308
 40
1.0
 40
1.0
 40
1.0
 40
1.0
 10
4.5025206688
 20
3.5746816947
 30
0.0
 10
4.5016925373
 20
3.5734316424
 30
0.0
 10
4.5000912103
 20
3.570834438
 30
0.0
 10
4.4983860542
 20
3.5673737045
 30
0.0
 10
4.4972915581
 20
3.5643982401
 30
0.0
 10
4.4966427177
 20
3.5620278619
 30
0.0
 10
4.4962956482
 20
3.5599759062
 30
0.0
 10
4.4961520294
 20
3.5582991333
 30
0.0
 10
4.4961160357
 20
3.5570284791
 30
0.0
 10
4.4961520276
 20
3.5557578254
 30
0.0
 10
4.4962956452
 20
3.5540810575
 30
0.0
 10
4.4966427113
 20
3.5520291061
 30
0.0
 10
4.4972915421
 20
3.5496587254
 30
0.0
 10
4.4983860628
 20
3.5466832621
 30
0.0
 10
4.5000911971
 20
3.5432225073
 30
0.0
 10
4.5016925447
 20
3.5406253074
 30
0.0
 10
4.5025206688
 20
3.5393752478
 30
0.0
  0
SPLINE
  5
2B0
100
AcDbEntity
  8
ALL_FEATURES
100
AcDbSpline
 62
7
  6
CONTINUOUS
 70
0
 71
3
 72
15
 73
11
 74
0
 42
0.0000001
 43
0.0000001
 44
0.0000000001
 40
0.0
 40
0.0
 40
0.0
 40
0.0
 40
0.1211783787
 40
0.2456335546
 40
0.3722606807
 40
0.4999999926
 40
0.6277393055
 40
0.7543664349
 40
0.8788216156
 40
1.0
 40
1.0
 40
1.0
 40
1.0
 10
4.5025206709
 20
3.5746816965
 30
0.0
 10
4.5048465347
 20
3.5743422783
 30
0.0
 10
4.5095754517
 20
3.573749255
 30
0.0
 10
4.5167700186
 20
3.5731176197
 30
0.0
 10
4.5241096603
 20
3.5727362029
 30
0.0
 10
4.5315217397
 20
3.5726085656
 30
0.0
 10
4.5389338193
 20
3.5727362026
 30
0.0
 10
4.5462734612
 20
3.573117619
 30
0.0
 10
4.5534680284
 20
3.5737492538
 30
0.0
 10
4.5581969456
 20
3.5743422767
 30
0.0
 10
4.5605228095
 20
3.5746816946
 30
0.0
  0
SPLINE
  5
2B1
100
AcDbEntity
  8
ALL_FEATURES
100
AcDbSpline
 62
7
  6
CONTINUOUS
 70
0
 71
3
 72
21
 73
17
 74
0
 42
0.0000001
 43
0.0000001
 44
0.0000000001
 40
0.0
 40
0.0
 40
0.0
 40
0.0
 40
0.1180889939
 40
0.2400598358
 40
0.3030467354
 40
0.3675229937
 40
0.4333361778
 40
0.466609873
 40
0.4999998239
 40
0.5333896975
 40
0.5666633462
 40
0.6324762336
 40
0.6969524828
 40
0.7599396877
 40
0.881910858
 40
1.0
 40
1.0
 40
1.0
 40
1.0
 10
4.5605228095
 20
3.5746816947
 30
0.0
 10
4.5613500459
 20
3.5734310241
 30
0.0
 10
4.5629527839
 20
3.5708347743
 30
0.0
 10
4.5646585369
 20
3.5673741966
 30
0.0
 10
4.5657529905
 20
3.5643986723
 30
0.0
 10
4.5664014242
 20
3.5620280915
 30
0.0
 10
4.5667480755
 20
3.5599759976
 30
0.0
 10
4.5668914841
 20
3.5582991599
 30
0.0
 10
4.5669274267
 20
3.557028479
 30
0.0
 10
4.5668914868
 20
3.5557577985
 30
0.0
 10
4.5667480759
 20
3.5540809663
 30
0.0
 10
4.5664014213
 20
3.552028878
 30
0.0
 10
4.5657529998
 20
3.5496582939
 30
0.0
 10
4.5646585461
 20
3.546682761
 30
0.0
 10
4.5629527938
 20
3.5432221714
 30
0.0
 10
4.5613500434
 20
3.5406259223
 30
0.0
 10
4.5605228095
 20
3.5393752478
 30
0.0
  0
SPLINE
  5
2B2
100
AcDbEntity
  8
ALL_FEATURES
100
AcDbSpline
 62
7
  6
CONTINUOUS
 70
0
 71
3
 72
27
 73
23
 74
0
 42
0.0000001
 43
0.0000001
 44
0.0000000001
 40
0.0
 40
0.0
 40
0.0
 40
0.0
 40
0.0263433479
 40
0.0533413754
 40
0.0810493965
 40
0.1095024277
 40
0.1686521556
 40
0.2307613664
 40
0.2955165439
 40
0.3624162265
 40
0.4308207471
 40
0.5
 40
0.5691792529
 40
0.6375837735
 40
0.7044834561
 40
0.7692386336
 40
0.8313478444
 40
0.8904975723
 40
0.9189506035
 40
0.9466586246
 40
0.9736566521
 40
1.0
 40
1.0
 40
1.0
 40
1.0
 10
4.3907509054
 20
3.5087149553
 30
0.0
 10
4.3916172227
 20
3.5091862207
 30
0.0
 10
4.3933267544
 20
3.5102247939
 30
0.0
 10
4.3957709575
 20
3.512028787
 30
0.0
 10
4.398111642
 20
3.5140870629
 30
0.0
 10
4.4011148232
 20
3.5171935068
 30
0.0
 10
4.4045289355
 20
3.5216662189
 30
0.0
 10
4.4079606854
 20
3.5277478332
 30
0.0
 10
4.4107100835
 20
3.5344798659
 30
0.0
 10
4.412717387
 20
3.5417120384
 30
0.0
 10
4.4139395217
 20
3.5492842799
 30
0.0
 10
4.4143498726
 20
3.5570284712
 30
0.0
 10
4.4139395217
 20
3.5647726626
 30
0.0
 10
4.412717387
 20
3.5723449041
 30
0.0
 10
4.4107100835
 20
3.5795770766
 30
0.0
 10
4.4079606854
 20
3.5863091093
 30
0.0
 10
4.4045289355
 20
3.5923907235
 30
0.0
 10
4.4011148232
 20
3.5968634357
 30
0.0
 10
4.398111642
 20
3.5999698795
 30
0.0
 10
4.3957709575
 20
3.6020281554
 30
0.0
 10
4.3933267544
 20
3.6038321486
 30
0.0
 10
4.3916172227
 20
3.6048707218
 30
0.0
 10
4.3907509054
 20
3.6053419872
 30
0.0
  0
SPLINE
  5
2B3
100
AcDbEntity
  8
0
100
AcDbSpline
 62
7
  6
CONTINUOUS
 70
0
 71
3
 72
18
 73
14
 74
0
 42
0.0000001
 43
0.0000001
 44
0.0000000001
 40
0.0
 40
0.0
 40
0.0
 40
0.0
 40
0.0863786032
 40
0.1333193294
 40
0.1828305696
 40
0.2897958998
 40
0.4077589035
 40
0.5372148004
 40
0.6064300257
 40
0.6787314286
 40
0.7541898739
 40
0.8328742323
 40
1.0
 40
1.0
 40
1.0
 40
1.0
 10
4.5438577435
 20
3.6155706542
 30
0.0
 10
4.5446029439
 20
3.6145312802
 30
0.0
 10
4.5456912855
 20
3.612882226
 30
0.0
 10
4.5470830329
 20
3.6105602653
 30
0.0
 10
4.5485606165
 20
3.6079354173
 30
0.0
 10
4.5504162867
 20
3.6043187026
 30
0.0
 10
4.5526035383
 20
3.5995477317
 30
0.0
 10
4.554377555
 20
3.595206629
 30
0.0
 10
4.5557766998
 20
3.5914462269
 30
0.0
 10
4.5568285306
 20
3.5884104735
 30
0.0
 10
4.5578483452
 20
3.585216187
 30
0.0
 10
4.5591739732
 20
3.5806476487
 30
0.0
 10
4.5600283525
 20
3.5771062391
 30
0.0
 10
4.5605228095
 20
3.5746816947
 30
0.0
  0
SPLINE
  5
2B4
100
AcDbEntity
  8
0
100
AcDbSpline
 62
7
  6
CONTINUOUS
 70
0
 71
3
 72
16
 73
12
 74
0
 42
0.0000001
 43
0.0000001
 44
0.0000000001
 40
0.0
 40
0.0
 40
0.0
 40
0.0
 40
0.0863803884
 40
0.133322587
 40
0.1828351782
 40
0.2898030419
 40
0.4077686279
 40
0.5372272878
 40
0.6787382617
 40
0.8328713915
 40
1.0
 40
1.0
 40
1.0
 40
1.0
 10
4.519185773
 20
3.6155706449
 30
0.0
 10
4.5184406338
 20
3.6145312305
 30
0.0
 10
4.5173522658
 20
3.6128821955
 30
0.0
 10
4.51596044
 20
3.6105602735
 30
0.0
 10
4.5144827975
 20
3.607935445
 30
0.0
 10
4.5126270788
 20
3.6043187651
 30
0.0
 10
4.5104396191
 20
3.599547837
 30
0.0
 10
4.508261019
 20
3.5942156246
 30
0.0
 10
4.5061330238
 20
3.5882900571
 30
0.0
 10
4.5041327225
 20
3.5817339268
 30
0.0
 10
4.5030146802
 20
3.5771063152
 30
0.0
 10
4.5025206688
 20
3.5746816947
 30
0.0
  0
SPLINE
  5
2B5
100
AcDbEntity
  8
ALL_FEATURES
100
AcDbSpline
 62
7
  6
CONTINUOUS
 70
0
 71
3
 72
27
 73
23
 74
0
 42
0.0000001
 43
0.0000001
 44
0.0000000001
 40
0.0
 40
0.0
 40
0.0
 40
0.0
 40
0.0263431207
 40
0.0533413303
 40
0.0810492862
 40
0.1095022927
 40
0.1686520507
 40
0.2307613134
 40
0.295516503
 40
0.362416217
 40
0.4308207382
 40
0.5
 40
0.5691792618
 40
0.637583783
 40
0.704483497
 40
0.7692386866
 40
0.8313479493
 40
0.8904977073
 40
0.9189507138
 40
0.9466586697
 40
0.9736568793
 40
1.0
 40
1.0
 40
1.0
 40
1.0
 10
4.6722925741
 20
3.5087149598
 30
0.0
 10
4.671426279
 20
3.5091862485
 30
0.0
 10
4.669716694
 20
3.5102247295
 30
0.0
 10
4.6672725555
 20
3.5120288104
 30
0.0
 10
4.6649318325
 20
3.5140870422
 30
0.0
 10
4.661928646
 20
3.5171934826
 30
0.0
 10
4.6585145353
 20
3.5216661989
 30
0.0
 10
4.655082798
 20
3.527747825
 30
0.0
 10
4.652333389
 20
3.5344798581
 30
0.0
 10
4.6503261062
 20
3.5417120393
 30
0.0
 10
4.6491039542
 20
3.5492842785
 30
0.0
 10
4.648693571
 20
3.5570284712
 30
0.0
 10
4.6491039542
 20
3.5647726639
 30
0.0
 10
4.6503261062
 20
3.5723449032
 30
0.0
 10
4.652333389
 20
3.5795770844
 30
0.0
 10
4.655082798
 20
3.5863091175
 30
0.0
 10
4.6585145353
 20
3.5923907436
 30
0.0
 10
4.661928646
 20
3.5968634599
 30
0.0
 10
4.6649318325
 20
3.5999699003
 30
0.0
 10
4.6672725555
 20
3.602028132
 30
0.0
 10
4.669716694
 20
3.6038322129
 30
0.0
 10
4.671426279
 20
3.604870694
 30
0.0
 10
4.6722925741
 20
3.6053419827
 30
0.0
  0
SPLINE
  5
2B6
100
AcDbEntity
  8
ALL_FEATURES
100
AcDbSpline
 62
7
  6
CONTINUOUS
 70
0
 71
3
 72
15
 73
11
 74
0
 42
0.0000001
 43
0.0000001
 44
0.0000000001
 40
0.0
 40
0.0
 40
0.0
 40
0.0
 40
0.0898167449
 40
0.1913014611
 40
0.3040792626
 40
0.4273495561
 40
0.5599813063
 40
0.7006103758
 40
0.8478060361
 40
1.0
 40
1.0
 40
1.0
 40
1.0
 10
4.5689122492
 20
3.4939264545
 30
0.0
 10
4.5681245552
 20
3.4937432531
 30
0.0
 10
4.5664216657
 20
3.4934588254
 30
0.0
 10
4.5636875548
 20
3.4932657609
 30
0.0
 10
4.5606458484
 20
3.4932873384
 30
0.0
 10
4.557332773
 20
3.4935230267
 30
0.0
 10
4.5537883432
 20
3.4939641212
 30
0.0
 10
4.5500544102
 20
3.4945946737
 30
0.0
 10
4.5461729891
 20
3.4953927306
 30
0.0
 10
4.5435486124
 20
3.4960102483
 30
0.0
 10
4.5422181261
 20
3.4963384473
 30
0.0
  0
SPLINE
  5
2B7
100
AcDbEntity
  8
ALL_FEATURES
100
AcDbSpline
 62
7
  6
CONTINUOUS
 70
0
 71
3
 72
11
 73
7
 74
0
 42
0.0000001
 43
0.0000001
 44
0.0000000001
 40
0.0
 40
0.0
 40
0.0
 40
0.0
 40
0.2567366361
 40
0.5078034861
 40
0.7549314976
 40
1.0
 40
1.0
 40
1.0
 40
1.0
 10
4.6080710636
 20
3.605343254
 30
0.0
 10
4.6070397207
 20
3.6059042173
 30
0.0
 10
4.6049344074
 20
3.6068988786
 30
0.0
 10
4.6016495832
 20
3.6079883772
 30
0.0
 10
4.5983059413
 20
3.6086463647
 30
0.0
 10
4.5960525069
 20
3.6087933063
 30
0.0
 10
4.5949318334
 20
3.6087933063
 30
0.0
  0
SPLINE
  5
2B8
100
AcDbEntity
  8
ALL_FEATURES
100
AcDbSpline
 62
7
  6
CONTINUOUS
 70
0
 71
3
 72
11
 73
7
 74
0
 42
0.0000001
 43
0.0000001
 44
0.0000000001
 40
0.0
 40
0.0
 40
0.0
 40
0.0
 40
0.2450603127
 40
0.4922003758
 40
0.7432631907
 40
1.0
 40
1.0
 40
1.0
 40
1.0
 10
4.4681116448
 20
3.5052636361
 30
0.0
 10
4.4669910092
 20
3.5052636361
 30
0.0
 10
4.4647375624
 20
3.5054106195
 30
0.0
 10
4.461393912
 20
3.5060685468
 30
0.0
 10
4.4581090542
 20
3.50715807
 30
0.0
 10
4.4560037639
 20
3.5081527306
 30
0.0
 10
4.4549724117
 20
3.5087136778
 30
0.0
  0
LINE
  5
2B9
100
AcDbEntity
  8
0
100
AcDbLine
 62
7
  6
CONTINUOUS
 10
4.5638388338
 20
3.9156602328
 11
4.5315217391
 21
3.9166534715
  0
LINE
  5
2BA
100
AcDbEntity
  8
0
100
AcDbLine
 62
7
  6
CONTINUOUS
 10
4.5684756154
 20
3.9030009244
 11
4.5315217391
 21
3.9041534711
  0
LINE
  5
2BB
100
AcDbEntity
  8
0
100
AcDbLine
 62
7
  6
CONTINUOUS
 10
4.5684952358
 20
3.8905002338
 11
4.5315217391
 21
3.8916534713
  0
LINE
  5
2BC
100
AcDbEntity
  8
0
100
AcDbLine
 62
7
  6
CONTINUOUS
 10
4.4970860287
 20
3.9114685567
 11
4.5315217391
 21
3.9104034714
  0
LINE
  5
2BD
100
AcDbEntity
  8
0
100
AcDbLine
 62
7
  6
CONTINUOUS
 10
4.4940896436
 20
3.899072908
 11
4.5315217391
 21
3.8979034712
  0
SPLINE
  5
2BE
100
AcDbEntity
  8
0
100
AcDbSpline
 62
7
  6
CONTINUOUS
 70
0
 71
3
 72
9
 73
5
 74
0
 42
0.0000001
 43
0.0000001
 44
0.0000000001
 40
0.0
 40
0.0
 40
0.0
 40
0.0
 40
0.1880396765
 40
1.0
 40
1.0
 40
1.0
 40
1.0
 10
4.4299593859
 20
3.7912467458
 30
0.0
 10
4.4299593848
 20
3.7912409935
 30
0.0
 10
4.4299670558
 20
3.7912102993
 30
0.0
 10
4.429996225
 20
3.7911917068
 30
0.0
 10
4.4300177284
 20
3.7911792744
 30
0.0
  0
SPLINE
  5
2BF
100
AcDbEntity
  8
0
100
AcDbSpline
 62
7
  6
CONTINUOUS
 70
0
 71
3
 72
9
 73
5
 74
0
 42
0.0000001
 43
0.0000001
 44
0.0000000001
 40
0.0
 40
0.0
 40
0.0
 40
0.0
 40
0.1880466098
 40
1.0
 40
1.0
 40
1.0
 40
1.0
 10
4.4299593851
 20
3.7928101967
 30
0.0
 10
4.4299593818
 20
3.7928159486
 30
0.0
 10
4.4299670406
 20
3.7928466427
 30
0.0
 10
4.4299962086
 20
3.7928652367
 30
0.0
 10
4.4300177091
 20
3.7928776681
 30
0.0
  0
SPLINE
  5
2C0
100
AcDbEntity
  8
0
100
AcDbSpline
 62
7
  6
CONTINUOUS
 70
0
 71
3
 72
21
 73
17
 74
0
 42
0.0000001
 43
0.0000001
 44
0.0000000001
 40
0.0
 40
0.0
 40
0.0
 40
0.0
 40
0.0060908326
 40
0.0115860633
 40
0.0189396943
 40
0.0282069499
 40
0.0394141828
 40
0.0676906927
 40
0.1037918275
 40
0.1476922565
 40
0.1993530166
 40
0.2587267591
 40
0.400290542
 40
0.5716384008
 40
0.7719042538
 40
1.0
 40
1.0
 40
1.0
 40
1.0
 10
4.436724347
 20
3.7873409714
 30
0.0
 10
4.4367243895
 20
3.7873730664
 30
0.0
 10
4.4367869622
 20
3.7874173026
 30
0.0
 10
4.4368737522
 20
3.7874542701
 30
0.0
 10
4.4369867449
 20
3.7874905983
 30
0.0
 10
4.4371283705
 20
3.7875258393
 30
0.0
 10
4.4373803464
 20
3.7875778514
 30
0.0
 10
4.4377737013
 20
3.7876399675
 30
0.0
 10
4.43833994
 20
3.7877111073
 30
0.0
 10
4.439030046
 20
3.7877825548
 30
0.0
 10
4.4398433243
 20
3.7878543882
 30
0.0
 10
4.4411704655
 20
3.7879564473
 30
0.0
 10
4.4431283193
 20
3.7880807631
 30
0.0
 10
4.445828702
 20
3.7882236933
 30
0.0
 10
4.4489855797
 20
3.7883671132
 30
0.0
 10
4.4512409936
 20
3.7884573409
 30
0.0
 10
4.4524420524
 20
3.7885030475
 30
0.0
  0
LINE
  5
2C1
100
AcDbEntity
  8
0
100
AcDbLine
 62
7
  6
CONTINUOUS
 10
4.4524420524
 20
3.7885030475
 11
4.4527890927
 21
3.7885161885
  0
LINE
  5
2C2
100
AcDbEntity
  8
0
100
AcDbLine
 62
7
  6
CONTINUOUS
 10
4.4527890927
 20
3.7885161885
 11
4.4651033853
 21
3.7889215975
  0
LINE
  5
2C3
100
AcDbEntity
  8
0
100
AcDbLine
 62
7
  6
CONTINUOUS
 10
4.4651033853
 20
3.7889215975
 11
4.5327219397
 21
3.7904911597
  0
LINE
  5
2C4
100
AcDbEntity
  8
0
100
AcDbLine
 62
7
  6
CONTINUOUS
 10
4.5327219397
 20
3.7904911597
 11
4.5934284704
 21
3.7918816439
  0
LINE
  5
2C5
100
AcDbEntity
  8
0
100
AcDbLine
 62
7
  6
CONTINUOUS
 10
4.5934284704
 20
3.7918816439
 11
4.5940362454
 21
3.7918985477
  0
LINE
  5
2C6
100
AcDbEntity
  8
0
100
AcDbLine
 62
7
  6
CONTINUOUS
 10
4.5940362454
 20
3.7918985477
 11
4.5960708618
 21
3.7919560842
  0
LINE
  5
2C7
100
AcDbEntity
  8
0
100
AcDbLine
 62
7
  6
CONTINUOUS
 10
4.5960708618
 20
3.7919560842
 11
4.5996313966
 21
3.7920607218
  0
SPLINE
  5
2C8
100
AcDbEntity
  8
0
100
AcDbSpline
 62
7
  6
CONTINUOUS
 70
0
 71
3
 72
13
 73
9
 74
0
 42
0.0000001
 43
0.0000001
 44
0.0000000001
 40
0.0
 40
0.0
 40
0.0
 40
0.0
 40
0.3518863858
 40
0.639574374
 40
0.7574176672
 40
0.8570949402
 40
0.9380817552
 40
1.0
 40
1.0
 40
1.0
 40
1.0
 10
4.5996313966
 20
3.7920607218
 30
0.0
 10
4.6025625231
 20
3.792149162
 30
0.0
 10
4.6078896976
 20
3.7923206334
 30
0.0
 10
4.6141970435
 20
3.7925652844
 30
0.0
 10
4.61840235
 20
3.7927682816
 30
0.0
 10
4.6208860317
 20
3.7929093764
 30
0.0
 10
4.6229027648
 20
3.7930494888
 30
0.0
 10
4.6240892079
 20
3.793154926
 30
0.0
 10
4.6246020697
 20
3.7932117339
 30
0.0
  0
LINE
  5
2C9
100
AcDbEntity
  8
0
100
AcDbLine
 62
7
  6
CONTINUOUS
 10
4.6246020697
 20
3.7932117339
 11
4.6259733125
 21
3.793421009
  0
LINE
  5
2CA
100
AcDbEntity
  8
0
100
AcDbLine
 62
7
  6
CONTINUOUS
 10
4.6259733125
 20
3.793421009
 11
4.6262566666
 21
3.7935186888
  0
SPLINE
  5
2CB
100
AcDbEntity
  8
0
100
AcDbSpline
 62
7
  6
CONTINUOUS
 70
0
 71
3
 72
20
 73
16
 74
0
 42
0.0000001
 43
0.0000001
 44
0.0000000001
 40
0.0
 40
0.0
 40
0.0
 40
0.0
 40
0.004390134
 40
0.0104968059
 40
0.0280208969
 40
0.0527063046
 40
0.0845617941
 40
0.1235681254
 40
0.1696756075
 40
0.2228052988
 40
0.2828742538
 40
0.4234697179
 40
0.5906033971
 40
0.7832617137
 40
1.0
 40
1.0
 40
1.0
 40
1.0
 10
4.4300177091
 20
3.7928776681
 30
0.0
 10
4.4300459402
 20
3.7928939911
 30
0.0
 10
4.4301185284
 20
3.792923777
 30
0.0
 10
4.4303182468
 20
3.7929823935
 30
0.0
 10
4.4306714968
 20
3.793049664
 30
0.0
 10
4.4312161079
 20
3.7931268191
 30
0.0
 10
4.4319217473
 20
3.7932044571
 30
0.0
 10
4.4327870545
 20
3.7932829331
 30
0.0
 10
4.433810953
 20
3.7933616717
 30
0.0
 10
4.4349916632
 20
3.7934406928
 30
0.0
 10
4.4368735867
 20
3.7935521794
 30
0.0
 10
4.4396022731
 20
3.7936884974
 30
0.0
 10
4.4433158936
 20
3.7938456986
 30
0.0
 10
4.4475955308
 20
3.7940033326
 30
0.0
 10
4.4506349399
 20
3.7941030425
 30
0.0
 10
4.4522441028
 20
3.7941534712
 30
0.0
  0
SPLINE
  5
2CC
100
AcDbEntity
  8
0
100
AcDbSpline
 62
7
  6
CONTINUOUS
 70
0
 71
3
 72
22
 73
18
 74
0
 42
0.0000001
 43
0.0000001
 44
0.0000000001
 40
0.0
 40
0.0
 40
0.0
 40
0.0
 40
0.0038030519
 40
0.0094128466
 40
0.0168755655
 40
0.0262077047
 40
0.0504967855
 40
0.0822547904
 40
0.1214117682
 40
0.1678850938
 40
0.2215538692
 40
0.2822791088
 40
0.3499154614
 40
0.4242832201
 40
0.5924326527
 40
0.7849985125
 40
1.0
 40
1.0
 40
1.0
 40
1.0
 10
4.4300177787
 20
3.7803776682
 30
0.0
 10
4.4300555159
 20
3.7803994315
 30
0.0
 10
4.4301574755
 20
3.7804372749
 30
0.0
 10
4.4303443926
 20
3.7804858378
 30
0.0
 10
4.430596536
 20
3.7805349602
 30
0.0
 10
4.4310614732
 20
3.780607733
 30
0.0
 10
4.4318056443
 20
3.780694157
 30
0.0
 10
4.4328917131
 20
3.780792853
 30
0.0
 10
4.4342327642
 20
3.7808921406
 30
0.0
 10
4.435825288
 20
3.7809920216
 30
0.0
 10
4.4376652791
 20
3.7810922014
 30
0.0
 10
4.4397479844
 20
3.781192618
 30
0.0
 10
4.4420680315
 20
3.781293168
 30
0.0
 10
4.4456180146
 20
3.7814331861
 30
0.0
 10
4.4505988389
 20
3.7816054333
 30
0.0
 10
4.4571905205
 20
3.7818053605
 30
0.0
 10
4.461857388
 20
3.781932384
 30
0.0
 10
4.4643193398
 20
3.7819967045
 30
0.0
  0
LINE
  5
2CD
100
AcDbEntity
  8
0
100
AcDbLine
 62
7
  6
CONTINUOUS
 10
4.4643193398
 20
3.7819967045
 11
4.5289897184
 21
3.7833855936
  0
LINE
  5
2CE
100
AcDbEntity
  8
0
100
AcDbLine
 62
7
  6
CONTINUOUS
 10
4.5289897184
 20
3.7833855936
 11
4.5939935245
 21
3.7847532413
  0
SPLINE
  5
2CF
100
AcDbEntity
  8
0
100
AcDbSpline
 62
7
  6
CONTINUOUS
 70
0
 71
3
 72
13
 73
9
 74
0
 42
0.0000001
 43
0.0000001
 44
0.0000000001
 40
0.0
 40
0.0
 40
0.0
 40
0.0
 40
0.3416261058
 40
0.6270107932
 40
0.7461378414
 40
0.8484501097
 40
0.9332585594
 40
1.0
 40
1.0
 40
1.0
 40
1.0
 10
4.5939935245
 20
3.7847532413
 30
0.0
 10
4.5980890996
 20
3.7848549917
 30
0.0
 10
4.6056057339
 20
3.7850525858
 30
0.0
 10
4.6145493141
 20
3.7853304716
 30
0.0
 10
4.6206229087
 20
3.7855602999
 30
0.0
 10
4.6242919913
 20
3.7857213843
 30
0.0
 10
4.6273321643
 20
3.7858814639
 30
0.0
 10
4.6291457872
 20
3.7860008271
 30
0.0
 10
4.6299436519
 20
3.7860641647
 30
0.0
  0
LINE
  5
2D0
100
AcDbEntity
  8
0
100
AcDbLine
 62
7
  6
CONTINUOUS
 10
4.6299436519
 20
3.7860641647
 11
4.6329577657
 21
3.7864609904
  0
LINE
  5
2D1
100
AcDbEntity
  8
0
100
AcDbLine
 62
7
  6
CONTINUOUS
 10
4.6329577657
 20
3.7864609904
 11
4.6330842391
 21
3.7865601967
  0
LINE
  5
2D2
100
AcDbEntity
  8
0
100
AcDbLine
 62
7
  6
CONTINUOUS
 10
4.4367868033
 20
3.7842882537
 11
4.4376735302
 21
3.7844977317
  0
SPLINE
  5
2D3
100
AcDbEntity
  8
0
100
AcDbSpline
 62
7
  6
CONTINUOUS
 70
0
 71
3
 72
13
 73
9
 74
0
 42
0.0000001
 43
0.0000001
 44
0.0000000001
 40
0.0
 40
0.0
 40
0.0
 40
0.0
 40
0.0598243478
 40
0.1388743867
 40
0.2369194762
 40
0.3536816693
 40
0.641912059
 40
1.0
 40
1.0
 40
1.0
 40
1.0
 10
4.4376735302
 20
3.7844977317
 30
0.0
 10
4.4379714163
 20
3.7845420276
 30
0.0
 10
4.4386659474
 20
3.7846239588
 30
0.0
 10
4.4398537054
 20
3.7847324045
 30
0.0
 10
4.4413290358
 20
3.7848417241
 30
0.0
 10
4.4438564751
 20
3.7849996474
 30
0.0
 10
4.4476933162
 20
3.785189839
 30
0.0
 10
4.4509442919
 20
3.7853215885
 30
0.0
 10
4.4527456598
 20
3.785389546
 30
0.0
  0
LINE
  5
2D4
100
AcDbEntity
  8
0
100
AcDbLine
 62
7
  6
CONTINUOUS
 10
4.4527456598
 20
3.785389546
 11
4.453191299
 21
3.7854062535
  0
LINE
  5
2D5
100
AcDbEntity
  8
0
100
AcDbLine
 62
7
  6
CONTINUOUS
 10
4.453191299
 20
3.7854062535
 11
4.4642391561
 21
3.785771016
  0
LINE
  5
2D6
100
AcDbEntity
  8
0
100
AcDbLine
 62
7
  6
CONTINUOUS
 10
4.4642391561
 20
3.785771016
 11
4.5314810765
 21
3.7873401178
  0
LINE
  5
2D7
100
AcDbEntity
  8
0
100
AcDbLine
 62
7
  6
CONTINUOUS
 10
4.5325533646
 20
3.7873626214
 11
4.5966629001
 21
3.7888481201
  0
LINE
  5
2D8
100
AcDbEntity
  8
0
100
AcDbLine
 62
7
  6
CONTINUOUS
 10
4.5966629001
 20
3.7888481201
 11
4.6002417612
 21
3.7889542268
  0
SPLINE
  5
2D9
100
AcDbEntity
  8
0
100
AcDbSpline
 62
7
  6
CONTINUOUS
 70
0
 71
3
 72
24
 73
20
 74
0
 42
0.0000001
 43
0.0000001
 44
0.0000000001
 40
0.0
 40
0.0
 40
0.0
 40
0.0
 40
0.2248808206
 40
0.4240835684
 40
0.5958116693
 40
0.670889092
 40
0.7385444489
 40
0.7986197739
 40
0.8509955688
 40
0.895560543
 40
0.9322119669
 40
0.9608928519
 40
0.9722383217
 40
0.9815887559
 40
0.9889544084
 40
0.9943654708
 40
0.9963656254
 40
0.9979274425
 40
1.0
 40
1.0
 40
1.0
 40
1.0
 10
4.6002417612
 20
3.7889542268
 30
0.0
 10
4.6022030275
 20
3.7890139772
 30
0.0
 10
4.605901459
 20
3.7891318741
 30
0.0
 10
4.6110968242
 20
3.7893184077
 30
0.0
 10
4.6149851263
 20
3.7894795276
 30
0.0
 10
4.6177257958
 20
3.7896107283
 30
0.0
 10
4.6194928999
 20
3.7897045379
 30
0.0
 10
4.6210616255
 20
3.7897981752
 30
0.0
 10
4.6224284851
 20
3.7898915735
 30
0.0
 10
4.6235904698
 20
3.7899844814
 30
0.0
 10
4.6245449339
 20
3.7900769373
 30
0.0
 10
4.6252092385
 20
3.7901578256
 30
0.0
 10
4.6256348068
 20
3.7902253056
 30
0.0
 10
4.6258753239
 20
3.7902714571
 30
0.0
 10
4.6260629699
 20
3.7903175021
 30
0.0
 10
4.6261856495
 20
3.7903575635
 30
0.0
 10
4.6262564019
 20
3.7903925117
 30
0.0
 10
4.6262967485
 20
3.7904189188
 30
0.0
 10
4.6263190975
 20
3.7904478874
 30
0.0
 10
4.6263190854
 20
3.7904659713
 30
0.0
  0
LINE
  5
2DA
100
AcDbEntity
  8
0
100
AcDbLine
 62
7
  6
CONTINUOUS
 10
4.5315217391
 20
3.9041534711
 11
4.4950373527
 21
3.9052895258
  0
LINE
  5
2DB
100
AcDbEntity
  8
0
100
AcDbLine
 62
7
  6
CONTINUOUS
 10
4.5315217391
 20
3.9104034714
 11
4.5668146807
 21
3.9093088812
  0
LINE
  5
2DC
100
AcDbEntity
  8
0
100
AcDbLine
 62
7
  6
CONTINUOUS
 10
4.5315217391
 20
3.8916534713
 11
4.4942243139
 21
3.8928181421
  0
SPLINE
  5
2DD
100
AcDbEntity
  8
0
100
AcDbSpline
 62
7
  6
CONTINUOUS
 70
0
 71
3
 72
22
 73
18
 74
0
 42
0.0000001
 43
0.0000001
 44
0.0000000001
 40
0.0
 40
0.0
 40
0.0
 40
0.0
 40
0.2150981151
 40
0.4073018965
 40
0.5748923272
 40
0.648969472
 40
0.7163501653
 40
0.7768789689
 40
0.8304145802
 40
0.8768506633
 40
0.9160883304
 40
0.9480383967
 40
0.9726562977
 40
0.9822133386
 40
0.9899406324
 40
0.9958540335
 40
1.0
 40
1.0
 40
1.0
 40
1.0
 10
4.5977316842
 20
3.7795042247
 30
0.0
 10
4.5997806451
 20
3.7795643092
 30
0.0
 10
4.6036603431
 20
3.7796829909
 30
0.0
 10
4.6091357677
 20
3.7798700954
 30
0.0
 10
4.613267359
 20
3.7800313101
 30
0.0
 10
4.6162096178
 20
3.7801623427
 30
0.0
 10
4.6181322172
 20
3.7802564221
 30
0.0
 10
4.6198588092
 20
3.7803503565
 30
0.0
 10
4.621385489
 20
3.7804441108
 30
0.0
 10
4.6227088449
 20
3.7805376013
 30
0.0
 10
4.6238259784
 20
3.7806305372
 30
0.0
 10
4.6247343144
 20
3.7807229688
 30
0.0
 10
4.6253594915
 20
3.7808039292
 30
0.0
 10
4.6257530195
 20
3.7808718006
 30
0.0
 10
4.6259694116
 20
3.7809179072
 30
0.0
 10
4.6261325916
 20
3.7809635087
 30
0.0
 10
4.6262224276
 20
3.7809989118
 30
0.0
 10
4.6262566317
 20
3.7810186889
 30
0.0
  0
LINE
  5
2DE
100
AcDbEntity
  8
0
100
AcDbLine
 62
7
  6
CONTINUOUS
 10
4.5009868165
 20
3.8800873547
 11
4.4978262329
 21
3.8801932838
  0
LINE
  5
2DF
100
AcDbEntity
  8
0
100
AcDbLine
 62
7
  6
CONTINUOUS
 10
4.5315217391
 20
3.8979034712
 11
4.5690338057
 21
3.8967312006
  0
SPLINE
  5
2E0
100
AcDbEntity
  8
0
100
AcDbSpline
 62
7
  6
CONTINUOUS
 70
0
 71
3
 72
14
 73
10
 74
0
 42
0.0000001
 43
0.0000001
 44
0.0000000001
 40
0.0
 40
0.0
 40
0.0
 40
0.0
 40
0.07221236
 40
0.1642671707
 40
0.27420707
 40
0.399696959
 40
0.5380654475
 40
0.6863677408
 40
1.0
 40
1.0
 40
1.0
 40
1.0
 10
4.4378950128
 20
3.7795384125
 30
0.0
 10
4.4401361375
 20
3.7796516978
 30
0.0
 10
4.4452365198
 20
3.7798625585
 30
0.0
 10
4.4537527962
 20
3.7801448079
 30
0.0
 10
4.4639253934
 20
3.7804290307
 30
0.0
 10
4.4755376003
 20
3.7807148148
 30
0.0
 10
4.4883422209
 20
3.7810013862
 30
0.0
 10
4.5069924545
 20
3.7813914603
 30
0.0
 10
4.521344242
 20
3.7816723841
 30
0.0
 10
4.5310884387
 20
3.781863258
 30
0.0
  0
LINE
  5
2E1
100
AcDbEntity
  8
0
100
AcDbLine
 62
7
  6
CONTINUOUS
 10
4.5314684907
 20
3.7818707026
 11
4.5974962094
 21
3.7832783817
  0
SPLINE
  5
2E2
100
AcDbEntity
  8
0
100
AcDbSpline
 62
7
  6
CONTINUOUS
 70
0
 71
3
 72
23
 73
19
 74
0
 42
0.0000001
 43
0.0000001
 44
0.0000000001
 40
0.0
 40
0.0
 40
0.0
 40
0.0
 40
0.2147412419
 40
0.407254551
 40
0.5754806336
 40
0.6499129999
 40
0.7176207325
 40
0.7784168026
 40
0.8321497316
 40
0.8786744801
 40
0.9178650281
 40
0.9496347932
 40
0.962713536
 40
0.9739108236
 40
0.9832251206
 40
0.9906623942
 40
0.9962387328
 40
1.0
 40
1.0
 40
1.0
 40
1.0
 10
4.5974962094
 20
3.7832783817
 30
0.0
 10
4.6000431015
 20
3.7833440025
 30
0.0
 10
4.6048731278
 20
3.7834735871
 30
0.0
 10
4.6116977243
 20
3.7836774264
 30
0.0
 10
4.6168577373
 20
3.7838530232
 30
0.0
 10
4.620537229
 20
3.7839957698
 30
0.0
 10
4.6229427315
 20
3.7840982962
 30
0.0
 10
4.6251024136
 20
3.7842006788
 30
0.0
 10
4.6270104709
 20
3.7843028417
 30
0.0
 10
4.628661811
 20
3.784404626
 30
0.0
 10
4.6300520122
 20
3.7845060114
 30
0.0
 10
4.6310452396
 20
3.7845944261
 30
0.0
 10
4.6317061873
 20
3.7846673241
 30
0.0
 10
4.6321015007
 20
3.7847182136
 30
0.0
 10
4.6324291835
 20
3.7847688682
 30
0.0
 10
4.6326895803
 20
3.7848189109
 30
0.0
 10
4.6328821359
 20
3.7848684043
 30
0.0
 10
4.6329870353
 20
3.7849069824
 30
0.0
 10
4.633025693
 20
3.7849292743
 30
0.0
  0
LINE
  5
2E3
100
AcDbEntity
  8
0
100
AcDbLine
 62
7
  6
CONTINUOUS
 10
4.4335122514
 20
3.7792745236
 11
4.4378950128
 21
3.7795384125
  0
LINE
  5
2E4
100
AcDbEntity
  8
0
100
AcDbLine
 62
7
  6
CONTINUOUS
 10
4.5071579727
 20
3.7938898006
 11
4.4534514293
 21
3.7926274194
  0
SPLINE
  5
2E5
100
AcDbEntity
  8
0
100
AcDbSpline
 62
7
  6
CONTINUOUS
 70
0
 71
3
 72
12
 73
8
 74
0
 42
0.0000001
 43
0.0000001
 44
0.0000000001
 40
0.0
 40
0.0
 40
0.0
 40
0.0
 40
0.3346995418
 40
0.6152556552
 40
0.8379880952
 40
0.9267282527
 40
1.0
 40
1.0
 40
1.0
 40
1.0
 10
4.4534514293
 20
3.7926274194
 30
0.0
 10
4.4511372684
 20
3.7925565481
 30
0.0
 10
4.4468835252
 20
3.7924183186
 30
0.0
 10
4.4410911271
 20
3.7921948431
 30
0.0
 10
4.4370003347
 20
3.7919997416
 30
0.0
 10
4.4343438602
 20
3.791836937
 30
0.0
 10
4.4332261395
 20
3.7917544742
 30
0.0
 10
4.4327210934
 20
3.7917117619
 30
0.0
  0
LINE
  5
2E6
100
AcDbEntity
  8
0
100
AcDbLine
 62
7
  6
CONTINUOUS
 10
4.4327210934
 20
3.7917117619
 11
4.4300025936
 21
3.791304799
  0
SPLINE
  5
2E7
100
AcDbEntity
  8
0
100
AcDbSpline
 62
7
  6
CONTINUOUS
 70
0
 71
3
 72
9
 73
5
 74
0
 42
0.0000001
 43
0.0000001
 44
0.0000000001
 40
0.0
 40
0.0
 40
0.0
 40
0.0
 40
0.3233634894
 40
1.0
 40
1.0
 40
1.0
 40
1.0
 10
4.4300025936
 20
3.791304799
 30
0.0
 10
4.4299960001
 20
3.791300369
 30
0.0
 10
4.4299766228
 20
3.7912861682
 30
0.0
 10
4.4299593889
 20
3.7912633675
 30
0.0
 10
4.4299593859
 20
3.7912467458
 30
0.0
  0
LINE
  5
2E8
100
AcDbEntity
  8
0
100
AcDbLine
 62
7
  6
CONTINUOUS
 10
4.5315217391
 20
3.9166534715
 11
4.5004178935
 21
3.9176062005
  0
ENDSEC
  0
SECTION
  2
OBJECTS
  0
DICTIONARY
  5
C
100
AcDbDictionary
280
0
281
1
  3
ACAD_GROUP
350
D
  3
ACAD_MLINESTYLE
350
17
  3
ACAD_LAYOUT
350
1A
  3
ACAD_PLOTSETTINGS
350
19
  3
ACAD_PLOTSTYLENAME
350
E
  0
DICTIONARY
  5
D
102
{ACAD_REACTORS
330
C
102
}
100
AcDbDictionary
280
0
281
1
  0
ACDBDICTIONARYWDFLT
  5
E
102
{ACAD_REACTORS
330
C
102
}
100
AcDbDictionary
281
1
  3
Normal
350
F
100
AcDbDictionaryWithDefault
340
F
  0
DICTIONARY
  5
17
102
{ACAD_REACTORS
330
C
102
}
100
AcDbDictionary
280
0
281
1
  3
Standard
350
18
  0
DICTIONARY
  5
19
102
{ACAD_REACTORS
330
C
102
}
100
AcDbDictionary
281
1
  0
DICTIONARY
  5
1A
102
{ACAD_REACTORS
330
C
102
}
100
AcDbDictionary
281
1
  3
Model
350
2E9
  3
Layout1
350
2EA
  0
ACDBPLACEHOLDER
  5
F
102
{ACAD_REACTORS
330
E
102
}
  0
MLINESTYLE
  5
18
102
{ACAD_REACTORS
330
17
102
}
100
AcDbMlineStyle
  2
STANDARD
 70
0
  3

 62
256
 51
90.0
 52
90.0
 71
2
 49
0.5
 62
256
  6
BYLAYER
 49
-0.5
 62
256
  6
BYLAYER
  0
LAYOUT
  5
2E9
102
{ACAD_REACTORS
330
1A
102
}
100
AcDbPlotSettings
  1

  2
none_device
  4
ANSI_A_(11.00_x_8.50_Inches)
  6

 40
0.0
 41
0.0
 42
0.0
 43
0.0
 44
279.4
 45
215.9
 46
0.0
 47
0.0
 48
0.0
 49
0.0
140
0.0
141
0.0
142
1.0
143
1.0
 70
1024
 72
0
 73
0
 74
0
  7

 75
0
147
1.0
148
0.0
149
0.0
100
AcDbLayout
  1
Model
 70
0
 71
0
 10
0.0
 20
0.0
 11
11.0
 21
8.5
 12
0.0
 22
0.0
 32
0.0
 14
0.0
 24
0.0
 34
0.0
 15
0.0
 25
0.0
 35
0.0
146
0.0
 13
0.0
 23
0.0
 33
0.0
 16
1.0
 26
0.0
 36
0.0
 17
0.0
 27
1.0
 37
0.0
 76
0
330
217
345
0
346
0
  0
LAYOUT
  5
2EA
102
{ACAD_REACTORS
330
1A
102
}
100
AcDbPlotSettings
  1

  2
none_device
  4
ANSI_A_(11.00_x_8.50_Inches)
  6

 40
0.0
 41
0.0
 42
0.0
 43
0.0
 44
279.4
 45
215.9
 46
0.0
 47
0.0
 48
0.0
 49
0.0
140
0.0
141
0.0
142
1.0
143
1.0
 70
0
 72
0
 73
0
 74
0
  7

 75
0
147
1.0
148
0.0
149
0.0
100
AcDbLayout
  1
Layout1
 70
0
 71
1
 10
0.0
 20
0.0
 11
11.0
 21
8.5
 12
0.0
 22
0.0
 32
0.0
 14
0.0
 24
0.0
 34
0.0
 15
0.0
 25
0.0
 35
0.0
146
0.0
 13
0.0
 23
0.0
 33
0.0
 16
1.0
 26
0.0
 36
0.0
 17
0.0
 27
1.0
 37
0.0
 76
0
330
218
345
0
346
0
  0
ENDSEC
  0
EOF
