999
DXF file: C:\Prowork\plots\482x-1_top.dxf
999
Pro/ENGINEER 2018500 by Parametric Technology Corporation
  0
SECTION
  2
HEADER
  9
$ACADVER
  1
AC1032
  9
$DWGCODEPAGE
  3
ANSI_1252
  9
$EXTMAX
 10
8.5
 20
11.0
 30
0.0
  9
$EXTMIN
 10
0.0
 20
0.0
 30
0.0
  9
$LIMMIN
 10
0.0
 20
0.0
  9
$LIMMAX
 10
8.5
 20
11.0
  9
$VIEWCTR
 10
4.25
 20
5.5
  9
$VIEWSIZE
 40
11.0
  9
$CLAYER
  8
0
  9
$LTSCALE
 40
0.717037037
  9
$CELTYPE
  6
BYLAYER
  9
$DIMSCALE
 40
1.0
  9
$DIMASZ
 40
0.1
  9
$DIMEXO
 40
0.0625
  9
$DIMDLI
 40
0.4954074074
  9
$DIMEXE
 40
0.125
  9
$DIMCEN
 40
0.1173333333
  9
$DIMLFAC
 40
1.0
  9
$DIMBLK
  1
_FILLED
  9
$DIMALT
 70
1
  9
$DIMALTD
 70
2
  9
$DIMALTTD
 70
2
  9
$DIMALTF
 40
25.4
  9
$DIMTXT
 40
0.08
  9
$DIMTOL
 70
1
  9
$DIMLIM
 70
0
  9
$DIMTFAC
 40
1.0
  9
$DIMTP
 40
0.001
  9
$DIMTM
 40
0.001
  9
$DIMGAP
 40
0.09
  9
$DIMDSEP
 70
46
  9
$AUNITS
 70
0
  9
$PDMODE
 70
3
  9
$PDSIZE
 40
0.06
  9
$HANDSEED
  5
2F9
  9
$TILEMODE
 70
1
  9
$MEASUREMENT
 70
0
  9
$INSUNITS
 70
1
  0
ENDSEC
  0
SECTION
  2
CLASSES
  0
CLASS
  1
ACDBDICTIONARYWDFLT
  2
AcDbDictionaryWithDefault
  3
AutoCAD 2000
 90
0
 91
1
280
0
281
0
  0
CLASS
  1
ACDBPLACEHOLDER
  2
AcDbPlaceHolder
  3
AutoCAD 2000
 90
0
 91
1
280
0
281
0
  0
CLASS
  1
LAYOUT
  2
AcDbLayout
  3
AutoCAD 2000
 90
0
 91
0
280
0
281
0
  0
ENDSEC
  0
SECTION
  2
TABLES
  0
TABLE
  2
VPORT
  5
8
100
AcDbSymbolTable
 70
2
  0
VPORT
  5
1F4
100
AcDbSymbolTableRecord
100
AcDbViewportTableRecord
  2
*ACTIVE
 70
0
 10
0.0
 20
0.0
 11
1.0
 21
1.0
 12
4.25
 22
5.5
 13
0.0
 23
0.0
 14
1.0
 24
1.0
 15
0.0
 25
0.0
 16
0.0
 26
0.0
 36
1.0
 17
0.0
 27
0.0
 37
0.0
 40
11.0
 41
0.7727272727
 42
50.0
 43
0.0
 44
0.0
 50
0.0
 51
0.0
 71
0
 72
100
 73
1
 74
1
 75
0
 76
0
 77
0
 78
0
  0
ENDTAB
  0
TABLE
  2
LTYPE
  5
5
100
AcDbSymbolTable
 70
6
  0
LTYPE
  5
14
100
AcDbSymbolTableRecord
100
AcDbLinetypeTableRecord
  2
BYBLOCK
 70
0
  3

 72
65
 73
0
 40
0.0
  0
LTYPE
  5
15
100
AcDbSymbolTableRecord
100
AcDbLinetypeTableRecord
  2
BYLAYER
 70
0
  3

 72
65
 73
0
 40
0.0
  0
LTYPE
  5
16
100
AcDbSymbolTableRecord
100
AcDbLinetypeTableRecord
  2
CONTINUOUS
 70
64
  3
Solid line
 72
65
 73
0
 40
0.0
  0
LTYPE
  5
1F5
100
AcDbSymbolTableRecord
100
AcDbLinetypeTableRecord
  2
CENTER
 70
64
  3
____ _ ____ _ ____ _ ____ _ ____ _ ____ _ ____
 72
65
 73
4
 40
0.6
 49
0.375
 74
0
 49
-0.075
 74
0
 49
0.075
 74
0
 49
-0.075
 74
0
  0
LTYPE
  5
1F6
100
AcDbSymbolTableRecord
100
AcDbLinetypeTableRecord
  2
HIDDEN
 70
64
  3
- - - - - - - - - - - - - - - - - - - -
 72
65
 73
2
 40
0.2
 49
0.1
 74
0
 49
-0.1
 74
0
  0
LTYPE
  5
1F7
100
AcDbSymbolTableRecord
100
AcDbLinetypeTableRecord
  2
PHANTOM
 70
64
  3
_____ _ _ _____ _ _ _____ _ _ _____
 72
65
 73
6
 40
0.8
 49
0.45
 74
0
 49
-0.05
 74
0
 49
0.1
 74
0
 49
-0.05
 74
0
 49
0.1
 74
0
 49
-0.05
 74
0
  0
LTYPE
  5
1F8
100
AcDbSymbolTableRecord
100
AcDbLinetypeTableRecord
  2
DOT
 70
64
  3
. . . . . . . . . . . . . . . . . . . .
 72
65
 73
2
 40
0.2
 49
0.1
 74
0
 49
-0.1
 74
0
  0
LTYPE
  5
1F9
100
AcDbSymbolTableRecord
100
AcDbLinetypeTableRecord
  2
DASHED
 70
64
  3
- - - - - - - - - - - - - - - - - - - -
 72
65
 73
2
 40
0.2
 49
0.1
 74
0
 49
-0.1
 74
0
  0
ENDTAB
  0
TABLE
  2
LAYER
  5
2
100
AcDbSymbolTable
 70
36
  0
LAYER
  5
10
100
AcDbSymbolTableRecord
100
AcDbLayerTableRecord
  2
0
 70
0
 62
7
  6
CONTINUOUS
370
-3
390
F
  0
LAYER
  5
1FA
100
AcDbSymbolTableRecord
100
AcDbLayerTableRecord
  2
DEFAULT_1
 70
0
 62
7
  6
CENTER
370
-3
390
F
  0
LAYER
  5
1FB
100
AcDbSymbolTableRecord
100
AcDbLayerTableRecord
  2
DEFAULT_2
 70
0
 62
8
  6
HIDDEN
370
-3
390
F
  0
LAYER
  5
1FC
100
AcDbSymbolTableRecord
100
AcDbLayerTableRecord
  2
DEFAULT_3
 70
0
 62
7
  6
PHANTOM
370
-3
390
F
  0
LAYER
  5
1FD
100
AcDbSymbolTableRecord
100
AcDbLayerTableRecord
  2
1-134
 70
0
 62
7
  6
CONTINUOUS
370
-3
390
F
  0
LAYER
  5
1FE
100
AcDbSymbolTableRecord
100
AcDbLayerTableRecord
  2
403X-1
 70
0
 62
7
  6
CONTINUOUS
370
-3
390
F
  0
LAYER
  5
1FF
100
AcDbSymbolTableRecord
100
AcDbLayerTableRecord
  2
436
 70
0
 62
7
  6
CONTINUOUS
370
-3
390
F
  0
LAYER
  5
200
100
AcDbSymbolTableRecord
100
AcDbLayerTableRecord
  2
441
 70
0
 62
7
  6
CONTINUOUS
370
-3
390
F
  0
LAYER
  5
201
100
AcDbSymbolTableRecord
100
AcDbLayerTableRecord
  2
50359
 70
0
 62
7
  6
CONTINUOUS
370
-3
390
F
  0
LAYER
  5
202
100
AcDbSymbolTableRecord
100
AcDbLayerTableRecord
  2
50362
 70
0
 62
7
  6
CONTINUOUS
370
-3
390
F
  0
LAYER
  5
203
100
AcDbSymbolTableRecord
100
AcDbLayerTableRecord
  2
50392
 70
0
 62
7
  6
CONTINUOUS
370
-3
390
F
  0
LAYER
  5
204
100
AcDbSymbolTableRecord
100
AcDbLayerTableRecord
  2
50729
 70
0
 62
7
  6
CONTINUOUS
370
-3
390
F
  0
LAYER
  5
205
100
AcDbSymbolTableRecord
100
AcDbLayerTableRecord
  2
50733
 70
0
 62
7
  6
CONTINUOUS
370
-3
390
F
  0
LAYER
  5
206
100
AcDbSymbolTableRecord
100
AcDbLayerTableRecord
  2
50733_1
 70
0
 62
7
  6
CONTINUOUS
370
-3
390
F
  0
LAYER
  5
207
100
AcDbSymbolTableRecord
100
AcDbLayerTableRecord
  2
50733_2
 70
0
 62
7
  6
CONTINUOUS
370
-3
390
F
  0
LAYER
  5
208
100
AcDbSymbolTableRecord
100
AcDbLayerTableRecord
  2
50733_3
 70
0
 62
7
  6
CONTINUOUS
370
-3
390
F
  0
LAYER
  5
209
100
AcDbSymbolTableRecord
100
AcDbLayerTableRecord
  2
50737
 70
0
 62
7
  6
CONTINUOUS
370
-3
390
F
  0
LAYER
  5
20A
100
AcDbSymbolTableRecord
100
AcDbLayerTableRecord
  2
50741
 70
0
 62
7
  6
CONTINUOUS
370
-3
390
F
  0
LAYER
  5
20B
100
AcDbSymbolTableRecord
100
AcDbLayerTableRecord
  2
50742
 70
0
 62
7
  6
CONTINUOUS
370
-3
390
F
  0
LAYER
  5
20C
100
AcDbSymbolTableRecord
100
AcDbLayerTableRecord
  2
50743
 70
0
 62
7
  6
CONTINUOUS
370
-3
390
F
  0
LAYER
  5
20D
100
AcDbSymbolTableRecord
100
AcDbLayerTableRecord
  2
6-034
 70
0
 62
7
  6
CONTINUOUS
370
-3
390
F
  0
LAYER
  5
20E
100
AcDbSymbolTableRecord
100
AcDbLayerTableRecord
  2
91022
 70
0
 62
7
  6
CONTINUOUS
370
-3
390
F
  0
LAYER
  5
20F
100
AcDbSymbolTableRecord
100
AcDbLayerTableRecord
  2
91203
 70
0
 62
7
  6
CONTINUOUS
370
-3
390
F
  0
LAYER
  5
210
100
AcDbSymbolTableRecord
100
AcDbLayerTableRecord
  2
92087
 70
0
 62
7
  6
CONTINUOUS
370
-3
390
F
  0
LAYER
  5
211
100
AcDbSymbolTableRecord
100
AcDbLayerTableRecord
  2
92087_1
 70
0
 62
7
  6
CONTINUOUS
370
-3
390
F
  0
LAYER
  5
212
100
AcDbSymbolTableRecord
100
AcDbLayerTableRecord
  2
92087_2
 70
0
 62
7
  6
CONTINUOUS
370
-3
390
F
  0
LAYER
  5
213
100
AcDbSymbolTableRecord
100
AcDbLayerTableRecord
  2
92087_3
 70
0
 62
7
  6
CONTINUOUS
370
-3
390
F
  0
LAYER
  5
214
100
AcDbSymbolTableRecord
100
AcDbLayerTableRecord
  2
ALL_ASSEMBLY_MEMBERS
 70
0
 62
7
  6
CONTINUOUS
370
-3
390
F
  0
LAYER
  5
215
100
AcDbSymbolTableRecord
100
AcDbLayerTableRecord
  2
COLOR147
 70
0
 62
7
  6
CONTINUOUS
370
-3
390
F
  0
LAYER
  5
216
100
AcDbSymbolTableRecord
100
AcDbLayerTableRecord
  2
COLOR32
 70
0
 62
7
  6
CONTINUOUS
370
-3
390
F
  0
LAYER
  5
217
100
AcDbSymbolTableRecord
100
AcDbLayerTableRecord
  2
COLOR54
 70
0
 62
7
  6
CONTINUOUS
370
-3
390
F
  0
LAYER
  5
218
100
AcDbSymbolTableRecord
100
AcDbLayerTableRecord
  2
COLOR66
 70
0
 62
7
  6
CONTINUOUS
370
-3
390
F
  0
LAYER
  5
219
100
AcDbSymbolTableRecord
100
AcDbLayerTableRecord
  2
DEFAULT_COORDINATE_SYSTEM
 70
0
 62
7
  6
CONTINUOUS
370
-3
390
F
  0
LAYER
  5
21A
100
AcDbSymbolTableRecord
100
AcDbLayerTableRecord
  2
DEFAULT_DATUM_AXES
 70
0
 62
7
  6
CONTINUOUS
370
-3
390
F
  0
LAYER
  5
21B
100
AcDbSymbolTableRecord
100
AcDbLayerTableRecord
  2
DEFAULT_DATUM_PLANES
 70
0
 62
7
  6
CONTINUOUS
370
-3
390
F
  0
LAYER
  5
21C
100
AcDbSymbolTableRecord
100
AcDbLayerTableRecord
  2
DEFAULT_SURFACES_1
 70
0
 62
7
  6
CONTINUOUS
370
-3
390
F
  0
LAYER
  5
21D
100
AcDbSymbolTableRecord
100
AcDbLayerTableRecord
  2
INTF_441
 70
0
 62
7
  6
CONTINUOUS
370
-3
390
F
  0
LAYER
  5
21E
100
AcDbSymbolTableRecord
100
AcDbLayerTableRecord
  2
INTF_50359
 70
0
 62
7
  6
CONTINUOUS
370
-3
390
F
  0
LAYER
  5
21F
100
AcDbSymbolTableRecord
100
AcDbLayerTableRecord
  2
INTF_50362
 70
0
 62
7
  6
CONTINUOUS
370
-3
390
F
  0
LAYER
  5
220
100
AcDbSymbolTableRecord
100
AcDbLayerTableRecord
  2
INTF_50392
 70
0
 62
7
  6
CONTINUOUS
370
-3
390
F
  0
LAYER
  5
221
100
AcDbSymbolTableRecord
100
AcDbLayerTableRecord
  2
INTF_50729
 70
0
 62
7
  6
CONTINUOUS
370
-3
390
F
  0
LAYER
  5
222
100
AcDbSymbolTableRecord
100
AcDbLayerTableRecord
  2
INTF_50733
 70
0
 62
7
  6
CONTINUOUS
370
-3
390
F
  0
LAYER
  5
223
100
AcDbSymbolTableRecord
100
AcDbLayerTableRecord
  2
INTF_50737
 70
0
 62
7
  6
CONTINUOUS
370
-3
390
F
  0
LAYER
  5
224
100
AcDbSymbolTableRecord
100
AcDbLayerTableRecord
  2
INTF_50741
 70
0
 62
7
  6
CONTINUOUS
370
-3
390
F
  0
LAYER
  5
225
100
AcDbSymbolTableRecord
100
AcDbLayerTableRecord
  2
INTF_50742
 70
0
 62
7
  6
CONTINUOUS
370
-3
390
F
  0
LAYER
  5
226
100
AcDbSymbolTableRecord
100
AcDbLayerTableRecord
  2
INTF_50743
 70
0
 62
7
  6
CONTINUOUS
370
-3
390
F
  0
LAYER
  5
227
100
AcDbSymbolTableRecord
100
AcDbLayerTableRecord
  2
INTF_91022
 70
0
 62
7
  6
CONTINUOUS
370
-3
390
F
  0
LAYER
  5
228
100
AcDbSymbolTableRecord
100
AcDbLayerTableRecord
  2
INTF_91203
 70
0
 62
7
  6
CONTINUOUS
370
-3
390
F
  0
LAYER
  5
229
100
AcDbSymbolTableRecord
100
AcDbLayerTableRecord
  2
INTF_92087
 70
0
 62
7
  6
CONTINUOUS
370
-3
390
F
  0
LAYER
  5
22A
100
AcDbSymbolTableRecord
100
AcDbLayerTableRecord
  2
INTF_BLANK
 70
0
 62
7
  6
CONTINUOUS
370
-3
390
F
  0
LAYER
  5
22B
100
AcDbSymbolTableRecord
100
AcDbLayerTableRecord
  2
QUILT
 70
0
 62
7
  6
CONTINUOUS
370
-3
390
F
  0
LAYER
  5
22C
100
AcDbSymbolTableRecord
100
AcDbLayerTableRecord
  2
QUILT_1
 70
0
 62
7
  6
CONTINUOUS
370
-3
390
F
  0
LAYER
  5
22D
100
AcDbSymbolTableRecord
100
AcDbLayerTableRecord
  2
SURFACES
 70
0
 62
7
  6
CONTINUOUS
370
-3
390
F
  0
LAYER
  5
22E
100
AcDbSymbolTableRecord
100
AcDbLayerTableRecord
  2
WETTED_SURFACE
 70
0
 62
7
  6
CONTINUOUS
370
-3
390
F
  0
LAYER
  5
22F
100
AcDbSymbolTableRecord
100
AcDbLayerTableRecord
  2
WETTED_SURFACES
 70
0
 62
7
  6
CONTINUOUS
370
-3
390
F
  0
LAYER
  5
230
100
AcDbSymbolTableRecord
100
AcDbLayerTableRecord
  2
_BLACK_HOLE
 70
0
 62
7
  6
CONTINUOUS
370
-3
390
F
  0
ENDTAB
  0
TABLE
  2
STYLE
  5
3
100
AcDbSymbolTable
 70
1
  0
STYLE
  5
11
100
AcDbSymbolTableRecord
100
AcDbTextStyleTableRecord
  2
STANDARD
 70
0
 40
0.0
 41
0.8
 50
0.0
 71
0
 42
0.2
  3
txt
  4

  0
STYLE
  5
231
100
AcDbSymbolTableRecord
100
AcDbTextStyleTableRecord
  2
TEXTSTYLE_1
 70
0
 40
0.0
 41
0.8
 50
0.0
 71
0
 42
0.2
  3
gdt
  4

  0
ENDTAB
  0
TABLE
  2
VIEW
  5
6
100
AcDbSymbolTable
 70
0
  0
ENDTAB
  0
TABLE
  2
UCS
  5
7
100
AcDbSymbolTable
 70
0
  0
ENDTAB
  0
TABLE
  2
APPID
  5
9
100
AcDbSymbolTable
 70
1
  0
APPID
  5
232
100
AcDbSymbolTableRecord
100
AcDbRegAppTableRecord
  2
ACAD
 70
0
  0
ENDTAB
  0
TABLE
  2
BLOCK_RECORD
  5
1
100
AcDbSymbolTable
 70
0
  0
BLOCK_RECORD
  5
233
100
AcDbSymbolTableRecord
100
AcDbBlockTableRecord
  2
*Model_Space
  0
BLOCK_RECORD
  5
234
100
AcDbSymbolTableRecord
100
AcDbBlockTableRecord
  2
*Paper_Space
  0
BLOCK_RECORD
  5
235
100
AcDbSymbolTableRecord
100
AcDbBlockTableRecord
  2
_FILLED
  0
ENDTAB
  0
TABLE
  2
DIMSTYLE
  5
A
100
AcDbSymbolTable
 70
1
100
AcDbDimStyleTable
 71
0
  0
DIMSTYLE
105
236
100
AcDbSymbolTableRecord
100
AcDbDimStyleTableRecord
  2
STANDARD
 70
0
  3

  4

 40
1.0
 41
0.1
 42
0.0625
 43
0.38
 44
0.125
 45
0.0
 46
0.0
 47
0.001
 48
0.001
140
0.08
141
0.09
142
0.0
143
25.4
144
1.0
145
0.0
146
1.0
147
0.09
 71
1.0
 72
0.0
 73
1
 74
1
 75
0
 76
0
 77
0
 78
4
 79
1
170
1
171
2
172
0
173
0
174
0
175
0
176
0
177
0
178
0
270
2
179
3
271
3
272
3
273
2
274
2
275
0
280
0
281
0
282
0
283
1
284
4
285
0
286
0
287
3
288
0
340
11
278
46
341
235
342
235
343
235
344
235
  0
ENDTAB
  0
ENDSEC
  0
SECTION
  2
BLOCKS
  0
BLOCK
  5
20
100
AcDbEntity
  8
0
100
AcDbBlockBegin
  2
*Model_Space
 70
0
 10
0.0
 20
0.0
 30
0.0
  3
*Model_Space
  1

  0
ENDBLK
  5
21
100
AcDbEntity
  8
0
100
AcDbBlockEnd
  0
BLOCK
  5
1C
100
AcDbEntity
  8
0
100
AcDbBlockBegin
  2
*Paper_Space
 70
0
 10
0.0
 20
0.0
 30
0.0
  3
*Paper_Space
  1

  0
ENDBLK
  5
1D
100
AcDbEntity
  8
0
100
AcDbBlockEnd
  0
BLOCK
  5
237
100
AcDbEntity
  8
0
100
AcDbBlockBegin
  2
_FILLED
 70
64
 10
0.0
 20
0.0
  3
_FILLED
  1

  0
SOLID
  5
238
100
AcDbEntity
  8
0
  6
BYBLOCK
 62
0
100
AcDbTrace
 10
0.0
 20
0.0
 11
-1.0
 21
0.2
 12
-1.0
 22
-0.2
 13
-1.0
 23
-0.2
  0
ENDBLK
  5
239
100
AcDbEntity
  8
0
  6
BYBLOCK
 62
0
100
AcDbBlockEnd
  0
ENDSEC
  0
SECTION
  2
ENTITIES
  0
MTEXT
  5
23A
100
AcDbEntity
  8
0
100
AcDbMText
 62
7
  6
CONTINUOUS
  7
STANDARD
 71
1
 72
1
 10
7.1947204969
 20
0.3132919255
 30
0.0
 11
1.0
 21
0.0
 31
0.0
 73
2
 44
0.9
  1
SCALE: .50
 40
0.08
 41
0.64
  0
LINE
  5
23B
100
AcDbEntity
  8
0
100
AcDbLine
 62
7
  6
CONTINUOUS
 10
0.0
 20
0.0
 11
8.5
 21
0.0
  0
LINE
  5
23C
100
AcDbEntity
  8
0
100
AcDbLine
 62
7
  6
CONTINUOUS
 10
0.0
 20
0.0
 11
0.0
 21
11.0
  0
LINE
  5
23D
100
AcDbEntity
  8
0
100
AcDbLine
 62
7
  6
CONTINUOUS
 10
8.5
 20
0.0
 11
8.5
 21
11.0
  0
LINE
  5
23E
100
AcDbEntity
  8
0
100
AcDbLine
 62
7
  6
CONTINUOUS
 10
0.0
 20
11.0
 11
8.5
 21
11.0
  0
LINE
  5
23F
100
AcDbEntity
  8
0
100
AcDbLine
 62
7
  6
CONTINUOUS
 10
3.9973604682
 20
2.8907857143
 11
4.3523289728
 21
2.8907857143
  0
LINE
  5
240
100
AcDbEntity
  8
0
100
AcDbLine
 62
7
  6
CONTINUOUS
 10
4.0740127922
 20
2.9345357143
 11
3.7522246751
 21
2.9345357143
  0
LINE
  5
241
100
AcDbEntity
  8
0
100
AcDbLine
 62
7
  6
CONTINUOUS
 10
4.2756705813
 20
2.9345357143
 11
4.5974647659
 21
2.9345357143
  0
LINE
  5
242
100
AcDbEntity
  8
0
100
AcDbLine
 62
7
  6
CONTINUOUS
 10
4.5974647659
 20
3.1270357143
 11
4.2756694077
 21
3.1270357143
  0
LINE
  5
243
100
AcDbEntity
  8
0
100
AcDbLine
 62
7
  6
CONTINUOUS
 10
3.7522246751
 20
3.1270357143
 11
4.0740110331
 21
3.1270357143
  0
LINE
  5
244
100
AcDbEntity
  8
0
100
AcDbLine
 62
7
  6
CONTINUOUS
 10
3.9973447205
 20
3.1707857143
 11
4.3523447205
 21
3.1707857143
  0
LINE
  5
245
100
AcDbEntity
  8
0
100
AcDbLine
 62
9
  6
CONTINUOUS
 10
3.9298661831
 20
3.2307857143
 11
4.4198232579
 21
3.2307857143
  0
LINE
  5
246
100
AcDbEntity
  8
0
100
AcDbLine
 62
9
  6
CONTINUOUS
 10
3.9248447205
 20
3.2357857143
 11
4.4248447205
 21
3.2357857143
  0
LINE
  5
247
100
AcDbEntity
  8
0
100
AcDbLine
 62
9
  6
CONTINUOUS
 10
4.4248447205
 20
3.3907857143
 11
3.9248447205
 21
3.3907857143
  0
LINE
  5
248
100
AcDbEntity
  8
0
100
AcDbLine
 62
9
  6
CONTINUOUS
 10
3.9298661831
 20
3.3957857143
 11
4.4198233877
 21
3.3957857143
  0
LINE
  5
249
100
AcDbEntity
  8
0
100
AcDbLine
 62
7
  6
CONTINUOUS
 10
4.3687697204
 20
3.4004607142
 11
4.3687156363
 21
3.4004607142
  0
LINE
  5
24A
100
AcDbEntity
  8
0
100
AcDbLine
 62
7
  6
CONTINUOUS
 10
4.4248447205
 20
3.4057857143
 11
3.9248447205
 21
3.4057857143
  0
LINE
  5
24B
100
AcDbEntity
  8
0
100
AcDbLine
 62
7
  6
CONTINUOUS
 10
3.9777057791
 20
3.4036746557
 11
3.9855947205
 21
3.3957857143
  0
LINE
  5
24C
100
AcDbEntity
  8
0
100
AcDbLine
 62
7
  6
CONTINUOUS
 10
3.5498447205
 20
6.4822942466
 11
3.5498447205
 21
6.5377857143
  0
LINE
  5
24D
100
AcDbEntity
  8
0
100
AcDbLine
 62
7
  6
CONTINUOUS
 10
3.9248447205
 20
5.1577857143
 11
3.9248447205
 21
4.8457857143
  0
LINE
  5
24E
100
AcDbEntity
  8
0
100
AcDbLine
 62
7
  6
CONTINUOUS
 10
3.9248447205
 20
3.2357857143
 11
3.9248447205
 21
3.3907857143
  0
LINE
  5
24F
100
AcDbEntity
  8
0
100
AcDbLine
 62
7
  6
CONTINUOUS
 10
3.9248447205
 20
3.4057857143
 11
3.9248447205
 21
4.8057857143
  0
LINE
  5
250
100
AcDbEntity
  8
0
100
AcDbLine
 62
7
  6
CONTINUOUS
 10
3.9718447205
 20
5.1602857143
 11
3.9718447205
 21
5.2527857143
  0
LINE
  5
251
100
AcDbEntity
  8
0
100
AcDbLine
 62
7
  6
CONTINUOUS
 10
3.9913447205
 20
4.8057857143
 11
3.9913447205
 21
4.8457857143
  0
LINE
  5
252
100
AcDbEntity
  8
0
100
AcDbLine
 62
7
  6
CONTINUOUS
 10
3.9973447205
 20
2.8907857143
 11
3.9973447205
 21
2.9345357143
  0
LINE
  5
253
100
AcDbEntity
  8
0
100
AcDbLine
 62
7
  6
CONTINUOUS
 10
3.9973447205
 20
3.1270357143
 11
3.9973447205
 21
3.1707857143
  0
LINE
  5
254
100
AcDbEntity
  8
0
100
AcDbLine
 62
7
  6
CONTINUOUS
 10
4.0623447205
 20
3.1707857143
 11
4.0623447205
 21
3.2307857143
  0
LINE
  5
255
100
AcDbEntity
  8
0
100
AcDbLine
 62
7
  6
CONTINUOUS
 10
4.2873447205
 20
3.1707857143
 11
4.2873447205
 21
3.2307857143
  0
LINE
  5
256
100
AcDbEntity
  8
0
100
AcDbLine
 62
7
  6
CONTINUOUS
 10
3.9248447205
 20
4.8057857143
 11
4.4248447205
 21
4.8057857143
  0
LINE
  5
257
100
AcDbEntity
  8
0
100
AcDbLine
 62
7
  6
CONTINUOUS
 10
4.4248447205
 20
4.8457857143
 11
3.9248447205
 21
4.8457857143
  0
LINE
  5
258
100
AcDbEntity
  8
0
100
AcDbLine
 62
7
  6
CONTINUOUS
 10
4.3523447205
 20
2.8907857143
 11
4.3523447205
 21
2.9345357143
  0
LINE
  5
259
100
AcDbEntity
  8
0
100
AcDbLine
 62
7
  6
CONTINUOUS
 10
4.3523447205
 20
3.1270357143
 11
4.3523447205
 21
3.1707857143
  0
LINE
  5
25A
100
AcDbEntity
  8
0
100
AcDbLine
 62
7
  6
CONTINUOUS
 10
4.3583447205
 20
4.8057857143
 11
4.3583447205
 21
4.8457857143
  0
LINE
  5
25B
100
AcDbEntity
  8
0
100
AcDbLine
 62
7
  6
CONTINUOUS
 10
4.3778447205
 20
5.2527857143
 11
4.3778447205
 21
5.1602857143
  0
LINE
  5
25C
100
AcDbEntity
  8
0
100
AcDbLine
 62
7
  6
CONTINUOUS
 10
4.4248447205
 20
5.1577857143
 11
4.4248447205
 21
4.8457857143
  0
LINE
  5
25D
100
AcDbEntity
  8
0
100
AcDbLine
 62
7
  6
CONTINUOUS
 10
4.4248447205
 20
4.8057857143
 11
4.4248447205
 21
3.4057857143
  0
LINE
  5
25E
100
AcDbEntity
  8
0
100
AcDbLine
 62
7
  6
CONTINUOUS
 10
4.4248447205
 20
3.2357857143
 11
4.4248447205
 21
3.3907857143
  0
LINE
  5
25F
100
AcDbEntity
  8
0
100
AcDbLine
 62
7
  6
CONTINUOUS
 10
3.977702186
 20
3.4036782487
 11
3.9777219831
 21
3.4037341758
  0
LINE
  5
260
100
AcDbEntity
  8
0
100
AcDbLine
 62
7
  6
CONTINUOUS
 10
3.9248648933
 20
5.1577857143
 11
3.9693447205
 21
5.1577857143
  0
LINE
  5
261
100
AcDbEntity
  8
0
100
AcDbLine
 62
7
  6
CONTINUOUS
 10
4.3803447205
 20
5.1577857143
 11
4.4248245477
 21
5.1577857143
  0
LINE
  5
262
100
AcDbEntity
  8
0
100
AcDbLine
 62
7
  6
CONTINUOUS
 10
4.7998447205
 20
6.4822942466
 11
4.7998447205
 21
6.5377857143
  0
LINE
  5
263
100
AcDbEntity
  8
0
100
AcDbLine
 62
7
  6
CONTINUOUS
 10
4.3778447205
 20
5.2527857143
 11
3.9718447205
 21
5.2527857143
  0
LINE
  5
264
100
AcDbEntity
  8
0
100
AcDbLine
 62
7
  6
CONTINUOUS
 10
4.3729606138
 20
3.4046516076
 11
4.3640947205
 21
3.3957857143
  0
LINE
  5
265
100
AcDbEntity
  8
0
100
AcDbLine
 62
7
  6
CONTINUOUS
 10
4.3689476374
 20
3.4006386312
 11
4.3687156363
 21
3.4004607142
  0
LINE
  5
266
100
AcDbEntity
  8
0
100
AcDbLine
 62
7
  6
CONTINUOUS
 10
3.9438995991
 20
6.2527857143
 11
4.4057535537
 21
6.2527857143
  0
LINE
  5
267
100
AcDbEntity
  8
0
100
AcDbLine
 62
9
  6
CONTINUOUS
 10
3.9093510741
 20
6.2632026132
 11
4.4403383669
 21
6.2632026132
  0
LINE
  5
268
100
AcDbEntity
  8
0
100
AcDbLine
 62
9
  6
CONTINUOUS
 10
4.7586310504
 20
6.4235308042
 11
3.5910583906
 21
6.4235308042
  0
LINE
  5
269
100
AcDbEntity
  8
0
100
AcDbLine
 62
9
  6
CONTINUOUS
 10
3.5498447205
 20
6.4822942466
 11
4.7998447205
 21
6.4822942466
  0
LINE
  5
26A
100
AcDbEntity
  8
0
100
AcDbLine
 62
7
  6
CONTINUOUS
 10
3.5498447205
 20
6.5377857143
 11
4.7998447205
 21
6.5377857143
  0
ARC
  5
26B
100
AcDbEntity
  8
0
100
AcDbCircle
 62
7
  6
CONTINUOUS
 10
4.0418423515
 20
1.5146305484
 40
1.8904993425
100
AcDbArc
 50
91.162805253
 51
91.420740324
  0
ARC
  5
26C
100
AcDbEntity
  8
0
100
AcDbCircle
 62
7
  6
CONTINUOUS
 10
4.0178323984
 20
2.4638519591
 40
0.9409745532
100
AcDbArc
 50
91.3922728848
 51
91.8104414999
  0
ARC
  5
26D
100
AcDbEntity
  8
0
100
AcDbCircle
 62
7
  6
CONTINUOUS
 10
4.0235048217
 20
3.0480216036
 40
0.1246757517
100
AcDbArc
 50
312.0443084241
 51
318.0319694628
  0
ARC
  5
26E
100
AcDbEntity
  8
0
100
AcDbCircle
 62
7
  6
CONTINUOUS
 10
4.02384282
 20
3.0477147465
 40
0.1242250202
100
AcDbArc
 50
312.0233415223
 51
317.8022344674
  0
ARC
  5
26F
100
AcDbEntity
  8
0
100
AcDbCircle
 62
7
  6
CONTINUOUS
 10
4.0241591419
 20
3.014225054
 40
0.1237395387
100
AcDbArc
 50
47.9823261118
 51
53.1342298304
  0
ARC
  5
270
100
AcDbEntity
  8
0
100
AcDbCircle
 62
7
  6
CONTINUOUS
 10
4.024428802
 20
3.0144541467
 40
0.1233854172
100
AcDbArc
 50
37.2183558244
 51
47.9823261118
  0
ARC
  5
271
100
AcDbEntity
  8
0
100
AcDbCircle
 62
7
  6
CONTINUOUS
 10
4.0251722869
 20
3.0151626673
 40
0.1223648553
100
AcDbArc
 50
37.1647330396
 51
48.0409043129
  0
ARC
  5
272
100
AcDbEntity
  8
0
100
AcDbCircle
 62
7
  6
CONTINUOUS
 10
4.0254185114
 20
3.0462610196
 40
0.1220812446
100
AcDbArc
 50
317.8109577149
 51
320.7433734306
  0
ARC
  5
273
100
AcDbEntity
  8
0
100
AcDbCircle
 62
7
  6
CONTINUOUS
 10
4.0273564387
 20
3.0446708076
 40
0.1195743918
100
AcDbArc
 50
320.7457796083
 51
323.3493772631
  0
ARC
  5
274
100
AcDbEntity
  8
0
100
AcDbCircle
 62
7
  6
CONTINUOUS
 10
4.0274135175
 20
3.0185634032
 40
0.118316234
100
AcDbArc
 50
53.1346567698
 51
58.1905243265
  0
ARC
  5
275
100
AcDbEntity
  8
0
100
AcDbCircle
 62
7
  6
CONTINUOUS
 10
4.0292065606
 20
3.0432892192
 40
0.1172653399
100
AcDbArc
 50
323.3513485042
 51
325.1907655327
  0
ARC
  5
276
100
AcDbEntity
  8
0
100
AcDbCircle
 62
7
  6
CONTINUOUS
 10
4.0292934715
 20
3.0183461231
 40
0.1171575314
100
AcDbArc
 50
34.0903436671
 51
37.1416213249
  0
ARC
  5
277
100
AcDbEntity
  8
0
100
AcDbCircle
 62
7
  6
CONTINUOUS
 10
4.0308480242
 20
3.0192557366
 40
0.1153693113
100
AcDbArc
 50
31.6270150363
 51
37.2476639965
  0
ARC
  5
278
100
AcDbEntity
  8
0
100
AcDbCircle
 62
7
  6
CONTINUOUS
 10
4.0316806034
 20
3.0415848991
 40
0.1142611057
100
AcDbArc
 50
325.1842703718
 51
328.4791868218
  0
ARC
  5
279
100
AcDbEntity
  8
0
100
AcDbCircle
 62
7
  6
CONTINUOUS
 10
4.0320553408
 20
3.0202203928
 40
0.113819749
100
AcDbArc
 50
31.5320768932
 51
34.0882499069
  0
ARC
  5
27A
100
AcDbEntity
  8
0
100
AcDbCircle
 62
7
  6
CONTINUOUS
 10
4.0347488034
 20
3.0218735016
 40
0.1106594469
100
AcDbArc
 50
29.0165323638
 51
31.5318659865
  0
ARC
  5
27B
100
AcDbEntity
  8
0
100
AcDbCircle
 62
7
  6
CONTINUOUS
 10
4.0316158333
 20
3.0251608085
 40
0.1104947369
100
AcDbArc
 50
58.2391025885
 51
60.3705843341
  0
ARC
  5
27C
100
AcDbEntity
  8
0
100
AcDbCircle
 62
7
  6
CONTINUOUS
 10
4.0352965654
 20
3.0393710567
 40
0.1100212629
100
AcDbArc
 50
328.4774869233
 51
332.0527105102
  0
ARC
  5
27D
100
AcDbEntity
  8
0
100
AcDbCircle
 62
7
  6
CONTINUOUS
 10
4.0369002193
 20
3.0230760894
 40
0.1081947479
100
AcDbArc
 50
27.609544007
 51
29.0122594959
  0
ARC
  5
27E
100
AcDbEntity
  8
0
100
AcDbCircle
 62
7
  6
CONTINUOUS
 10
4.038558721
 20
3.0376252448
 40
0.1063213529
100
AcDbArc
 50
332.0599181916
 51
334.4457182564
  0
ARC
  5
27F
100
AcDbEntity
  8
0
100
AcDbCircle
 62
7
  6
CONTINUOUS
 10
4.0387832321
 20
3.0240566986
 40
0.1060717036
100
AcDbArc
 50
25.5673407512
 51
27.611556982
  0
ARC
  5
280
100
AcDbEntity
  8
0
100
AcDbCircle
 62
7
  6
CONTINUOUS
 10
4.0424884684
 20
3.0357682477
 40
0.1019749817
100
AcDbArc
 50
334.4345825344
 51
340.4832831557
  0
ARC
  5
281
100
AcDbEntity
  8
0
100
AcDbCircle
 62
7
  6
CONTINUOUS
 10
4.0435870352
 20
3.0262640015
 40
0.1007857193
100
AcDbArc
 50
19.4929454366
 51
25.6139708144
  0
ARC
  5
282
100
AcDbEntity
  8
0
100
AcDbCircle
 62
7
  6
CONTINUOUS
 10
4.0503453875
 20
3.0329816394
 40
0.0936385339
100
AcDbArc
 50
340.4842908245
 51
346.6865287643
  0
ARC
  5
283
100
AcDbEntity
  8
0
100
AcDbCircle
 62
7
  6
CONTINUOUS
 10
4.050344173
 20
3.0286008097
 40
0.0936361262
100
AcDbArc
 50
13.3190042266
 51
19.5247190365
  0
ARC
  5
284
100
AcDbEntity
  8
0
100
AcDbCircle
 62
7
  6
CONTINUOUS
 10
4.0510479458
 20
3.0322175715
 40
0.09272236
100
AcDbArc
 50
340.7842789871
 51
347.0458748432
  0
ARC
  5
285
100
AcDbEntity
  8
0
100
AcDbCircle
 62
7
  6
CONTINUOUS
 10
3.9298447205
 20
3.3907857143
 40
0.005
100
AcDbArc
 50
89.9999450979
 51
159.9999573602
  0
ARC
  5
286
100
AcDbEntity
  8
0
100
AcDbCircle
 62
7
  6
CONTINUOUS
 10
3.9298447205
 20
3.2357857143
 40
0.005
100
AcDbArc
 50
180.0
 51
270.0
  0
ARC
  5
287
100
AcDbEntity
  8
0
100
AcDbCircle
 62
9
  6
CONTINUOUS
 10
4.1615186436
 20
3.7658219917
 40
0.2590336142
100
AcDbArc
 50
315.1603944454
 51
315.9613504791
  0
ARC
  5
288
100
AcDbEntity
  8
0
100
AcDbCircle
 62
9
  6
CONTINUOUS
 10
4.1627983
 20
3.7645351381
 40
0.2572188391
100
AcDbArc
 50
312.8476326149
 51
315.1626597104
  0
ARC
  5
289
100
AcDbEntity
  8
0
100
AcDbCircle
 62
9
  6
CONTINUOUS
 10
4.1635332275
 20
3.7637472941
 40
0.2561414314
100
AcDbArc
 50
312.214196715
 51
312.8469506445
  0
ARC
  5
28A
100
AcDbEntity
  8
0
100
AcDbCircle
 62
9
  6
CONTINUOUS
 10
4.1653616919
 20
3.7616595522
 40
0.2533666221
100
AcDbArc
 50
307.6337442184
 51
312.2251716309
  0
ARC
  5
28B
100
AcDbEntity
  8
0
100
AcDbCircle
 62
9
  6
CONTINUOUS
 10
4.1675506089
 20
3.7588343097
 40
0.2497926492
100
AcDbArc
 50
305.631619571
 51
307.6318304622
  0
ARC
  5
28C
100
AcDbEntity
  8
0
100
AcDbCircle
 62
9
  6
CONTINUOUS
 10
4.1685925135
 20
3.7573781434
 40
0.2480021232
100
AcDbArc
 50
304.1884711102
 51
305.6319620975
  0
ARC
  5
28D
100
AcDbEntity
  8
0
100
AcDbCircle
 62
9
  6
CONTINUOUS
 10
4.1692373651
 20
3.7564285049
 40
0.2468542352
100
AcDbArc
 50
303.0457844098
 51
304.1885177182
  0
ARC
  5
28E
100
AcDbEntity
  8
0
100
AcDbCircle
 62
9
  6
CONTINUOUS
 10
4.1748446333
 20
3.739970262
 40
0.2291845477
100
AcDbArc
 50
263.5346514834
 51
276.46266666
  0
ARC
  5
28F
100
AcDbEntity
  8
0
100
AcDbCircle
 62
7
  6
CONTINUOUS
 10
4.0544530525
 20
3.0301227731
 40
0.0892315066
100
AcDbArc
 50
6.6567960187
 51
12.975960974
  0
ARC
  5
290
100
AcDbEntity
  8
0
100
AcDbCircle
 62
7
  6
CONTINUOUS
 10
4.0602253846
 20
3.0307562477
 40
0.0834246656
100
AcDbArc
 50
0.0202375502
 51
6.6842234072
  0
ARC
  5
291
100
AcDbEntity
  8
0
100
AcDbCircle
 62
7
  6
CONTINUOUS
 10
4.0607320797
 20
3.0308114849
 40
0.0829179693
100
AcDbArc
 50
355.6298863445
 51
359.9821926521
  0
ARC
  5
292
100
AcDbEntity
  8
0
100
AcDbCircle
 62
7
  6
CONTINUOUS
 10
4.0670926982
 20
3.0298279707
 40
0.0765740121
100
AcDbArc
 50
353.4597091741
 51
356.8467369141
  0
ARC
  5
293
100
AcDbEntity
  8
0
100
AcDbCircle
 62
7
  6
CONTINUOUS
 10
4.0699666954
 20
3.0296502875
 40
0.073694595
100
AcDbArc
 50
356.8617609773
 51
357.9869435877
  0
ARC
  5
294
100
AcDbEntity
  8
0
100
AcDbCircle
 62
7
  6
CONTINUOUS
 10
4.0723347536
 20
3.029579093
 40
0.0713254984
100
AcDbArc
 50
357.9772776238
 51
0.9693252081
  0
ARC
  5
295
100
AcDbEntity
  8
0
100
AcDbCircle
 62
7
  6
CONTINUOUS
 10
4.0848450129
 20
3.0746245042
 40
0.0579926081
100
AcDbArc
 50
112.9608385481
 51
115.0114609762
  0
ARC
  5
296
100
AcDbEntity
  8
0
100
AcDbCircle
 62
7
  6
CONTINUOUS
 10
4.0848431333
 20
2.9869429195
 40
0.0579881818
100
AcDbArc
 50
244.9897537294
 51
247.0532164384
  0
ARC
  5
297
100
AcDbEntity
  8
0
100
AcDbCircle
 62
7
  6
CONTINUOUS
 10
4.0841086747
 20
2.9851916932
 40
0.0560891873
100
AcDbArc
 50
247.0466561062
 51
251.9659245677
  0
ARC
  5
298
100
AcDbEntity
  8
0
100
AcDbCircle
 62
7
  6
CONTINUOUS
 10
4.0839429749
 20
3.0768228692
 40
0.0556165357
100
AcDbArc
 50
108.0142672295
 51
112.9886694263
  0
ARC
  5
299
100
AcDbEntity
  8
0
100
AcDbCircle
 62
7
  6
CONTINUOUS
 10
3.0801864737
 20
5.013208187
 40
1.5
100
AcDbArc
 50
56.4423050822
 51
70.0877073885
  0
ARC
  5
29A
100
AcDbEntity
  8
0
100
AcDbCircle
 62
7
  6
CONTINUOUS
 10
3.6123447205
 20
6.4822942466
 40
0.0625
100
AcDbArc
 50
180.0
 51
250.0877073885
  0
ARC
  5
29B
100
AcDbEntity
  8
0
100
AcDbCircle
 62
7
  6
CONTINUOUS
 10
3.9438995991
 20
6.3152857143
 40
0.0625
100
AcDbArc
 50
236.4423050822
 51
270.0
  0
ARC
  5
29C
100
AcDbEntity
  8
0
100
AcDbCircle
 62
7
  6
CONTINUOUS
 10
3.9693447205
 20
5.1602857143
 40
0.0025
100
AcDbArc
 50
270.0
 51
360.0
  0
ARC
  5
29D
100
AcDbEntity
  8
0
100
AcDbCircle
 62
7
  6
CONTINUOUS
 10
4.295202991
 20
3.0314418039
 40
0.0891974441
100
AcDbArc
 50
186.5609688717
 51
192.9328386287
  0
ARC
  5
29E
100
AcDbEntity
  8
0
100
AcDbCircle
 62
7
  6
CONTINUOUS
 10
4.2894258795
 20
3.0308143988
 40
0.0833864884
100
AcDbArc
 50
180.0197094449
 51
186.5862539226
  0
ARC
  5
29F
100
AcDbEntity
  8
0
100
AcDbCircle
 62
7
  6
CONTINUOUS
 10
4.2648444281
 20
2.9869469244
 40
0.0579926081
100
AcDbArc
 50
292.9608385481
 51
295.0114609761
  0
ARC
  5
2A0
100
AcDbEntity
  8
0
100
AcDbCircle
 62
7
  6
CONTINUOUS
 10
4.2648463077
 20
3.0746285091
 40
0.0579881818
100
AcDbArc
 50
64.9897537293
 51
67.0532164384
  0
ARC
  5
2A1
100
AcDbEntity
  8
0
100
AcDbCircle
 62
7
  6
CONTINUOUS
 10
4.2655770394
 20
3.0763704954
 40
0.0560991491
100
AcDbArc
 50
67.046831379
 51
71.9244601951
  0
ARC
  5
2A2
100
AcDbEntity
  8
0
100
AcDbCircle
 62
7
  6
CONTINUOUS
 10
4.2657416463
 20
2.9847612059
 40
0.0556300602
100
AcDbArc
 50
288.0556767497
 51
292.9881523396
  0
ARC
  5
2A3
100
AcDbEntity
  8
0
100
AcDbCircle
 62
9
  6
CONTINUOUS
 10
4.1857351466
 20
3.7632821594
 40
0.2555140216
100
AcDbArc
 50
227.7836643478
 51
229.2663704674
  0
ARC
  5
2A4
100
AcDbEntity
  8
0
100
AcDbCircle
 62
9
  6
CONTINUOUS
 10
4.1851101879
 20
3.762560993
 40
0.2545597441
100
AcDbArc
 50
229.2670391911
 51
229.6862085119
  0
ARC
  5
2A5
100
AcDbEntity
  8
0
100
AcDbCircle
 62
9
  6
CONTINUOUS
 10
4.184082639
 20
3.7613408158
 40
0.2529645469
100
AcDbArc
 50
229.6848714707
 51
232.3639908664
  0
ARC
  5
2A6
100
AcDbEntity
  8
0
100
AcDbCircle
 62
9
  6
CONTINUOUS
 10
4.1828053543
 20
3.759714471
 40
0.2508966705
100
AcDbArc
 50
232.3681867078
 51
232.7420069169
  0
CIRCLE
  5
2A7
100
AcDbEntity
  8
0
100
AcDbCircle
 62
7
  6
CONTINUOUS
 10
4.1748447205
 20
3.7807857143
 40
0.25
  0
ARC
  5
2A8
100
AcDbEntity
  8
0
100
AcDbCircle
 62
9
  6
CONTINUOUS
 10
4.1815293815
 20
3.7580146732
 40
0.2487712916
100
AcDbArc
 50
232.7388983447
 51
236.9431248301
  0
CIRCLE
  5
2A9
100
AcDbEntity
  8
0
100
AcDbCircle
 62
7
  6
CONTINUOUS
 10
4.1748447205
 20
3.7807857143
 40
0.21125
  0
CIRCLE
  5
2AA
100
AcDbEntity
  8
0
100
AcDbCircle
 62
7
  6
CONTINUOUS
 10
4.1748447205
 20
3.7807857143
 40
0.121
  0
CIRCLE
  5
2AB
100
AcDbEntity
  8
0
100
AcDbCircle
 62
7
  6
CONTINUOUS
 10
4.1748447205
 20
3.7807857143
 40
0.075
  0
ARC
  5
2AC
100
AcDbEntity
  8
0
100
AcDbCircle
 62
7
  6
CONTINUOUS
 10
4.3258666974
 20
3.0138885985
 40
0.1242100913
100
AcDbArc
 50
131.9954810652
 51
142.7134090442
  0
ARC
  5
2AD
100
AcDbEntity
  8
0
100
AcDbCircle
 62
7
  6
CONTINUOUS
 10
4.3253277137
 20
3.0471864627
 40
0.1234805963
100
AcDbArc
 50
217.264124752
 51
233.1262589633
  0
ARC
  5
2AE
100
AcDbEntity
  8
0
100
AcDbCircle
 62
7
  6
CONTINUOUS
 10
4.3251658786
 20
3.0145871734
 40
0.1232295221
100
AcDbArc
 50
131.966507046
 51
142.774416878
  0
ARC
  5
2AF
100
AcDbEntity
  8
0
100
AcDbCircle
 62
7
  6
CONTINUOUS
 10
4.3252456895
 20
3.0146513534
 40
0.1232277243
100
AcDbArc
 50
126.83240702
 51
131.966507046
  0
ARC
  5
2B0
100
AcDbEntity
  8
0
100
AcDbCircle
 62
7
  6
CONTINUOUS
 10
4.3250192385
 20
3.04677591
 40
0.1229765585
100
AcDbArc
 50
228.0292115781
 51
233.1818066317
  0
ARC
  5
2B1
100
AcDbEntity
  8
0
100
AcDbCircle
 62
7
  6
CONTINUOUS
 10
4.3246778084
 20
3.0152106601
 40
0.1224395787
100
AcDbArc
 50
126.7766145604
 51
131.9917883378
  0
ARC
  5
2B2
100
AcDbEntity
  8
0
100
AcDbCircle
 62
7
  6
CONTINUOUS
 10
4.3245501692
 20
3.0464172333
 40
0.122396245
100
AcDbArc
 50
217.197943619
 51
228.0801805206
  0
ARC
  5
2B3
100
AcDbEntity
  8
0
100
AcDbCircle
 62
7
  6
CONTINUOUS
 10
4.3200655051
 20
3.0184072014
 40
0.1168572222
100
AcDbArc
 50
142.7529739629
 51
148.3258999771
  0
ARC
  5
2B4
100
AcDbEntity
  8
0
100
AcDbCircle
 62
7
  6
CONTINUOUS
 10
4.3197512987
 20
3.0188389032
 40
0.1163460573
100
AcDbArc
 50
142.8285412979
 51
148.4138341007
  0
ARC
  5
2B5
100
AcDbEntity
  8
0
100
AcDbCircle
 62
7
  6
CONTINUOUS
 10
4.3183277743
 20
3.0417599394
 40
0.1146241354
100
AcDbArc
 50
210.7031630532
 51
217.2239870336
  0
ARC
  5
2B6
100
AcDbEntity
  8
0
100
AcDbCircle
 62
7
  6
CONTINUOUS
 10
4.3159035412
 20
3.0212985513
 40
0.1117800454
100
AcDbArc
 50
148.4547788873
 51
149.311471526
  0
ARC
  5
2B7
100
AcDbEntity
  8
0
100
AcDbCircle
 62
7
  6
CONTINUOUS
 10
4.3149492155
 20
3.0216889215
 40
0.1107798739
100
AcDbArc
 50
148.3809336142
 51
149.2383998198
  0
ARC
  5
2B8
100
AcDbEntity
  8
0
100
AcDbCircle
 62
7
  6
CONTINUOUS
 10
4.2993741427
 20
3.0285799883
 40
0.0936701856
100
AcDbArc
 50
160.4467883734
 51
166.6710573531
  0
ARC
  5
2B9
100
AcDbEntity
  8
0
100
AcDbCircle
 62
7
  6
CONTINUOUS
 10
4.2993737563
 20
3.0329797942
 40
0.0936660573
100
AcDbArc
 50
193.3340674933
 51
199.5611701695
  0
ARC
  5
2BA
100
AcDbEntity
  8
0
100
AcDbCircle
 62
7
  6
CONTINUOUS
 10
4.2986854419
 20
3.0322259882
 40
0.0927670645
100
AcDbArc
 50
192.9235055756
 51
199.2647943719
  0
ARC
  5
2BB
100
AcDbEntity
  8
0
100
AcDbCircle
 62
7
  6
CONTINUOUS
 10
4.2986733334
 20
3.02934861
 40
0.0927545952
100
AcDbArc
 50
160.7493226312
 51
167.0879116974
  0
ARC
  5
2BC
100
AcDbEntity
  8
0
100
AcDbCircle
 62
7
  6
CONTINUOUS
 10
4.4198447205
 20
3.2357857143
 40
0.005
100
AcDbArc
 50
270.0
 51
360.0
  0
ARC
  5
2BD
100
AcDbEntity
  8
0
100
AcDbCircle
 62
7
  6
CONTINUOUS
 10
4.4198447205
 20
3.3907857143
 40
0.005
100
AcDbArc
 50
0.0
 51
90.0000549021
  0
ARC
  5
2BE
100
AcDbEntity
  8
0
100
AcDbCircle
 62
7
  6
CONTINUOUS
 10
5.2695029673
 20
5.013208187
 40
1.5
100
AcDbArc
 50
109.9122926115
 51
123.5576949178
  0
ARC
  5
2BF
100
AcDbEntity
  8
0
100
AcDbCircle
 62
7
  6
CONTINUOUS
 10
4.7373447205
 20
6.4822942466
 40
0.0625
100
AcDbArc
 50
289.9122926115
 51
360.0
  0
ARC
  5
2C0
100
AcDbEntity
  8
0
100
AcDbCircle
 62
7
  6
CONTINUOUS
 10
4.4057898419
 20
6.3152857143
 40
0.0625
100
AcDbArc
 50
270.0
 51
303.5576949178
  0
ARC
  5
2C1
100
AcDbEntity
  8
0
100
AcDbCircle
 62
7
  6
CONTINUOUS
 10
4.3803447205
 20
5.1602857143
 40
0.0025
100
AcDbArc
 50
180.0
 51
270.0
  0
SPLINE
  5
2C2
100
AcDbEntity
  8
0
100
AcDbSpline
 62
7
  6
CONTINUOUS
 70
0
 71
3
 72
21
 73
17
 74
0
 42
0.0000001
 43
0.0000001
 44
0.0000000001
 40
0.0
 40
0.0
 40
0.0
 40
0.0
 40
0.0516261907
 40
0.1052613904
 40
0.1621403015
 40
0.2230486728
 40
0.3562168354
 40
0.4274213571
 40
0.5000002016
 40
0.5725790494
 40
0.6437835525
 40
0.7769516667
 40
0.8378600545
 40
0.8947389185
 40
0.9483739203
 40
1.0
 40
1.0
 40
1.0
 40
1.0
 10
4.5974647659
 20
3.1270357143
 30
0.0
 10
4.6019276858
 20
3.1270357143
 30
0.0
 10
4.6110704914
 20
3.1257254897
 30
0.0
 10
4.6240567654
 20
3.120072122
 30
0.0
 10
4.6359104891
 20
3.1109581153
 30
0.0
 10
4.6500343058
 20
3.0943271417
 30
0.0
 10
4.6596819414
 20
3.0729710784
 30
0.0
 10
4.6646652572
 20
3.0495115674
 30
0.0
 10
4.6659525878
 20
3.0307856605
 30
0.0
 10
4.6646652451
 20
3.0120597556
 30
0.0
 10
4.6596819036
 20
2.9886002559
 30
0.0
 10
4.6500342569
 20
2.9672442031
 30
0.0
 10
4.6359104206
 20
2.9506132515
 30
0.0
 10
4.6240566976
 20
2.9414992828
 30
0.0
 10
4.6110704606
 20
2.9358459031
 30
0.0
 10
4.6019276762
 20
2.9345357143
 30
0.0
 10
4.5974647659
 20
2.9345357143
 30
0.0
  0
SPLINE
  5
2C3
100
AcDbEntity
  8
0
100
AcDbSpline
 62
7
  6
CONTINUOUS
 70
0
 71
3
 72
21
 73
17
 74
0
 42
0.0000001
 43
0.0000001
 44
0.0000000001
 40
0.0
 40
0.0
 40
0.0
 40
0.0
 40
0.0516261907
 40
0.1052613904
 40
0.1621403015
 40
0.2230486728
 40
0.3562168354
 40
0.4274213571
 40
0.5000002016
 40
0.5725790494
 40
0.6437835525
 40
0.7769516667
 40
0.8378600545
 40
0.8947389185
 40
0.9483739203
 40
1.0
 40
1.0
 40
1.0
 40
1.0
 10
3.7522246751
 20
2.9345357143
 30
0.0
 10
3.7477617552
 20
2.9345357143
 30
0.0
 10
3.7386189496
 20
2.9358459389
 30
0.0
 10
3.7256326756
 20
2.9414993066
 30
0.0
 10
3.7137789519
 20
2.9506133133
 30
0.0
 10
3.6996551352
 20
2.9672442869
 30
0.0
 10
3.6900074996
 20
2.9886003502
 30
0.0
 10
3.6850241838
 20
3.0120598612
 30
0.0
 10
3.6837368532
 20
3.030785768
 30
0.0
 10
3.6850241959
 20
3.0495116729
 30
0.0
 10
3.6900075374
 20
3.0729711727
 30
0.0
 10
3.6996551841
 20
3.0943272255
 30
0.0
 10
3.7137790204
 20
3.1109581771
 30
0.0
 10
3.7256327434
 20
3.1200721457
 30
0.0
 10
3.7386189804
 20
3.1257255254
 30
0.0
 10
3.7477617648
 20
3.1270357143
 30
0.0
 10
3.7522246751
 20
3.1270357143
 30
0.0
  0
SPLINE
  5
2C4
100
AcDbEntity
  8
0
100
AcDbSpline
 62
7
  6
CONTINUOUS
 70
0
 71
3
 72
21
 73
17
 74
0
 42
0.0000001
 43
0.0000001
 44
0.0000000001
 40
0.0
 40
0.0
 40
0.0
 40
0.0
 40
0.0516261907
 40
0.1052613904
 40
0.1621403015
 40
0.2230486728
 40
0.3562168354
 40
0.4274213571
 40
0.5000002016
 40
0.5725790494
 40
0.6437835525
 40
0.7769516667
 40
0.8378600545
 40
0.8947389185
 40
0.9483739203
 40
1.0
 40
1.0
 40
1.0
 40
1.0
 10
4.5974647659
 20
2.9345357143
 30
0.0
 10
4.5930018461
 20
2.9345357143
 30
0.0
 10
4.5838590405
 20
2.9358459389
 30
0.0
 10
4.5708727665
 20
2.9414993066
 30
0.0
 10
4.5590190427
 20
2.9506133133
 30
0.0
 10
4.5448952261
 20
2.9672442869
 30
0.0
 10
4.5352475905
 20
2.9886003502
 30
0.0
 10
4.5302642747
 20
3.0120598612
 30
0.0
 10
4.5289769441
 20
3.030785768
 30
0.0
 10
4.5302642868
 20
3.0495116729
 30
0.0
 10
4.5352476283
 20
3.0729711727
 30
0.0
 10
4.5448952749
 20
3.0943272255
 30
0.0
 10
4.5590191112
 20
3.1109581771
 30
0.0
 10
4.5708728342
 20
3.1200721457
 30
0.0
 10
4.5838590713
 20
3.1257255254
 30
0.0
 10
4.5930018557
 20
3.1270357143
 30
0.0
 10
4.5974647659
 20
3.1270357143
 30
0.0
  0
LINE
  5
2C5
100
AcDbEntity
  8
0
100
AcDbLine
 62
7
  6
CONTINUOUS
 10
3.9778567387
 20
3.4037807433
 11
3.9795071698
 21
3.4039728074
  0
LINE
  5
2C6
100
AcDbEntity
  8
0
100
AcDbLine
 62
7
  6
CONTINUOUS
 10
3.9795071698
 20
3.4039728074
 11
3.9881042766
 21
3.4043567962
  0
SPLINE
  5
2C7
100
AcDbEntity
  8
0
100
AcDbSpline
 62
7
  6
CONTINUOUS
 70
0
 71
3
 72
21
 73
17
 74
0
 42
0.0000001
 43
0.0000001
 44
0.0000000001
 40
0.0
 40
0.0
 40
0.0
 40
0.0
 40
0.0516261907
 40
0.1052613904
 40
0.1621403015
 40
0.2230486728
 40
0.3562168354
 40
0.4274213571
 40
0.5000002016
 40
0.5725790494
 40
0.6437835525
 40
0.7769516667
 40
0.8378600545
 40
0.8947389185
 40
0.9483739203
 40
1.0
 40
1.0
 40
1.0
 40
1.0
 10
3.7522246751
 20
3.1270357143
 30
0.0
 10
3.7566875949
 20
3.1270357143
 30
0.0
 10
3.7658304005
 20
3.1257254897
 30
0.0
 10
3.7788166745
 20
3.120072122
 30
0.0
 10
3.7906703982
 20
3.1109581153
 30
0.0
 10
3.8047942149
 20
3.0943271417
 30
0.0
 10
3.8144418505
 20
3.0729710784
 30
0.0
 10
3.8194251663
 20
3.0495115674
 30
0.0
 10
3.8207124969
 20
3.0307856605
 30
0.0
 10
3.8194251542
 20
3.0120597556
 30
0.0
 10
3.8144418127
 20
2.9886002559
 30
0.0
 10
3.804794166
 20
2.9672442031
 30
0.0
 10
3.7906703297
 20
2.9506132515
 30
0.0
 10
3.7788166067
 20
2.9414992828
 30
0.0
 10
3.7658303697
 20
2.9358459031
 30
0.0
 10
3.7566875853
 20
2.9345357143
 30
0.0
 10
3.7522246751
 20
2.9345357143
 30
0.0
  0
SPLINE
  5
2C8
100
AcDbEntity
  8
0
100
AcDbSpline
 62
7
  6
CONTINUOUS
 70
0
 71
3
 72
9
 73
5
 74
0
 42
0.0000001
 43
0.0000001
 44
0.0000000001
 40
0.0
 40
0.0
 40
0.0
 40
0.0
 40
0.2445411364
 40
1.0
 40
1.0
 40
1.0
 40
1.0
 10
4.0493332668
 20
2.9292857143
 30
0.0
 10
4.0499382434
 20
2.9292857121
 30
0.0
 10
4.0524120701
 20
2.9293308021
 30
0.0
 10
4.0548818366
 20
2.9295506696
 30
0.0
 10
4.0567338984
 20
2.9298013428
 30
0.0
  0
SPLINE
  5
2C9
100
AcDbEntity
  8
0
100
AcDbSpline
 62
7
  6
CONTINUOUS
 70
0
 71
3
 72
9
 73
5
 74
0
 42
0.0000001
 43
0.0000001
 44
0.0000000001
 40
0.0
 40
0.0
 40
0.0
 40
0.0
 40
0.7860231038
 40
1.0
 40
1.0
 40
1.0
 40
1.0
 10
4.0567338984
 20
2.9298013428
 30
0.0
 10
4.0609940259
 20
2.9303779433
 30
0.0
 10
4.0663442757
 20
2.9316782778
 30
0.0
 10
4.0715088161
 20
2.9335029459
 30
0.0
 10
4.0726052104
 20
2.9339158437
 30
0.0
  0
SPLINE
  5
2CA
100
AcDbEntity
  8
0
100
AcDbSpline
 62
7
  6
CONTINUOUS
 70
0
 71
3
 72
9
 73
5
 74
0
 42
0.0000001
 43
0.0000001
 44
0.0000000001
 40
0.0
 40
0.0
 40
0.0
 40
0.0
 40
0.497282432
 40
1.0
 40
1.0
 40
1.0
 40
1.0
 10
4.1162034955
 20
2.9646489526
 30
0.0
 10
4.12102555
 20
2.9700116732
 30
0.0
 10
4.1298141158
 20
2.9816528623
 30
0.0
 10
4.1362061036
 20
2.9948153157
 30
0.0
 10
4.1386043814
 20
3.0017002547
 30
0.0
  0
SPLINE
  5
2CB
100
AcDbEntity
  8
0
100
AcDbSpline
 62
7
  6
CONTINUOUS
 70
0
 71
3
 72
9
 73
5
 74
0
 42
0.0000001
 43
0.0000001
 44
0.0000000001
 40
0.0
 40
0.0
 40
0.0
 40
0.0
 40
0.2503342976
 40
1.0
 40
1.0
 40
1.0
 40
1.0
 10
4.1414105091
 20
3.0114319225
 30
0.0
 10
4.1416575171
 20
3.0125070672
 30
0.0
 10
4.1425663412
 20
3.0168193265
 30
0.0
 10
4.1431581811
 20
3.0211991873
 30
0.0
 10
4.1434089761
 20
3.0244932236
 30
0.0
  0
SPLINE
  5
2CC
100
AcDbEntity
  8
0
100
AcDbSpline
 62
7
  6
CONTINUOUS
 70
0
 71
3
 72
9
 73
5
 74
0
 42
0.0000001
 43
0.0000001
 44
0.0000000001
 40
0.0
 40
0.0
 40
0.0
 40
0.0
 40
0.2442350906
 40
1.0
 40
1.0
 40
1.0
 40
1.0
 10
4.3003561742
 20
3.1322857143
 30
0.0
 10
4.2997628747
 20
3.1322857143
 30
0.0
 10
4.297333753
 20
3.1322419138
 30
0.0
 10
4.2949085443
 20
3.1320287264
 30
0.0
 10
4.2930887497
 20
3.1317859675
 30
0.0
  0
SPLINE
  5
2CD
100
AcDbEntity
  8
0
100
AcDbSpline
 62
7
  6
CONTINUOUS
 70
0
 71
3
 72
9
 73
5
 74
0
 42
0.0000001
 43
0.0000001
 44
0.0000000001
 40
0.0
 40
0.0
 40
0.0
 40
0.0
 40
0.239889379
 40
1.0
 40
1.0
 40
1.0
 40
1.0
 10
4.2930887497
 20
3.1317859675
 30
0.0
 10
4.2917940437
 20
3.131613255
 30
0.0
 10
4.2864205056
 20
3.1307200213
 30
0.0
 10
4.2811627641
 20
3.1291794091
 30
0.0
 10
4.2772854882
 20
3.1277317135
 30
0.0
  0
SPLINE
  5
2CE
100
AcDbEntity
  8
0
100
AcDbSpline
 62
7
  6
CONTINUOUS
 70
0
 71
3
 72
9
 73
5
 74
0
 42
0.0000001
 43
0.0000001
 44
0.0000000001
 40
0.0
 40
0.0
 40
0.0
 40
0.0
 40
0.4858781663
 40
1.0
 40
1.0
 40
1.0
 40
1.0
 10
4.2772854882
 20
3.1277317135
 30
0.0
 10
4.272772683
 20
3.1260467243
 30
0.0
 10
4.2637700938
 20
3.1217906206
 30
0.0
 10
4.2554536562
 20
3.1163369987
 30
0.0
 10
4.2513735765
 20
3.113281891
 30
0.0
  0
SPLINE
  5
2CF
100
AcDbEntity
  8
0
100
AcDbSpline
 62
7
  6
CONTINUOUS
 70
0
 71
3
 72
9
 73
5
 74
0
 42
0.0000001
 43
0.0000001
 44
0.0000000001
 40
0.0
 40
0.0
 40
0.0
 40
0.0
 40
0.249496879
 40
1.0
 40
1.0
 40
1.0
 40
1.0
 10
4.2197557512
 20
3.0783491793
 30
0.0
 10
4.2188893827
 20
3.0768935628
 30
0.0
 10
4.2155519908
 20
3.0709807103
 30
0.0
 10
4.2127841658
 20
3.0647408428
 30
0.0
 10
4.2111051
 20
3.0599299676
 30
0.0
  0
SPLINE
  5
2D0
100
AcDbEntity
  8
0
100
AcDbSpline
 62
7
  6
CONTINUOUS
 70
0
 71
3
 72
9
 73
5
 74
0
 42
0.0000001
 43
0.0000001
 44
0.0000000001
 40
0.0
 40
0.0
 40
0.0
 40
0.0
 40
0.2507026101
 40
1.0
 40
1.0
 40
1.0
 40
1.0
 10
4.2082641242
 20
3.0500751592
 30
0.0
 10
4.2079015471
 20
3.0484915929
 30
0.0
 10
4.206623901
 20
3.0421381957
 30
0.0
 10
4.206039396
 20
3.0356411357
 30
0.0
 10
4.206039396
 20
3.0307857143
 30
0.0
  0
SPLINE
  5
2D1
100
AcDbEntity
  8
0
100
AcDbSpline
 62
7
  6
CONTINUOUS
 70
0
 71
3
 72
9
 73
5
 74
0
 42
0.0000001
 43
0.0000001
 44
0.0000000001
 40
0.0
 40
0.0
 40
0.0
 40
0.0
 40
0.2508480724
 40
1.0
 40
1.0
 40
1.0
 40
1.0
 10
4.211112975
 20
3.0016189417
 30
0.0
 10
4.2116736205
 20
3.0000138454
 30
0.0
 10
4.2140825569
 20
2.9936765696
 30
0.0
 10
4.2171529834
 20
2.987596226
 30
0.0
 10
4.2197494588
 20
2.9832327166
 30
0.0
  0
SPLINE
  5
2D2
100
AcDbEntity
  8
0
100
AcDbSpline
 62
7
  6
CONTINUOUS
 70
0
 71
3
 72
9
 73
5
 74
0
 42
0.0000001
 43
0.0000001
 44
0.0000000001
 40
0.0
 40
0.0
 40
0.0
 40
0.0
 40
0.2601945964
 40
1.0
 40
1.0
 40
1.0
 40
1.0
 10
4.2772914604
 20
2.9338374692
 30
0.0
 10
4.2786186382
 20
2.9333420362
 30
0.0
 10
4.2837653027
 20
2.9315667528
 30
0.0
 10
4.2891024047
 20
2.9303167938
 30
0.0
 10
4.2930949797
 20
2.9297846172
 30
0.0
  0
SPLINE
  5
2D3
100
AcDbEntity
  8
0
100
AcDbSpline
 62
7
  6
CONTINUOUS
 70
0
 71
3
 72
9
 73
5
 74
0
 42
0.0000001
 43
0.0000001
 44
0.0000000001
 40
0.0
 40
0.0
 40
0.0
 40
0.0
 40
0.2558938737
 40
1.0
 40
1.0
 40
1.0
 40
1.0
 10
4.2930949797
 20
2.9297846172
 30
0.0
 10
4.2937106102
 20
2.9297025588
 30
0.0
 10
4.2961210579
 20
2.92941864
 30
0.0
 10
4.2985501681
 20
2.9292857143
 30
0.0
 10
4.3003561742
 20
2.9292857143
 30
0.0
  0
SPLINE
  5
2D4
100
AcDbEntity
  8
0
100
AcDbSpline
 62
7
  6
CONTINUOUS
 70
0
 71
3
 72
9
 73
5
 74
0
 42
0.0000001
 43
0.0000001
 44
0.0000000001
 40
0.0
 40
0.0
 40
0.0
 40
0.0
 40
0.7495451771
 40
1.0
 40
1.0
 40
1.0
 40
1.0
 10
4.143650045
 20
3.0307857143
 30
0.0
 10
4.1436907538
 20
3.0332105999
 30
0.0
 10
4.1435763828
 20
3.0364515129
 30
0.0
 10
4.1432576437
 20
3.0396714756
 30
0.0
 10
4.1431654267
 20
3.0404765829
 30
0.0
  0
SPLINE
  5
2D5
100
AcDbEntity
  8
0
100
AcDbSpline
 62
7
  6
CONTINUOUS
 70
0
 71
3
 72
9
 73
5
 74
0
 42
0.0000001
 43
0.0000001
 44
0.0000000001
 40
0.0
 40
0.0
 40
0.0
 40
0.0
 40
0.7496579824
 40
1.0
 40
1.0
 40
1.0
 40
1.0
 10
4.1431654267
 20
3.0404765829
 30
0.0
 10
4.1428854147
 20
3.0429212489
 30
0.0
 10
4.1423591414
 20
3.0461672185
 30
0.0
 10
4.1416502786
 20
3.0493722121
 30
0.0
 10
4.1414617229
 20
3.0501719996
 30
0.0
  0
SPLINE
  5
2D6
100
AcDbEntity
  8
0
100
AcDbSpline
 62
7
  6
CONTINUOUS
 70
0
 71
3
 72
9
 73
5
 74
0
 42
0.0000001
 43
0.0000001
 44
0.0000000001
 40
0.0
 40
0.0
 40
0.0
 40
0.0
 40
0.2564606136
 40
1.0
 40
1.0
 40
1.0
 40
1.0
 10
4.0862431274
 20
3.121207389
 30
0.0
 10
4.0851199575
 20
3.1218458896
 30
0.0
 10
4.0806962656
 20
3.1242562462
 30
0.0
 10
4.0760928153
 20
3.1263427101
 30
0.0
 10
4.0725872618
 20
3.127662408
 30
0.0
  0
SPLINE
  5
2D7
100
AcDbEntity
  8
0
100
AcDbSpline
 62
7
  6
CONTINUOUS
 70
0
 71
3
 72
9
 73
5
 74
0
 42
0.0000001
 43
0.0000001
 44
0.0000000001
 40
0.0
 40
0.0
 40
0.0
 40
0.0
 40
0.2547805681
 40
1.0
 40
1.0
 40
1.0
 40
1.0
 10
4.0725872618
 20
3.127662408
 30
0.0
 10
4.0719118537
 20
3.1279166716
 30
0.0
 10
4.0692483756
 20
3.1288808445
 30
0.0
 10
4.0665346743
 20
3.1297076518
 30
0.0
 10
4.0644907865
 20
3.1302352423
 30
0.0
  0
SPLINE
  5
2D8
100
AcDbEntity
  8
0
100
AcDbSpline
 62
7
  6
CONTINUOUS
 70
0
 71
3
 72
9
 73
5
 74
0
 42
0.0000001
 43
0.0000001
 44
0.0000000001
 40
0.0
 40
0.0
 40
0.0
 40
0.0
 40
0.2552916666
 40
1.0
 40
1.0
 40
1.0
 40
1.0
 10
4.0644907865
 20
3.1302352423
 30
0.0
 10
4.0638376575
 20
3.130403835
 30
0.0
 10
4.0612703659
 20
3.1310288076
 30
0.0
 10
4.058667171
 20
3.1315090148
 30
0.0
 10
4.0567171887
 20
3.1317723704
 30
0.0
  0
SPLINE
  5
2D9
100
AcDbEntity
  8
0
100
AcDbSpline
 62
7
  6
CONTINUOUS
 70
0
 71
3
 72
11
 73
7
 74
0
 42
0.0000001
 43
0.0000001
 44
0.0000000001
 40
0.0
 40
0.0
 40
0.0
 40
0.0
 40
0.2701885053
 40
0.5244736034
 40
0.7663045364
 40
1.0
 40
1.0
 40
1.0
 40
1.0
 10
4.0567171887
 20
3.1317723704
 30
0.0
 10
4.0541443386
 20
3.1321198475
 30
0.0
 10
4.0490976828
 20
3.1324785913
 30
0.0
 10
4.0417281478
 20
3.1318726568
 30
0.0
 10
4.0348987552
 20
3.1301389006
 30
0.0
 10
4.0307136486
 20
3.128231099
 30
0.0
 10
4.0287666928
 20
3.1271122319
 30
0.0
  0
SPLINE
  5
2DA
100
AcDbEntity
  8
0
100
AcDbSpline
 62
7
  6
CONTINUOUS
 70
0
 71
3
 72
9
 73
5
 74
0
 42
0.0000001
 43
0.0000001
 44
0.0000000001
 40
0.0
 40
0.0
 40
0.0
 40
0.0
 40
0.4836076787
 40
1.0
 40
1.0
 40
1.0
 40
1.0
 10
4.0287679239
 20
2.9344584883
 30
0.0
 10
4.0317580668
 20
2.9327402652
 30
0.0
 10
4.0384864057
 20
2.9300791975
 30
0.0
 10
4.0456547999
 20
2.9292854331
 30
0.0
 10
4.0493372492
 20
2.9292857144
 30
0.0
  0
SPLINE
  5
2DB
100
AcDbEntity
  8
0
100
AcDbSpline
 62
7
  6
CONTINUOUS
 70
0
 71
3
 72
9
 73
5
 74
0
 42
0.0000001
 43
0.0000001
 44
0.0000000001
 40
0.0
 40
0.0
 40
0.0
 40
0.0
 40
0.2445438678
 40
1.0
 40
1.0
 40
1.0
 40
1.0
 10
4.0493372492
 20
2.9292857144
 30
0.0
 10
4.0499419129
 20
2.9292857607
 30
0.0
 10
4.0524144295
 20
2.9293309928
 30
0.0
 10
4.0548828804
 20
2.9295507858
 30
0.0
 10
4.0567339597
 20
2.929801308
 30
0.0
  0
SPLINE
  5
2DC
100
AcDbEntity
  8
0
100
AcDbSpline
 62
7
  6
CONTINUOUS
 70
0
 71
3
 72
9
 73
5
 74
0
 42
0.0000001
 43
0.0000001
 44
0.0000000001
 40
0.0
 40
0.0
 40
0.0
 40
0.0
 40
0.240059291
 40
1.0
 40
1.0
 40
1.0
 40
1.0
 10
4.0567339597
 20
2.929801308
 30
0.0
 10
4.0580356911
 20
2.9299774823
 30
0.0
 10
4.0634341371
 20
2.9308862802
 30
0.0
 10
4.0687138187
 20
2.9324498357
 30
0.0
 10
4.0726052306
 20
2.93391579
 30
0.0
  0
SPLINE
  5
2DD
100
AcDbEntity
  8
0
100
AcDbSpline
 62
7
  6
CONTINUOUS
 70
0
 71
3
 72
9
 73
5
 74
0
 42
0.0000001
 43
0.0000001
 44
0.0000000001
 40
0.0
 40
0.0
 40
0.0
 40
0.0
 40
0.4830979364
 40
1.0
 40
1.0
 40
1.0
 40
1.0
 10
4.0726052306
 20
2.93391579
 30
0.0
 10
4.0787450345
 20
2.9362287479
 30
0.0
 10
4.090923623
 20
2.9424654961
 30
0.0
 10
4.1017882551
 20
2.9507318032
 30
0.0
 10
4.1070031849
 20
2.9554314363
 30
0.0
  0
SPLINE
  5
2DE
100
AcDbEntity
  8
0
100
AcDbSpline
 62
7
  6
CONTINUOUS
 70
0
 71
3
 72
9
 73
5
 74
0
 42
0.0000001
 43
0.0000001
 44
0.0000000001
 40
0.0
 40
0.0
 40
0.0
 40
0.0
 40
0.2503450436
 40
1.0
 40
1.0
 40
1.0
 40
1.0
 10
4.1414673631
 20
3.0114186943
 30
0.0
 10
4.141655672
 20
3.0122178291
 30
0.0
 10
4.1423635822
 20
3.0154201616
 30
0.0
 10
4.1428890171
 20
3.0186634305
 30
0.0
 10
4.143168367
 20
3.0211060473
 30
0.0
  0
SPLINE
  5
2DF
100
AcDbEntity
  8
0
100
AcDbSpline
 62
7
  6
CONTINUOUS
 70
0
 71
3
 72
9
 73
5
 74
0
 42
0.0000001
 43
0.0000001
 44
0.0000000001
 40
0.0
 40
0.0
 40
0.0
 40
0.0
 40
0.2442135957
 40
1.0
 40
1.0
 40
1.0
 40
1.0
 10
4.3003561742
 20
3.1322857143
 30
0.0
 10
4.2997546444
 20
3.1322950183
 30
0.0
 10
4.2972908223
 20
3.1322822936
 30
0.0
 10
4.2948293869
 20
3.1320749884
 30
0.0
 10
4.292984003
 20
3.1318281237
 30
0.0
  0
SPLINE
  5
2E0
100
AcDbEntity
  8
0
100
AcDbSpline
 62
7
  6
CONTINUOUS
 70
0
 71
3
 72
9
 73
5
 74
0
 42
0.0000001
 43
0.0000001
 44
0.0000000001
 40
0.0
 40
0.0
 40
0.0
 40
0.0
 40
0.2397748874
 40
1.0
 40
1.0
 40
1.0
 40
1.0
 10
4.292984003
 20
3.1318281237
 30
0.0
 10
4.2916970834
 20
3.1316559672
 30
0.0
 10
4.2863547696
 20
3.1307536317
 30
0.0
 10
4.2811368158
 20
3.1291842675
 30
0.0
 10
4.2772853109
 20
3.1277308127
 30
0.0
  0
SPLINE
  5
2E1
100
AcDbEntity
  8
0
100
AcDbSpline
 62
7
  6
CONTINUOUS
 70
0
 71
3
 72
9
 73
5
 74
0
 42
0.0000001
 43
0.0000001
 44
0.0000000001
 40
0.0
 40
0.0
 40
0.0
 40
0.0
 40
0.4860925712
 40
1.0
 40
1.0
 40
1.0
 40
1.0
 10
4.2772853109
 20
3.1277308127
 30
0.0
 10
4.2727768612
 20
3.1260294445
 30
0.0
 10
4.2637785285
 20
3.1217723356
 30
0.0
 10
4.2554546221
 20
3.1163313534
 30
0.0
 10
4.2513736333
 20
3.1132817993
 30
0.0
  0
SPLINE
  5
2E2
100
AcDbEntity
  8
0
100
AcDbSpline
 62
7
  6
CONTINUOUS
 70
0
 71
3
 72
9
 73
5
 74
0
 42
0.0000001
 43
0.0000001
 44
0.0000000001
 40
0.0
 40
0.0
 40
0.0
 40
0.0
 40
0.2492731826
 40
1.0
 40
1.0
 40
1.0
 40
1.0
 10
4.2197777912
 20
3.0783478171
 30
0.0
 10
4.2189137486
 20
3.0768918994
 30
0.0
 10
4.2155811811
 20
3.070973446
 30
0.0
 10
4.2128081
 20
3.0647359318
 30
0.0
 10
4.2111058162
 20
3.0599297286
 30
0.0
  0
SPLINE
  5
2E3
100
AcDbEntity
  8
0
100
AcDbSpline
 62
7
  6
CONTINUOUS
 70
0
 71
3
 72
9
 73
5
 74
0
 42
0.0000001
 43
0.0000001
 44
0.0000000001
 40
0.0
 40
0.0
 40
0.0
 40
0.0
 40
0.2509728259
 40
1.0
 40
1.0
 40
1.0
 40
1.0
 10
4.2082271939
 20
3.050174835
 30
0.0
 10
4.2078518591
 20
3.0485838946
 30
0.0
 10
4.2065311764
 20
3.0422061583
 30
0.0
 10
4.2059557091
 20
3.0356634982
 30
0.0
 10
4.206039396
 20
3.0307857143
 30
0.0
  0
SPLINE
  5
2E4
100
AcDbEntity
  8
0
100
AcDbSpline
 62
7
  6
CONTINUOUS
 70
0
 71
3
 72
9
 73
5
 74
0
 42
0.0000001
 43
0.0000001
 44
0.0000000001
 40
0.0
 40
0.0
 40
0.0
 40
0.0
 40
0.7495428279
 40
1.0
 40
1.0
 40
1.0
 40
1.0
 10
4.206039396
 20
3.0307857143
 30
0.0
 10
4.2059985824
 20
3.0283580791
 30
0.0
 10
4.2061132377
 20
3.0251134667
 30
0.0
 10
4.2064327298
 20
3.0218898802
 30
0.0
 10
4.206525164
 20
3.0210838624
 30
0.0
  0
SPLINE
  5
2E5
100
AcDbEntity
  8
0
100
AcDbSpline
 62
7
  6
CONTINUOUS
 70
0
 71
3
 72
9
 73
5
 74
0
 42
0.0000001
 43
0.0000001
 44
0.0000000001
 40
0.0
 40
0.0
 40
0.0
 40
0.0
 40
0.7496588924
 40
1.0
 40
1.0
 40
1.0
 40
1.0
 10
4.206525164
 20
3.0210838624
 30
0.0
 10
4.2068058337
 20
3.0186364466
 30
0.0
 10
4.2073333248
 20
3.0153868661
 30
0.0
 10
4.2080437803
 20
3.0121783942
 30
0.0
 10
4.2082327564
 20
3.011377747
 30
0.0
  0
SPLINE
  5
2E6
100
AcDbEntity
  8
0
100
AcDbSpline
 62
7
  6
CONTINUOUS
 70
0
 71
3
 72
9
 73
5
 74
0
 42
0.0000001
 43
0.0000001
 44
0.0000000001
 40
0.0
 40
0.0
 40
0.0
 40
0.0
 40
0.2510690491
 40
1.0
 40
1.0
 40
1.0
 40
1.0
 10
4.2111136753
 20
3.0016191757
 30
0.0
 10
4.211682242
 20
3.0000146727
 30
0.0
 10
4.2141127278
 20
2.9936834817
 30
0.0
 10
4.2171800158
 20
2.9876008631
 30
0.0
 10
4.2197711818
 20
2.9832339579
 30
0.0
  0
SPLINE
  5
2E7
100
AcDbEntity
  8
0
100
AcDbSpline
 62
7
  6
CONTINUOUS
 70
0
 71
3
 72
9
 73
5
 74
0
 42
0.0000001
 43
0.0000001
 44
0.0000000001
 40
0.0
 40
0.0
 40
0.0
 40
0.0
 40
0.5139260647
 40
1.0
 40
1.0
 40
1.0
 40
1.0
 10
4.2513221137
 20
2.9483281181
 30
0.0
 10
4.2554113203
 20
2.9452690849
 30
0.0
 10
4.2637530446
 20
2.9398120383
 30
0.0
 10
4.2727723134
 20
2.9355437124
 30
0.0
 10
4.2772912889
 20
2.9338384186
 30
0.0
  0
SPLINE
  5
2E8
100
AcDbEntity
  8
0
100
AcDbSpline
 62
7
  6
CONTINUOUS
 70
0
 71
3
 72
9
 73
5
 74
0
 42
0.0000001
 43
0.0000001
 44
0.0000000001
 40
0.0
 40
0.0
 40
0.0
 40
0.0
 40
0.260251974
 40
1.0
 40
1.0
 40
1.0
 40
1.0
 10
4.2772912889
 20
2.9338384186
 30
0.0
 10
4.2786097087
 20
2.9333408959
 30
0.0
 10
4.2837192791
 20
2.9315516886
 30
0.0
 10
4.2890205665
 20
2.9302718702
 30
0.0
 10
4.2929907429
 20
2.9297413395
 30
0.0
  0
SPLINE
  5
2E9
100
AcDbEntity
  8
0
100
AcDbSpline
 62
7
  6
CONTINUOUS
 70
0
 71
3
 72
9
 73
5
 74
0
 42
0.0000001
 43
0.0000001
 44
0.0000000001
 40
0.0
 40
0.0
 40
0.0
 40
0.0
 40
0.2560040895
 40
1.0
 40
1.0
 40
1.0
 40
1.0
 10
4.2929907429
 20
2.9297413395
 30
0.0
 10
4.2936152364
 20
2.929657889
 30
0.0
 10
4.2960597108
 20
2.9293726162
 30
0.0
 10
4.298525374
 20
2.9292568531
 30
0.0
 10
4.3003561742
 20
2.9292857143
 30
0.0
  0
SPLINE
  5
2EA
100
AcDbEntity
  8
0
100
AcDbSpline
 62
7
  6
CONTINUOUS
 70
0
 71
3
 72
9
 73
5
 74
0
 42
0.0000001
 43
0.0000001
 44
0.0000000001
 40
0.0
 40
0.0
 40
0.0
 40
0.0
 40
0.5014039933
 40
1.0
 40
1.0
 40
1.0
 40
1.0
 10
4.1414059754
 20
3.0501590144
 30
0.0
 10
4.1402010809
 20
3.0553982446
 30
0.0
 10
4.1368599984
 20
3.0656513732
 30
0.0
 10
4.1318844528
 20
3.0752011026
 30
0.0
 10
4.1290826599
 20
3.0797539542
 30
0.0
  0
SPLINE
  5
2EB
100
AcDbEntity
  8
0
100
AcDbSpline
 62
7
  6
CONTINUOUS
 70
0
 71
3
 72
11
 73
7
 74
0
 42
0.0000001
 43
0.0000001
 44
0.0000000001
 40
0.0
 40
0.0
 40
0.0
 40
0.0
 40
0.2706980969
 40
0.5302804073
 40
0.7744561391
 40
1.0
 40
1.0
 40
1.0
 40
1.0
 10
4.1069830882
 20
3.1061533889
 30
0.0
 10
4.1031513612
 20
3.1096075487
 30
0.0
 10
4.0952180381
 20
3.1159175621
 30
0.0
 10
4.0825590058
 20
3.1235880899
 30
0.0
 10
4.0697341614
 20
3.1290709397
 30
0.0
 10
4.0609767421
 20
3.1311970117
 30
0.0
 10
4.0567171307
 20
3.1317723358
 30
0.0
  0
SPLINE
  5
2EC
100
AcDbEntity
  8
0
100
AcDbSpline
 62
7
  6
CONTINUOUS
 70
0
 71
3
 72
9
 73
5
 74
0
 42
0.0000001
 43
0.0000001
 44
0.0000000001
 40
0.0
 40
0.0
 40
0.0
 40
0.0
 40
0.2556161273
 40
1.0
 40
1.0
 40
1.0
 40
1.0
 10
4.0567171307
 20
3.1317723358
 30
0.0
 10
4.0560918834
 20
3.1318567848
 30
0.0
 10
4.0536409819
 20
3.1321492251
 30
0.0
 10
4.0511705926
 20
3.1322857077
 30
0.0
 10
4.0493332668
 20
3.1322857143
 30
0.0
  0
SPLINE
  5
2ED
100
AcDbEntity
  8
0
100
AcDbSpline
 62
7
  6
CONTINUOUS
 70
0
 71
3
 72
9
 73
5
 74
0
 42
0.0000001
 43
0.0000001
 44
0.0000000001
 40
0.0
 40
0.0
 40
0.0
 40
0.0
 40
0.4849814901
 40
1.0
 40
1.0
 40
1.0
 40
1.0
 10
4.3209106538
 20
3.127113977
 30
0.0
 10
4.3179167252
 20
3.1288446231
 30
0.0
 10
4.3112114626
 20
3.1315556264
 30
0.0
 10
4.3040280375
 20
3.132343598
 30
0.0
 10
4.3003561742
 20
3.1322857143
 30
0.0
  0
SPLINE
  5
2EE
100
AcDbEntity
  8
0
100
AcDbSpline
 62
7
  6
CONTINUOUS
 70
0
 71
3
 72
9
 73
5
 74
0
 42
0.0000001
 43
0.0000001
 44
0.0000000001
 40
0.0
 40
0.0
 40
0.0
 40
0.0
 40
0.5150296854
 40
1.0
 40
1.0
 40
1.0
 40
1.0
 10
4.3003561742
 20
2.9292857143
 30
0.0
 10
4.3040283318
 20
2.9292289165
 30
0.0
 10
4.3112118224
 20
2.9300171645
 30
0.0
 10
4.3179178653
 20
2.9327274096
 30
0.0
 10
4.3209119319
 20
2.9344580295
 30
0.0
  0
SPLINE
  5
2EF
100
AcDbEntity
  8
0
100
AcDbSpline
 62
7
  6
CONTINUOUS
 70
0
 71
3
 72
9
 73
5
 74
0
 42
0.0000001
 43
0.0000001
 44
0.0000000001
 40
0.0
 40
0.0
 40
0.0
 40
0.0
 40
0.4836216771
 40
1.0
 40
1.0
 40
1.0
 40
1.0
 10
4.028767969
 20
2.9344584397
 30
0.0
 10
4.0317576714
 20
2.9327405517
 30
0.0
 10
4.0384846469
 20
2.9300798741
 30
0.0
 10
4.0456516101
 20
2.9292857275
 30
0.0
 10
4.0493332668
 20
2.9292857143
 30
0.0
  0
SPLINE
  5
2F0
100
AcDbEntity
  8
0
100
AcDbSpline
 62
9
  6
CONTINUOUS
 70
0
 71
3
 72
37
 73
33
 74
0
 42
0.0000001
 43
0.0000001
 44
0.0000000001
 40
0.0
 40
0.0
 40
0.0
 40
0.0
 40
0.0550933547
 40
0.0829215891
 40
0.1110498161
 40
0.1395393775
 40
0.1684544858
 40
0.1978874065
 40
0.2279571092
 40
0.2587667001
 40
0.2904226585
 40
0.3230194709
 40
0.3566280964
 40
0.3912787182
 40
0.426862819
 40
0.4632369934
 40
0.5000046609
 40
0.5367722129
 40
0.57314592
 40
0.6087292541
 40
0.6433790047
 40
0.6769866886
 40
0.7095826532
 40
0.7412378365
 40
0.7720468281
 40
0.8021161382
 40
0.8315488456
 40
0.8604637116
 40
0.8889527683
 40
0.9170800009
 40
0.9449069138
 40
1.0
 40
1.0
 40
1.0
 40
1.0
 10
4.4240371625
 20
3.8025099428
 30
0.0
 10
4.4229838962
 20
3.8166719095
 30
0.0
 10
4.419825918
 20
3.8379156668
 30
0.0
 10
4.412472694
 20
3.8655984902
 30
0.0
 10
4.4053222921
 20
3.8861814716
 30
0.0
 10
4.3964914248
 20
3.9064073772
 30
0.0
 10
4.3859036647
 20
3.9261571665
 30
0.0
 10
4.3734869884
 20
3.9453007887
 30
0.0
 10
4.3591851122
 20
3.9637054996
 30
0.0
 10
4.3429159032
 20
3.9811932868
 30
0.0
 10
4.3245901836
 20
3.997516267
 30
0.0
 10
4.3041640295
 20
4.0123908585
 30
0.0
 10
4.281628911
 20
4.0254513228
 30
0.0
 10
4.2571010845
 20
4.0363054889
 30
0.0
 10
4.2308062106
 20
4.0445063569
 30
0.0
 10
4.2031791676
 20
4.049597589
 30
0.0
 10
4.1748325866
 20
4.051383717
 30
0.0
 10
4.1464863185
 20
4.049594628
 30
0.0
 10
4.1188601282
 20
4.0445006941
 30
0.0
 10
4.0925666151
 20
4.0362972972
 30
0.0
 10
4.0680404398
 20
4.0254410634
 30
0.0
 10
4.0455071091
 20
4.0123788936
 30
0.0
 10
4.0250827595
 20
3.9975029576
 30
0.0
 10
4.0067587866
 20
3.9811788825
 30
0.0
 10
3.9904912579
 20
3.9636901579
 30
0.0
 10
3.9761909601
 20
3.9452846159
 30
0.0
 10
3.9637758286
 20
3.9261402543
 30
0.0
 10
3.9531895805
 20
3.9063899385
 30
0.0
 10
3.9443602462
 20
3.886163856
 30
0.0
 10
3.9372114043
 20
3.8655811043
 30
0.0
 10
3.9298602351
 20
3.837898414
 30
0.0
 10
3.9267039743
 20
3.8166548364
 30
0.0
 10
3.9256514841
 20
3.8024928814
 30
0.0
  0
SPLINE
  5
2F1
100
AcDbEntity
  8
0
100
AcDbSpline
 62
7
  6
CONTINUOUS
 70
0
 71
3
 72
9
 73
5
 74
0
 42
0.0000001
 43
0.0000001
 44
0.0000000001
 40
0.0
 40
0.0
 40
0.0
 40
0.0
 40
0.2553198722
 40
1.0
 40
1.0
 40
1.0
 40
1.0
 10
4.0493332668
 20
3.1322857143
 30
0.0
 10
4.0487371586
 20
3.1322857164
 30
0.0
 10
4.0464026739
 20
3.1322438463
 30
0.0
 10
4.0440706358
 20
3.1320313329
 30
0.0
 10
4.0423517328
 20
3.1317700852
 30
0.0
  0
SPLINE
  5
2F2
100
AcDbEntity
  8
0
100
AcDbSpline
 62
7
  6
CONTINUOUS
 70
0
 71
3
 72
9
 73
5
 74
0
 42
0.0000001
 43
0.0000001
 44
0.0000000001
 40
0.0
 40
0.0
 40
0.0
 40
0.0
 40
0.509211038
 40
1.0
 40
1.0
 40
1.0
 40
1.0
 10
4.0423517328
 20
3.1317700852
 30
0.0
 10
4.0399313013
 20
3.1314022155
 30
0.0
 10
4.0352275976
 20
3.130275194
 30
0.0
 10
4.0308126509
 20
3.1282879592
 30
0.0
 10
4.0287667386
 20
3.1271122808
 30
0.0
  0
SPLINE
  5
2F3
100
AcDbEntity
  8
0
100
AcDbSpline
 62
9
  6
CONTINUOUS
 70
0
 71
3
 72
15
 73
11
 74
0
 42
0.0000001
 43
0.0000001
 44
0.0000000001
 40
0.0
 40
0.0
 40
0.0
 40
0.0
 40
0.1191447547
 40
0.2389476598
 40
0.3599732434
 40
0.4827041895
 40
0.6074933488
 40
0.734857284
 40
0.86549058
 40
1.0
 40
1.0
 40
1.0
 40
1.0
 10
3.9256522358
 20
3.7590621476
 30
0.0
 10
3.9262706521
 20
3.7507468015
 30
0.0
 10
3.9282282987
 20
3.7341142815
 30
0.0
 10
3.9333499812
 20
3.7094163067
 30
0.0
 10
3.9406933661
 20
3.6850207415
 30
0.0
 10
3.9503071231
 20
3.6610485764
 30
0.0
 10
3.9623244184
 20
3.6376813733
 30
0.0
 10
3.9768639589
 20
3.615128431
 30
0.0
 10
3.9940126775
 20
3.5936113328
 30
0.0
 10
4.0070752954
 20
3.5803704109
 30
0.0
 10
4.0140471569
 20
3.5740451402
 30
0.0
  0
SPLINE
  5
2F4
100
AcDbEntity
  8
0
100
AcDbSpline
 62
9
  6
CONTINUOUS
 70
0
 71
3
 72
11
 73
7
 74
0
 42
0.0000001
 43
0.0000001
 44
0.0000000001
 40
0.0
 40
0.0
 40
0.0
 40
0.0
 40
0.2395762561
 40
0.4866946767
 40
0.7405608424
 40
1.0
 40
1.0
 40
1.0
 40
1.0
 10
4.0458317866
 20
3.5495121115
 30
0.0
 10
4.0532396454
 20
3.5446926225
 30
0.0
 10
4.0688306556
 20
3.5357078055
 30
0.0
 10
4.0939161769
 20
3.5247471696
 30
0.0
 10
4.1208178882
 20
3.5165726561
 30
0.0
 10
4.139527562
 20
3.5133131681
 30
0.0
 10
4.1490379265
 20
3.5122432966
 30
0.0
  0
SPLINE
  5
2F5
100
AcDbEntity
  8
0
100
AcDbSpline
 62
9
  6
CONTINUOUS
 70
0
 71
3
 72
11
 73
7
 74
0
 42
0.0000001
 43
0.0000001
 44
0.0000000001
 40
0.0
 40
0.0
 40
0.0
 40
0.0
 40
0.2594384716
 40
0.513304586
 40
0.7604231169
 40
1.0
 40
1.0
 40
1.0
 40
1.0
 10
4.2006406808
 20
3.5122420889
 30
0.0
 10
4.2101511404
 20
3.5133115271
 30
0.0
 10
4.228861075
 20
3.5165701792
 30
0.0
 10
4.255763348
 20
3.5247434914
 30
0.0
 10
4.2808495559
 20
3.5357031371
 30
0.0
 10
4.2964410803
 20
3.5446873873
 30
0.0
 10
4.3038492094
 20
3.549506624
 30
0.0
  0
SPLINE
  5
2F6
100
AcDbEntity
  8
0
100
AcDbSpline
 62
9
  6
CONTINUOUS
 70
0
 71
3
 72
15
 73
11
 74
0
 42
0.0000001
 43
0.0000001
 44
0.0000000001
 40
0.0
 40
0.0
 40
0.0
 40
0.0
 40
0.1331710994
 40
0.2629987525
 40
0.3900786297
 40
0.5149596068
 40
0.6380294934
 40
0.7595835761
 40
0.8800784936
 40
1.0
 40
1.0
 40
1.0
 40
1.0
 10
4.347730409
 20
3.5857564712
 30
0.0
 10
4.3536907424
 20
3.5919202002
 30
0.0
 10
4.3648639174
 20
3.6046862818
 30
0.0
 10
4.3795653806
 20
3.6250910451
 30
0.0
 10
4.3920601732
 20
3.6462997119
 30
0.0
 10
4.4024319134
 20
3.6681389212
 30
0.0
 10
4.4107757748
 20
3.6904475979
 30
0.0
 10
4.4171916634
 20
3.7130905341
 30
0.0
 10
4.421704042
 20
3.7359799003
 30
0.0
 10
4.4234659967
 20
3.7513781265
 30
0.0
 10
4.4240382258
 20
3.7590780316
 30
0.0
  0
ENDSEC
  0
SECTION
  2
OBJECTS
  0
DICTIONARY
  5
C
100
AcDbDictionary
280
0
281
1
  3
ACAD_GROUP
350
D
  3
ACAD_MLINESTYLE
350
17
  3
ACAD_LAYOUT
350
1A
  3
ACAD_PLOTSETTINGS
350
19
  3
ACAD_PLOTSTYLENAME
350
E
  0
DICTIONARY
  5
D
102
{ACAD_REACTORS
330
C
102
}
100
AcDbDictionary
280
0
281
1
  0
ACDBDICTIONARYWDFLT
  5
E
102
{ACAD_REACTORS
330
C
102
}
100
AcDbDictionary
281
1
  3
Normal
350
F
100
AcDbDictionaryWithDefault
340
F
  0
DICTIONARY
  5
17
102
{ACAD_REACTORS
330
C
102
}
100
AcDbDictionary
280
0
281
1
  3
Standard
350
18
  0
DICTIONARY
  5
19
102
{ACAD_REACTORS
330
C
102
}
100
AcDbDictionary
281
1
  0
DICTIONARY
  5
1A
102
{ACAD_REACTORS
330
C
102
}
100
AcDbDictionary
281
1
  3
Model
350
2F7
  3
Layout1
350
2F8
  0
ACDBPLACEHOLDER
  5
F
102
{ACAD_REACTORS
330
E
102
}
  0
MLINESTYLE
  5
18
102
{ACAD_REACTORS
330
17
102
}
100
AcDbMlineStyle
  2
STANDARD
 70
0
  3

 62
256
 51
90.0
 52
90.0
 71
2
 49
0.5
 62
256
  6
BYLAYER
 49
-0.5
 62
256
  6
BYLAYER
  0
LAYOUT
  5
2F7
102
{ACAD_REACTORS
330
1A
102
}
100
AcDbPlotSettings
  1

  2
none_device
  4

  6

 40
0.0
 41
0.0
 42
0.0
 43
0.0
 44
215.9
 45
279.4
 46
0.0
 47
0.0
 48
0.0
 49
0.0
140
0.0
141
0.0
142
1.0
143
1.0
 70
1024
 72
0
 73
0
 74
0
  7

 75
0
147
1.0
148
0.0
149
0.0
100
AcDbLayout
  1
Model
 70
0
 71
0
 10
0.0
 20
0.0
 11
8.5
 21
11.0
 12
0.0
 22
0.0
 32
0.0
 14
0.0
 24
0.0
 34
0.0
 15
0.0
 25
0.0
 35
0.0
146
0.0
 13
0.0
 23
0.0
 33
0.0
 16
1.0
 26
0.0
 36
0.0
 17
0.0
 27
1.0
 37
0.0
 76
0
330
233
345
0
346
0
  0
LAYOUT
  5
2F8
102
{ACAD_REACTORS
330
1A
102
}
100
AcDbPlotSettings
  1

  2
none_device
  4

  6

 40
0.0
 41
0.0
 42
0.0
 43
0.0
 44
215.9
 45
279.4
 46
0.0
 47
0.0
 48
0.0
 49
0.0
140
0.0
141
0.0
142
1.0
143
1.0
 70
0
 72
0
 73
0
 74
0
  7

 75
0
147
1.0
148
0.0
149
0.0
100
AcDbLayout
  1
Layout1
 70
0
 71
1
 10
0.0
 20
0.0
 11
8.5
 21
11.0
 12
0.0
 22
0.0
 32
0.0
 14
0.0
 24
0.0
 34
0.0
 15
0.0
 25
0.0
 35
0.0
146
0.0
 13
0.0
 23
0.0
 33
0.0
 16
1.0
 26
0.0
 36
0.0
 17
0.0
 27
1.0
 37
0.0
 76
0
330
234
345
0
346
0
  0
ENDSEC
  0
EOF
