999
DXF file: E:\BT Custom\CADOUTPUT\_FRONT.dxf
999
Pro/ENGINEER 2018400 by Parametric Technology Corporation
  0
SECTION
  2
HEADER
  9
$ACADVER
  1
AC1018
  9
$DWGCODEPAGE
  3
ANSI_1252
  9
$EXTMAX
 10
22.0
 20
17.0
 30
0.0
  9
$EXTMIN
 10
0.0
 20
0.0
 30
0.0
  9
$LIMMIN
 10
0.0
 20
0.0
  9
$LIMMAX
 10
22.0
 20
17.0
  9
$VIEWCTR
 10
11.0
 20
8.5
  9
$VIEWSIZE
 40
17.0
  9
$CLAYER
  8
0
  9
$LTSCALE
 40
1.21
  9
$CELTYPE
  6
BYLAYER
  9
$DIMSCALE
 40
1.0
  9
$DIMASZ
 40
0.1
  9
$DIMEXO
 40
0.0625
  9
$DIMDLI
 40
0.836
  9
$DIMEXE
 40
0.125
  9
$DIMCEN
 40
0.198
  9
$DIMLFAC
 40
1.0
  9
$DIMBLK
  1
_FILLED
  9
$DIMALT
 70
1
  9
$DIMALTD
 70
2
  9
$DIMALTTD
 70
2
  9
$DIMALTF
 40
25.4
  9
$DIMTXT
 40
0.08
  9
$DIMTOL
 70
1
  9
$DIMLIM
 70
0
  9
$DIMTFAC
 40
1.0
  9
$DIMTP
 40
0.001
  9
$DIMTM
 40
0.001
  9
$DIMGAP
 40
0.09
  9
$DIMDSEP
 70
46
  9
$AUNITS
 70
0
  9
$PDMODE
 70
3
  9
$PDSIZE
 40
0.06
  9
$HANDSEED
  5
341
  9
$TILEMODE
 70
1
  9
$MEASUREMENT
 70
0
  9
$INSUNITS
 70
1
  0
ENDSEC
  0
SECTION
  2
CLASSES
  0
CLASS
  1
ACDBDICTIONARYWDFLT
  2
AcDbDictionaryWithDefault
  3
AutoCAD 2000
 90
0
 91
1
280
0
281
0
  0
CLASS
  1
ACDBPLACEHOLDER
  2
AcDbPlaceHolder
  3
AutoCAD 2000
 90
0
 91
1
280
0
281
0
  0
CLASS
  1
LAYOUT
  2
AcDbLayout
  3
AutoCAD 2000
 90
0
 91
0
280
0
281
0
  0
ENDSEC
  0
SECTION
  2
TABLES
  0
TABLE
  2
VPORT
  5
8
100
AcDbSymbolTable
 70
2
  0
VPORT
  5
1F4
100
AcDbSymbolTableRecord
100
AcDbViewportTableRecord
  2
*ACTIVE
 70
0
 10
0.0
 20
0.0
 11
1.0
 21
1.0
 12
11.0
 22
8.5
 13
0.0
 23
0.0
 14
1.0
 24
1.0
 15
0.0
 25
0.0
 16
0.0
 26
0.0
 36
1.0
 17
0.0
 27
0.0
 37
0.0
 40
17.0
 41
1.2941176471
 42
50.0
 43
0.0
 44
0.0
 50
0.0
 51
0.0
 71
0
 72
100
 73
1
 74
1
 75
0
 76
0
 77
0
 78
0
  0
ENDTAB
  0
TABLE
  2
LTYPE
  5
5
100
AcDbSymbolTable
 70
6
  0
LTYPE
  5
14
100
AcDbSymbolTableRecord
100
AcDbLinetypeTableRecord
  2
BYBLOCK
 70
0
  3

 72
65
 73
0
 40
0.0
  0
LTYPE
  5
15
100
AcDbSymbolTableRecord
100
AcDbLinetypeTableRecord
  2
BYLAYER
 70
0
  3

 72
65
 73
0
 40
0.0
  0
LTYPE
  5
16
100
AcDbSymbolTableRecord
100
AcDbLinetypeTableRecord
  2
CONTINUOUS
 70
64
  3
Solid line
 72
65
 73
0
 40
0.0
  0
LTYPE
  5
1F5
100
AcDbSymbolTableRecord
100
AcDbLinetypeTableRecord
  2
CENTER
 70
64
  3
____ _ ____ _ ____ _ ____ _ ____ _ ____ _ ____
 72
65
 73
4
 40
0.6
 49
0.375
 74
0
 49
-0.075
 74
0
 49
0.075
 74
0
 49
-0.075
 74
0
  0
LTYPE
  5
1F6
100
AcDbSymbolTableRecord
100
AcDbLinetypeTableRecord
  2
HIDDEN
 70
64
  3
- - - - - - - - - - - - - - - - - - - -
 72
65
 73
2
 40
0.2
 49
0.1
 74
0
 49
-0.1
 74
0
  0
LTYPE
  5
1F7
100
AcDbSymbolTableRecord
100
AcDbLinetypeTableRecord
  2
PHANTOM
 70
64
  3
_____ _ _ _____ _ _ _____ _ _ _____
 72
65
 73
6
 40
0.8
 49
0.45
 74
0
 49
-0.05
 74
0
 49
0.1
 74
0
 49
-0.05
 74
0
 49
0.1
 74
0
 49
-0.05
 74
0
  0
LTYPE
  5
1F8
100
AcDbSymbolTableRecord
100
AcDbLinetypeTableRecord
  2
DOT
 70
64
  3
. . . . . . . . . . . . . . . . . . . .
 72
65
 73
2
 40
0.2
 49
0.1
 74
0
 49
-0.1
 74
0
  0
LTYPE
  5
1F9
100
AcDbSymbolTableRecord
100
AcDbLinetypeTableRecord
  2
DASHED
 70
64
  3
- - - - - - - - - - - - - - - - - - - -
 72
65
 73
2
 40
0.2
 49
0.1
 74
0
 49
-0.1
 74
0
  0
ENDTAB
  0
TABLE
  2
LAYER
  5
2
100
AcDbSymbolTable
 70
36
  0
LAYER
  5
10
100
AcDbSymbolTableRecord
100
AcDbLayerTableRecord
  2
0
 70
0
 62
7
  6
CONTINUOUS
370
-3
390
F
  0
LAYER
  5
1FA
100
AcDbSymbolTableRecord
100
AcDbLayerTableRecord
  2
DEFAULT_1
 70
0
 62
7
  6
CENTER
370
-3
390
F
  0
LAYER
  5
1FB
100
AcDbSymbolTableRecord
100
AcDbLayerTableRecord
  2
DEFAULT_2
 70
0
 62
8
  6
HIDDEN
370
-3
390
F
  0
LAYER
  5
1FC
100
AcDbSymbolTableRecord
100
AcDbLayerTableRecord
  2
DEFAULT_3
 70
0
 62
7
  6
PHANTOM
370
-3
390
F
  0
LAYER
  5
1FD
100
AcDbSymbolTableRecord
100
AcDbLayerTableRecord
  2
ALL_FEATURES
 70
0
 62
7
  6
CONTINUOUS
370
-3
390
F
  0
LAYER
  5
1FE
100
AcDbSymbolTableRecord
100
AcDbLayerTableRecord
  2
AXES_FEATURES
 70
0
 62
7
  6
CONTINUOUS
370
-3
390
F
  0
LAYER
  5
1FF
100
AcDbSymbolTableRecord
100
AcDbLayerTableRecord
  2
DEFAULT_COORDINATE_SYSTEM
 70
0
 62
7
  6
CONTINUOUS
370
-3
390
F
  0
LAYER
  5
200
100
AcDbSymbolTableRecord
100
AcDbLayerTableRecord
  2
DEFAULT_DATUM_AXES
 70
0
 62
7
  6
CONTINUOUS
370
-3
390
F
  0
LAYER
  5
201
100
AcDbSymbolTableRecord
100
AcDbLayerTableRecord
  2
DEFAULT_DATUM_PLANES
 70
0
 62
7
  6
CONTINUOUS
370
-3
390
F
  0
LAYER
  5
202
100
AcDbSymbolTableRecord
100
AcDbLayerTableRecord
  2
DIMENSIONS
 70
0
 62
7
  6
CONTINUOUS
370
-3
390
F
  0
ENDTAB
  0
TABLE
  2
STYLE
  5
3
100
AcDbSymbolTable
 70
1
  0
STYLE
  5
11
100
AcDbSymbolTableRecord
100
AcDbTextStyleTableRecord
  2
STANDARD
 70
0
 40
0.0
 41
0.8
 50
0.0
 71
0
 42
0.2
  3
txt
  4

  0
STYLE
  5
203
100
AcDbSymbolTableRecord
100
AcDbTextStyleTableRecord
  2
TEXTSTYLE_1
 70
0
 40
0.0
 41
0.8
 50
0.0
 71
0
 42
0.2
  3
gdt
  4

  0
ENDTAB
  0
TABLE
  2
VIEW
  5
6
100
AcDbSymbolTable
 70
0
  0
ENDTAB
  0
TABLE
  2
UCS
  5
7
100
AcDbSymbolTable
 70
0
  0
ENDTAB
  0
TABLE
  2
APPID
  5
9
100
AcDbSymbolTable
 70
1
  0
APPID
  5
204
100
AcDbSymbolTableRecord
100
AcDbRegAppTableRecord
  2
ACAD
 70
0
  0
ENDTAB
  0
TABLE
  2
BLOCK_RECORD
  5
1
100
AcDbSymbolTable
 70
0
  0
BLOCK_RECORD
  5
205
100
AcDbSymbolTableRecord
100
AcDbBlockTableRecord
  2
*Model_Space
  0
BLOCK_RECORD
  5
206
100
AcDbSymbolTableRecord
100
AcDbBlockTableRecord
  2
*Paper_Space
  0
BLOCK_RECORD
  5
207
100
AcDbSymbolTableRecord
100
AcDbBlockTableRecord
  2
_FILLED
  0
ENDTAB
  0
TABLE
  2
DIMSTYLE
  5
A
100
AcDbSymbolTable
 70
1
100
AcDbDimStyleTable
 71
0
  0
DIMSTYLE
105
208
100
AcDbSymbolTableRecord
100
AcDbDimStyleTableRecord
  2
STANDARD
 70
0
  3

  4

 40
1.0
 41
0.1
 42
0.0625
 43
0.38
 44
0.125
 45
0.0
 46
0.0
 47
0.001
 48
0.001
140
0.08
141
0.09
142
0.0
143
25.4
144
1.0
145
0.0
146
1.0
147
0.09
 71
1.0
 72
0.0
 73
1
 74
1
 75
0
 76
0
 77
0
 78
4
 79
1
170
1
171
2
172
0
173
0
174
0
175
0
176
0
177
0
178
0
270
2
179
3
271
3
272
3
273
2
274
2
275
0
280
0
281
0
282
0
283
1
284
4
285
0
286
0
287
3
288
0
340
11
278
46
341
207
342
207
343
207
344
207
  0
ENDTAB
  0
ENDSEC
  0
SECTION
  2
BLOCKS
  0
BLOCK
  5
20
100
AcDbEntity
  8
0
100
AcDbBlockBegin
  2
*Model_Space
 70
0
 10
0.0
 20
0.0
 30
0.0
  3
*Model_Space
  1

  0
ENDBLK
  5
21
100
AcDbEntity
  8
0
100
AcDbBlockEnd
  0
BLOCK
  5
1C
100
AcDbEntity
  8
0
100
AcDbBlockBegin
  2
*Paper_Space
 70
0
 10
0.0
 20
0.0
 30
0.0
  3
*Paper_Space
  1

  0
ENDBLK
  5
1D
100
AcDbEntity
  8
0
100
AcDbBlockEnd
  0
BLOCK
  5
209
100
AcDbEntity
  8
0
100
AcDbBlockBegin
  2
_FILLED
 70
64
 10
0.0
 20
0.0
  3
_FILLED
  1

  0
SOLID
  5
20A
100
AcDbEntity
  8
0
  6
BYBLOCK
 62
0
100
AcDbTrace
 10
0.0
 20
0.0
 11
-1.0
 21
0.2
 12
-1.0
 22
-0.2
 13
-1.0
 23
-0.2
  0
ENDBLK
  5
20B
100
AcDbEntity
  8
0
  6
BYBLOCK
 62
0
100
AcDbBlockEnd
  0
ENDSEC
  0
SECTION
  2
ENTITIES
  0
LINE
  5
20C
100
AcDbEntity
  8
0
100
AcDbLine
 62
7
  6
CONTINUOUS
 10
10.8929951596
 20
11.5466588678
 11
10.9092486885
 21
11.5514461013
  0
LINE
  5
20D
100
AcDbEntity
  8
0
100
AcDbLine
 62
7
  6
CONTINUOUS
 10
10.8808050188
 20
11.5370844009
 11
10.8929951596
 21
11.5466588678
  0
LINE
  5
20E
100
AcDbEntity
  8
0
100
AcDbLine
 62
7
  6
CONTINUOUS
 10
10.8889317716
 20
11.5753822687
 11
10.872678266
 21
11.5658078017
  0
LINE
  5
20F
100
AcDbEntity
  8
0
100
AcDbLine
 62
7
  6
CONTINUOUS
 10
10.9580092519
 20
11.3886801398
 11
10.941755723
 21
11.3838929063
  0
LINE
  5
210
100
AcDbEntity
  8
0
100
AcDbLine
 62
7
  6
CONTINUOUS
 10
12.7168073007
 20
7.6551695021
 11
12.7368875299
 21
7.659956736
  0
LINE
  5
211
100
AcDbEntity
  8
0
100
AcDbLine
 62
7
  6
CONTINUOUS
 10
12.3473313725
 20
7.6551695021
 11
12.3674116017
 21
7.659956736
  0
LINE
  5
212
100
AcDbEntity
  8
0
100
AcDbLine
 62
7
  6
CONTINUOUS
 10
12.1625934084
 20
7.6551695021
 11
12.1826736262
 21
7.659956736
  0
LINE
  5
213
100
AcDbEntity
  8
0
100
AcDbLine
 62
7
  6
CONTINUOUS
 10
10.872678266
 20
11.5658078017
 11
10.8564247371
 21
11.5466588678
  0
LINE
  5
214
100
AcDbEntity
  8
0
100
AcDbLine
 62
7
  6
CONTINUOUS
 10
10.9701993927
 20
11.3982546101
 11
10.9580092519
 21
11.3886801398
  0
LINE
  5
215
100
AcDbEntity
  8
0
100
AcDbLine
 62
7
  6
CONTINUOUS
 10
10.9620726167
 20
11.359956736
 11
10.9783261456
 21
11.3695312042
  0
LINE
  5
216
100
AcDbEntity
  8
0
100
AcDbLine
 62
7
  6
CONTINUOUS
 10
12.3152030379
 20
7.8801695021
 11
12.2951228317
 21
7.8753822687
  0
LINE
  5
217
100
AcDbEntity
  8
0
100
AcDbLine
 62
7
  6
CONTINUOUS
 10
12.1264490291
 20
7.8801695021
 11
12.1063688143
 21
7.8753822687
  0
LINE
  5
218
100
AcDbEntity
  8
0
100
AcDbLine
 62
7
  6
CONTINUOUS
 10
12.1264490291
 20
7.6551695021
 11
12.1625934084
 21
7.6551695021
  0
LINE
  5
219
100
AcDbEntity
  8
0
100
AcDbLine
 62
7
  6
CONTINUOUS
 10
12.3152030379
 20
7.6551695021
 11
12.3473313725
 21
7.6551695021
  0
LINE
  5
21A
100
AcDbEntity
  8
0
100
AcDbLine
 62
7
  6
CONTINUOUS
 10
12.4437163992
 20
7.6551695021
 11
12.5882939623
 21
7.6551695021
  0
LINE
  5
21B
100
AcDbEntity
  8
0
100
AcDbLine
 62
7
  6
CONTINUOUS
 10
12.6204222739
 20
7.6551695021
 11
12.7168073007
 21
7.6551695021
  0
LINE
  5
21C
100
AcDbEntity
  8
0
100
AcDbLine
 62
7
  6
CONTINUOUS
 10
12.7168073007
 20
7.6838929063
 11
12.6445185306
 21
7.6838929063
  0
LINE
  5
21D
100
AcDbEntity
  8
0
100
AcDbLine
 62
7
  6
CONTINUOUS
 10
12.5882939623
 20
7.6838929063
 11
12.4678126789
 21
7.6838929063
  0
LINE
  5
21E
100
AcDbEntity
  8
0
100
AcDbLine
 62
7
  6
CONTINUOUS
 10
12.3473313725
 20
7.6838929063
 11
12.3152030379
 21
7.6838929063
  0
LINE
  5
21F
100
AcDbEntity
  8
0
100
AcDbLine
 62
7
  6
CONTINUOUS
 10
12.1625934084
 20
7.6838929063
 11
12.1264490291
 21
7.6838929063
  0
LINE
  5
220
100
AcDbEntity
  8
0
100
AcDbLine
 62
7
  6
CONTINUOUS
 10
12.2188180112
 20
7.7126163105
 11
12.1947217545
 21
7.7126163105
  0
LINE
  5
221
100
AcDbEntity
  8
0
100
AcDbLine
 62
7
  6
CONTINUOUS
 10
10.9783261456
 20
11.3695312042
 11
10.9945796744
 21
11.3886801398
  0
LINE
  5
222
100
AcDbEntity
  8
0
100
AcDbLine
 62
7
  6
CONTINUOUS
 10
12.1947217545
 20
7.8227226871
 11
12.2188180112
 21
7.8227226871
  0
LINE
  5
223
100
AcDbEntity
  8
0
100
AcDbLine
 62
7
  6
CONTINUOUS
 10
12.1264490291
 20
7.8514461013
 11
12.1625934084
 21
7.8514461013
  0
LINE
  5
224
100
AcDbEntity
  8
0
100
AcDbLine
 62
7
  6
CONTINUOUS
 10
12.3152030379
 20
7.8514461013
 11
12.3473313725
 21
7.8514461013
  0
LINE
  5
225
100
AcDbEntity
  8
0
100
AcDbLine
 62
7
  6
CONTINUOUS
 10
12.6445185306
 20
7.8514461013
 11
12.7168073007
 21
7.8514461013
  0
LINE
  5
226
100
AcDbEntity
  8
0
100
AcDbLine
 62
7
  6
CONTINUOUS
 10
12.7168073007
 20
7.8801695021
 11
12.6204222739
 21
7.8801695021
  0
LINE
  5
227
100
AcDbEntity
  8
0
100
AcDbLine
 62
7
  6
CONTINUOUS
 10
12.4678126789
 20
7.8801695021
 11
12.4437163992
 21
7.8801695021
  0
LINE
  5
228
100
AcDbEntity
  8
0
100
AcDbLine
 62
7
  6
CONTINUOUS
 10
12.3473313725
 20
7.8801695021
 11
12.3152030379
 21
7.8801695021
  0
LINE
  5
229
100
AcDbEntity
  8
0
100
AcDbLine
 62
7
  6
CONTINUOUS
 10
12.1625934084
 20
7.8801695021
 11
12.1264490291
 21
7.8801695021
  0
LINE
  5
22A
100
AcDbEntity
  8
0
100
AcDbLine
 62
7
  6
CONTINUOUS
 10
12.1063688143
 20
7.659956736
 11
12.1264490291
 21
7.6551695021
  0
LINE
  5
22B
100
AcDbEntity
  8
0
100
AcDbLine
 62
7
  6
CONTINUOUS
 10
12.2951228317
 20
7.659956736
 11
12.3152030379
 21
7.6551695021
  0
LINE
  5
22C
100
AcDbEntity
  8
0
100
AcDbLine
 62
7
  6
CONTINUOUS
 10
10.8564247371
 20
11.5466588678
 11
10.8482979843
 21
11.527509934
  0
LINE
  5
22D
100
AcDbEntity
  8
0
100
AcDbLine
 62
7
  6
CONTINUOUS
 10
10.872678266
 20
11.5227226871
 11
10.8808050188
 21
11.5370844009
  0
LINE
  5
22E
100
AcDbEntity
  8
0
100
AcDbLine
 62
7
  6
CONTINUOUS
 10
10.9783261456
 20
11.4126163105
 11
10.9701993927
 21
11.3982546101
  0
LINE
  5
22F
100
AcDbEntity
  8
0
100
AcDbLine
 62
7
  6
CONTINUOUS
 10
12.5691777796
 20
10.7892120528
 11
12.5555758379
 21
10.7844248193
  0
LINE
  5
230
100
AcDbEntity
  8
0
100
AcDbLine
 62
7
  6
CONTINUOUS
 10
12.1826736262
 20
7.8753822687
 11
12.1625934084
 21
7.8801695021
  0
LINE
  5
231
100
AcDbEntity
  8
0
100
AcDbLine
 62
7
  6
CONTINUOUS
 10
12.3674116017
 20
7.8753822687
 11
12.3473313725
 21
7.8801695021
  0
LINE
  5
232
100
AcDbEntity
  8
0
100
AcDbLine
 62
7
  6
CONTINUOUS
 10
12.7368875299
 20
7.8753822687
 11
12.7168073007
 21
7.8801695021
  0
LINE
  5
233
100
AcDbEntity
  8
0
100
AcDbLine
 62
7
  6
CONTINUOUS
 10
12.1264490291
 20
7.6838929063
 11
12.1103848561
 21
7.6886801398
  0
LINE
  5
234
100
AcDbEntity
  8
0
100
AcDbLine
 62
7
  6
CONTINUOUS
 10
12.3152030379
 20
7.6838929063
 11
12.2991388591
 21
7.6886801398
  0
LINE
  5
235
100
AcDbEntity
  8
0
100
AcDbLine
 62
7
  6
CONTINUOUS
 10
12.1625934084
 20
7.8514461013
 11
12.1786575872
 21
7.8466588678
  0
LINE
  5
236
100
AcDbEntity
  8
0
100
AcDbLine
 62
7
  6
CONTINUOUS
 10
12.3473313725
 20
7.8514461013
 11
12.3633955513
 21
7.8466588678
  0
LINE
  5
237
100
AcDbEntity
  8
0
100
AcDbLine
 62
7
  6
CONTINUOUS
 10
10.179492822
 20
8.5595005102
 11
10.1789399923
 21
8.5602923098
  0
LWPOLYLINE
  5
238
100
AcDbEntity
  8
0
100
AcDbPolyline
 62
7
  6
CONTINUOUS
 90
18
 70
0
 10
10.1789399923
 20
8.5602923098
 10
10.1778126113
 20
8.5621551361
 10
10.1763725451
 20
8.5649852942
 10
10.1747913213
 20
8.5688484541
 10
10.1732578425
 20
8.5738623049
 10
10.1720376642
 20
8.5800470129
 10
10.1714384033
 20
8.5872922157
 10
10.171751206
 20
8.5953029436
 10
10.1731458237
 20
8.6035728704
 10
10.1755755342
 20
8.6115063541
 10
10.1785771759
 20
8.6182047507
 10
10.1817431862
 20
8.6235668408
 10
10.184938453
 20
8.6278988464
 10
10.1879786765
 20
8.6312887818
 10
10.190579931
 20
8.6337173124
 10
10.1924735421
 20
8.6352191489
 10
10.1935753246
 20
8.6359722287
 10
10.1938770501
 20
8.636155368
  0
LINE
  5
239
100
AcDbEntity
  8
0
100
AcDbLine
 62
7
  6
CONTINUOUS
 10
9.9457461015
 20
8.9641866388
 11
9.9452981394
 21
8.965141678
  0
LINE
  5
23A
100
AcDbEntity
  8
0
100
AcDbLine
 62
7
  6
CONTINUOUS
 10
10.9945796744
 20
11.3886801398
 11
11.0027064272
 21
11.407829077
  0
LINE
  5
23B
100
AcDbEntity
  8
0
100
AcDbLine
 62
7
  6
CONTINUOUS
 10
12.7168073007
 20
7.8514461013
 11
12.7328715024
 21
7.8466588678
  0
LINE
  5
23C
100
AcDbEntity
  8
0
100
AcDbLine
 62
7
  6
CONTINUOUS
 10
12.0903046412
 20
7.6695312042
 11
12.1063688143
 21
7.659956736
  0
LINE
  5
23D
100
AcDbEntity
  8
0
100
AcDbLine
 62
7
  6
CONTINUOUS
 10
12.2790586529
 20
7.6695312042
 11
12.2951228317
 21
7.659956736
  0
LINE
  5
23E
100
AcDbEntity
  8
0
100
AcDbLine
 62
7
  6
CONTINUOUS
 10
10.6491923427
 20
11.5801695021
 11
10.6491923427
 21
11.3551695021
  0
LWPOLYLINE
  5
23F
100
AcDbEntity
  8
0
100
AcDbPolyline
 62
7
  6
CONTINUOUS
 90
10
 70
0
 10
10.5639766516
 20
9.298677212
 10
10.5626364889
 20
9.2889728659
 10
10.5602561403
 20
9.2794929631
 10
10.5568471722
 20
9.2702932937
 10
10.5524495332
 20
9.2615060541
 10
10.547115636
 20
9.2532443418
 10
10.5409098351
 20
9.2456112218
 10
10.5339086787
 20
9.2387015445
 10
10.5261997377
 20
9.2326002899
 10
10.5192842933
 20
9.2281751271
  0
LINE
  5
240
100
AcDbEntity
  8
0
100
AcDbLine
 62
7
  6
CONTINUOUS
 10
10.8482979843
 20
11.527509934
 11
10.8442345963
 21
11.5035737532
  0
LINE
  5
241
100
AcDbEntity
  8
0
100
AcDbLine
 62
7
  6
CONTINUOUS
 10
11.0027064272
 20
11.407829077
 11
11.0067698153
 21
11.4317652444
  0
LINE
  5
242
100
AcDbEntity
  8
0
100
AcDbLine
 62
7
  6
CONTINUOUS
 10
10.8686148779
 20
11.5035737532
 11
10.872678266
 21
11.5227226871
  0
LINE
  5
243
100
AcDbEntity
  8
0
100
AcDbLine
 62
7
  6
CONTINUOUS
 10
10.9823895336
 20
11.4317652444
 11
10.9783261456
 21
11.4126163105
  0
LINE
  5
244
100
AcDbEntity
  8
0
100
AcDbLine
 62
7
  6
CONTINUOUS
 10
12.5737117429
 20
10.7652758854
 11
12.5918476998
 21
10.7748503524
  0
LINE
  5
245
100
AcDbEntity
  8
0
100
AcDbLine
 62
7
  6
CONTINUOUS
 10
12.1987377935
 20
7.8658078017
 11
12.1826736262
 21
7.8753822687
  0
LINE
  5
246
100
AcDbEntity
  8
0
100
AcDbLine
 62
7
  6
CONTINUOUS
 10
12.3834757575
 20
7.8658078017
 11
12.3674116017
 21
7.8753822687
  0
LINE
  5
247
100
AcDbEntity
  8
0
100
AcDbLine
 62
7
  6
CONTINUOUS
 10
12.7529516857
 20
7.8658078017
 11
12.7368875299
 21
7.8753822687
  0
LINE
  5
248
100
AcDbEntity
  8
0
100
AcDbLine
 62
7
  6
CONTINUOUS
 10
12.1103848561
 20
7.6886801398
 11
12.0983367278
 21
7.6982546101
  0
LINE
  5
249
100
AcDbEntity
  8
0
100
AcDbLine
 62
7
  6
CONTINUOUS
 10
12.2991388591
 20
7.6886801398
 11
12.2870907308
 21
7.6982546101
  0
LINE
  5
24A
100
AcDbEntity
  8
0
100
AcDbLine
 62
7
  6
CONTINUOUS
 10
12.1786575872
 20
7.8466588678
 11
12.1907057156
 21
7.8370844009
  0
LINE
  5
24B
100
AcDbEntity
  8
0
100
AcDbLine
 62
7
  6
CONTINUOUS
 10
10.6735726244
 20
11.3551695021
 11
10.6735726244
 21
11.4604886519
  0
LINE
  5
24C
100
AcDbEntity
  8
0
100
AcDbLine
 62
7
  6
CONTINUOUS
 10
10.6735726244
 20
11.4892120528
 11
10.6735726244
 21
11.5801695021
  0
LINE
  5
24D
100
AcDbEntity
  8
0
100
AcDbLine
 62
7
  6
CONTINUOUS
 10
10.7626923427
 20
10.2275732287
 11
10.7626923427
 21
9.6497589399
  0
LINE
  5
24E
100
AcDbEntity
  8
0
100
AcDbLine
 62
7
  6
CONTINUOUS
 10
10.7873472684
 20
11.5801695021
 11
10.7873472684
 21
11.4892120528
  0
LINE
  5
24F
100
AcDbEntity
  8
0
100
AcDbLine
 62
7
  6
CONTINUOUS
 10
10.7873472684
 20
11.4604886519
 11
10.7873472684
 21
11.3551695021
  0
LINE
  5
250
100
AcDbEntity
  8
0
100
AcDbLine
 62
7
  6
CONTINUOUS
 10
10.8117275501
 20
11.3551695021
 11
10.8117275501
 21
11.5801695021
  0
LINE
  5
251
100
AcDbEntity
  8
0
100
AcDbLine
 62
7
  6
CONTINUOUS
 10
10.8442345963
 20
11.5035737532
 11
10.8442345963
 21
11.4317652444
  0
LINE
  5
252
100
AcDbEntity
  8
0
100
AcDbLine
 62
7
  6
CONTINUOUS
 10
10.8686148779
 20
11.4317652444
 11
10.8686148779
 21
11.5035737532
  0
LWPOLYLINE
  5
253
100
AcDbEntity
  8
0
100
AcDbPolyline
 62
7
  6
CONTINUOUS
 90
10
 70
0
 10
10.7626911862
 20
9.6497765611
 10
10.7623201339
 20
9.6416039077
 10
10.7608921149
 20
9.6318623772
 10
10.758399653
 20
9.6223070704
 10
10.7548731901
 20
9.6130773502
 10
10.7503658891
 20
9.6043061667
 10
10.744952357
 20
9.596116151
 10
10.7387210717
 20
9.5886098747
 10
10.7317566638
 20
9.5818592708
 10
10.7255175518
 20
9.5769856901
  0
LINE
  5
254
100
AcDbEntity
  8
0
100
AcDbLine
 62
7
  6
CONTINUOUS
 10
10.0188911222
 20
8.9392719643
 11
10.5192822081
 21
9.2281728925
  0
LWPOLYLINE
  5
255
100
AcDbEntity
  8
0
100
AcDbPolyline
 62
7
  6
CONTINUOUS
 90
18
 70
0
 10
10.0188811393
 20
8.9392652922
 10
10.0185849377
 20
8.93910282
 10
10.0174009503
 20
8.938533398
 10
10.0151742602
 20
8.9376486247
 10
10.0118338598
 20
8.9366195298
 10
10.0074710196
 20
8.9356851674
 10
10.0021260698
 20
8.9350639679
 10
9.9958525501
 20
8.9349824722
 10
9.9887222327
 20
8.9356835658
 10
9.9809810791
 20
8.9373987661
 10
9.9731890223
 20
8.9401957362
 10
9.9659971057
 20
8.9438684148
 10
9.9598819412
 20
8.9480039754
 10
9.9549989004
 20
8.952186944
 10
9.9513002216
 20
8.9560876716
 10
9.9486463703
 20
8.9594688825
 10
9.9468427943
 20
8.962211417
 10
9.9457461015
 20
8.9641866388
  0
LINE
  5
256
100
AcDbEntity
  8
0
100
AcDbLine
 62
7
  6
CONTINUOUS
 10
11.6814933466
 20
8.6361631981
 11
11.1811011326
 21
8.9250647775
  0
LWPOLYLINE
  5
257
100
AcDbEntity
  8
0
100
AcDbPolyline
 62
7
  6
CONTINUOUS
 90
18
 70
0
 10
11.6815050927
 20
8.6361571879
 10
11.681796948
 20
8.635980028
 10
11.6828854109
 20
8.6352367884
 10
11.6847662432
 20
8.6337488261
 10
11.6873374117
 20
8.6313589763
 10
11.6903384581
 20
8.628031527
 10
11.6935543158
 20
8.6236975136
 10
11.6967628664
 20
8.6182889497
 10
11.6997214826
 20
8.6117368325
 10
11.702101527
 20
8.6041440926
 10
11.7035610842
 20
8.5959776743
 10
11.7039580984
 20
8.5879143918
 10
11.7034195961
 20
8.5805705795
 10
11.7022314234
 20
8.5742778384
 10
11.7007025653
 20
8.5691529161
 10
11.6991052934
 20
8.5651877085
 10
11.6976380925
 20
8.5622733919
 10
11.6964805948
 20
8.5603471129
  0
LINE
  5
258
100
AcDbEntity
  8
0
100
AcDbLine
 62
7
  6
CONTINUOUS
 10
12.3633955513
 20
7.8466588678
 11
12.3754436796
 21
7.8370844009
  0
LINE
  5
259
100
AcDbEntity
  8
0
100
AcDbLine
 62
7
  6
CONTINUOUS
 10
12.7328715024
 20
7.8466588678
 11
12.7449196308
 21
7.8370844009
  0
LINE
  5
25A
100
AcDbEntity
  8
0
100
AcDbLine
 62
7
  6
CONTINUOUS
 10
12.0742404711
 20
7.6886801398
 11
12.0903046412
 21
7.6695312042
  0
LINE
  5
25B
100
AcDbEntity
  8
0
100
AcDbLine
 62
7
  6
CONTINUOUS
 10
12.2629944741
 20
7.6886801398
 11
12.2790586529
 21
7.6695312042
  0
LINE
  5
25C
100
AcDbEntity
  8
0
100
AcDbLine
 62
7
  6
CONTINUOUS
 10
10.9823895336
 20
11.5035737532
 11
10.9823895336
 21
11.4317652444
  0
LINE
  5
25D
100
AcDbEntity
  8
0
100
AcDbLine
 62
7
  6
CONTINUOUS
 10
11.0067698153
 20
11.4317652444
 11
11.0067698153
 21
11.5035737532
  0
LINE
  5
25E
100
AcDbEntity
  8
0
100
AcDbLine
 62
7
  6
CONTINUOUS
 10
11.0392768498
 20
11.5801695021
 11
11.0392768498
 21
11.5562333348
  0
LINE
  5
25F
100
AcDbEntity
  8
0
100
AcDbLine
 62
7
  6
CONTINUOUS
 10
11.1042909188
 20
11.5562333348
 11
11.1042909188
 21
11.3551695021
  0
LINE
  5
260
100
AcDbEntity
  8
0
100
AcDbLine
 62
7
  6
CONTINUOUS
 10
11.1126923427
 20
10.2275743792
 11
11.1126923427
 21
9.649767138
  0
LINE
  5
261
100
AcDbEntity
  8
0
100
AcDbLine
 62
7
  6
CONTINUOUS
 10
11.1286712005
 20
11.3551695021
 11
11.1286712005
 21
11.5562333348
  0
LINE
  5
262
100
AcDbEntity
  8
0
100
AcDbLine
 62
7
  6
CONTINUOUS
 10
11.193685316
 20
11.5562333348
 11
11.193685316
 21
11.5801695021
  0
LWPOLYLINE
  5
263
100
AcDbEntity
  8
0
100
AcDbPolyline
 62
7
  6
CONTINUOUS
 90
18
 70
0
 10
11.1126914507
 20
10.2275876406
 10
11.1126988347
 20
10.2279246399
 10
11.1127975432
 20
10.229232661
 10
11.113144206
 20
10.2316005247
 10
11.1139245204
 20
10.2350133945
 10
11.115298442
 20
10.2392633282
 10
11.1174333119
 20
10.2442024537
 10
11.1204980892
 20
10.2496725413
 10
11.124673544
 20
10.2554999291
 10
11.1300338611
 20
10.2613494679
 10
11.1363533078
 20
10.2666983094
 10
11.1431292434
 20
10.2710881537
 10
11.149774686
 20
10.2743171713
 10
11.1558520691
 20
10.2764564793
 10
11.1610875733
 20
10.2777080157
 10
11.1653414805
 20
10.2783124547
 10
11.1686048361
 20
10.2784998129
 10
11.170860926
 20
10.2784601688
  0
LINE
  5
264
100
AcDbEntity
  8
0
100
AcDbLine
 62
7
  6
CONTINUOUS
 10
12.5782457581
 20
10.7987865197
 11
12.5691777796
 21
10.7892120528
  0
LINE
  5
265
100
AcDbEntity
  8
0
100
AcDbLine
 62
7
  6
CONTINUOUS
 10
10.1938908837
 20
8.6361629353
 11
10.6942867788
 21
8.9250666401
  0
LWPOLYLINE
  5
266
100
AcDbEntity
  8
0
100
AcDbPolyline
 62
7
  6
CONTINUOUS
 90
10
 70
0
 10
10.6942827877
 20
8.9250642682
 10
10.7015589696
 20
8.9288345858
 10
10.7106932782
 20
8.9324608344
 10
10.7201798396
 20
8.9350719725
 10
10.7298969927
 20
8.9366321675
 10
10.7397190687
 20
8.9371220807
 10
10.7495187224
 20
8.9365393927
 10
10.7591743789
 20
8.9348978848
 10
10.7685831633
 20
8.9322207796
 10
10.7770549582
 20
8.9287841496
  0
LINE
  5
267
100
AcDbEntity
  8
0
100
AcDbLine
 62
7
  6
CONTINUOUS
 10
11.8564938001
 20
8.9392718276
 11
11.3560988561
 21
9.2281749832
  0
LWPOLYLINE
  5
268
100
AcDbEntity
  8
0
100
AcDbPolyline
 62
7
  6
CONTINUOUS
 90
10
 70
0
 10
11.3561017827
 20
9.2281737627
 10
11.3491994181
 20
9.2325893851
 10
11.3415095946
 20
9.2386710232
 10
11.3345268786
 20
9.2455530179
 10
11.3283341595
 20
9.2531536791
 10
11.3230049312
 20
9.2613827919
 10
11.3186024206
 20
9.2701427049
 10
11.3151789406
 20
9.2793292082
 10
11.3127753033
 20
9.2888318193
 10
11.3116096188
 20
9.2971782924
  0
LINE
  5
269
100
AcDbEntity
  8
0
100
AcDbLine
 62
7
  6
CONTINUOUS
 10
12.2148019722
 20
7.8466588678
 11
12.1987377935
 21
7.8658078017
  0
LINE
  5
26A
100
AcDbEntity
  8
0
100
AcDbLine
 62
7
  6
CONTINUOUS
 10
12.3995399363
 20
7.8466588678
 11
12.3834757575
 21
7.8658078017
  0
LINE
  5
26B
100
AcDbEntity
  8
0
100
AcDbLine
 62
7
  6
CONTINUOUS
 10
12.0983367278
 20
7.6982546101
 11
12.0903046412
 21
7.7126163105
  0
LINE
  5
26C
100
AcDbEntity
  8
0
100
AcDbLine
 62
7
  6
CONTINUOUS
 10
10.8442345963
 20
11.4317652444
 11
10.8482979843
 21
11.407829077
  0
LINE
  5
26D
100
AcDbEntity
  8
0
100
AcDbLine
 62
7
  6
CONTINUOUS
 10
12.5918476998
 20
10.7748503524
 11
12.6054496416
 21
10.7939992862
  0
LWPOLYLINE
  5
26E
100
AcDbEntity
  8
0
100
AcDbPolyline
 62
7
  6
CONTINUOUS
 90
10
 70
0
 10
11.0977588134
 20
8.9285481132
 10
11.1068374724
 20
8.9322331906
 10
11.1162386965
 20
8.9349040732
 10
11.1259051449
 20
8.9365433841
 10
11.1357050422
 20
8.9371215695
 10
11.1455157718
 20
8.9366283549
 10
11.155217134
 20
8.9350683102
 10
11.1646899814
 20
8.9324602374
 10
11.1738181223
 20
8.928836987
 10
11.181100172
 20
8.9250641829
  0
LWPOLYLINE
  5
26F
100
AcDbEntity
  8
0
100
AcDbPolyline
 62
7
  6
CONTINUOUS
 90
10
 70
0
 10
11.1484097285
 20
9.5781368927
 10
11.143545955
 20
9.5819320139
 10
11.1365238883
 20
9.588762252
 10
11.1302827317
 20
9.5963192604
 10
11.1248997531
 20
9.6045110338
 10
11.1204394126
 20
9.6132398671
 10
11.1169547217
 20
9.6224021714
 10
11.1144871013
 20
9.6318891201
 10
11.1130658442
 20
9.6415879721
 10
11.1126932619
 20
9.6497707102
  0
LINE
  5
270
100
AcDbEntity
  8
0
100
AcDbLine
 62
7
  6
CONTINUOUS
 10
12.7690158875
 20
7.8466588678
 11
12.7529516857
 21
7.8658078017
  0
LINE
  5
271
100
AcDbEntity
  8
0
100
AcDbLine
 62
7
  6
CONTINUOUS
 10
12.2870907308
 20
7.6982546101
 11
12.2790586529
 21
7.7126163105
  0
LINE
  5
272
100
AcDbEntity
  8
0
100
AcDbLine
 62
7
  6
CONTINUOUS
 10
12.3754436796
 20
7.8370844009
 11
12.3834757575
 21
7.8227226871
  0
LINE
  5
273
100
AcDbEntity
  8
0
100
AcDbLine
 62
7
  6
CONTINUOUS
 10
12.0662083856
 20
7.707829077
 11
12.0742404711
 21
7.6886801398
  0
LINE
  5
274
100
AcDbEntity
  8
0
100
AcDbLine
 62
7
  6
CONTINUOUS
 10
12.2549623962
 20
7.707829077
 11
12.2629944741
 21
7.6886801398
  0
LINE
  5
275
100
AcDbEntity
  8
0
100
AcDbLine
 62
7
  6
CONTINUOUS
 10
10.872678266
 20
11.4126163105
 11
10.8686148779
 21
11.4317652444
  0
LINE
  5
276
100
AcDbEntity
  8
0
100
AcDbLine
 62
7
  6
CONTINUOUS
 10
10.9783261456
 20
11.5227226871
 11
10.9823895336
 21
11.5035737532
  0
LINE
  5
277
100
AcDbEntity
  8
0
100
AcDbLine
 62
7
  6
CONTINUOUS
 10
11.0067698153
 20
11.5035737532
 11
11.0027064272
 21
11.527509934
  0
LINE
  5
278
100
AcDbEntity
  8
0
100
AcDbLine
 62
7
  6
CONTINUOUS
 10
12.1611195272
 20
10.8801695021
 11
12.1339156437
 21
10.707829077
  0
LINE
  5
279
100
AcDbEntity
  8
0
100
AcDbLine
 62
7
  6
CONTINUOUS
 10
12.0432360342
 20
10.6551695021
 11
12.0795078767
 21
10.8370844009
  0
LINE
  5
27A
100
AcDbEntity
  8
0
100
AcDbLine
 62
7
  6
CONTINUOUS
 10
12.0613719522
 20
10.8801695021
 11
12.0251001097
 21
10.707829077
  0
LINE
  5
27B
100
AcDbEntity
  8
0
100
AcDbLine
 62
7
  6
CONTINUOUS
 10
12.2744690504
 20
10.7317652444
 11
12.3152748757
 21
10.8610205683
  0
LINE
  5
27C
100
AcDbEntity
  8
0
100
AcDbLine
 62
7
  6
CONTINUOUS
 10
12.2517991302
 20
10.6551695021
 11
12.2699350612
 21
10.7126163105
  0
LINE
  5
27D
100
AcDbEntity
  8
0
100
AcDbLine
 62
7
  6
CONTINUOUS
 10
12.2971389447
 20
10.8801695021
 11
12.2245952467
 21
10.6551695021
  0
LINE
  5
27E
100
AcDbEntity
  8
0
100
AcDbLine
 62
7
  6
CONTINUOUS
 10
12.7449196308
 20
7.8370844009
 11
12.7529516857
 21
7.8227226871
  0
LINE
  5
27F
100
AcDbEntity
  8
0
100
AcDbLine
 62
7
  6
CONTINUOUS
 10
10.8482979843
 20
11.407829077
 11
10.8564247371
 21
11.3886801398
  0
LINE
  5
280
100
AcDbEntity
  8
0
100
AcDbLine
 62
7
  6
CONTINUOUS
 10
11.0027064272
 20
11.527509934
 11
10.9945796744
 21
11.5466588678
  0
LINE
  5
281
100
AcDbEntity
  8
0
100
AcDbLine
 62
7
  6
CONTINUOUS
 10
12.4075720142
 20
7.827509934
 11
12.3995399363
 21
7.8466588678
  0
LINE
  5
282
100
AcDbEntity
  8
0
100
AcDbLine
 62
7
  6
CONTINUOUS
 10
12.1907057156
 20
7.8370844009
 11
12.1947217545
 21
7.8227226871
  0
LINE
  5
283
100
AcDbEntity
  8
0
100
AcDbLine
 62
7
  6
CONTINUOUS
 10
12.0903046412
 20
7.7126163105
 11
12.0862885994
 21
7.7317652444
  0
LINE
  5
284
100
AcDbEntity
  8
0
100
AcDbLine
 62
7
  6
CONTINUOUS
 10
12.0621923427
 20
7.7317652444
 11
12.0662083856
 21
7.707829077
  0
LINE
  5
285
100
AcDbEntity
  8
0
100
AcDbLine
 62
7
  6
CONTINUOUS
 10
12.0621923427
 20
7.8035737532
 11
12.0621923427
 21
7.7317652444
  0
LINE
  5
286
100
AcDbEntity
  8
0
100
AcDbLine
 62
7
  6
CONTINUOUS
 10
12.0862885994
 20
7.7317652444
 11
12.0862885994
 21
7.8035737532
  0
LINE
  5
287
100
AcDbEntity
  8
0
100
AcDbLine
 62
7
  6
CONTINUOUS
 10
12.1520515617
 20
10.6551695021
 11
12.1883234107
 21
10.8801695021
  0
LINE
  5
288
100
AcDbEntity
  8
0
100
AcDbLine
 62
7
  6
CONTINUOUS
 10
12.5827797214
 20
10.8131482201
 11
12.5782457581
 21
10.7987865197
  0
LINE
  5
289
100
AcDbEntity
  8
0
100
AcDbLine
 62
7
  6
CONTINUOUS
 10
12.6054496416
 20
10.7939992862
 11
12.6099836049
 21
10.8083609867
  0
LINE
  5
28A
100
AcDbEntity
  8
0
100
AcDbLine
 62
7
  6
CONTINUOUS
 10
12.7777408691
 20
10.6551695021
 11
12.8412166146
 21
10.8322971674
  0
LINE
  5
28B
100
AcDbEntity
  8
0
100
AcDbLine
 62
7
  6
CONTINUOUS
 10
11.930085393
 20
8.9651350359
 11
11.9296565297
 21
8.9642218871
  0
LWPOLYLINE
  5
28C
100
AcDbEntity
  8
0
100
AcDbPolyline
 62
7
  6
CONTINUOUS
 90
18
 70
0
 10
11.9296565297
 20
8.9642218871
 10
11.9285823871
 20
8.9622789946
 10
11.9268126108
 20
8.9595735482
 10
11.9242125002
 20
8.9562381826
 10
11.9205907277
 20
8.9523846091
 10
11.9157960219
 20
8.9482306637
 10
11.9097579635
 20
8.9440898521
 10
11.9025940041
 20
8.9403700852
 10
11.8947663056
 20
8.9375046981
 10
11.8869487749
 20
8.9357294433
 10
11.8797527906
 20
8.9349912733
 10
11.8734369935
 20
8.9350519302
 10
11.8680449045
 20
8.9356635447
 10
11.8636263577
 20
8.9366001003
 10
11.8602459733
 20
8.9376356633
 10
11.8580082809
 20
8.9385221418
 10
11.8568108915
 20
8.9390970838
 10
11.8565053356
 20
8.9392645972
  0
LINE
  5
28D
100
AcDbEntity
  8
0
100
AcDbLine
 62
7
  6
CONTINUOUS
 10
11.6964805948
 20
8.5603471129
 11
11.6958854208
 21
8.5594940119
  0
LINE
  5
28E
100
AcDbEntity
  8
0
100
AcDbLine
 62
7
  6
CONTINUOUS
 10
10.7035021093
 20
10.2783746614
 11
10.7045061065
 21
10.2784596402
  0
LWPOLYLINE
  5
28F
100
AcDbEntity
  8
0
100
AcDbPolyline
 62
7
  6
CONTINUOUS
 90
18
 70
0
 10
10.7045061065
 20
10.2784596402
 10
10.7067284453
 20
10.2785006294
 10
10.7099599599
 20
10.2783199257
 10
10.7141535666
 20
10.2777341349
 10
10.7193079294
 20
10.2765211757
 10
10.7253085573
 20
10.2744410007
 10
10.7319170841
 20
10.2712766276
 10
10.7387195294
 20
10.2669278082
 10
10.7451099881
 20
10.2615799146
 10
10.7505495771
 20
10.2556989798
 10
10.7547806554
 20
10.2498399154
 10
10.7578820093
 20
10.2443428776
 10
10.7600462994
 20
10.2393683097
 10
10.7614435251
 20
10.2350726124
 10
10.7622357104
 20
10.2316289482
 10
10.762585524
 20
10.2292538048
 10
10.7626856257
 20
10.227936614
 10
10.7626932269
 20
10.2275931203
  0
LINE
  5
290
100
AcDbEntity
  8
0
100
AcDbLine
 62
7
  6
CONTINUOUS
 10
11.170860926
 20
10.2784601688
 11
11.1718995461
 21
10.2783708634
  0
LINE
  5
291
100
AcDbEntity
  8
0
100
AcDbLine
 62
7
  6
CONTINUOUS
 10
10.8808050188
 20
11.3982546101
 11
10.872678266
 21
11.4126163105
  0
LINE
  5
292
100
AcDbEntity
  8
0
100
AcDbLine
 62
7
  6
CONTINUOUS
 10
10.9701993927
 20
11.5370844009
 11
10.9783261456
 21
11.5227226871
  0
LINE
  5
293
100
AcDbEntity
  8
0
100
AcDbLine
 62
7
  6
CONTINUOUS
 10
12.7770479424
 20
7.827509934
 11
12.7690158875
 21
7.8466588678
  0
LINE
  5
294
100
AcDbEntity
  8
0
100
AcDbLine
 62
7
  6
CONTINUOUS
 10
12.2790586529
 20
7.7126163105
 11
12.2750426025
 21
7.7317652444
  0
LINE
  5
295
100
AcDbEntity
  8
0
100
AcDbLine
 62
7
  6
CONTINUOUS
 10
12.3834757575
 20
7.8227226871
 11
12.387491808
 21
7.8035737532
  0
LINE
  5
296
100
AcDbEntity
  8
0
100
AcDbLine
 62
7
  6
CONTINUOUS
 10
12.2188180112
 20
7.8227226871
 11
12.2148019722
 21
7.8466588678
  0
LINE
  5
297
100
AcDbEntity
  8
0
100
AcDbLine
 62
7
  6
CONTINUOUS
 10
12.2509463573
 20
7.7317652444
 11
12.2549623962
 21
7.707829077
  0
LINE
  5
298
100
AcDbEntity
  8
0
100
AcDbLine
 62
7
  6
CONTINUOUS
 10
12.4115880647
 20
7.8035737532
 11
12.4075720142
 21
7.827509934
  0
LINE
  5
299
100
AcDbEntity
  8
0
100
AcDbLine
 62
7
  6
CONTINUOUS
 10
12.2509463573
 20
7.8035737532
 11
12.2509463573
 21
7.7317652444
  0
LINE
  5
29A
100
AcDbEntity
  8
0
100
AcDbLine
 62
7
  6
CONTINUOUS
 10
12.2750426025
 20
7.7317652444
 11
12.2750426025
 21
7.8035737532
  0
LINE
  5
29B
100
AcDbEntity
  8
0
100
AcDbLine
 62
7
  6
CONTINUOUS
 10
12.387491808
 20
7.8035737532
 11
12.387491808
 21
7.7317652444
  0
LINE
  5
29C
100
AcDbEntity
  8
0
100
AcDbLine
 62
7
  6
CONTINUOUS
 10
12.4115880647
 20
7.7317652444
 11
12.4115880647
 21
7.8035737532
  0
LINE
  5
29D
100
AcDbEntity
  8
0
100
AcDbLine
 62
7
  6
CONTINUOUS
 10
12.4422263406
 20
10.8801695021
 11
12.4422263406
 21
10.6551695021
  0
LINE
  5
29E
100
AcDbEntity
  8
0
100
AcDbLine
 62
7
  6
CONTINUOUS
 10
12.4437163992
 20
7.8801695021
 11
12.4437163992
 21
7.6551695021
  0
LINE
  5
29F
100
AcDbEntity
  8
0
100
AcDbLine
 62
7
  6
CONTINUOUS
 10
12.4678126789
 20
7.6838929063
 11
12.4678126789
 21
7.8801695021
  0
LINE
  5
2A0
100
AcDbEntity
  8
0
100
AcDbLine
 62
7
  6
CONTINUOUS
 10
12.4694302241
 20
10.6551695021
 11
12.4694302241
 21
10.7557014185
  0
LINE
  5
2A1
100
AcDbEntity
  8
0
100
AcDbLine
 62
7
  6
CONTINUOUS
 10
12.4694302241
 20
10.7844248193
 11
12.4694302241
 21
10.8562333348
  0
LINE
  5
2A2
100
AcDbEntity
  8
0
100
AcDbLine
 62
7
  6
CONTINUOUS
 10
12.0662083856
 20
7.827509934
 11
12.0621923427
 21
7.8035737532
  0
LINE
  5
2A3
100
AcDbEntity
  8
0
100
AcDbLine
 62
7
  6
CONTINUOUS
 10
12.2148019722
 20
7.6886801398
 11
12.2188180112
 21
7.7126163105
  0
LINE
  5
2A4
100
AcDbEntity
  8
0
100
AcDbLine
 62
7
  6
CONTINUOUS
 10
12.2549623962
 20
7.827509934
 11
12.2509463573
 21
7.8035737532
  0
LINE
  5
2A5
100
AcDbEntity
  8
0
100
AcDbLine
 62
7
  6
CONTINUOUS
 10
12.0862885994
 20
7.8035737532
 11
12.0903046412
 21
7.8227226871
  0
LINE
  5
2A6
100
AcDbEntity
  8
0
100
AcDbLine
 62
7
  6
CONTINUOUS
 10
12.8276146728
 20
10.8801695021
 11
12.7596049641
 21
10.6791056729
  0
LINE
  5
2A7
100
AcDbEntity
  8
0
100
AcDbLine
 62
7
  6
CONTINUOUS
 10
12.0069641885
 20
10.6551695021
 11
12.0432360342
 21
10.6551695021
  0
LINE
  5
2A8
100
AcDbEntity
  8
0
100
AcDbLine
 62
7
  6
CONTINUOUS
 10
12.1157797257
 20
10.6551695021
 11
12.1520515617
 21
10.6551695021
  0
LINE
  5
2A9
100
AcDbEntity
  8
0
100
AcDbLine
 62
7
  6
CONTINUOUS
 10
12.2245952467
 20
10.6551695021
 11
12.2517991302
 21
10.6551695021
  0
LINE
  5
2AA
100
AcDbEntity
  8
0
100
AcDbLine
 62
7
  6
CONTINUOUS
 10
12.3787505952
 20
10.6551695021
 11
12.4059544787
 21
10.6551695021
  0
LINE
  5
2AB
100
AcDbEntity
  8
0
100
AcDbLine
 62
7
  6
CONTINUOUS
 10
12.4422263406
 20
10.6551695021
 11
12.4694302241
 21
10.6551695021
  0
LINE
  5
2AC
100
AcDbEntity
  8
0
100
AcDbLine
 62
7
  6
CONTINUOUS
 10
12.5827797214
 20
10.6551695021
 11
12.6145175682
 21
10.6551695021
  0
LINE
  5
2AD
100
AcDbEntity
  8
0
100
AcDbLine
 62
7
  6
CONTINUOUS
 10
12.6507894301
 20
10.6551695021
 11
12.6779933136
 21
10.6551695021
  0
LINE
  5
2AE
100
AcDbEntity
  8
0
100
AcDbLine
 62
7
  6
CONTINUOUS
 10
12.7414690591
 20
10.6551695021
 11
12.7777408691
 21
10.6551695021
  0
LINE
  5
2AF
100
AcDbEntity
  8
0
100
AcDbLine
 62
7
  6
CONTINUOUS
 10
12.8412166146
 20
10.6551695021
 11
12.8684204981
 21
10.6551695021
  0
LINE
  5
2B0
100
AcDbEntity
  8
0
100
AcDbLine
 62
7
  6
CONTINUOUS
 10
12.2699350612
 20
10.7126163105
 11
12.3606146642
 21
10.7126163105
  0
LINE
  5
2B1
100
AcDbEntity
  8
0
100
AcDbLine
 62
7
  6
CONTINUOUS
 10
12.3560807009
 20
10.7317652444
 11
12.2744690504
 21
10.7317652444
  0
LINE
  5
2B2
100
AcDbEntity
  8
0
100
AcDbLine
 62
7
  6
CONTINUOUS
 10
12.4694302241
 20
10.7557014185
 11
12.5465078594
 21
10.7557014185
  0
LINE
  5
2B3
100
AcDbEntity
  8
0
100
AcDbLine
 62
7
  6
CONTINUOUS
 10
12.5555758379
 20
10.7844248193
 11
12.4694302241
 21
10.7844248193
  0
LINE
  5
2B4
100
AcDbEntity
  8
0
100
AcDbLine
 62
7
  6
CONTINUOUS
 10
10.8564247371
 20
11.3886801398
 11
10.872678266
 21
11.3695312042
  0
LINE
  5
2B5
100
AcDbEntity
  8
0
100
AcDbLine
 62
7
  6
CONTINUOUS
 10
10.9945796744
 20
11.5466588678
 11
10.9783261456
 21
11.5658078017
  0
LINE
  5
2B6
100
AcDbEntity
  8
0
100
AcDbLine
 62
7
  6
CONTINUOUS
 10
12.1339156437
 20
10.707829077
 11
12.0976437947
 21
10.8801695021
  0
LINE
  5
2B7
100
AcDbEntity
  8
0
100
AcDbLine
 62
7
  6
CONTINUOUS
 10
12.7529516857
 20
7.8227226871
 11
12.7569677591
 21
7.8035737532
  0
LINE
  5
2B8
100
AcDbEntity
  8
0
100
AcDbLine
 62
7
  6
CONTINUOUS
 10
12.0795078767
 20
10.8370844009
 11
12.1157797257
 21
10.6551695021
  0
LINE
  5
2B9
100
AcDbEntity
  8
0
100
AcDbLine
 62
7
  6
CONTINUOUS
 10
11.9706923427
 20
10.8801695021
 11
12.0069641885
 21
10.6551695021
  0
LINE
  5
2BA
100
AcDbEntity
  8
0
100
AcDbLine
 62
7
  6
CONTINUOUS
 10
12.0251001097
 20
10.707829077
 11
11.9978962262
 21
10.8801695021
  0
LINE
  5
2BB
100
AcDbEntity
  8
0
100
AcDbLine
 62
7
  6
CONTINUOUS
 10
12.5827797214
 20
10.827509934
 11
12.5827797214
 21
10.8131482201
  0
LINE
  5
2BC
100
AcDbEntity
  8
0
100
AcDbLine
 62
7
  6
CONTINUOUS
 10
12.5882939623
 20
7.6551695021
 11
12.5882939623
 21
7.6838929063
  0
LINE
  5
2BD
100
AcDbEntity
  8
0
100
AcDbLine
 62
7
  6
CONTINUOUS
 10
12.6099836049
 20
10.8083609867
 11
12.6099836049
 21
10.827509934
  0
LINE
  5
2BE
100
AcDbEntity
  8
0
100
AcDbLine
 62
7
  6
CONTINUOUS
 10
12.6204222739
 20
7.8801695021
 11
12.6204222739
 21
7.6551695021
  0
LINE
  5
2BF
100
AcDbEntity
  8
0
100
AcDbLine
 62
7
  6
CONTINUOUS
 10
12.6445185306
 20
7.6838929063
 11
12.6445185306
 21
7.8514461013
  0
LINE
  5
2C0
100
AcDbEntity
  8
0
100
AcDbLine
 62
7
  6
CONTINUOUS
 10
12.6507894301
 20
10.8801695021
 11
12.6507894301
 21
10.6551695021
  0
LINE
  5
2C1
100
AcDbEntity
  8
0
100
AcDbLine
 62
7
  6
CONTINUOUS
 10
12.6779933136
 20
10.6551695021
 11
12.6779933136
 21
10.8322971674
  0
LINE
  5
2C2
100
AcDbEntity
  8
0
100
AcDbLine
 62
7
  6
CONTINUOUS
 10
12.7569677591
 20
7.8035737532
 11
12.7569677591
 21
7.7317652444
  0
LINE
  5
2C3
100
AcDbEntity
  8
0
100
AcDbLine
 62
7
  6
CONTINUOUS
 10
12.7810640158
 20
7.7317652444
 11
12.7810640158
 21
7.8035737532
  0
LINE
  5
2C4
100
AcDbEntity
  8
0
100
AcDbLine
 62
7
  6
CONTINUOUS
 10
12.4075720142
 20
7.707829077
 11
12.4115880647
 21
7.7317652444
  0
LINE
  5
2C5
100
AcDbEntity
  8
0
100
AcDbLine
 62
7
  6
CONTINUOUS
 10
12.2750426025
 20
7.8035737532
 11
12.2790586529
 21
7.8227226871
  0
LINE
  5
2C6
100
AcDbEntity
  8
0
100
AcDbLine
 62
7
  6
CONTINUOUS
 10
12.387491808
 20
7.7317652444
 11
12.3834757575
 21
7.7126163105
  0
LINE
  5
2C7
100
AcDbEntity
  8
0
100
AcDbLine
 62
7
  6
CONTINUOUS
 10
12.1947217545
 20
7.7126163105
 11
12.1907057156
 21
7.6982546101
  0
LINE
  5
2C8
100
AcDbEntity
  8
0
100
AcDbLine
 62
7
  6
CONTINUOUS
 10
12.0742404711
 20
7.8466588678
 11
12.0662083856
 21
7.827509934
  0
LINE
  5
2C9
100
AcDbEntity
  8
0
100
AcDbLine
 62
7
  6
CONTINUOUS
 10
12.2629944741
 20
7.8466588678
 11
12.2549623962
 21
7.827509934
  0
LINE
  5
2CA
100
AcDbEntity
  8
0
100
AcDbLine
 62
7
  6
CONTINUOUS
 10
12.0903046412
 20
7.8227226871
 11
12.0983367278
 21
7.8370844009
  0
LINE
  5
2CB
100
AcDbEntity
  8
0
100
AcDbLine
 62
7
  6
CONTINUOUS
 10
12.2790586529
 20
7.8227226871
 11
12.2870907308
 21
7.8370844009
  0
LINE
  5
2CC
100
AcDbEntity
  8
0
100
AcDbLine
 62
7
  6
CONTINUOUS
 10
12.0903046412
 20
7.8658078017
 11
12.0742404711
 21
7.8466588678
  0
LINE
  5
2CD
100
AcDbEntity
  8
0
100
AcDbLine
 62
7
  6
CONTINUOUS
 10
12.0983367278
 20
7.8370844009
 11
12.1103848561
 21
7.8466588678
  0
LINE
  5
2CE
100
AcDbEntity
  8
0
100
AcDbLine
 62
7
  6
CONTINUOUS
 10
12.1063688143
 20
7.8753822687
 11
12.0903046412
 21
7.8658078017
  0
LINE
  5
2CF
100
AcDbEntity
  8
0
100
AcDbLine
 62
7
  6
CONTINUOUS
 10
12.1103848561
 20
7.8466588678
 11
12.1264490291
 21
7.8514461013
  0
LINE
  5
2D0
100
AcDbEntity
  8
0
100
AcDbLine
 62
7
  6
CONTINUOUS
 10
12.2991388591
 20
7.8466588678
 11
12.3152030379
 21
7.8514461013
  0
LINE
  5
2D1
100
AcDbEntity
  8
0
100
AcDbLine
 62
7
  6
CONTINUOUS
 10
12.1786575872
 20
7.6886801398
 11
12.1625934084
 21
7.6838929063
  0
LINE
  5
2D2
100
AcDbEntity
  8
0
100
AcDbLine
 62
7
  6
CONTINUOUS
 10
12.4694302241
 20
10.8562333348
 11
12.5555758379
 21
10.8562333348
  0
LINE
  5
2D3
100
AcDbEntity
  8
0
100
AcDbLine
 62
7
  6
CONTINUOUS
 10
12.8684204981
 20
10.8801695021
 11
12.8276146728
 21
10.8801695021
  0
LINE
  5
2D4
100
AcDbEntity
  8
0
100
AcDbLine
 62
7
  6
CONTINUOUS
 10
12.6915952554
 20
10.8801695021
 11
12.6507894301
 21
10.8801695021
  0
LINE
  5
2D5
100
AcDbEntity
  8
0
100
AcDbLine
 62
7
  6
CONTINUOUS
 10
12.5510418746
 20
10.8801695021
 11
12.4422263406
 21
10.8801695021
  0
LINE
  5
2D6
100
AcDbEntity
  8
0
100
AcDbLine
 62
7
  6
CONTINUOUS
 10
12.3334107807
 20
10.8801695021
 11
12.2971389447
 21
10.8801695021
  0
LINE
  5
2D7
100
AcDbEntity
  8
0
100
AcDbLine
 62
7
  6
CONTINUOUS
 10
12.1883234107
 20
10.8801695021
 11
12.1611195272
 21
10.8801695021
  0
LINE
  5
2D8
100
AcDbEntity
  8
0
100
AcDbLine
 62
7
  6
CONTINUOUS
 10
12.0976437947
 20
10.8801695021
 11
12.0613719522
 21
10.8801695021
  0
LINE
  5
2D9
100
AcDbEntity
  8
0
100
AcDbLine
 62
7
  6
CONTINUOUS
 10
11.9978962262
 20
10.8801695021
 11
11.9706923427
 21
10.8801695021
  0
LINE
  5
2DA
100
AcDbEntity
  8
0
100
AcDbLine
 62
7
  6
CONTINUOUS
 10
10.872678266
 20
11.3695312042
 11
10.8889317716
 21
11.359956736
  0
LINE
  5
2DB
100
AcDbEntity
  8
0
100
AcDbLine
 62
7
  6
CONTINUOUS
 10
10.8929951596
 20
11.3886801398
 11
10.8808050188
 21
11.3982546101
  0
LINE
  5
2DC
100
AcDbEntity
  8
0
100
AcDbLine
 62
7
  6
CONTINUOUS
 10
10.9580092519
 20
11.5466588678
 11
10.9701993927
 21
11.5370844009
  0
LINE
  5
2DD
100
AcDbEntity
  8
0
100
AcDbLine
 62
7
  6
CONTINUOUS
 10
12.4059544787
 20
10.6551695021
 11
12.3334107807
 21
10.8801695021
  0
LINE
  5
2DE
100
AcDbEntity
  8
0
100
AcDbLine
 62
7
  6
CONTINUOUS
 10
12.3606146642
 20
10.7126163105
 11
12.3787505952
 21
10.6551695021
  0
LINE
  5
2DF
100
AcDbEntity
  8
0
100
AcDbLine
 62
7
  6
CONTINUOUS
 10
12.3152748757
 20
10.8610205683
 11
12.3560807009
 21
10.7317652444
  0
LINE
  5
2E0
100
AcDbEntity
  8
0
100
AcDbLine
 62
7
  6
CONTINUOUS
 10
12.7810640158
 20
7.8035737532
 11
12.7770479424
 21
7.827509934
  0
LINE
  5
2E1
100
AcDbEntity
  8
0
100
AcDbLine
 62
7
  6
CONTINUOUS
 10
12.8412166146
 20
10.8322971674
 11
12.8412166146
 21
10.6551695021
  0
LINE
  5
2E2
100
AcDbEntity
  8
0
100
AcDbLine
 62
7
  6
CONTINUOUS
 10
12.8684204981
 20
10.6551695021
 11
12.8684204981
 21
10.8801695021
  0
LINE
  5
2E3
100
AcDbEntity
  8
0
100
AcDbLine
 62
7
  6
CONTINUOUS
 10
12.7770479424
 20
7.707829077
 11
12.7810640158
 21
7.7317652444
  0
LINE
  5
2E4
100
AcDbEntity
  8
0
100
AcDbLine
 62
7
  6
CONTINUOUS
 10
12.7569677591
 20
7.7317652444
 11
12.7529516857
 21
7.7126163105
  0
LINE
  5
2E5
100
AcDbEntity
  8
0
100
AcDbLine
 62
7
  6
CONTINUOUS
 10
12.3995399363
 20
7.6886801398
 11
12.4075720142
 21
7.707829077
  0
LINE
  5
2E6
100
AcDbEntity
  8
0
100
AcDbLine
 62
7
  6
CONTINUOUS
 10
12.3834757575
 20
7.7126163105
 11
12.3754436796
 21
7.6982546101
  0
LINE
  5
2E7
100
AcDbEntity
  8
0
100
AcDbLine
 62
7
  6
CONTINUOUS
 10
12.2790586529
 20
7.8658078017
 11
12.2629944741
 21
7.8466588678
  0
LINE
  5
2E8
100
AcDbEntity
  8
0
100
AcDbLine
 62
7
  6
CONTINUOUS
 10
12.1987377935
 20
7.6695312042
 11
12.2148019722
 21
7.6886801398
  0
LINE
  5
2E9
100
AcDbEntity
  8
0
100
AcDbLine
 62
7
  6
CONTINUOUS
 10
12.3834757575
 20
7.6695312042
 11
12.3995399363
 21
7.6886801398
  0
LINE
  5
2EA
100
AcDbEntity
  8
0
100
AcDbLine
 62
7
  6
CONTINUOUS
 10
12.2870907308
 20
7.8370844009
 11
12.2991388591
 21
7.8466588678
  0
LINE
  5
2EB
100
AcDbEntity
  8
0
100
AcDbLine
 62
7
  6
CONTINUOUS
 10
12.1907057156
 20
7.6982546101
 11
12.1786575872
 21
7.6886801398
  0
LINE
  5
2EC
100
AcDbEntity
  8
0
100
AcDbLine
 62
7
  6
CONTINUOUS
 10
12.3754436796
 20
7.6982546101
 11
12.3633955513
 21
7.6886801398
  0
LINE
  5
2ED
100
AcDbEntity
  8
0
100
AcDbLine
 62
7
  6
CONTINUOUS
 10
12.2951228317
 20
7.8753822687
 11
12.2790586529
 21
7.8658078017
  0
LINE
  5
2EE
100
AcDbEntity
  8
0
100
AcDbLine
 62
7
  6
CONTINUOUS
 10
12.1826736262
 20
7.659956736
 11
12.1987377935
 21
7.6695312042
  0
LINE
  5
2EF
100
AcDbEntity
  8
0
100
AcDbLine
 62
7
  6
CONTINUOUS
 10
12.3674116017
 20
7.659956736
 11
12.3834757575
 21
7.6695312042
  0
LINE
  5
2F0
100
AcDbEntity
  8
0
100
AcDbLine
 62
7
  6
CONTINUOUS
 10
12.3633955513
 20
7.6886801398
 11
12.3473313725
 21
7.6838929063
  0
LINE
  5
2F1
100
AcDbEntity
  8
0
100
AcDbLine
 62
7
  6
CONTINUOUS
 10
12.7328715024
 20
7.6886801398
 11
12.7168073007
 21
7.6838929063
  0
LINE
  5
2F2
100
AcDbEntity
  8
0
100
AcDbLine
 62
7
  6
CONTINUOUS
 10
10.941755723
 20
11.3551695021
 11
10.9620726167
 21
11.359956736
  0
LINE
  5
2F3
100
AcDbEntity
  8
0
100
AcDbLine
 62
7
  6
CONTINUOUS
 10
10.6491923427
 20
11.3551695021
 11
10.6735726244
 21
11.3551695021
  0
LINE
  5
2F4
100
AcDbEntity
  8
0
100
AcDbLine
 62
7
  6
CONTINUOUS
 10
10.7873472684
 20
11.3551695021
 11
10.8117275501
 21
11.3551695021
  0
LINE
  5
2F5
100
AcDbEntity
  8
0
100
AcDbLine
 62
7
  6
CONTINUOUS
 10
10.9092486885
 20
11.3551695021
 11
10.941755723
 21
11.3551695021
  0
LINE
  5
2F6
100
AcDbEntity
  8
0
100
AcDbLine
 62
7
  6
CONTINUOUS
 10
11.1042909188
 20
11.3551695021
 11
11.1286712005
 21
11.3551695021
  0
LINE
  5
2F7
100
AcDbEntity
  8
0
100
AcDbLine
 62
7
  6
CONTINUOUS
 10
10.941755723
 20
11.3838929063
 11
10.9092486885
 21
11.3838929063
  0
LINE
  5
2F8
100
AcDbEntity
  8
0
100
AcDbLine
 62
7
  6
CONTINUOUS
 10
12.5737117429
 20
10.8753822687
 11
12.5510418746
 21
10.8801695021
  0
LINE
  5
2F9
100
AcDbEntity
  8
0
100
AcDbLine
 62
7
  6
CONTINUOUS
 10
10.8889317716
 20
11.359956736
 11
10.9092486885
 21
11.3551695021
  0
LINE
  5
2FA
100
AcDbEntity
  8
0
100
AcDbLine
 62
7
  6
CONTINUOUS
 10
10.9092486885
 20
11.3838929063
 11
10.8929951596
 21
11.3886801398
  0
LINE
  5
2FB
100
AcDbEntity
  8
0
100
AcDbLine
 62
7
  6
CONTINUOUS
 10
12.5555758379
 20
10.8562333348
 11
12.5691777796
 21
10.8514461013
  0
LINE
  5
2FC
100
AcDbEntity
  8
0
100
AcDbLine
 62
7
  6
CONTINUOUS
 10
10.9783261456
 20
11.5658078017
 11
10.9620726167
 21
11.5753822687
  0
LINE
  5
2FD
100
AcDbEntity
  8
0
100
AcDbLine
 62
7
  6
CONTINUOUS
 10
12.6145175682
 20
10.6551695021
 11
12.5737117429
 21
10.7652758854
  0
LINE
  5
2FE
100
AcDbEntity
  8
0
100
AcDbLine
 62
7
  6
CONTINUOUS
 10
12.5465078594
 20
10.7557014185
 11
12.5827797214
 21
10.6551695021
  0
LINE
  5
2FF
100
AcDbEntity
  8
0
100
AcDbLine
 62
7
  6
CONTINUOUS
 10
12.6779933136
 20
10.8322971674
 11
12.7414690591
 21
10.6551695021
  0
LINE
  5
300
100
AcDbEntity
  8
0
100
AcDbLine
 62
7
  6
CONTINUOUS
 10
12.7596049641
 20
10.6791056729
 11
12.6915952554
 21
10.8801695021
  0
LINE
  5
301
100
AcDbEntity
  8
0
100
AcDbLine
 62
7
  6
CONTINUOUS
 10
12.5782457581
 20
10.8418716344
 11
12.5827797214
 21
10.827509934
  0
LINE
  5
302
100
AcDbEntity
  8
0
100
AcDbLine
 62
7
  6
CONTINUOUS
 10
12.6099836049
 20
10.827509934
 11
12.6054496416
 21
10.8418716344
  0
LINE
  5
303
100
AcDbEntity
  8
0
100
AcDbLine
 62
7
  6
CONTINUOUS
 10
12.7690158875
 20
7.6886801398
 11
12.7770479424
 21
7.707829077
  0
LINE
  5
304
100
AcDbEntity
  8
0
100
AcDbLine
 62
7
  6
CONTINUOUS
 10
12.7529516857
 20
7.7126163105
 11
12.7449196308
 21
7.6982546101
  0
LINE
  5
305
100
AcDbEntity
  8
0
100
AcDbLine
 62
7
  6
CONTINUOUS
 10
12.7529516857
 20
7.6695312042
 11
12.7690158875
 21
7.6886801398
  0
LINE
  5
306
100
AcDbEntity
  8
0
100
AcDbLine
 62
7
  6
CONTINUOUS
 10
12.7449196308
 20
7.6982546101
 11
12.7328715024
 21
7.6886801398
  0
LINE
  5
307
100
AcDbEntity
  8
0
100
AcDbLine
 62
7
  6
CONTINUOUS
 10
12.7368875299
 20
7.659956736
 11
12.7529516857
 21
7.6695312042
  0
LINE
  5
308
100
AcDbEntity
  8
0
100
AcDbLine
 62
7
  6
CONTINUOUS
 10
10.9092486885
 20
11.5801695021
 11
10.8889317716
 21
11.5753822687
  0
LINE
  5
309
100
AcDbEntity
  8
0
100
AcDbLine
 62
7
  6
CONTINUOUS
 10
10.6735726244
 20
11.4604886519
 11
10.7873472684
 21
11.4604886519
  0
LINE
  5
30A
100
AcDbEntity
  8
0
100
AcDbLine
 62
7
  6
CONTINUOUS
 10
10.7873472684
 20
11.4892120528
 11
10.6735726244
 21
11.4892120528
  0
LINE
  5
30B
100
AcDbEntity
  8
0
100
AcDbLine
 62
7
  6
CONTINUOUS
 10
10.9092486885
 20
11.5514461013
 11
10.941755723
 21
11.5514461013
  0
LINE
  5
30C
100
AcDbEntity
  8
0
100
AcDbLine
 62
7
  6
CONTINUOUS
 10
11.0392768498
 20
11.5562333348
 11
11.1042909188
 21
11.5562333348
  0
LINE
  5
30D
100
AcDbEntity
  8
0
100
AcDbLine
 62
7
  6
CONTINUOUS
 10
11.1286712005
 20
11.5562333348
 11
11.193685316
 21
11.5562333348
  0
LINE
  5
30E
100
AcDbEntity
  8
0
100
AcDbLine
 62
7
  6
CONTINUOUS
 10
11.193685316
 20
11.5801695021
 11
11.0392768498
 21
11.5801695021
  0
LINE
  5
30F
100
AcDbEntity
  8
0
100
AcDbLine
 62
7
  6
CONTINUOUS
 10
10.941755723
 20
11.5801695021
 11
10.9092486885
 21
11.5801695021
  0
LINE
  5
310
100
AcDbEntity
  8
0
100
AcDbLine
 62
7
  6
CONTINUOUS
 10
10.8117275501
 20
11.5801695021
 11
10.7873472684
 21
11.5801695021
  0
LINE
  5
311
100
AcDbEntity
  8
0
100
AcDbLine
 62
7
  6
CONTINUOUS
 10
10.6735726244
 20
11.5801695021
 11
10.6491923427
 21
11.5801695021
  0
LINE
  5
312
100
AcDbEntity
  8
0
100
AcDbLine
 62
7
  6
CONTINUOUS
 10
10.9620726167
 20
11.5753822687
 11
10.941755723
 21
11.5801695021
  0
LINE
  5
313
100
AcDbEntity
  8
0
100
AcDbLine
 62
7
  6
CONTINUOUS
 10
10.941755723
 20
11.5514461013
 11
10.9580092519
 21
11.5466588678
  0
LINE
  5
314
100
AcDbEntity
  8
0
100
AcDbLine
 62
7
  6
CONTINUOUS
 10
12.5918476998
 20
10.8610205683
 11
12.5737117429
 21
10.8753822687
  0
LINE
  5
315
100
AcDbEntity
  8
0
100
AcDbLine
 62
7
  6
CONTINUOUS
 10
12.5691777796
 20
10.8514461013
 11
12.5782457581
 21
10.8418716344
  0
LINE
  5
316
100
AcDbEntity
  8
0
100
AcDbLine
 62
7
  6
CONTINUOUS
 10
12.6054496416
 20
10.8418716344
 11
12.5918476998
 21
10.8610205683
  0
CIRCLE
  5
317
100
AcDbEntity
  8
0
100
AcDbCircle
 62
7
  6
CONTINUOUS
 10
10.9376923427
 20
9.2676695021
 40
3.25
  0
CIRCLE
  5
318
100
AcDbEntity
  8
0
100
AcDbCircle
 62
9
  6
CONTINUOUS
 10
10.9376923427
 20
9.2676695021
 40
3.2115516844
  0
CIRCLE
  5
319
100
AcDbEntity
  8
0
100
AcDbCircle
 62
9
  6
CONTINUOUS
 10
10.9376923427
 20
9.2676695021
 40
3.1422181513
  0
CIRCLE
  5
31A
100
AcDbEntity
  8
0
100
AcDbCircle
 62
9
  6
CONTINUOUS
 10
10.9376923427
 20
9.2676695021
 40
3.0828434898
  0
CIRCLE
  5
31B
100
AcDbEntity
  8
0
100
AcDbCircle
 62
7
  6
CONTINUOUS
 10
10.9376923427
 20
9.2676695021
 40
1.4375
  0
ARC
  5
31C
100
AcDbEntity
  8
0
100
AcDbCircle
 62
7
  6
CONTINUOUS
 10
10.9376923427
 20
9.2676695021
 40
1.0375
100
AcDbArc
 50
223.013704627
 51
316.986295373
  0
ARC
  5
31D
100
AcDbEntity
  8
0
100
AcDbCircle
 62
7
  6
CONTINUOUS
 10
10.9376923427
 20
9.2676695021
 40
1.0375
100
AcDbArc
 50
103.013704627
 51
196.986295373
  0
ARC
  5
31E
100
AcDbEntity
  8
0
100
AcDbCircle
 62
7
  6
CONTINUOUS
 10
10.9376923427
 20
9.2676695021
 40
1.0375
100
AcDbArc
 50
343.013704627
 51
76.986295373
  0
ARC
  5
31F
100
AcDbEntity
  8
0
100
AcDbCircle
 62
7
  6
CONTINUOUS
 10
10.9376923427
 20
9.2676695021
 40
0.65625
100
AcDbArc
 50
225.470487971
 51
314.5296640218
  0
ARC
  5
320
100
AcDbEntity
  8
0
100
AcDbCircle
 62
7
  6
CONTINUOUS
 10
10.9376923427
 20
9.2676695021
 40
0.65625
100
AcDbArc
 50
105.470336031
 51
194.5295111547
  0
ARC
  5
321
100
AcDbEntity
  8
0
100
AcDbCircle
 62
7
  6
CONTINUOUS
 10
10.9376923427
 20
9.2676695021
 40
0.65625
100
AcDbArc
 50
345.4705333558
 51
74.5294662715
  0
CIRCLE
  5
322
100
AcDbEntity
  8
0
100
AcDbCircle
 62
7
  6
CONTINUOUS
 10
10.9376923427
 20
7.0976695021
 40
0.45
  0
CIRCLE
  5
323
100
AcDbEntity
  8
0
100
AcDbCircle
 62
9
  6
CONTINUOUS
 10
10.9376923427
 20
7.0976695021
 40
0.4492005033
  0
CIRCLE
  5
324
100
AcDbEntity
  8
0
100
AcDbCircle
 62
9
  6
CONTINUOUS
 10
10.9376923427
 20
7.0976695021
 40
0.4177005033
  0
CIRCLE
  5
325
100
AcDbEntity
  8
0
100
AcDbCircle
 62
9
  6
CONTINUOUS
 10
10.9376923427
 20
7.0976695021
 40
0.3875
  0
CIRCLE
  5
326
100
AcDbEntity
  8
0
100
AcDbCircle
 62
7
  6
CONTINUOUS
 10
10.9376923427
 20
9.2676695021
 40
0.375
  0
SPLINE
  5
327
100
AcDbEntity
  8
0
100
AcDbSpline
 62
9
  6
CONTINUOUS
 70
0
 71
3
 72
30
 73
26
 74
0
 42
0.0000001
 43
0.0000001
 44
0.0000000001
 40
0.0
 40
0.0
 40
0.0
 40
0.0
 40
0.0794518489
 40
0.1549680549
 40
0.2262786827
 40
0.2931249362
 40
0.3553162134
 40
0.4127831583
 40
0.4656865573
 40
0.5146118782
 40
0.5379627505
 40
0.5608389561
 40
0.5835246372
 40
0.6063567611
 40
0.629691555
 40
0.6538878278
 40
0.7061521304
 40
0.734890034
 40
0.7656675556
 40
0.7986738311
 40
0.8340573714
 40
0.8718814528
 40
0.9121581962
 40
0.9548758956
 40
1.0
 40
1.0
 40
1.0
 40
1.0
 10
11.8307392851
 20
8.9147652181
 30
0.0
 10
11.8306223991
 20
8.9161024789
 30
0.0
 10
11.8304349137
 20
8.918714605
 30
0.0
 10
11.8303089743
 20
8.9225366791
 30
0.0
 10
11.8303598384
 20
8.9261480142
 30
0.0
 10
11.8306061373
 20
8.929526426
 30
0.0
 10
11.831069248
 20
8.9326469103
 30
0.0
 10
11.8317729576
 20
8.935482296
 30
0.0
 10
11.8327470054
 20
8.9380003698
 30
0.0
 10
11.833828401
 20
8.9398337999
 30
0.0
 10
11.8348532979
 20
8.9410761772
 30
0.0
 10
11.8356933215
 20
8.9418863612
 30
0.0
 10
11.8366197242
 20
8.9425822042
 30
0.0
 10
11.8376351041
 20
8.9431565633
 30
0.0
 10
11.8387401494
 20
8.9436039042
 30
0.0
 10
11.840374017
 20
8.944035594
 30
0.0
 10
11.8421635829
 20
8.9441683555
 30
0.0
 10
11.8440487974
 20
8.9440358088
 30
0.0
 10
11.8455945076
 20
8.9437890255
 30
0.0
 10
11.8472247882
 20
8.9433965527
 30
0.0
 10
11.8489376301
 20
8.9428571295
 30
0.0
 10
11.8507295334
 20
8.9421722118
 30
0.0
 10
11.8525959596
 20
8.9413435752
 30
0.0
 10
11.8545318291
 20
8.9403736463
 30
0.0
 10
11.8558306268
 20
8.9396546211
 30
0.0
 10
11.8564909043
 20
8.9392734887
 30
0.0
  0
SPLINE
  5
328
100
AcDbEntity
  8
0
100
AcDbSpline
 62
9
  6
CONTINUOUS
 70
0
 71
3
 72
32
 73
28
 74
0
 42
0.0000001
 43
0.0000001
 44
0.0000000001
 40
0.0
 40
0.0
 40
0.0
 40
0.0
 40
0.0409068115
 40
0.0812808832
 40
0.1011635543
 40
0.1208040695
 40
0.1402011731
 40
0.159355138
 40
0.178277817
 40
0.1969775803
 40
0.2337523135
 40
0.2697738092
 40
0.3051274998
 40
0.3398755684
 40
0.3740665779
 40
0.4077394375
 40
0.4409209383
 40
0.5058795157
 40
0.5690297828
 40
0.6303844351
 40
0.6899007815
 40
0.7474893494
 40
0.8030175296
 40
0.8562992147
 40
0.9071005389
 40
0.9551249345
 40
1.0
 40
1.0
 40
1.0
 40
1.0
 10
11.8452774147
 20
8.7436750166
 30
0.0
 10
11.8464683974
 20
8.7457377024
 30
0.0
 10
11.848566249
 20
8.7499967609
 30
0.0
 10
11.8505153946
 20
8.7555690065
 30
0.0
 10
11.8516895508
 20
8.760072256
 30
0.0
 10
11.8523867371
 20
8.7634327731
 30
0.0
 10
11.8529243434
 20
8.7667791156
 30
0.0
 10
11.8533215638
 20
8.7701027346
 30
0.0
 10
11.8535943099
 20
8.7733979695
 30
0.0
 10
11.8538128125
 20
8.7777248908
 30
0.0
 10
11.853847247
 20
8.7830550867
 30
0.0
 10
11.8535845517
 20
8.7893484587
 30
0.0
 10
11.8530983397
 20
8.7955095702
 30
0.0
 10
11.8524336542
 20
8.8015464146
 30
0.0
 10
11.8516281774
 20
8.8074670421
 30
0.0
 10
11.8507172771
 20
8.8132798686
 30
0.0
 10
11.8494032135
 20
8.8208417308
 30
0.0
 10
11.8476058798
 20
8.8300603074
 30
0.0
 10
11.8453064578
 20
8.8408499197
 30
0.0
 10
11.8429681277
 20
8.8513065213
 30
0.0
 10
11.8406600545
 20
8.8614378725
 30
0.0
 10
11.8384422844
 20
8.8712418719
 30
0.0
 10
11.8363700263
 20
8.880706492
 30
0.0
 10
11.8344976118
 20
8.889809757
 30
0.0
 10
11.8328824886
 20
8.8985186989
 30
0.0
 10
11.8315901001
 20
8.9067866635
 30
0.0
 10
11.830966121
 20
8.9121621987
 30
0.0
 10
11.8307392851
 20
8.9147652181
 30
0.0
  0
SPLINE
  5
329
100
AcDbEntity
  8
0
100
AcDbSpline
 62
9
  6
CONTINUOUS
 70
0
 71
3
 72
32
 73
28
 74
0
 42
0.0000001
 43
0.0000001
 44
0.0000000001
 40
0.0
 40
0.0
 40
0.0
 40
0.0
 40
0.044874617
 40
0.0928980309
 40
0.1436987937
 40
0.196979877
 40
0.2525074306
 40
0.3100954412
 40
0.3696109967
 40
0.4309648163
 40
0.4941143788
 40
0.559072415
 40
0.5922533631
 40
0.6259257335
 40
0.660116608
 40
0.6948644349
 40
0.7302179687
 40
0.7662403108
 40
0.8030136831
 40
0.8406301006
 40
0.8597850897
 40
0.8791824886
 40
0.8988224738
 40
0.918704179
 40
0.9388053464
 40
0.9590939158
 40
1.0
 40
1.0
 40
1.0
 40
1.0
 10
11.689839889
 20
8.6707203053
 30
0.0
 10
11.6922077061
 20
8.6718251316
 30
0.0
 10
11.6971748843
 20
8.6739728091
 30
0.0
 10
11.7049811857
 20
8.6769879687
 30
0.0
 10
11.7133310096
 20
8.6799433892
 30
0.0
 10
11.7221509481
 20
8.6828732803
 30
0.0
 10
11.7313838161
 20
8.685810593
 30
0.0
 10
11.7409834544
 20
8.6887912041
 30
0.0
 10
11.7509111319
 20
8.6918592306
 30
0.0
 10
11.7611359145
 20
8.6950626537
 30
0.0
 10
11.7716301385
 20
8.6984648583
 30
0.0
 10
11.7805117806
 20
8.7015192214
 30
0.0
 10
11.7877179533
 20
8.7041611032
 30
0.0
 10
11.7932075784
 20
8.7062783855
 30
0.0
 10
11.7987374349
 20
8.7085419157
 30
0.0
 10
11.8042980166
 20
8.7109843972
 30
0.0
 10
11.8098769283
 20
8.7136438517
 30
0.0
 10
11.815457275
 20
8.7165657402
 30
0.0
 10
11.821007828
 20
8.7198150689
 30
0.0
 10
11.8255416858
 20
8.7228415769
 30
0.0
 10
11.8290920344
 20
8.7255011287
 30
0.0
 10
11.8317209654
 20
8.7276404085
 30
0.0
 10
11.8342829147
 20
8.729923997
 30
0.0
 10
11.8367562029
 20
8.7323623715
 30
0.0
 10
11.8391196823
 20
8.7349593447
 30
0.0
 10
11.8420991215
 20
8.7386397371
 30
0.0
 10
11.8440865272
 20
8.7416122901
 30
0.0
 10
11.8452774147
 20
8.7436750166
 30
0.0
  0
SPLINE
  5
32A
100
AcDbEntity
  8
0
100
AcDbSpline
 62
9
  6
CONTINUOUS
 70
0
 71
3
 72
40
 73
36
 74
0
 42
0.0000001
 43
0.0000001
 44
0.0000000001
 40
0.0
 40
0.0
 40
0.0
 40
0.0
 40
0.0514109102
 40
0.0768892323
 40
0.1021058223
 40
0.1269942118
 40
0.151499504
 40
0.1755880938
 40
0.199235314
 40
0.2451579088
 40
0.2892622228
 40
0.3316261216
 40
0.3723624168
 40
0.4115899721
 40
0.449427248
 40
0.485977756
 40
0.5213312149
 40
0.5887178944
 40
0.6520128153
 40
0.7114408542
 40
0.7397224805
 40
0.7670351221
 40
0.8186431619
 40
0.8659720093
 40
0.8878914516
 40
0.9085403542
 40
0.9278201789
 40
0.9456280822
 40
0.9618509303
 40
0.9693366101
 40
0.9763848716
 40
0.9829818914
 40
0.9891180718
 40
0.994789429
 40
1.0
 40
1.0
 40
1.0
 40
1.0
 10
11.3793652987
 20
9.0126695021
 30
0.0
 10
11.3773936659
 20
9.0092549306
 30
0.0
 10
11.3742466876
 20
9.0042590689
 30
0.0
 10
11.3697097606
 20
8.9978749262
 30
0.0
 10
11.3661809666
 20
8.993274191
 30
0.0
 10
11.3625355365
 20
8.9888619078
 30
0.0
 10
11.3587910745
 20
8.9846484921
 30
0.0
 10
11.3549706663
 20
8.9806343694
 30
0.0
 10
11.349850194
 20
8.9755953183
 30
0.0
 10
11.3433494721
 20
8.9697769296
 30
0.0
 10
11.3353876049
 20
8.9634669959
 30
0.0
 10
11.3274164282
 20
8.9578345551
 30
0.0
 10
11.3194898848
 20
8.9528088212
 30
0.0
 10
11.3116356055
 20
8.9483374681
 30
0.0
 10
11.3038795873
 20
8.9443606517
 30
0.0
 10
11.296240899
 20
8.9408215587
 30
0.0
 10
11.2863817753
 20
8.936702692
 30
0.0
 10
11.2743789034
 20
8.9324189349
 30
0.0
 10
11.2603601617
 20
8.928381592
 30
0.0
 10
11.2490566373
 20
8.9258301441
 30
0.0
 10
11.2403777659
 20
8.9242451364
 30
0.0
 10
11.2322530215
 20
8.9229802429
 30
0.0
 10
11.2226308032
 20
8.921860183
 30
0.0
 10
11.2133747101
 20
8.9212795863
 30
0.0
 10
11.2064801606
 20
8.9211599815
 30
0.0
 10
11.2017363682
 20
8.9212303857
 30
0.0
 10
11.1973129048
 20
8.9214552704
 30
0.0
 10
11.1932403997
 20
8.9218321087
 30
0.0
 10
11.1900869145
 20
8.922286992
 30
0.0
 10
11.1877716433
 20
8.9227408063
 30
0.0
 10
11.1861938913
 20
8.9231131324
 30
0.0
 10
11.1847338016
 20
8.9235273467
 30
0.0
 10
11.183397438
 20
8.923984344
 30
0.0
 10
11.1821910313
 20
8.9244849652
 30
0.0
 10
11.1814466054
 20
8.9248652017
 30
0.0
 10
11.1811005265
 20
8.9250650173
 30
0.0
  0
SPLINE
  5
32B
100
AcDbEntity
  8
0
100
AcDbSpline
 62
9
  6
CONTINUOUS
 70
0
 71
3
 72
30
 73
26
 74
0
 42
0.0000001
 43
0.0000001
 44
0.0000000001
 40
0.0
 40
0.0
 40
0.0
 40
0.0
 40
0.0794501725
 40
0.154964738
 40
0.2262737936
 40
0.2931185749
 40
0.3553084126
 40
0.4127739788
 40
0.4656760706
 40
0.5146004414
 40
0.5379509119
 40
0.5608266451
 40
0.5835115938
 40
0.6063425243
 40
0.6296756441
 40
0.6538697088
 40
0.7061296254
 40
0.7348678478
 40
0.7656483817
 40
0.7986592764
 40
0.8340479182
 40
0.8718770329
 40
0.9121579766
 40
0.9548778302
 40
1.0
 40
1.0
 40
1.0
 40
1.0
 10
10.7967929467
 20
10.217522983
 30
0.0
 10
10.7956932772
 20
10.2167531225
 30
0.0
 10
10.7935248328
 20
10.2152846844
 30
0.0
 10
10.7902777631
 20
10.2132645673
 30
0.0
 10
10.7871248007
 20
10.2115029354
 30
0.0
 10
10.7840758433
 20
10.2100270136
 30
0.0
 10
10.7811418536
 20
10.2088678234
 30
0.0
 10
10.7783344668
 20
10.2080595555
 30
0.0
 10
10.7756666962
 20
10.2076441277
 30
0.0
 10
10.773538184
 20
10.2076640308
 30
0.0
 10
10.7719498011
 20
10.2079304982
 30
0.0
 10
10.7708281519
 20
10.2082529185
 30
0.0
 10
10.7697623409
 20
10.2087072832
 30
0.0
 10
10.7687572496
 20
10.2092994076
 30
0.0
 10
10.7678173311
 20
10.2100326669
 30
0.0
 10
10.7666265465
 20
10.2112316673
 30
0.0
 10
10.7656167591
 20
10.2127150197
 30
0.0
 10
10.7647889763
 20
10.2144139986
 30
0.0
 10
10.7642298667
 20
10.2158762176
 30
0.0
 10
10.7637546365
 20
10.2174845992
 30
0.0
 10
10.7633653854
 20
10.2192379878
 30
0.0
 10
10.7630626129
 20
10.2211325859
 30
0.0
 10
10.7628470373
 20
10.2231635317
 30
0.0
 10
10.762719105
 20
10.2253251476
 30
0.0
 10
10.7626924115
 20
10.2268094993
 30
0.0
 10
10.7626923514
 20
10.2275718723
 30
0.0
  0
SPLINE
  5
32C
100
AcDbEntity
  8
0
100
AcDbSpline
 62
9
  6
CONTINUOUS
 70
0
 71
3
 72
36
 73
32
 74
0
 42
0.0000001
 43
0.0000001
 44
0.0000000001
 40
0.0
 40
0.0
 40
0.0
 40
0.0
 40
0.0409059792
 40
0.0611944278
 40
0.0812957586
 40
0.1011777604
 40
0.1208176782
 40
0.1402145975
 40
0.1593687151
 40
0.1782913454
 40
0.1969905981
 40
0.2337639803
 40
0.2518633552
 40
0.2697866443
 40
0.3051405589
 40
0.3398882038
 40
0.3740779724
 40
0.4077501646
 40
0.4409312772
 40
0.4736399474
 40
0.505889197
 40
0.5376877253
 40
0.5690385079
 40
0.6303918346
 40
0.6899072038
 40
0.747494664
 40
0.8030206104
 40
0.8563012611
 40
0.9071029203
 40
0.9551254155
 40
1.0
 40
1.0
 40
1.0
 40
1.0
 10
10.9376923427
 20
10.3156584733
 30
0.0
 10
10.9353105125
 20
10.3156585202
 30
0.0
 10
10.9317424945
 20
10.3154231542
 30
0.0
 10
10.9270655182
 20
10.3146826327
 30
0.0
 10
10.9236345824
 20
10.3139348109
 30
0.0
 10
10.9202860009
 20
10.3130127479
 30
0.0
 10
10.9170272931
 20
10.3119359977
 30
0.0
 10
10.9138603852
 20
10.3107285163
 30
0.0
 10
10.9107831499
 20
10.3094112373
 30
0.0
 10
10.9077927832
 20
10.3080001961
 30
0.0
 10
10.9039364634
 20
10.3060257389
 30
0.0
 10
10.9002111264
 20
10.3039057212
 30
0.0
 10
10.896605038
 20
10.301677629
 30
0.0
 10
10.8931165806
 20
10.2994180651
 30
0.0
 10
10.8888914808
 20
10.2965147337
 30
0.0
 10
10.8839953116
 20
10.2929212379
 30
0.0
 10
10.8792715846
 20
10.2892621371
 30
0.0
 10
10.8746929458
 20
10.2855669535
 30
0.0
 10
10.8702417898
 20
10.2818524936
 30
0.0
 10
10.8659062782
 20
10.2781297593
 30
0.0
 10
10.8616739042
 20
10.2744111457
 30
0.0
 10
10.8575319865
 20
10.2707097287
 30
0.0
 10
10.8521581279
 20
10.2658439106
 30
0.0
 10
10.845634403
 20
10.2598438799
 30
0.0
 10
10.8380160472
 20
10.252777599
 30
0.0
 10
10.8306343162
 20
10.2459551252
 30
0.0
 10
10.8234725946
 20
10.2394296345
 30
0.0
 10
10.8165248232
 20
10.2332568059
 30
0.0
 10
10.8097922131
 20
10.2275012232
 30
0.0
 10
10.8032773611
 20
10.2222487664
 30
0.0
 10
10.7989331389
 20
10.2190219413
 30
0.0
 10
10.7967929467
 20
10.217522983
 30
0.0
  0
SPLINE
  5
32D
100
AcDbEntity
  8
0
100
AcDbSpline
 62
9
  6
CONTINUOUS
 70
0
 71
3
 72
30
 73
26
 74
0
 42
0.0000001
 43
0.0000001
 44
0.0000000001
 40
0.0
 40
0.0
 40
0.0
 40
0.0
 40
0.0448749338
 40
0.092899841
 40
0.143701012
 40
0.1969825384
 40
0.2525105824
 40
0.310098957
 40
0.369615128
 40
0.4309695739
 40
0.494119687
 40
0.5590783282
 40
0.625929587
 40
0.694863336
 40
0.7302169437
 40
0.7662397457
 40
0.803013315
 40
0.8406297368
 40
0.8597848967
 40
0.8791823492
 40
0.8988224672
 40
0.9187040953
 40
0.9388053342
 40
0.9590939124
 40
1.0
 40
1.0
 40
1.0
 40
1.0
 10
11.0785917388
 20
10.217522983
 30
0.0
 10
11.076450645
 20
10.2190206137
 30
0.0
 10
11.0721075831
 20
10.222249285
 30
0.0
 10
11.0655940074
 20
10.2275031696
 30
0.0
 10
11.0588591105
 20
10.2332561038
 30
0.0
 10
11.0519114368
 20
10.2394290657
 30
0.0
 10
11.0447508249
 20
10.2459558693
 30
0.0
 10
11.0373693193
 20
10.2527786636
 30
0.0
 10
11.0297493965
 20
10.2598432588
 30
0.0
 10
11.0218630526
 20
10.267096805
 30
0.0
 10
11.0136683562
 20
10.2744827169
 30
0.0
 10
11.0051032418
 20
10.2819340371
 30
0.0
 10
10.9960799828
 20
10.2893665896
 30
0.0
 10
10.9881329565
 20
10.2953864358
 30
0.0
 10
10.981400261
 20
10.3000166397
 30
0.0
 10
10.9760794159
 20
10.3033880506
 30
0.0
 10
10.9704902198
 20
10.3065703887
 30
0.0
 10
10.9656023534
 20
10.3089837222
 30
0.0
 10
10.9615239383
 20
10.31072858
 30
0.0
 10
10.9583567682
 20
10.3119355487
 30
0.0
 10
10.955098181
 20
10.3130124899
 30
0.0
 10
10.951749879
 20
10.3139352852
 30
0.0
 10
10.9483191263
 20
10.3146836438
 30
0.0
 10
10.9436421224
 20
10.3154236875
 30
0.0
 10
10.9400741402
 20
10.3156584972
 30
0.0
 10
10.9376923427
 20
10.3156584733
 30
0.0
  0
SPLINE
  5
32E
100
AcDbEntity
  8
0
100
AcDbSpline
 62
9
  6
CONTINUOUS
 70
0
 71
3
 72
41
 73
37
 74
0
 42
0.0000001
 43
0.0000001
 44
0.0000000001
 40
0.0
 40
0.0
 40
0.0
 40
0.0
 40
0.0514114736
 40
0.0768900394
 40
0.1021069908
 40
0.1269957534
 40
0.1515015572
 40
0.1755906179
 40
0.1992382545
 40
0.2224318929
 40
0.2451661102
 40
0.2892718714
 40
0.3723463595
 40
0.4493957447
 40
0.5212890417
 40
0.5555198046
 40
0.5886859378
 40
0.6208333305
 40
0.6519933132
 40
0.7114216346
 40
0.7397020422
 40
0.7670154325
 40
0.8186280326
 40
0.8428594287
 40
0.8659655855
 40
0.8878829426
 40
0.908530521
 40
0.9278103099
 40
0.9456217411
 40
0.9618480068
 40
0.9693338961
 40
0.976382438
 40
0.9829798022
 40
0.9891164021
 40
0.994788492
 40
1.0
 40
1.0
 40
1.0
 40
1.0
 10
10.9376923427
 20
9.7776695021
 30
0.0
 10
10.9416351607
 20
9.7776693319
 30
0.0
 10
10.9475350358
 20
9.777441773
 30
0.0
 10
10.9553321068
 20
9.7767045997
 30
0.0
 10
10.9610807367
 20
9.7759491247
 30
0.0
 10
10.9667245241
 20
9.7749985078
 30
0.0
 10
10.9722456486
 20
9.773862739
 30
0.0
 10
10.977632129
 20
9.7725616031
 30
0.0
 10
10.9828760106
 20
9.7711114877
 30
0.0
 10
10.9879716368
 20
9.7695254901
 30
0.0
 10
10.9944986749
 20
9.7672698721
 30
0.0
 10
11.0051943134
 20
9.7630362207
 30
0.0
 10
11.0192712095
 20
9.7561014133
 30
0.0
 10
11.0344430949
 20
9.7467641152
 30
0.0
 10
11.045781543
 20
9.7384460759
 30
0.0
 10
11.0540420095
 20
9.7316702189
 30
0.0
 10
11.0597795996
 20
9.7266321081
 30
0.0
 10
11.0651834734
 20
9.7215767314
 30
0.0
 10
11.0718595321
 20
9.7149396835
 30
0.0
 10
11.078049711
 20
9.7082396808
 30
0.0
 10
11.0837630202
 20
9.7015175647
 30
0.0
 10
11.0889207203
 20
9.6951138066
 30
0.0
 10
11.0936438715
 20
9.688761623
 30
0.0
 10
11.0979199012
 20
9.6824915176
 30
0.0
 10
11.1007887975
 20
9.6780208378
 30
0.0
 10
11.1033829706
 20
9.6737030264
 30
0.0
 10
11.1056945582
 20
9.6695604729
 30
0.0
 10
11.1077117296
 20
9.6656172798
 30
0.0
 10
11.1094214465
 20
9.6619014665
 30
0.0
 10
11.1106042758
 20
9.6589425778
 30
0.0
 10
11.1113689475
 20
9.6567103829
 30
0.0
 10
11.1118355483
 20
9.655157896
 30
0.0
 10
11.1122070877
 20
9.6536863435
 30
0.0
 10
11.112479619
 20
9.652300478
 30
0.0
 10
11.1126493354
 20
9.6510052862
 30
0.0
 10
11.1126923885
 20
9.6501703884
 30
0.0
 10
11.1126924484
 20
9.6497707105
 30
0.0
  0
SPLINE
  5
32F
100
AcDbEntity
  8
0
100
AcDbSpline
 62
9
  6
CONTINUOUS
 70
0
 71
3
 72
30
 73
26
 74
0
 42
0.0000001
 43
0.0000001
 44
0.0000000001
 40
0.0
 40
0.0
 40
0.0
 40
0.0
 40
0.0794513085
 40
0.1549671654
 40
0.2262782028
 40
0.2931248088
 40
0.3553156936
 40
0.4127822273
 40
0.4656855203
 40
0.5146090695
 40
0.5379588512
 40
0.5608345999
 40
0.5835217229
 40
0.6063584326
 40
0.6296981602
 40
0.6538938473
 40
0.7061340002
 40
0.734869891
 40
0.7656606807
 40
0.7986854457
 40
0.8340810903
 40
0.8719070052
 40
0.9121776478
 40
0.9548848955
 40
1.0
 40
1.0
 40
1.0
 40
1.0
 10
10.1855447965
 20
8.6707203053
 30
0.0
 10
10.186761318
 20
8.6701528629
 30
0.0
 10
10.1891171819
 20
8.6690090868
 30
0.0
 10
10.1924901317
 20
8.6672070505
 30
0.0
 10
10.1955922903
 20
8.665357444
 30
0.0
 10
10.1983950791
 20
8.6634551231
 30
0.0
 10
10.2008659186
 20
8.661493759
 30
0.0
 10
10.2029692984
 20
8.6594663528
 30
0.0
 10
10.2046629848
 20
8.6573638383
 30
0.0
 10
10.2057104297
 20
8.6555108651
 30
0.0
 10
10.206274151
 20
8.6540022283
 30
0.0
 10
10.2065558498
 20
8.6528696641
 30
0.0
 10
10.2066951474
 20
8.6517193291
 30
0.0
 10
10.2066844597
 20
8.6505526134
 30
0.0
 10
10.2065189978
 20
8.6493718474
 30
0.0
 10
10.2060760663
 20
8.6477413682
 30
0.0
 10
10.2052973014
 20
8.6461251801
 30
0.0
 10
10.2042399634
 20
8.6445589886
 30
0.0
 10
10.2032528342
 20
8.6433435521
 30
0.0
 10
10.2020970873
 20
8.6421275764
 30
0.0
 10
10.200773024
 20
8.6409136424
 30
0.0
 10
10.1992838194
 20
8.6397041688
 30
0.0
 10
10.1976331924
 20
8.6385022427
 30
0.0
 10
10.1958256537
 20
8.6373108925
 30
0.0
 10
10.1945538409
 20
8.6365457751
 30
0.0
 10
10.1938937593
 20
8.6361646027
 30
0.0
  0
SPLINE
  5
330
100
AcDbEntity
  8
0
100
AcDbSpline
 62
9
  6
CONTINUOUS
 70
0
 71
3
 72
34
 73
30
 74
0
 42
0.0000001
 43
0.0000001
 44
0.0000000001
 40
0.0
 40
0.0
 40
0.0
 40
0.0
 40
0.0409067718
 40
0.0812806562
 40
0.1011631154
 40
0.1208034536
 40
0.1402006871
 40
0.1593550185
 40
0.1782779142
 40
0.1969775556
 40
0.2337517616
 40
0.2697730615
 40
0.3051274798
 40
0.3398757323
 40
0.3740662383
 40
0.4077390947
 40
0.4409208068
 40
0.4736300836
 40
0.5058799447
 40
0.5376790735
 40
0.5690304418
 40
0.6303849016
 40
0.6899013991
 40
0.7474899709
 40
0.8030169301
 40
0.8562985572
 40
0.907101187
 40
0.9551245652
 40
1.0
 40
1.0
 40
1.0
 40
1.0
 10
10.0301072708
 20
8.7436750166
 30
0.0
 10
10.0312981367
 20
8.7416122613
 30
0.0
 10
10.0339372775
 20
8.7376657074
 30
0.0
 10
10.0377883967
 20
8.7331915207
 30
0.0
 10
10.0411016661
 20
8.7299235082
 30
0.0
 10
10.0436634959
 20
8.7276396359
 30
0.0
 10
10.0462926738
 20
8.7255008085
 30
0.0
 10
10.0489721759
 20
8.7234946191
 30
0.0
 10
10.0516894099
 20
8.7216105152
 30
0.0
 10
10.0553274977
 20
8.7192580266
 30
0.0
 10
10.0599267344
 20
8.7165638089
 30
0.0
 10
10.06550847
 20
8.7136449683
 30
0.0
 10
10.0710867283
 20
8.7109842812
 30
0.0
 10
10.0766469147
 20
8.7085408667
 30
0.0
 10
10.0821775596
 20
8.7062793349
 30
0.0
 10
10.0876669818
 20
8.7041616313
 30
0.0
 10
10.0931094104
 20
8.7021641424
 30
0.0
 10
10.0985011528
 20
8.7002708651
 30
0.0
 10
10.103837739
 20
8.6984647868
 30
0.0
 10
10.1091142106
 20
8.696728464
 30
0.0
 10
10.1160150616
 20
8.6945074797
 30
0.0
 10
10.124473094
 20
8.6918577596
 30
0.0
 10
10.1344018546
 20
8.688793222
 30
0.0
 10
10.1440011918
 20
8.6858118092
 30
0.0
 10
10.1532332705
 20
8.6828722556
 30
0.0
 10
10.162052955
 20
8.6799416521
 30
0.0
 10
10.1704037582
 20
8.6769888892
 30
0.0
 10
10.1782099443
 20
8.6739730856
 30
0.0
 10
10.1831765562
 20
8.67182427
 30
0.0
 10
10.1855447965
 20
8.6707203053
 30
0.0
  0
SPLINE
  5
331
100
AcDbEntity
  8
0
100
AcDbSpline
 62
9
  6
CONTINUOUS
 70
0
 71
3
 72
32
 73
28
 74
0
 42
0.0000001
 43
0.0000001
 44
0.0000000001
 40
0.0
 40
0.0
 40
0.0
 40
0.0
 40
0.044874608
 40
0.0928980334
 40
0.1436987621
 40
0.19697982
 40
0.2525073636
 40
0.3100953705
 40
0.3696109047
 40
0.4309647049
 40
0.4941142443
 40
0.5590722181
 40
0.5922532402
 40
0.6259256284
 40
0.6601163944
 40
0.6948643198
 40
0.7302179728
 40
0.7662397685
 40
0.8030133979
 40
0.840629868
 40
0.8597842099
 40
0.8791813734
 40
0.8988215646
 40
0.9187037505
 40
0.9388053123
 40
0.9590938274
 40
1.0
 40
1.0
 40
1.0
 40
1.0
 10
10.0446454004
 20
8.9147652181
 30
0.0
 10
10.0444183125
 20
8.9121622162
 30
0.0
 10
10.0437946487
 20
8.9067866794
 30
0.0
 10
10.0425026897
 20
8.8985186542
 30
0.0
 10
10.0408872808
 20
8.8898097865
 30
0.0
 10
10.0390146906
 20
8.8807065561
 30
0.0
 10
10.0369420401
 20
8.8712420107
 30
0.0
 10
10.0347234901
 20
8.8614381864
 30
0.0
 10
10.0324165625
 20
8.8513065793
 30
0.0
 10
10.0300785572
 20
8.8408499243
 30
0.0
 10
10.027777917
 20
8.8300605585
 30
0.0
 10
10.0259818488
 20
8.8208417298
 30
0.0
 10
10.0246671705
 20
8.8132799797
 30
0.0
 10
10.023755997
 20
8.8074671897
 30
0.0
 10
10.0229509508
 20
8.8015464835
 30
0.0
 10
10.0222863427
 20
8.7955095777
 30
0.0
 10
10.0218004027
 20
8.7893483875
 30
0.0
 10
10.0215392326
 20
8.7830547829
 30
0.0
 10
10.021579186
 20
8.7766231963
 30
0.0
 10
10.0219333218
 20
8.7711835791
 30
0.0
 10
10.0224603743
 20
8.766779041
 30
0.0
 10
10.0229982882
 20
8.7634326664
 30
0.0
 10
10.0236952561
 20
8.7600721848
 30
0.0
 10
10.0245712292
 20
8.7567112383
 30
0.0
 10
10.0256392084
 20
8.7533661031
 30
0.0
 10
10.027336226
 20
8.7489454201
 30
0.0
 10
10.0289162892
 20
8.7457376928
 30
0.0
 10
10.0301072708
 20
8.7436750166
 30
0.0
  0
SPLINE
  5
332
100
AcDbEntity
  8
0
100
AcDbSpline
 62
9
  6
CONTINUOUS
 70
0
 71
3
 72
41
 73
37
 74
0
 42
0.0000001
 43
0.0000001
 44
0.0000000001
 40
0.0
 40
0.0
 40
0.0
 40
0.0
 40
0.0514104342
 40
0.0768885249
 40
0.1021049055
 40
0.1269930843
 40
0.1514981508
 40
0.1755864915
 40
0.1992334635
 40
0.2451557727
 40
0.2892598183
 40
0.3316232511
 40
0.3723590882
 40
0.411586446
 40
0.4494234338
 40
0.4859736156
 40
0.5213268273
 40
0.5887127007
 40
0.6208573544
 40
0.6520146222
 40
0.7114429438
 40
0.739724068
 40
0.7670354747
 40
0.8186423607
 40
0.8659736898
 40
0.8878928427
 40
0.9085402996
 40
0.9278194388
 40
0.9456283152
 40
0.961852204
 40
0.9693378205
 40
0.9763856569
 40
0.9829821365
 40
0.9891179202
 40
0.99478921
 40
1.0
 40
1.0
 40
1.0
 40
1.0
 10
10.4960193868
 20
9.0126695021
 30
0.0
 10
10.4940481082
 20
9.0160842634
 30
0.0
 10
10.4912950716
 20
9.0213075458
 30
0.0
 10
10.4880347345
 20
9.0284286987
 30
0.0
 10
10.4858147549
 20
9.0337850652
 30
0.0
 10
10.4838162984
 20
9.039148218
 30
0.0
 10
10.4820396311
 20
9.0444977148
 30
0.0
 10
10.4804735629
 20
9.0498133419
 30
0.0
 10
10.4786699548
 20
9.0567673349
 30
0.0
 10
10.4768812957
 20
9.0653062727
 30
0.0
 10
10.4753973947
 20
9.0753563649
 30
0.0
 10
10.4745052802
 20
9.085075817
 30
0.0
 10
10.4741165588
 20
9.0944532512
 30
0.0
 10
10.4741708077
 20
9.1034909081
 30
0.0
 10
10.4746042899
 20
9.1121962476
 30
0.0
 10
10.4753594349
 20
9.1205810441
 30
0.0
 10
10.4767224267
 20
9.1311784888
 30
0.0
 10
10.4785835628
 20
9.1413638989
 30
0.0
 10
10.4808518859
 20
9.1511280929
 30
0.0
 10
10.4832591604
 20
9.1602290573
 30
0.0
 10
10.4859690293
 20
9.168939407
 30
0.0
 10
10.4889356015
 20
9.1772479752
 30
0.0
 10
10.4919018171
 20
9.184916762
 30
0.0
 10
10.4957423886
 20
9.1938102121
 30
0.0
 10
10.4998688728
 20
9.2021160573
 30
0.0
 10
10.503212574
 20
9.2081468114
 30
0.0
 10
10.5056450334
 20
9.2122199137
 30
0.0
 10
10.5080512929
 20
9.215938382
 30
0.0
 10
10.5104141287
 20
9.2192768527
 30
0.0
 10
10.5123850419
 20
9.2217804385
 30
0.0
 10
10.5139357082
 20
9.2235586746
 30
0.0
 10
10.5150469393
 20
9.2247388731
 30
0.0
 10
10.5161355908
 20
9.2257962205
 30
0.0
 10
10.5171994586
 20
9.2267250409
 30
0.0
 10
10.5182361913
 20
9.2275195198
 30
0.0
 10
10.5189377087
 20
9.2279741084
 30
0.0
 10
10.5192838071
 20
9.2281739287
 30
0.0
  0
SPLINE
  5
333
100
AcDbEntity
  8
0
100
AcDbSpline
 62
9
  6
CONTINUOUS
 70
0
 71
3
 72
39
 73
35
 74
0
 42
0.0000001
 43
0.0000001
 44
0.0000000001
 40
0.0
 40
0.0
 40
0.0
 40
0.0
 40
0.0052111143
 40
0.0108822662
 40
0.0170180423
 40
0.0236138207
 40
0.0306605607
 40
0.0381470602
 40
0.0543794204
 40
0.0721913446
 40
0.0914745313
 40
0.1121189153
 40
0.1340350337
 40
0.1571433216
 40
0.1813710737
 40
0.2066683429
 40
0.2329901082
 40
0.2603008299
 40
0.2885822735
 40
0.317821006
 40
0.3480146886
 40
0.3791755279
 40
0.4113225256
 40
0.4787102819
 40
0.5506037273
 40
0.6276532348
 40
0.6683890964
 40
0.71075438
 40
0.7548607236
 40
0.8007827872
 40
0.848513007
 40
0.8979003195
 40
0.9485867971
 40
1.0
 40
1.0
 40
1.0
 40
1.0
 10
10.6942823433
 20
8.9250640676
 30
0.0
 10
10.6939362173
 20
8.9248642821
 30
0.0
 10
10.6931918213
 20
8.9244840139
 30
0.0
 10
10.6919854383
 20
8.9239834536
 30
0.0
 10
10.6906490527
 20
8.9235271208
 30
0.0
 10
10.6891891623
 20
8.9231133513
 30
0.0
 10
10.6876116379
 20
8.9227410054
 30
0.0
 10
10.6852958104
 20
8.922286985
 30
0.0
 10
10.6821413877
 20
8.92183192
 30
0.0
 10
10.6780679139
 20
8.9214531782
 30
0.0
 10
10.6736443176
 20
8.9212294133
 30
0.0
 10
10.6689010816
 20
8.9211596355
 30
0.0
 10
10.6638648314
 20
8.9212476129
 30
0.0
 10
10.6585589599
 20
8.9214974269
 30
0.0
 10
10.6530035056
 20
8.9219136795
 30
0.0
 10
10.6472161358
 20
8.9225047144
 30
0.0
 10
10.6412118514
 20
8.9232782584
 30
0.0
 10
10.6350036912
 20
8.924243884
 30
0.0
 10
10.6286034154
 20
8.925415156
 30
0.0
 10
10.622020762
 20
8.9268047314
 30
0.0
 10
10.6152645103
 20
8.92842846
 30
0.0
 10
10.6083429065
 20
8.930306451
 30
0.0
 10
10.5987513077
 20
8.9332202783
 30
0.0
 10
10.5863613722
 20
8.9376492368
 30
0.0
 10
10.5711609227
 20
8.9443341667
 30
0.0
 10
10.5583450341
 20
8.9512593114
 30
0.0
 10
10.5479658874
 20
8.9578340514
 30
0.0
 10
10.5399958664
 20
8.9634681887
 30
0.0
 10
10.5320351104
 20
8.9697792754
 30
0.0
 10
10.5241554171
 20
8.976826912
 30
0.0
 10
10.5164579772
 20
8.9846539902
 30
0.0
 10
10.5090748089
 20
8.9932675804
 30
0.0
 10
10.5021652315
 20
9.0026197098
 30
0.0
 10
10.4979908805
 20
9.0092548288
 30
0.0
 10
10.4960193868
 20
9.0126695021
 30
0.0
  0
SPLINE
  5
334
100
AcDbEntity
  8
0
100
AcDbSpline
 62
9
  6
CONTINUOUS
 70
0
 71
3
 72
33
 73
29
 74
0
 42
0.0000001
 43
0.0000001
 44
0.0000000001
 40
0.0
 40
0.0
 40
0.0
 40
0.0
 40
0.0354654005
 40
0.0531820696
 40
0.0708739483
 40
0.1061505759
 40
0.1412412154
 40
0.1761138052
 40
0.2107385934
 40
0.2450946685
 40
0.279162939
 40
0.3129432378
 40
0.3464382118
 40
0.3796478052
 40
0.4125719044
 40
0.4775554379
 40
0.5096144628
 40
0.5413830695
 40
0.6040292249
 40
0.6654414356
 40
0.7255319815
 40
0.7841823293
 40
0.8412173125
 40
0.8964133823
 40
0.9232331008
 40
0.9494812763
 40
0.9750952513
 40
1.0
 40
1.0
 40
1.0
 40
1.0
 10
11.869334981
 20
8.7297853741
 30
0.0
 10
11.8707751484
 20
8.7322783949
 30
0.0
 10
11.872855002
 20
8.7360635511
 30
0.0
 10
11.8754772777
 20
8.74118507
 30
0.0
 10
11.8779971507
 20
8.746340778
 30
0.0
 10
11.8809582615
 20
8.7528493387
 30
0.0
 10
11.8842061515
 20
8.7607532554
 30
0.0
 10
11.8871696078
 20
8.7687112766
 30
0.0
 10
11.8898812081
 20
8.7766953261
 30
0.0
 10
11.8923608644
 20
8.7846859081
 30
0.0
 10
11.8946295253
 20
8.7926674847
 30
0.0
 10
11.8967134938
 20
8.8006268165
 30
0.0
 10
11.8986422178
 20
8.8085532967
 30
0.0
 10
11.9004392608
 20
8.8164393073
 30
0.0
 10
11.9026711784
 20
8.8268470851
 30
0.0
 10
11.9047192607
 20
8.8371978601
 30
0.0
 10
11.9066361555
 20
8.8474776508
 30
0.0
 10
11.9084624811
 20
8.8575811857
 30
0.0
 10
11.9106353671
 20
8.8700433831
 30
0.0
 10
11.9131545704
 20
8.8847789016
 30
0.0
 10
11.915642314
 20
8.8991907251
 30
0.0
 10
11.9181583629
 20
8.9132369531
 30
0.0
 10
11.9207649222
 20
8.9268625405
 30
0.0
 10
11.9230825405
 20
8.937911357
 30
0.0
 10
11.9250570281
 20
8.9464759202
 30
0.0
 10
11.9265885908
 20
8.952677354
 30
0.0
 10
11.928195046
 20
8.9586991304
 30
0.0
 10
11.9293404009
 20
8.9626376034
 30
0.0
 10
11.9299310538
 20
8.9645711843
 30
0.0
  0
SPLINE
  5
335
100
AcDbEntity
  8
0
100
AcDbSpline
 62
9
  6
CONTINUOUS
 70
0
 71
3
 72
31
 73
27
 74
0
 42
0.0000001
 43
0.0000001
 44
0.0000000001
 40
0.0
 40
0.0
 40
0.0
 40
0.0
 40
0.0249037824
 40
0.0505183752
 40
0.0767673468
 40
0.1035868039
 40
0.1587816594
 40
0.2158176445
 40
0.2744698013
 40
0.3345604847
 40
0.3959721423
 40
0.4586177079
 40
0.5224443385
 40
0.5874251804
 40
0.6203469404
 40
0.653555387
 40
0.6870523125
 40
0.7208369447
 40
0.7549088114
 40
0.7892651511
 40
0.8238886566
 40
0.8587605354
 40
0.8938510139
 40
0.9291270781
 40
0.9645339585
 40
1.0
 40
1.0
 40
1.0
 40
1.0
 10
11.6963025414
 20
8.5599147307
 30
0.0
 10
11.6976816894
 20
8.5613929819
 30
0.0
 10
11.700519802
 20
8.5643541028
 30
0.0
 10
11.7049315908
 20
8.5687562546
 30
0.0
 10
11.7095364925
 20
8.5731833772
 30
0.0
 10
11.7159663688
 20
8.5791755239
 30
0.0
 10
11.7243761366
 20
8.5867069392
 30
0.0
 10
11.7348729708
 20
8.5957772321
 30
0.0
 10
11.7457794145
 20
8.6049795529
 30
0.0
 10
11.7570165413
 20
8.6143400605
 30
0.0
 10
11.7685183077
 20
8.6238893145
 30
0.0
 10
11.7802211428
 20
8.63367118
 30
0.0
 10
11.7920639363
 20
8.6437368707
 30
0.0
 10
11.8019451521
 20
8.6523832444
 30
0.0
 10
11.8098434877
 20
8.6595182759
 30
0.0
 10
11.8157748813
 20
8.6650169083
 30
0.0
 10
11.8216745245
 20
8.6706516279
 30
0.0
 10
11.8275241432
 20
8.6764385865
 30
0.0
 10
11.8333010856
 20
8.6823959274
 30
0.0
 10
11.8389816204
 20
8.6885386167
 30
0.0
 10
11.8445407835
 20
8.6948782586
 30
0.0
 10
11.8499507763
 20
8.701423553
 30
0.0
 10
11.8551722389
 20
8.7081878034
 30
0.0
 10
11.8601661339
 20
8.715175477
 30
0.0
 10
11.8649145574
 20
8.7223686604
 30
0.0
 10
11.8678958541
 20
8.7272916979
 30
0.0
 10
11.869334981
 20
8.7297853741
 30
0.0
  0
SPLINE
  5
336
100
AcDbEntity
  8
0
100
AcDbSpline
 62
9
  6
CONTINUOUS
 70
0
 71
3
 72
30
 73
26
 74
0
 42
0.0000001
 43
0.0000001
 44
0.0000000001
 40
0.0
 40
0.0
 40
0.0
 40
0.0
 40
0.0451280744
 40
0.0878507318
 40
0.1281288576
 40
0.1659502327
 40
0.2013286865
 40
0.2343304159
 40
0.265107464
 40
0.2938514947
 40
0.3461278103
 40
0.3703189362
 40
0.3936454207
 40
0.4164716337
 40
0.439155633
 40
0.4620324105
 40
0.4853845116
 40
0.5343117826
 40
0.5872156786
 40
0.6446828767
 40
0.7068745481
 40
0.7737215101
 40
0.8450324162
 40
0.9205483477
 40
1.0
 40
1.0
 40
1.0
 40
1.0
 10
11.6814908598
 20
8.6361646445
 30
0.0
 10
11.6808305972
 20
8.6365459305
 30
0.0
 10
11.6795583834
 20
8.6373112891
 30
0.0
 10
11.6777503228
 20
8.6385029204
 30
0.0
 10
11.6760994488
 20
8.6397050093
 30
0.0
 10
11.6746104466
 20
8.6409143306
 30
0.0
 10
11.6732870764
 20
8.6421278888
 30
0.0
 10
11.6721322263
 20
8.643343443
 30
0.0
 10
11.6711456757
 20
8.6445587122
 30
0.0
 10
11.6700880204
 20
8.6461252341
 30
0.0
 10
11.6693076072
 20
8.6477414088
 30
0.0
 10
11.6688648366
 20
8.6493723048
 30
0.0
 10
11.6687002925
 20
8.650552722
 30
0.0
 10
11.668690509
 20
8.6517189663
 30
0.0
 10
11.6688300517
 20
8.6528690217
 30
0.0
 10
11.6691115816
 20
8.65400161
 30
0.0
 10
11.6696747825
 20
8.6555105465
 30
0.0
 10
11.6707214953
 20
8.6573640641
 30
0.0
 10
11.6724149804
 20
8.6594668864
 30
0.0
 10
11.6745186781
 20
8.6614939954
 30
0.0
 10
11.6769896677
 20
8.6634551631
 30
0.0
 10
11.6797924515
 20
8.6653574735
 30
0.0
 10
11.6828945667
 20
8.6672071118
 30
0.0
 10
11.6862674973
 20
8.6690091366
 30
0.0
 10
11.6886233622
 20
8.6701528837
 30
0.0
 10
11.689839889
 20
8.6707203053
 30
0.0
  0
SPLINE
  5
337
100
AcDbEntity
  8
0
100
AcDbSpline
 62
9
  6
CONTINUOUS
 70
0
 71
3
 72
31
 73
27
 74
0
 42
0.0000001
 43
0.0000001
 44
0.0000000001
 40
0.0
 40
0.0
 40
0.0
 40
0.0
 40
0.0354656895
 40
0.0708728815
 40
0.1061495103
 40
0.1412398532
 40
0.1761121675
 40
0.2107372711
 40
0.2450941686
 40
0.2791635549
 40
0.3129445243
 40
0.3464392084
 40
0.3796477086
 40
0.4125709179
 40
0.4775558065
 40
0.541385317
 40
0.6040313366
 40
0.6654424134
 40
0.7255322921
 40
0.7841836562
 40
0.8412196814
 40
0.8964174625
 40
0.9232384293
 40
0.9494883838
 40
0.9751017279
 40
1.0
 40
1.0
 40
1.0
 40
1.0
 10
10.0060497045
 20
8.7297853741
 30
0.0
 10
10.0074887187
 20
8.7272916666
 30
0.0
 10
10.0104710703
 20
8.7223692546
 30
0.0
 10
10.015219745
 20
8.7151762403
 30
0.0
 10
10.020211987
 20
8.7081873123
 30
0.0
 10
10.0254334484
 20
8.7014229447
 30
0.0
 10
10.0308437885
 20
8.6948777539
 30
0.0
 10
10.036402277
 20
8.6885372555
 30
0.0
 10
10.0420821894
 20
8.6823940107
 30
0.0
 10
10.0478598234
 20
8.6764379535
 30
0.0
 10
10.0537106608
 20
8.6706531991
 30
0.0
 10
10.0596109203
 20
8.665019828
 30
0.0
 10
10.0655421107
 20
8.659521076
 30
0.0
 10
10.0734399225
 20
8.652384798
 30
0.0
 10
10.0833207201
 20
8.6437369123
 30
0.0
 10
10.0951635118
 20
8.633670294
 30
0.0
 10
10.1068665493
 20
8.6238883265
 30
0.0
 10
10.1183683708
 20
8.6143392627
 30
0.0
 10
10.12960547
 20
8.6049790032
 30
0.0
 10
10.140511868
 20
8.595776829
 30
0.0
 10
10.151008853
 20
8.5867064453
 30
0.0
 10
10.15941886
 20
8.5791747548
 30
0.0
 10
10.1658489946
 20
8.5731822435
 30
0.0
 10
10.1704540063
 20
8.5687550926
 30
0.0
 10
10.1748655396
 20
8.5643533509
 30
0.0
 10
10.1777033082
 20
8.5613926607
 30
0.0
 10
10.1790821441
 20
8.5599147307
 30
0.0
  0
SPLINE
  5
338
100
AcDbEntity
  8
0
100
AcDbSpline
 62
9
  6
CONTINUOUS
 70
0
 71
3
 72
41
 73
37
 74
0
 42
0.0000001
 43
0.0000001
 44
0.0000000001
 40
0.0
 40
0.0
 40
0.0
 40
0.0
 40
0.0052136063
 40
0.0108867465
 40
0.0170226687
 40
0.023618446
 40
0.0306659292
 40
0.0381526663
 40
0.0543849284
 40
0.0722031908
 40
0.0914850694
 40
0.1121304422
 40
0.1340467559
 40
0.1813802274
 40
0.2329958317
 40
0.2603089509
 40
0.2885874196
 40
0.3480095038
 40
0.3791675429
 40
0.4113135418
 40
0.4786978097
 40
0.5140498033
 40
0.5505991011
 40
0.588434968
 40
0.6276607677
 40
0.6683950049
 40
0.7107568659
 40
0.7548590729
 40
0.8007789552
 40
0.824424512
 40
0.8485114585
 40
0.8730151831
 40
0.8979019401
 40
0.9231167669
 40
0.948593101
 40
1.0
 40
1.0
 40
1.0
 40
1.0
 10
10.7626922098
 20
9.6497782356
 30
0.0
 10
10.7626924728
 20
9.6501780765
 30
0.0
 10
10.7627359018
 20
9.6510132003
 30
0.0
 10
10.7629062458
 20
9.6523085099
 30
0.0
 10
10.7631794009
 20
9.6536941644
 30
0.0
 10
10.7635514813
 20
9.6551653243
 30
0.0
 10
10.7640185986
 20
9.6567175204
 30
0.0
 10
10.7647840482
 20
9.6589499264
 30
0.0
 10
10.7659671057
 20
9.661909851
 30
0.0
 10
10.7676769649
 20
9.6656268984
 30
0.0
 10
10.7696948867
 20
9.6695703193
 30
0.0
 10
10.7720072024
 20
9.6737124144
 30
0.0
 10
10.7755596318
 20
9.6796220709
 30
0.0
 10
10.7806907024
 20
9.6873480291
 30
0.0
 10
10.78646989
 20
9.6951233412
 30
0.0
 10
10.7916276034
 20
9.7015273961
 30
0.0
 10
10.7973415195
 20
9.7082481926
 30
0.0
 10
10.8035327836
 20
9.7149461499
 30
0.0
 10
10.8102089819
 20
9.7215822218
 30
0.0
 10
10.8175286457
 20
9.7284306396
 30
0.0
 10
10.8254192568
 20
9.7351340932
 30
0.0
 10
10.8339163243
 20
9.741610865
 30
0.0
 10
10.8408005087
 20
9.7464557869
 30
0.0
 10
10.8481221066
 20
9.7511838101
 30
0.0
 10
10.8559209137
 20
9.755749862
 30
0.0
 10
10.8642358302
 20
9.7601014476
 30
0.0
 10
10.8730987441
 20
9.7641877319
 30
0.0
 10
10.8825437643
 20
9.7679268324
 30
0.0
 10
10.8908323023
 20
9.7706470084
 30
0.0
 10
10.8977557618
 20
9.7725619698
 30
0.0
 10
10.9031417821
 20
9.7738632853
 30
0.0
 10
10.908662458
 20
9.7749989887
 30
0.0
 10
10.9143058463
 20
9.7759493261
 30
0.0
 10
10.920054041
 20
9.7767045893
 30
0.0
 10
10.9278504693
 20
9.7774417375
 30
0.0
 10
10.9337498537
 20
9.777669288
 30
0.0
 10
10.9376923427
 20
9.7776695021
 30
0.0
  0
SPLINE
  5
339
100
AcDbEntity
  8
0
100
AcDbSpline
 62
9
  6
CONTINUOUS
 70
0
 71
3
 72
31
 73
27
 74
0
 42
0.0000001
 43
0.0000001
 44
0.0000000001
 40
0.0
 40
0.0
 40
0.0
 40
0.0
 40
0.0354657407
 40
0.0708729197
 40
0.1061494737
 40
0.1412396715
 40
0.1761119161
 40
0.2107372041
 40
0.2450943977
 40
0.2791640194
 40
0.3129450593
 40
0.3464396204
 40
0.3796478653
 40
0.4125708721
 40
0.4775559664
 40
0.5413857567
 40
0.6040315616
 40
0.6654424188
 40
0.725532264
 40
0.7841836707
 40
0.8412196677
 40
0.8964173034
 40
0.9232382229
 40
0.9494881932
 40
0.9751016039
 40
1.0
 40
1.0
 40
1.0
 40
1.0
 10
10.9376923427
 20
10.3434377581
 30
0.0
 10
10.9348132172
 20
10.343438355
 30
0.0
 10
10.9290591035
 20
10.3433169617
 30
0.0
 10
10.9204554232
 20
10.3428010971
 30
0.0
 10
10.9119067587
 20
10.3419718569
 30
0.0
 10
10.9034379635
 20
10.3408319413
 30
0.0
 10
10.895064506
 20
10.3394189847
 30
0.0
 10
10.8867941676
 20
10.3377755864
 30
0.0
 10
10.8786338951
 20
10.3359284816
 30
0.0
 10
10.8705868989
 20
10.3339030535
 30
0.0
 10
10.8626517146
 20
10.3317284743
 30
0.0
 10
10.8548229869
 20
10.3294353196
 30
0.0
 10
10.8470954119
 20
10.3270480361
 30
0.0
 10
10.8369663688
 20
10.3237763475
 30
0.0
 10
10.8245366314
 20
10.3195433468
 30
0.0
 10
10.8098972146
 20
10.314320634
 30
0.0
 10
10.7955743155
 20
10.3090763817
 30
0.0
 10
10.7815537336
 20
10.3038899878
 30
0.0
 10
10.7678289737
 20
10.2988385179
 30
0.0
 10
10.7544064572
 20
10.2939943927
 30
0.0
 10
10.7413027939
 20
10.2894389253
 30
0.0
 10
10.7305751744
 20
10.2859214877
 30
0.0
 10
10.7221704543
 20
10.2833490845
 30
0.0
 10
10.7160339202
 20
10.2815746021
 30
0.0
 10
10.7100161159
 20
10.2799549725
 30
0.0
 10
10.7060331831
 20
10.2789777358
 30
0.0
 10
10.7040638304
 20
10.2785225915
 30
0.0
  0
SPLINE
  5
33A
100
AcDbEntity
  8
0
100
AcDbSpline
 62
9
  6
CONTINUOUS
 70
0
 71
3
 72
31
 73
27
 74
0
 42
0.0000001
 43
0.0000001
 44
0.0000000001
 40
0.0
 40
0.0
 40
0.0
 40
0.0
 40
0.0249060734
 40
0.050518077
 40
0.0767641654
 40
0.1035836252
 40
0.1587815971
 40
0.2158179596
 40
0.2744690102
 40
0.3345599462
 40
0.3959710316
 40
0.4586155049
 40
0.5224422603
 40
0.5874239717
 40
0.6203458909
 40
0.6535545141
 40
0.6870518969
 40
0.7208371017
 40
0.7549092738
 40
0.789265334
 40
0.8238884672
 40
0.8587604074
 40
0.8938510848
 40
0.9291271408
 40
0.9645339386
 40
1.0
 40
1.0
 40
1.0
 40
1.0
 10
11.1713208551
 20
10.2785225915
 30
0.0
 10
11.1693508975
 20
10.2789778877
 30
0.0
 10
11.1653674605
 20
10.2799552074
 30
0.0
 10
11.1593494586
 20
10.2815748532
 30
0.0
 10
11.1532134372
 20
10.2833491411
 30
0.0
 10
11.1448091229
 20
10.2859214865
 30
0.0
 10
11.1340815192
 20
10.2894387778
 30
0.0
 10
11.1209778276
 20
10.293994259
 30
0.0
 10
11.1075551915
 20
10.2988383207
 30
0.0
 10
11.0938302701
 20
10.3038895855
 30
0.0
 10
11.079809701
 20
10.3090760184
 30
0.0
 10
11.0654871799
 20
10.3143203313
 30
0.0
 10
11.0508486368
 20
10.3195436206
 30
0.0
 10
11.0384198879
 20
10.3237776301
 30
0.0
 10
11.0282915183
 20
10.3270503329
 30
0.0
 10
11.0205637859
 20
10.3294377143
 30
0.0
 10
11.0127339928
 20
10.3317293972
 30
0.0
 10
11.004797322
 20
10.3339014853
 30
0.0
 10
10.9967495677
 20
10.3359256815
 30
0.0
 10
10.9885896837
 20
10.3377741633
 30
0.0
 10
10.9803199184
 20
10.3394190283
 30
0.0
 10
10.971946516
 20
10.3408314488
 30
0.0
 10
10.9634777432
 20
10.3419711534
 30
0.0
 10
10.9549293056
 20
10.3428023705
 30
0.0
 10
10.9463256138
 20
10.343318
 30
0.0
 10
10.9405714948
 20
10.3434382577
 30
0.0
 10
10.9376923427
 20
10.3434377581
 30
0.0
  0
SPLINE
  5
33B
100
AcDbEntity
  8
0
100
AcDbSpline
 62
9
  6
CONTINUOUS
 70
0
 71
3
 72
32
 73
28
 74
0
 42
0.0000001
 43
0.0000001
 44
0.0000000001
 40
0.0
 40
0.0
 40
0.0
 40
0.0
 40
0.0249038103
 40
0.0505183497
 40
0.0767672483
 40
0.1035866653
 40
0.1587814882
 40
0.2158174147
 40
0.2744694474
 40
0.3345600142
 40
0.3959716681
 40
0.4586173129
 40
0.5224439781
 40
0.5874254299
 40
0.62034787
 40
0.6535567388
 40
0.6870533031
 40
0.7208369079
 40
0.7549077065
 40
0.7892635961
 40
0.8238870704
 40
0.8412943736
 40
0.858760119
 40
0.8938507554
 40
0.9291272532
 40
0.96453431
 40
1.0
 40
1.0
 40
1.0
 40
1.0
 10
9.9454536317
 20
8.9645711843
 30
0.0
 10
9.9460442616
 20
8.9626376774
 30
0.0
 10
9.9471896119
 20
8.9586992377
 30
0.0
 10
9.9487960924
 20
8.9526774429
 30
0.0
 10
9.9503276415
 20
8.9464759274
 30
0.0
 10
9.9523020542
 20
8.9379114215
 30
0.0
 10
9.9546195709
 20
8.9268626423
 30
0.0
 10
9.9572262664
 20
8.9132369771
 30
0.0
 10
9.9597424793
 20
8.8991905691
 30
0.0
 10
9.9622303335
 20
8.8847786809
 30
0.0
 10
9.9647493819
 20
8.8700432273
 30
0.0
 10
9.9673693988
 20
8.8550173348
 30
0.0
 10
9.9701650457
 20
8.8397282369
 30
0.0
 10
9.9727126484
 20
8.8268475862
 30
0.0
 10
9.9749431636
 20
8.8164398795
 30
0.0
 10
9.9767396858
 20
8.8085538182
 30
0.0
 10
9.9786694596
 20
8.8006272405
 30
0.0
 10
9.9807556394
 20
8.7926678709
 30
0.0
 10
9.9830257803
 20
8.7846862473
 30
0.0
 10
9.9855050321
 20
8.7766955064
 30
0.0
 10
9.9877598217
 20
8.770053904
 30
0.0
 10
9.9896898627
 20
8.7647523267
 30
0.0
 10
9.9917159563
 20
8.7594461031
 30
0.0
 10
9.9944265676
 20
8.7528493528
 30
0.0
 10
9.9979828097
 20
8.745031405
 30
0.0
 10
10.001837719
 20
8.7373223794
 30
0.0
 10
10.0046095759
 20
8.7322784422
 30
0.0
 10
10.0060497045
 20
8.7297853741
 30
0.0
  0
SPLINE
  5
33C
100
AcDbEntity
  8
0
100
AcDbSpline
 62
9
  6
CONTINUOUS
 70
0
 71
3
 72
30
 73
26
 74
0
 42
0.0000001
 43
0.0000001
 44
0.0000000001
 40
0.0
 40
0.0
 40
0.0
 40
0.0
 40
0.045130936
 40
0.0878565864
 40
0.1281346824
 40
0.1659532067
 40
0.201328154
 40
0.2343274077
 40
0.2651044479
 40
0.2938520274
 40
0.3461349854
 40
0.3703232927
 40
0.3936454764
 40
0.4164692714
 40
0.439153416
 40
0.4620312554
 40
0.4853842402
 40
0.5343120646
 40
0.5872159862
 40
0.6446832547
 40
0.7068750394
 40
0.7737215855
 40
0.8450321399
 40
0.9205481468
 40
1.0
 40
1.0
 40
1.0
 40
1.0
 10
10.0188939099
 20
8.939273564
 30
0.0
 10
10.0195542863
 20
8.9396547463
 30
0.0
 10
10.0208532997
 20
8.9403738778
 30
0.0
 10
10.0227893951
 20
8.9413439335
 30
0.0
 10
10.0246558707
 20
8.9421725845
 30
0.0
 10
10.0264475825
 20
8.9428573662
 30
0.0
 10
10.028160108
 20
8.9433965687
 30
0.0
 10
10.029790142
 20
8.9437888521
 30
0.0
 10
10.0313358892
 20
8.9440355764
 30
0.0
 10
10.0332215158
 20
8.9441683618
 30
0.0
 10
10.0350115333
 20
8.9440364175
 30
0.0
 10
10.0366452751
 20
8.9436042509
 30
0.0
 10
10.0377495606
 20
8.9431563366
 30
0.0
 10
10.0387642352
 20
8.9425815564
 30
0.0
 10
10.0396904281
 20
8.9418857171
 30
0.0
 10
10.0405306385
 20
8.9410756965
 30
0.0
 10
10.0415560092
 20
8.9398335888
 30
0.0
 10
10.0426379353
 20
8.9380003606
 30
0.0
 10
10.0436121976
 20
8.9354823006
 30
0.0
 10
10.0443156889
 20
8.9326468491
 30
0.0
 10
10.0447786053
 20
8.929526342
 30
0.0
 10
10.0450248193
 20
8.9261479352
 30
0.0
 10
10.0450756727
 20
8.9225366236
 30
0.0
 10
10.0449497615
 20
8.9187145776
 30
0.0
 10
10.0447622882
 20
8.9161024702
 30
0.0
 10
10.0446454004
 20
8.9147652181
 30
0.0
  0
SPLINE
  5
33D
100
AcDbEntity
  8
0
100
AcDbSpline
 62
9
  6
CONTINUOUS
 70
0
 71
3
 72
30
 73
26
 74
0
 42
0.0000001
 43
0.0000001
 44
0.0000000001
 40
0.0
 40
0.0
 40
0.0
 40
0.0
 40
0.0451295651
 40
0.0878551437
 40
0.128135274
 40
0.1659570231
 40
0.2013343486
 40
0.2343341324
 40
0.2651091458
 40
0.2938516102
 40
0.3461284096
 40
0.3703219646
 40
0.3936507416
 40
0.4164776345
 40
0.4391607674
 40
0.4620363241
 40
0.4853875492
 40
0.5343142784
 40
0.5872180066
 40
0.6446847523
 40
0.7068758967
 40
0.7737232805
 40
0.8450343187
 40
0.9205494225
 40
1.0
 40
1.0
 40
1.0
 40
1.0
 10
11.1126923334
 20
10.2275707677
 30
0.0
 10
11.1126922615
 20
10.22680829
 30
0.0
 10
11.1126655479
 20
10.2253237564
 30
0.0
 10
11.112537601
 20
10.2231619904
 30
0.0
 10
11.112322001
 20
10.2211311426
 30
0.0
 10
11.1120192053
 20
10.2192369321
 30
0.0
 10
11.1116299171
 20
10.2174841145
 30
0.0
 10
11.1111546399
 20
10.2158762858
 30
0.0
 10
11.1105954608
 20
10.2144143626
 30
0.0
 10
11.1097676203
 20
10.2127151971
 30
0.0
 10
11.1087581486
 20
10.2112312457
 30
0.0
 10
11.1075671842
 20
10.210032166
 30
0.0
 10
11.1066272047
 20
10.2092992695
 30
0.0
 10
11.105622097
 20
10.2087075805
 30
0.0
 10
11.104556329
 20
10.2082534726
 30
0.0
 10
11.1034347141
 20
10.2079311399
 30
0.0
 10
11.1018463448
 20
10.2076645874
 30
0.0
 10
11.0997178242
 20
10.2076443141
 30
0.0
 10
11.0970499563
 20
10.2080592712
 30
0.0
 10
11.0942424855
 20
10.2088672716
 30
0.0
 10
11.0913085668
 20
10.2100266889
 30
0.0
 10
11.0882598572
 20
10.2115031427
 30
0.0
 10
11.0851070332
 20
10.2132649849
 30
0.0
 10
11.0818599228
 20
10.2152849316
 30
0.0
 10
11.0796914252
 20
10.2167531968
 30
0.0
 10
11.0785917388
 20
10.217522983
 30
0.0
  0
SPLINE
  5
33E
100
AcDbEntity
  8
0
100
AcDbSpline
 62
9
  6
CONTINUOUS
 70
0
 71
3
 72
43
 73
39
 74
0
 42
0.0000001
 43
0.0000001
 44
0.0000000001
 40
0.0
 40
0.0
 40
0.0
 40
0.0
 40
0.0052118789
 40
0.0108833465
 40
0.017018953
 40
0.0236140711
 40
0.0306588835
 40
0.0381426892
 40
0.0543714261
 40
0.0721821483
 40
0.0914650026
 40
0.1121103714
 40
0.134024704
 40
0.1571320863
 40
0.1813593778
 40
0.2329713941
 40
0.288555929
 40
0.3177939422
 40
0.3479863884
 40
0.3791454141
 40
0.411291019
 40
0.478675086
 40
0.5140275423
 40
0.550577675
 40
0.5884141888
 40
0.6276418231
 40
0.6683759044
 40
0.7107385012
 40
0.7548427795
 40
0.777576288
 40
0.8007697345
 40
0.8244161669
 40
0.8485042725
 40
0.8730087731
 40
0.8978967937
 40
0.9231125401
 40
0.9485902694
 40
1.0
 40
1.0
 40
1.0
 40
1.0
 10
11.3561019198
 20
9.2281732109
 30
0.0
 10
11.3564480674
 20
9.2279733048
 30
0.0
 10
11.3571497239
 20
9.2275187601
 30
0.0
 10
11.3581866342
 20
9.226724346
 30
0.0
 10
11.3592501357
 20
9.2257952424
 30
0.0
 10
11.3603382257
 20
9.2247378187
 30
0.0
 10
11.3614491547
 20
9.2235579842
 30
0.0
 10
11.3629998418
 20
9.2217797403
 30
0.0
 10
11.3649705525
 20
9.2192755202
 30
0.0
 10
11.3673352306
 20
9.2159373624
 30
0.0
 10
11.3697412807
 20
9.2122183774
 30
0.0
 10
11.3721733604
 20
9.2081453401
 30
0.0
 10
11.374615614
 20
9.2037398721
 30
0.0
 10
11.3770521716
 20
9.1990198695
 30
0.0
 10
11.3803451297
 20
9.1921819055
 30
0.0
 10
11.3843434847
 20
9.1829238218
 30
0.0
 10
11.3879878342
 20
9.1731095776
 30
0.0
 10
11.3907253581
 20
9.1647230439
 30
0.0
 10
11.3926977035
 20
9.1580601223
 30
0.0
 10
11.3945324719
 20
9.1511268893
 30
0.0
 10
11.3968043957
 20
9.1413634592
 30
0.0
 10
11.3986609616
 20
9.1311771758
 30
0.0
 10
11.400024519
 20
9.1205800357
 30
0.0
 10
11.4007811259
 20
9.1121953996
 30
0.0
 10
11.401212981
 20
9.1034899175
 30
0.0
 10
11.4012659637
 20
9.0944524289
 30
0.0
 10
11.4008802694
 20
9.0850749669
 30
0.0
 10
11.3999879278
 20
9.0753557878
 30
0.0
 10
11.3987628311
 20
9.0670656045
 30
0.0
 10
11.3974516949
 20
9.0602853647
 30
0.0
 10
11.3962768496
 20
9.0550794321
 30
0.0
 10
11.3949108319
 20
9.0498129471
 30
0.0
 10
11.3933450745
 20
9.0444973492
 30
0.0
 10
11.3915682127
 20
9.0391479481
 30
0.0
 10
11.38956965
 20
9.0337849251
 30
0.0
 10
11.3873499337
 20
9.0284285132
 30
0.0
 10
11.3840895233
 20
9.0213074904
 30
0.0
 10
11.3813365189
 20
9.0160842573
 30
0.0
 10
11.3793652987
 20
9.0126695021
 30
0.0
  0
ENDSEC
  0
SECTION
  2
OBJECTS
  0
DICTIONARY
  5
C
100
AcDbDictionary
280
0
281
1
  3
ACAD_GROUP
350
D
  3
ACAD_MLINESTYLE
350
17
  3
ACAD_LAYOUT
350
1A
  3
ACAD_PLOTSETTINGS
350
19
  3
ACAD_PLOTSTYLENAME
350
E
  0
DICTIONARY
  5
D
102
{ACAD_REACTORS
330
C
102
}
100
AcDbDictionary
280
0
281
1
  0
ACDBDICTIONARYWDFLT
  5
E
102
{ACAD_REACTORS
330
C
102
}
100
AcDbDictionary
281
1
  3
Normal
350
F
100
AcDbDictionaryWithDefault
340
F
  0
DICTIONARY
  5
17
102
{ACAD_REACTORS
330
C
102
}
100
AcDbDictionary
280
0
281
1
  3
Standard
350
18
  0
DICTIONARY
  5
19
102
{ACAD_REACTORS
330
C
102
}
100
AcDbDictionary
281
1
  0
DICTIONARY
  5
1A
102
{ACAD_REACTORS
330
C
102
}
100
AcDbDictionary
281
1
  3
Model
350
33F
  3
Layout1
350
340
  0
ACDBPLACEHOLDER
  5
F
102
{ACAD_REACTORS
330
E
102
}
  0
MLINESTYLE
  5
18
102
{ACAD_REACTORS
330
17
102
}
100
AcDbMlineStyle
  2
STANDARD
 70
0
  3

 62
256
 51
90.0
 52
90.0
 71
2
 49
0.5
 62
256
  6
BYLAYER
 49
-0.5
 62
256
  6
BYLAYER
  0
LAYOUT
  5
33F
102
{ACAD_REACTORS
330
1A
102
}
100
AcDbPlotSettings
  1

  2
none_device
  4
ANSI_C_(22.00_x_17.00_Inches)
  6

 40
0.0
 41
0.0
 42
0.0
 43
0.0
 44
558.8
 45
431.8
 46
0.0
 47
0.0
 48
0.0
 49
0.0
140
0.0
141
0.0
142
1.0
143
1.0
 70
1024
 72
0
 73
0
 74
0
  7

 75
0
147
1.0
148
0.0
149
0.0
100
AcDbLayout
  1
Model
 70
0
 71
0
 10
0.0
 20
0.0
 11
22.0
 21
17.0
 12
0.0
 22
0.0
 32
0.0
 14
0.0
 24
0.0
 34
0.0
 15
0.0
 25
0.0
 35
0.0
146
0.0
 13
0.0
 23
0.0
 33
0.0
 16
1.0
 26
0.0
 36
0.0
 17
0.0
 27
1.0
 37
0.0
 76
0
330
205
345
0
346
0
  0
LAYOUT
  5
340
102
{ACAD_REACTORS
330
1A
102
}
100
AcDbPlotSettings
  1

  2
none_device
  4
ANSI_C_(22.00_x_17.00_Inches)
  6

 40
0.0
 41
0.0
 42
0.0
 43
0.0
 44
558.8
 45
431.8
 46
0.0
 47
0.0
 48
0.0
 49
0.0
140
0.0
141
0.0
142
1.0
143
1.0
 70
0
 72
0
 73
0
 74
0
  7

 75
0
147
1.0
148
0.0
149
0.0
100
AcDbLayout
  1
Layout1
 70
0
 71
1
 10
0.0
 20
0.0
 11
22.0
 21
17.0
 12
0.0
 22
0.0
 32
0.0
 14
0.0
 24
0.0
 34
0.0
 15
0.0
 25
0.0
 35
0.0
146
0.0
 13
0.0
 23
0.0
 33
0.0
 16
1.0
 26
0.0
 36
0.0
 17
0.0
 27
1.0
 37
0.0
 76
0
330
206
345
0
346
0
  0
ENDSEC
  0
EOF
