999
DXF file: 5-3232bp_right.dxf
999
Pro/ENGINEER 2023134 by Parametric Technology Corporation
  0
SECTION
  2
HEADER
  9
$ACADVER
  1
AC1032
  9
$DWGCODEPAGE
  3
ANSI_1252
  9
$EXTMAX
 10
11.0
 20
8.5
 30
0.0
  9
$EXTMIN
 10
0.0
 20
0.0
 30
0.0
  9
$LIMMIN
 10
0.0
 20
0.0
  9
$LIMMAX
 10
11.0
 20
8.5
  9
$VIEWCTR
 10
5.5
 20
4.25
  9
$VIEWSIZE
 40
8.5
  9
$CLAYER
  8
0
  9
$LTSCALE
 40
0.605
  9
$CELTYPE
  6
BYLAYER
  9
$DIMSCALE
 40
1.0
  9
$DIMASZ
 40
0.1
  9
$DIMEXO
 40
0.0625
  9
$DIMDLI
 40
0.418
  9
$DIMEXE
 40
0.125
  9
$DIMCEN
 40
0.099
  9
$DIMLFAC
 40
1.0
  9
$DIMBLK
  1
_FILLED
  9
$DIMALT
 70
1
  9
$DIMALTD
 70
2
  9
$DIMALTTD
 70
2
  9
$DIMALTF
 40
25.4
  9
$DIMTXT
 40
0.08
  9
$DIMTOL
 70
1
  9
$DIMLIM
 70
0
  9
$DIMTFAC
 40
1.0
  9
$DIMTP
 40
0.001
  9
$DIMTM
 40
0.001
  9
$DIMGAP
 40
0.09
  9
$DIMDSEP
 70
46
  9
$AUNITS
 70
0
  9
$PDMODE
 70
3
  9
$PDSIZE
 40
0.3125
  9
$HANDSEED
  5
384
  9
$TILEMODE
 70
1
  9
$MEASUREMENT
 70
0
  9
$INSUNITS
 70
1
  0
ENDSEC
  0
SECTION
  2
CLASSES
  0
CLASS
  1
ACDBDICTIONARYWDFLT
  2
AcDbDictionaryWithDefault
  3
AutoCAD 2000
 90
0
 91
1
280
0
281
0
  0
CLASS
  1
ACDBPLACEHOLDER
  2
AcDbPlaceHolder
  3
AutoCAD 2000
 90
0
 91
1
280
0
281
0
  0
CLASS
  1
LAYOUT
  2
AcDbLayout
  3
AutoCAD 2000
 90
0
 91
0
280
0
281
0
  0
ENDSEC
  0
SECTION
  2
TABLES
  0
TABLE
  2
VPORT
  5
8
100
AcDbSymbolTable
 70
2
  0
VPORT
  5
1F4
100
AcDbSymbolTableRecord
100
AcDbViewportTableRecord
  2
*ACTIVE
 70
0
 10
0.0
 20
0.0
 11
1.0
 21
1.0
 12
5.5
 22
4.25
 13
0.0
 23
0.0
 14
1.0
 24
1.0
 15
0.0
 25
0.0
 16
0.0
 26
0.0
 36
1.0
 17
0.0
 27
0.0
 37
0.0
 40
8.5
 41
1.2941176471
 42
50.0
 43
0.0
 44
0.0
 50
0.0
 51
0.0
 71
0
 72
100
 73
1
 74
1
 75
0
 76
0
 77
0
 78
0
  0
ENDTAB
  0
TABLE
  2
LTYPE
  5
5
100
AcDbSymbolTable
 70
6
  0
LTYPE
  5
14
100
AcDbSymbolTableRecord
100
AcDbLinetypeTableRecord
  2
BYBLOCK
 70
0
  3

 72
65
 73
0
 40
0.0
  0
LTYPE
  5
15
100
AcDbSymbolTableRecord
100
AcDbLinetypeTableRecord
  2
BYLAYER
 70
0
  3

 72
65
 73
0
 40
0.0
  0
LTYPE
  5
16
100
AcDbSymbolTableRecord
100
AcDbLinetypeTableRecord
  2
CONTINUOUS
 70
64
  3
Solid line
 72
65
 73
0
 40
0.0
  0
LTYPE
  5
1F5
100
AcDbSymbolTableRecord
100
AcDbLinetypeTableRecord
  2
CENTER
 70
64
  3
____ _ ____ _ ____ _ ____ _ ____ _ ____ _ ____
 72
65
 73
4
 40
0.6
 49
0.375
 74
0
 49
-0.075
 74
0
 49
0.075
 74
0
 49
-0.075
 74
0
  0
LTYPE
  5
1F6
100
AcDbSymbolTableRecord
100
AcDbLinetypeTableRecord
  2
HIDDEN
 70
64
  3
- - - - - - - - - - - - - - - - - - - -
 72
65
 73
2
 40
0.2
 49
0.1
 74
0
 49
-0.1
 74
0
  0
LTYPE
  5
1F7
100
AcDbSymbolTableRecord
100
AcDbLinetypeTableRecord
  2
PHANTOM
 70
64
  3
_____ _ _ _____ _ _ _____ _ _ _____
 72
65
 73
6
 40
0.8
 49
0.45
 74
0
 49
-0.05
 74
0
 49
0.1
 74
0
 49
-0.05
 74
0
 49
0.1
 74
0
 49
-0.05
 74
0
  0
LTYPE
  5
1F8
100
AcDbSymbolTableRecord
100
AcDbLinetypeTableRecord
  2
DOT
 70
64
  3
. . . . . . . . . . . . . . . . . . . .
 72
65
 73
2
 40
0.2
 49
0.1
 74
0
 49
-0.1
 74
0
  0
LTYPE
  5
1F9
100
AcDbSymbolTableRecord
100
AcDbLinetypeTableRecord
  2
DASHED
 70
64
  3
- - - - - - - - - - - - - - - - - - - -
 72
65
 73
2
 40
0.2
 49
0.1
 74
0
 49
-0.1
 74
0
  0
ENDTAB
  0
TABLE
  2
LAYER
  5
2
100
AcDbSymbolTable
 70
36
  0
LAYER
  5
10
100
AcDbSymbolTableRecord
100
AcDbLayerTableRecord
  2
0
 70
0
 62
7
  6
CONTINUOUS
370
-3
390
F
  0
LAYER
  5
1FA
100
AcDbSymbolTableRecord
100
AcDbLayerTableRecord
  2
DEFAULT_1
 70
0
 62
7
  6
CENTER
370
-3
390
F
  0
LAYER
  5
1FB
100
AcDbSymbolTableRecord
100
AcDbLayerTableRecord
  2
DEFAULT_2
 70
0
 62
8
  6
HIDDEN
370
-3
390
F
  0
LAYER
  5
1FC
100
AcDbSymbolTableRecord
100
AcDbLayerTableRecord
  2
DEFAULT_3
 70
0
 62
7
  6
PHANTOM
370
-3
390
F
  0
LAYER
  5
1FD
100
AcDbSymbolTableRecord
100
AcDbLayerTableRecord
  2
DEFAULT_COORDINATE_SYSTEM
 70
0
 62
7
  6
CONTINUOUS
370
-3
390
F
  0
LAYER
  5
1FE
100
AcDbSymbolTableRecord
100
AcDbLayerTableRecord
  2
DEFAULT_DATUM_AXES
 70
0
 62
7
  6
CONTINUOUS
370
-3
390
F
  0
LAYER
  5
1FF
100
AcDbSymbolTableRecord
100
AcDbLayerTableRecord
  2
DEFAULT_DATUM_CURVES
 70
0
 62
7
  6
CONTINUOUS
370
-3
390
F
  0
LAYER
  5
200
100
AcDbSymbolTableRecord
100
AcDbLayerTableRecord
  2
DEFAULT_DATUM_PLANES
 70
0
 62
7
  6
CONTINUOUS
370
-3
390
F
  0
ENDTAB
  0
TABLE
  2
STYLE
  5
3
100
AcDbSymbolTable
 70
1
  0
STYLE
  5
11
100
AcDbSymbolTableRecord
100
AcDbTextStyleTableRecord
  2
STANDARD
 70
0
 40
0.0
 41
0.8
 50
0.0
 71
0
 42
0.2
  3
txt
  4

  0
STYLE
  5
201
100
AcDbSymbolTableRecord
100
AcDbTextStyleTableRecord
  2
TEXTSTYLE_1
 70
0
 40
0.0
 41
0.8
 50
0.0
 71
0
 42
0.2
  3
gdt
  4

  0
ENDTAB
  0
TABLE
  2
VIEW
  5
6
100
AcDbSymbolTable
 70
0
  0
ENDTAB
  0
TABLE
  2
UCS
  5
7
100
AcDbSymbolTable
 70
0
  0
ENDTAB
  0
TABLE
  2
APPID
  5
9
100
AcDbSymbolTable
 70
1
  0
APPID
  5
202
100
AcDbSymbolTableRecord
100
AcDbRegAppTableRecord
  2
ACAD
 70
0
  0
ENDTAB
  0
TABLE
  2
BLOCK_RECORD
  5
1
100
AcDbSymbolTable
 70
0
  0
BLOCK_RECORD
  5
203
100
AcDbSymbolTableRecord
100
AcDbBlockTableRecord
  2
*Model_Space
  0
BLOCK_RECORD
  5
204
100
AcDbSymbolTableRecord
100
AcDbBlockTableRecord
  2
*Paper_Space
  0
BLOCK_RECORD
  5
205
100
AcDbSymbolTableRecord
100
AcDbBlockTableRecord
  2
_FILLED
  0
ENDTAB
  0
TABLE
  2
DIMSTYLE
  5
A
100
AcDbSymbolTable
 70
1
100
AcDbDimStyleTable
 71
0
  0
DIMSTYLE
105
206
100
AcDbSymbolTableRecord
100
AcDbDimStyleTableRecord
  2
STANDARD
 70
0
  3

  4

 40
1.0
 41
0.1
 42
0.0625
 43
0.38
 44
0.125
 45
0.0
 46
0.0
 47
0.001
 48
0.001
140
0.08
141
0.09
142
0.0
143
25.4
144
1.0
145
0.0
146
1.0
147
0.09
 71
1
 72
0
 73
1
 74
1
 75
0
 76
0
 77
0
 78
4
 79
1
170
1
171
2
172
0
173
0
174
0
175
0
176
0
177
0
178
0
270
2
179
3
271
3
272
3
273
2
274
2
275
0
280
0
281
0
282
0
283
1
284
4
285
0
286
0
287
3
288
0
340
11
278
46
341
205
342
205
343
205
344
205
  0
ENDTAB
  0
ENDSEC
  0
SECTION
  2
BLOCKS
  0
BLOCK
  5
20
100
AcDbEntity
  8
0
100
AcDbBlockBegin
  2
*Model_Space
 70
0
 10
0.0
 20
0.0
 30
0.0
  3
*Model_Space
  1

  0
ENDBLK
  5
21
100
AcDbEntity
  8
0
100
AcDbBlockEnd
  0
BLOCK
  5
1C
100
AcDbEntity
  8
0
100
AcDbBlockBegin
  2
*Paper_Space
 70
0
 10
0.0
 20
0.0
 30
0.0
  3
*Paper_Space
  1

  0
ENDBLK
  5
1D
100
AcDbEntity
  8
0
100
AcDbBlockEnd
  0
BLOCK
  5
207
100
AcDbEntity
  8
0
100
AcDbBlockBegin
  2
_FILLED
 70
64
 10
0.0
 20
0.0
  3
_FILLED
  1

  0
SOLID
  5
208
100
AcDbEntity
  8
0
  6
BYBLOCK
 62
0
100
AcDbTrace
 10
0.0
 20
0.0
 11
-1.0
 21
0.2
 12
-1.0
 22
-0.2
 13
-1.0
 23
-0.2
  0
ENDBLK
  5
209
100
AcDbEntity
  8
0
  6
BYBLOCK
 62
0
100
AcDbBlockEnd
  0
ENDSEC
  0
SECTION
  2
ENTITIES
  0
MTEXT
  5
20A
100
AcDbEntity
  8
0
100
AcDbMText
 62
2
  6
CONTINUOUS
  7
STANDARD
 71
3
 72
1
 10
5.520335265
 20
0.5460017123
 30
0.0
 11
1.0
 21
0.0
 31
0.0
 73
2
 44
0.9
  1
SCALE 1.000
 40
0.08
 41
0.704
  0
LINE
  5
20B
100
AcDbEntity
  8
0
100
AcDbLine
 62
7
  6
CONTINUOUS
 10
0.0
 20
0.0
 11
0.0
 21
8.5
  0
LINE
  5
20C
100
AcDbEntity
  8
0
100
AcDbLine
 62
7
  6
CONTINUOUS
 10
0.0
 20
0.0
 11
11.0
 21
0.0
  0
LINE
  5
20D
100
AcDbEntity
  8
0
100
AcDbLine
 62
7
  6
CONTINUOUS
 10
0.0
 20
8.5
 11
11.0
 21
8.5
  0
LINE
  5
20E
100
AcDbEntity
  8
0
100
AcDbLine
 62
7
  6
CONTINUOUS
 10
11.0
 20
0.0
 11
11.0
 21
8.5
  0
LINE
  5
20F
100
AcDbEntity
  8
0
100
AcDbLine
 62
7
  6
CONTINUOUS
 10
7.1733715753
 20
1.2600599315
 11
7.033908315
 21
1.2600599315
  0
LINE
  5
210
100
AcDbEntity
  8
0
100
AcDbLine
 62
7
  6
CONTINUOUS
 10
3.7343715753
 20
1.7100599315
 11
4.3443715753
 21
1.7100599315
  0
LINE
  5
211
100
AcDbEntity
  8
0
100
AcDbLine
 62
7
  6
CONTINUOUS
 10
4.3643715753
 20
1.7300599315
 11
3.7143715753
 21
1.7300599315
  0
LINE
  5
212
100
AcDbEntity
  8
0
100
AcDbLine
 62
7
  6
CONTINUOUS
 10
5.8653715753
 20
1.8900599315
 11
5.7753715753
 21
1.8900599315
  0
LINE
  5
213
100
AcDbEntity
  8
0
100
AcDbLine
 62
7
  6
CONTINUOUS
 10
5.7683766058
 20
1.8908594282
 11
5.6323766058
 21
1.9223594282
  0
LINE
  5
214
100
AcDbEntity
  8
0
100
AcDbLine
 62
7
  6
CONTINUOUS
 10
6.7653715753
 20
2.1040599315
 11
6.6923715753
 21
2.1040599315
  0
LINE
  5
215
100
AcDbEntity
  8
0
100
AcDbLine
 62
7
  6
CONTINUOUS
 10
7.1733715753
 20
2.1525599315
 11
7.1903715753
 21
2.1525599315
  0
LINE
  5
216
100
AcDbEntity
  8
0
100
AcDbLine
 62
7
  6
CONTINUOUS
 10
6.1013715753
 20
2.1630599315
 11
6.6803715753
 21
2.1630599315
  0
LINE
  5
217
100
AcDbEntity
  8
0
100
AcDbLine
 62
7
  6
CONTINUOUS
 10
6.1013715753
 20
2.5170599315
 11
6.6803715753
 21
2.5170599315
  0
LINE
  5
218
100
AcDbEntity
  8
0
100
AcDbLine
 62
7
  6
CONTINUOUS
 10
7.1733715753
 20
2.5275599315
 11
7.1903715753
 21
2.5275599315
  0
LINE
  5
219
100
AcDbEntity
  8
0
100
AcDbLine
 62
7
  6
CONTINUOUS
 10
3.6593715753
 20
4.0400599315
 11
3.6593715753
 21
4.9800599315
  0
LINE
  5
21A
100
AcDbEntity
  8
0
100
AcDbLine
 62
7
  6
CONTINUOUS
 10
3.6893715753
 20
4.0138483043
 11
3.6893715753
 21
4.0173819339
  0
LINE
  5
21B
100
AcDbEntity
  8
0
100
AcDbLine
 62
7
  6
CONTINUOUS
 10
3.6893715753
 20
4.0102162059
 11
3.6893715753
 21
4.0113978758
  0
LINE
  5
21C
100
AcDbEntity
  8
0
100
AcDbLine
 62
7
  6
CONTINUOUS
 10
3.6893715753
 20
4.022259192
 11
3.6893715753
 21
4.0281107505
  0
LINE
  5
21D
100
AcDbEntity
  8
0
100
AcDbLine
 62
7
  6
CONTINUOUS
 10
3.6893715753
 20
4.0353678674
 11
3.6893715753
 21
4.0434810011
  0
LINE
  5
21E
100
AcDbEntity
  8
0
100
AcDbLine
 62
7
  6
CONTINUOUS
 10
3.6893715753
 20
4.0530480869
 11
3.6893715753
 21
4.0633446619
  0
LINE
  5
21F
100
AcDbEntity
  8
0
100
AcDbLine
 62
7
  6
CONTINUOUS
 10
3.6893715753
 20
4.0751295803
 11
3.6893715753
 21
4.0875104349
  0
LINE
  5
220
100
AcDbEntity
  8
0
100
AcDbLine
 62
7
  6
CONTINUOUS
 10
3.6893715753
 20
4.1013996907
 11
3.6893715753
 21
4.1157455905
  0
LINE
  5
221
100
AcDbEntity
  8
0
100
AcDbLine
 62
7
  6
CONTINUOUS
 10
3.6893715753
 20
4.1316054226
 11
3.6893715753
 21
4.1477782089
  0
LINE
  5
222
100
AcDbEntity
  8
0
100
AcDbLine
 62
7
  6
CONTINUOUS
 10
3.6893715753
 20
4.1654558784
 11
3.6893715753
 21
4.1832997982
  0
LINE
  5
223
100
AcDbEntity
  8
0
100
AcDbLine
 62
7
  6
CONTINUOUS
 10
3.6893715753
 20
4.2026250595
 11
3.6893715753
 21
4.2219682663
  0
LINE
  5
224
100
AcDbEntity
  8
0
100
AcDbLine
 62
7
  6
CONTINUOUS
 10
3.6893715753
 20
4.2427550066
 11
3.6893715753
 21
4.2634112145
  0
LINE
  5
225
100
AcDbEntity
  8
0
100
AcDbLine
 62
7
  6
CONTINUOUS
 10
3.6893715753
 20
4.2854592462
 11
3.6893715753
 21
4.3072295248
  0
LINE
  5
226
100
AcDbEntity
  8
0
100
AcDbLine
 62
7
  6
CONTINUOUS
 10
3.6893715753
 20
4.3303265131
 11
3.6893715753
 21
4.3530012028
  0
LINE
  5
227
100
AcDbEntity
  8
0
100
AcDbLine
 62
7
  6
CONTINUOUS
 10
3.6893715753
 20
4.3769247111
 11
3.6893715753
 21
4.4002854421
  0
LINE
  5
228
100
AcDbEntity
  8
0
100
AcDbLine
 62
7
  6
CONTINUOUS
 10
3.6893715753
 20
4.4248050741
 11
3.6893715753
 21
4.4486268698
  0
LINE
  5
229
100
AcDbEntity
  8
0
100
AcDbLine
 62
7
  6
CONTINUOUS
 10
3.6893715753
 20
4.473506488
 11
3.6893715753
 21
4.4975599315
  0
LINE
  5
22A
100
AcDbEntity
  8
0
100
AcDbLine
 62
7
  6
CONTINUOUS
 10
3.6893715753
 20
4.5225599315
 11
3.6893715753
 21
4.546613375
  0
LINE
  5
22B
100
AcDbEntity
  8
0
100
AcDbLine
 62
7
  6
CONTINUOUS
 10
3.6893715753
 20
4.5714929932
 11
3.6893715753
 21
4.5953147889
  0
LINE
  5
22C
100
AcDbEntity
  8
0
100
AcDbLine
 62
7
  6
CONTINUOUS
 10
3.6893715753
 20
4.6198344209
 11
3.6893715753
 21
4.6431951519
  0
LINE
  5
22D
100
AcDbEntity
  8
0
100
AcDbLine
 62
7
  6
CONTINUOUS
 10
3.6893715753
 20
4.6671186603
 11
3.6893715753
 21
4.6897933499
  0
LINE
  5
22E
100
AcDbEntity
  8
0
100
AcDbLine
 62
7
  6
CONTINUOUS
 10
3.6893715753
 20
4.7128903382
 11
3.6893715753
 21
4.7346606169
  0
LINE
  5
22F
100
AcDbEntity
  8
0
100
AcDbLine
 62
7
  6
CONTINUOUS
 10
3.6893715753
 20
4.7567086485
 11
3.6893715753
 21
4.7773648564
  0
LINE
  5
230
100
AcDbEntity
  8
0
100
AcDbLine
 62
7
  6
CONTINUOUS
 10
3.6893715753
 20
4.7981515968
 11
3.6893715753
 21
4.8174948035
  0
LINE
  5
231
100
AcDbEntity
  8
0
100
AcDbLine
 62
7
  6
CONTINUOUS
 10
3.6893715753
 20
4.8368200648
 11
3.6893715753
 21
4.8546639846
  0
LINE
  5
232
100
AcDbEntity
  8
0
100
AcDbLine
 62
7
  6
CONTINUOUS
 10
3.6893715753
 20
4.8723416542
 11
3.6893715753
 21
4.8885144404
  0
LINE
  5
233
100
AcDbEntity
  8
0
100
AcDbLine
 62
7
  6
CONTINUOUS
 10
3.6893715753
 20
4.9043742725
 11
3.6893715753
 21
4.9187201723
  0
LINE
  5
234
100
AcDbEntity
  8
0
100
AcDbLine
 62
7
  6
CONTINUOUS
 10
3.6893715753
 20
4.9326094281
 11
3.6893715753
 21
4.9449902827
  0
LINE
  5
235
100
AcDbEntity
  8
0
100
AcDbLine
 62
7
  6
CONTINUOUS
 10
3.6893715753
 20
4.9567752012
 11
3.6893715753
 21
4.9670717761
  0
LINE
  5
236
100
AcDbEntity
  8
0
100
AcDbLine
 62
7
  6
CONTINUOUS
 10
3.6893715753
 20
4.9766388619
 11
3.6893715753
 21
4.9847519956
  0
LINE
  5
237
100
AcDbEntity
  8
0
100
AcDbLine
 62
7
  6
CONTINUOUS
 10
3.6893715753
 20
4.9920091125
 11
3.6893715753
 21
4.997860671
  0
LINE
  5
238
100
AcDbEntity
  8
0
100
AcDbLine
 62
7
  6
CONTINUOUS
 10
3.6893715753
 20
5.0087219872
 11
3.6893715753
 21
5.0099036571
  0
LINE
  5
239
100
AcDbEntity
  8
0
100
AcDbLine
 62
7
  6
CONTINUOUS
 10
3.6893715753
 20
5.0027379291
 11
3.6893715753
 21
5.0062715587
  0
LINE
  5
23A
100
AcDbEntity
  8
0
100
AcDbLine
 62
7
  6
CONTINUOUS
 10
3.7063715753
 20
4.0102162059
 11
3.7063715753
 21
4.022259192
  0
LINE
  5
23B
100
AcDbEntity
  8
0
100
AcDbLine
 62
7
  6
CONTINUOUS
 10
3.7143715753
 20
1.7300599315
 11
3.7143715753
 21
4.0255228741
  0
LINE
  5
23C
100
AcDbEntity
  8
0
100
AcDbLine
 62
7
  6
CONTINUOUS
 10
5.7683766058
 20
2.7892604348
 11
5.6323766058
 21
2.7577604348
  0
LINE
  5
23D
100
AcDbEntity
  8
0
100
AcDbLine
 62
7
  6
CONTINUOUS
 10
6.7653715753
 20
2.5760599315
 11
6.6923715753
 21
2.5760599315
  0
LINE
  5
23E
100
AcDbEntity
  8
0
100
AcDbLine
 62
7
  6
CONTINUOUS
 10
5.8653715753
 20
2.7900599315
 11
5.7753715753
 21
2.7900599315
  0
LINE
  5
23F
100
AcDbEntity
  8
0
100
AcDbLine
 62
7
  6
CONTINUOUS
 10
3.7343715753
 20
1.7100599315
 11
3.7343715753
 21
4.0280524659
  0
LINE
  5
240
100
AcDbEntity
  8
0
100
AcDbLine
 62
7
  6
CONTINUOUS
 10
4.3443715753
 20
4.0280524659
 11
4.3443715753
 21
1.7100599315
  0
LINE
  5
241
100
AcDbEntity
  8
0
100
AcDbLine
 62
7
  6
CONTINUOUS
 10
4.3643715753
 20
4.025522874
 11
4.3643715753
 21
1.7300599315
  0
LINE
  5
242
100
AcDbEntity
  8
0
100
AcDbLine
 62
7
  6
CONTINUOUS
 10
4.3723715753
 20
4.0102162059
 11
4.3723715753
 21
4.022259192
  0
LINE
  5
243
100
AcDbEntity
  8
0
100
AcDbLine
 62
7
  6
CONTINUOUS
 10
6.8603715753
 20
3.3850599315
 11
6.6384237024
 21
3.3850599315
  0
LINE
  5
244
100
AcDbEntity
  8
0
100
AcDbLine
 62
7
  6
CONTINUOUS
 10
4.5593715753
 20
5.0062715587
 11
4.5593715753
 21
5.0027379291
  0
LINE
  5
245
100
AcDbEntity
  8
0
100
AcDbLine
 62
7
  6
CONTINUOUS
 10
4.5593715753
 20
5.0099036571
 11
4.5593715753
 21
5.0087219872
  0
LINE
  5
246
100
AcDbEntity
  8
0
100
AcDbLine
 62
7
  6
CONTINUOUS
 10
4.5593715753
 20
4.997860671
 11
4.5593715753
 21
4.9920091125
  0
LINE
  5
247
100
AcDbEntity
  8
0
100
AcDbLine
 62
7
  6
CONTINUOUS
 10
4.5593715753
 20
4.9847519956
 11
4.5593715753
 21
4.9766388619
  0
LINE
  5
248
100
AcDbEntity
  8
0
100
AcDbLine
 62
7
  6
CONTINUOUS
 10
4.5593715753
 20
4.9670717761
 11
4.5593715753
 21
4.9567752012
  0
LINE
  5
249
100
AcDbEntity
  8
0
100
AcDbLine
 62
7
  6
CONTINUOUS
 10
4.5593715753
 20
4.9449902827
 11
4.5593715753
 21
4.9326094281
  0
LINE
  5
24A
100
AcDbEntity
  8
0
100
AcDbLine
 62
7
  6
CONTINUOUS
 10
4.5593715753
 20
4.9187201723
 11
4.5593715753
 21
4.9043742725
  0
LINE
  5
24B
100
AcDbEntity
  8
0
100
AcDbLine
 62
7
  6
CONTINUOUS
 10
4.5593715753
 20
4.8885144404
 11
4.5593715753
 21
4.8723416542
  0
LINE
  5
24C
100
AcDbEntity
  8
0
100
AcDbLine
 62
7
  6
CONTINUOUS
 10
4.5593715753
 20
4.8546639846
 11
4.5593715753
 21
4.8368200648
  0
LINE
  5
24D
100
AcDbEntity
  8
0
100
AcDbLine
 62
7
  6
CONTINUOUS
 10
4.5593715753
 20
4.8174948035
 11
4.5593715753
 21
4.7981515968
  0
LINE
  5
24E
100
AcDbEntity
  8
0
100
AcDbLine
 62
7
  6
CONTINUOUS
 10
4.5593715753
 20
4.7773648564
 11
4.5593715753
 21
4.7567086485
  0
LINE
  5
24F
100
AcDbEntity
  8
0
100
AcDbLine
 62
7
  6
CONTINUOUS
 10
4.5593715753
 20
4.7346606169
 11
4.5593715753
 21
4.7128903382
  0
LINE
  5
250
100
AcDbEntity
  8
0
100
AcDbLine
 62
7
  6
CONTINUOUS
 10
4.5593715753
 20
4.6897933499
 11
4.5593715753
 21
4.6671186603
  0
LINE
  5
251
100
AcDbEntity
  8
0
100
AcDbLine
 62
7
  6
CONTINUOUS
 10
4.5593715753
 20
4.6431951519
 11
4.5593715753
 21
4.6198344209
  0
LINE
  5
252
100
AcDbEntity
  8
0
100
AcDbLine
 62
7
  6
CONTINUOUS
 10
4.5593715753
 20
4.5953147889
 11
4.5593715753
 21
4.5714929932
  0
LINE
  5
253
100
AcDbEntity
  8
0
100
AcDbLine
 62
7
  6
CONTINUOUS
 10
4.5593715753
 20
4.546613375
 11
4.5593715753
 21
4.5225599315
  0
LINE
  5
254
100
AcDbEntity
  8
0
100
AcDbLine
 62
7
  6
CONTINUOUS
 10
4.5593715753
 20
4.4975599315
 11
4.5593715753
 21
4.473506488
  0
LINE
  5
255
100
AcDbEntity
  8
0
100
AcDbLine
 62
7
  6
CONTINUOUS
 10
4.5593715753
 20
4.4486268698
 11
4.5593715753
 21
4.4248050741
  0
LINE
  5
256
100
AcDbEntity
  8
0
100
AcDbLine
 62
7
  6
CONTINUOUS
 10
4.5593715753
 20
4.4002854421
 11
4.5593715753
 21
4.3769247111
  0
LINE
  5
257
100
AcDbEntity
  8
0
100
AcDbLine
 62
7
  6
CONTINUOUS
 10
4.5593715753
 20
4.3530012028
 11
4.5593715753
 21
4.3303265131
  0
LINE
  5
258
100
AcDbEntity
  8
0
100
AcDbLine
 62
7
  6
CONTINUOUS
 10
4.5593715753
 20
4.3072295248
 11
4.5593715753
 21
4.2854592462
  0
LINE
  5
259
100
AcDbEntity
  8
0
100
AcDbLine
 62
7
  6
CONTINUOUS
 10
4.5593715753
 20
4.2634112145
 11
4.5593715753
 21
4.2427550066
  0
LINE
  5
25A
100
AcDbEntity
  8
0
100
AcDbLine
 62
7
  6
CONTINUOUS
 10
4.5593715753
 20
4.2219682663
 11
4.5593715753
 21
4.2026250595
  0
LINE
  5
25B
100
AcDbEntity
  8
0
100
AcDbLine
 62
7
  6
CONTINUOUS
 10
4.5593715753
 20
4.1832997982
 11
4.5593715753
 21
4.1654558784
  0
LINE
  5
25C
100
AcDbEntity
  8
0
100
AcDbLine
 62
7
  6
CONTINUOUS
 10
4.5593715753
 20
4.1477782089
 11
4.5593715753
 21
4.1316054226
  0
LINE
  5
25D
100
AcDbEntity
  8
0
100
AcDbLine
 62
7
  6
CONTINUOUS
 10
4.5593715753
 20
4.1157455905
 11
4.5593715753
 21
4.1013996907
  0
LINE
  5
25E
100
AcDbEntity
  8
0
100
AcDbLine
 62
7
  6
CONTINUOUS
 10
4.5593715753
 20
4.0875104349
 11
4.5593715753
 21
4.0751295803
  0
LINE
  5
25F
100
AcDbEntity
  8
0
100
AcDbLine
 62
7
  6
CONTINUOUS
 10
4.5593715753
 20
4.0633446619
 11
4.5593715753
 21
4.0530480869
  0
LINE
  5
260
100
AcDbEntity
  8
0
100
AcDbLine
 62
7
  6
CONTINUOUS
 10
4.5593715753
 20
4.0434810011
 11
4.5593715753
 21
4.0353678674
  0
LINE
  5
261
100
AcDbEntity
  8
0
100
AcDbLine
 62
7
  6
CONTINUOUS
 10
4.5593715753
 20
4.0281107505
 11
4.5593715753
 21
4.022259192
  0
LINE
  5
262
100
AcDbEntity
  8
0
100
AcDbLine
 62
7
  6
CONTINUOUS
 10
4.5593715753
 20
4.0173819339
 11
4.5593715753
 21
4.0138483043
  0
LINE
  5
263
100
AcDbEntity
  8
0
100
AcDbLine
 62
7
  6
CONTINUOUS
 10
4.5593715753
 20
4.0113978758
 11
4.5593715753
 21
4.0102162059
  0
LINE
  5
264
100
AcDbEntity
  8
0
100
AcDbLine
 62
7
  6
CONTINUOUS
 10
4.5893715753
 20
4.9800599315
 11
4.5893715753
 21
4.0400599315
  0
LINE
  5
265
100
AcDbEntity
  8
0
100
AcDbLine
 62
7
  6
CONTINUOUS
 10
4.6203715753
 20
4.0400599315
 11
4.6203715753
 21
4.9800599315
  0
LINE
  5
266
100
AcDbEntity
  8
0
100
AcDbLine
 62
7
  6
CONTINUOUS
 10
4.6503715753
 20
4.0100599315
 11
4.6503715753
 21
5.0100599315
  0
LINE
  5
267
100
AcDbEntity
  8
0
100
AcDbLine
 62
7
  6
CONTINUOUS
 10
6.1013715753
 20
2.5650599315
 11
5.8873855344
 21
2.780886191
  0
LINE
  5
268
100
AcDbEntity
  8
0
100
AcDbLine
 62
7
  6
CONTINUOUS
 10
6.3203715753
 20
4.0100599315
 11
4.6503715753
 21
4.0100599315
  0
LINE
  5
269
100
AcDbEntity
  8
0
100
AcDbLine
 62
7
  6
CONTINUOUS
 10
4.5593715753
 20
4.0102162059
 11
4.3723715753
 21
4.0102162059
  0
LINE
  5
26A
100
AcDbEntity
  8
0
100
AcDbLine
 62
7
  6
CONTINUOUS
 10
3.7063715753
 20
4.0102162059
 11
3.6893715753
 21
4.0102162059
  0
LINE
  5
26B
100
AcDbEntity
  8
0
100
AcDbLine
 62
7
  6
CONTINUOUS
 10
4.5593715753
 20
4.0113978758
 11
4.3723715753
 21
4.0113978758
  0
LINE
  5
26C
100
AcDbEntity
  8
0
100
AcDbLine
 62
7
  6
CONTINUOUS
 10
3.7063715753
 20
4.0113978758
 11
3.6893715753
 21
4.0113978758
  0
LINE
  5
26D
100
AcDbEntity
  8
0
100
AcDbLine
 62
7
  6
CONTINUOUS
 10
4.5593715753
 20
4.0138483043
 11
4.3723715753
 21
4.0138483043
  0
LINE
  5
26E
100
AcDbEntity
  8
0
100
AcDbLine
 62
7
  6
CONTINUOUS
 10
3.7063715753
 20
4.0138483043
 11
3.6893715753
 21
4.0138483043
  0
LINE
  5
26F
100
AcDbEntity
  8
0
100
AcDbLine
 62
7
  6
CONTINUOUS
 10
4.5593715753
 20
4.0173819339
 11
4.3723715753
 21
4.0173819339
  0
LINE
  5
270
100
AcDbEntity
  8
0
100
AcDbLine
 62
7
  6
CONTINUOUS
 10
3.7063715753
 20
4.0173819339
 11
3.6893715753
 21
4.0173819339
  0
LINE
  5
271
100
AcDbEntity
  8
0
100
AcDbLine
 62
7
  6
CONTINUOUS
 10
3.6893715753
 20
4.022259192
 11
3.7071464784
 21
4.022259192
  0
LINE
  5
272
100
AcDbEntity
  8
0
100
AcDbLine
 62
7
  6
CONTINUOUS
 10
4.3715966723
 20
4.022259192
 11
4.5593715753
 21
4.022259192
  0
LINE
  5
273
100
AcDbEntity
  8
0
100
AcDbLine
 62
7
  6
CONTINUOUS
 10
4.3423715753
 20
4.0280403882
 11
3.7363715753
 21
4.0280403882
  0
LINE
  5
274
100
AcDbEntity
  8
0
100
AcDbLine
 62
7
  6
CONTINUOUS
 10
4.5593715753
 20
4.0353678674
 11
3.6893715753
 21
4.0353678674
  0
LINE
  5
275
100
AcDbEntity
  8
0
100
AcDbLine
 62
7
  6
CONTINUOUS
 10
4.5593715753
 20
4.0434810011
 11
3.6893715753
 21
4.0434810011
  0
LINE
  5
276
100
AcDbEntity
  8
0
100
AcDbLine
 62
7
  6
CONTINUOUS
 10
4.5593715753
 20
4.0530480869
 11
3.6893715753
 21
4.0530480869
  0
LINE
  5
277
100
AcDbEntity
  8
0
100
AcDbLine
 62
7
  6
CONTINUOUS
 10
4.5593715753
 20
4.0633446619
 11
3.6893715753
 21
4.0633446619
  0
LINE
  5
278
100
AcDbEntity
  8
0
100
AcDbLine
 62
7
  6
CONTINUOUS
 10
4.5593715753
 20
4.0751295803
 11
3.6893715753
 21
4.0751295803
  0
LINE
  5
279
100
AcDbEntity
  8
0
100
AcDbLine
 62
7
  6
CONTINUOUS
 10
6.3503715753
 20
4.0850599315
 11
6.3603715753
 21
4.0850599315
  0
LINE
  5
27A
100
AcDbEntity
  8
0
100
AcDbLine
 62
7
  6
CONTINUOUS
 10
4.5593715753
 20
4.0875104349
 11
3.6893715753
 21
4.0875104349
  0
LINE
  5
27B
100
AcDbEntity
  8
0
100
AcDbLine
 62
7
  6
CONTINUOUS
 10
4.5593715753
 20
4.1013996907
 11
3.6893715753
 21
4.1013996907
  0
LINE
  5
27C
100
AcDbEntity
  8
0
100
AcDbLine
 62
7
  6
CONTINUOUS
 10
4.5593715753
 20
4.1157455905
 11
3.6893715753
 21
4.1157455905
  0
LINE
  5
27D
100
AcDbEntity
  8
0
100
AcDbLine
 62
7
  6
CONTINUOUS
 10
4.5593715753
 20
4.1316054226
 11
3.6893715753
 21
4.1316054226
  0
LINE
  5
27E
100
AcDbEntity
  8
0
100
AcDbLine
 62
7
  6
CONTINUOUS
 10
4.5593715753
 20
4.1477782089
 11
3.6893715753
 21
4.1477782089
  0
LINE
  5
27F
100
AcDbEntity
  8
0
100
AcDbLine
 62
7
  6
CONTINUOUS
 10
4.5593715753
 20
4.1654558784
 11
3.6893715753
 21
4.1654558784
  0
LINE
  5
280
100
AcDbEntity
  8
0
100
AcDbLine
 62
7
  6
CONTINUOUS
 10
4.5593715753
 20
4.1832997982
 11
3.6893715753
 21
4.1832997982
  0
LINE
  5
281
100
AcDbEntity
  8
0
100
AcDbLine
 62
7
  6
CONTINUOUS
 10
4.5853829767
 20
4.2024129348
 11
3.663360174
 21
4.2024129348
  0
LINE
  5
282
100
AcDbEntity
  8
0
100
AcDbLine
 62
7
  6
CONTINUOUS
 10
4.5593715753
 20
4.2026250595
 11
3.6893715753
 21
4.2026250595
  0
LINE
  5
283
100
AcDbEntity
  8
0
100
AcDbLine
 62
7
  6
CONTINUOUS
 10
4.5593715753
 20
4.2219682663
 11
3.6893715753
 21
4.2219682663
  0
LINE
  5
284
100
AcDbEntity
  8
0
100
AcDbLine
 62
7
  6
CONTINUOUS
 10
4.5853829767
 20
4.2406379217
 11
3.663360174
 21
4.2406379217
  0
LINE
  5
285
100
AcDbEntity
  8
0
100
AcDbLine
 62
7
  6
CONTINUOUS
 10
4.5593715753
 20
4.2427550066
 11
3.6893715753
 21
4.2427550066
  0
LINE
  5
286
100
AcDbEntity
  8
0
100
AcDbLine
 62
7
  6
CONTINUOUS
 10
4.5893715753
 20
4.2500599315
 11
4.6203715753
 21
4.2500599315
  0
LINE
  5
287
100
AcDbEntity
  8
0
100
AcDbLine
 62
7
  6
CONTINUOUS
 10
4.5593715753
 20
4.2634112145
 11
3.6893715753
 21
4.2634112145
  0
LINE
  5
288
100
AcDbEntity
  8
0
100
AcDbLine
 62
7
  6
CONTINUOUS
 10
4.5853829767
 20
4.2814575898
 11
3.663360174
 21
4.2814575898
  0
LINE
  5
289
100
AcDbEntity
  8
0
100
AcDbLine
 62
7
  6
CONTINUOUS
 10
4.5593715753
 20
4.2854592462
 11
3.6893715753
 21
4.2854592462
  0
LINE
  5
28A
100
AcDbEntity
  8
0
100
AcDbLine
 62
7
  6
CONTINUOUS
 10
4.5593715753
 20
4.3072295248
 11
3.6893715753
 21
4.3072295248
  0
LINE
  5
28B
100
AcDbEntity
  8
0
100
AcDbLine
 62
7
  6
CONTINUOUS
 10
4.5853829767
 20
4.3244788234
 11
3.663360174
 21
4.3244788234
  0
LINE
  5
28C
100
AcDbEntity
  8
0
100
AcDbLine
 62
7
  6
CONTINUOUS
 10
4.5593715753
 20
4.3303265131
 11
3.6893715753
 21
4.3303265131
  0
LINE
  5
28D
100
AcDbEntity
  8
0
100
AcDbLine
 62
7
  6
CONTINUOUS
 10
4.5593715753
 20
4.3530012028
 11
3.6893715753
 21
4.3530012028
  0
LINE
  5
28E
100
AcDbEntity
  8
0
100
AcDbLine
 62
7
  6
CONTINUOUS
 10
4.5853829767
 20
4.3692873045
 11
3.663360174
 21
4.3692873045
  0
LINE
  5
28F
100
AcDbEntity
  8
0
100
AcDbLine
 62
7
  6
CONTINUOUS
 10
4.5593715753
 20
4.3769247111
 11
3.6893715753
 21
4.3769247111
  0
LINE
  5
290
100
AcDbEntity
  8
0
100
AcDbLine
 62
7
  6
CONTINUOUS
 10
4.5593715753
 20
4.4002854421
 11
3.6893715753
 21
4.4002854421
  0
LINE
  5
291
100
AcDbEntity
  8
0
100
AcDbLine
 62
7
  6
CONTINUOUS
 10
4.5853829767
 20
4.415451503
 11
3.663360174
 21
4.415451503
  0
LINE
  5
292
100
AcDbEntity
  8
0
100
AcDbLine
 62
7
  6
CONTINUOUS
 10
4.5593715753
 20
4.4248050741
 11
3.6893715753
 21
4.4248050741
  0
LINE
  5
293
100
AcDbEntity
  8
0
100
AcDbLine
 62
7
  6
CONTINUOUS
 10
4.5593715753
 20
4.4486268698
 11
3.6893715753
 21
4.4486268698
  0
LINE
  5
294
100
AcDbEntity
  8
0
100
AcDbLine
 62
7
  6
CONTINUOUS
 10
4.5853829767
 20
4.4625268324
 11
3.663360174
 21
4.4625268324
  0
LINE
  5
295
100
AcDbEntity
  8
0
100
AcDbLine
 62
7
  6
CONTINUOUS
 10
4.5593715753
 20
4.473506488
 11
3.6893715753
 21
4.473506488
  0
LINE
  5
296
100
AcDbEntity
  8
0
100
AcDbLine
 62
7
  6
CONTINUOUS
 10
4.5593715753
 20
4.4975599315
 11
3.6893715753
 21
4.4975599315
  0
LINE
  5
297
100
AcDbEntity
  8
0
100
AcDbLine
 62
7
  6
CONTINUOUS
 10
4.5853829767
 20
4.5100599315
 11
3.663360174
 21
4.5100599315
  0
LINE
  5
298
100
AcDbEntity
  8
0
100
AcDbLine
 62
7
  6
CONTINUOUS
 10
4.5593715753
 20
4.5225599315
 11
3.6893715753
 21
4.5225599315
  0
LINE
  5
299
100
AcDbEntity
  8
0
100
AcDbLine
 62
7
  6
CONTINUOUS
 10
5.6083715753
 20
1.9525599315
 11
5.6083715753
 21
2.7275599315
  0
LINE
  5
29A
100
AcDbEntity
  8
0
100
AcDbLine
 62
7
  6
CONTINUOUS
 10
5.6323766058
 20
1.9223594282
 11
5.6323766058
 21
2.7577604348
  0
LINE
  5
29B
100
AcDbEntity
  8
0
100
AcDbLine
 62
7
  6
CONTINUOUS
 10
4.5593715753
 20
4.546613375
 11
3.6893715753
 21
4.546613375
  0
LINE
  5
29C
100
AcDbEntity
  8
0
100
AcDbLine
 62
7
  6
CONTINUOUS
 10
4.5853829767
 20
4.5575930306
 11
3.663360174
 21
4.5575930306
  0
LINE
  5
29D
100
AcDbEntity
  8
0
100
AcDbLine
 62
7
  6
CONTINUOUS
 10
4.5593715753
 20
4.5714929932
 11
3.6893715753
 21
4.5714929932
  0
LINE
  5
29E
100
AcDbEntity
  8
0
100
AcDbLine
 62
7
  6
CONTINUOUS
 10
4.5593715753
 20
4.5953147889
 11
3.6893715753
 21
4.5953147889
  0
LINE
  5
29F
100
AcDbEntity
  8
0
100
AcDbLine
 62
7
  6
CONTINUOUS
 10
4.5853829767
 20
4.60466836
 11
3.663360174
 21
4.60466836
  0
LINE
  5
2A0
100
AcDbEntity
  8
0
100
AcDbLine
 62
7
  6
CONTINUOUS
 10
4.5593715753
 20
4.6198344209
 11
3.6893715753
 21
4.6198344209
  0
LINE
  5
2A1
100
AcDbEntity
  8
0
100
AcDbLine
 62
7
  6
CONTINUOUS
 10
4.5593715753
 20
4.6431951519
 11
3.6893715753
 21
4.6431951519
  0
LINE
  5
2A2
100
AcDbEntity
  8
0
100
AcDbLine
 62
7
  6
CONTINUOUS
 10
4.5853829767
 20
4.6508325585
 11
3.663360174
 21
4.6508325585
  0
LINE
  5
2A3
100
AcDbEntity
  8
0
100
AcDbLine
 62
7
  6
CONTINUOUS
 10
4.5593715753
 20
4.6671186603
 11
3.6893715753
 21
4.6671186603
  0
LINE
  5
2A4
100
AcDbEntity
  8
0
100
AcDbLine
 62
7
  6
CONTINUOUS
 10
4.5593715753
 20
4.6897933499
 11
3.6893715753
 21
4.6897933499
  0
LINE
  5
2A5
100
AcDbEntity
  8
0
100
AcDbLine
 62
7
  6
CONTINUOUS
 10
4.5853829767
 20
4.6956410396
 11
3.663360174
 21
4.6956410396
  0
LINE
  5
2A6
100
AcDbEntity
  8
0
100
AcDbLine
 62
7
  6
CONTINUOUS
 10
4.5593715753
 20
4.7128903382
 11
3.6893715753
 21
4.7128903382
  0
LINE
  5
2A7
100
AcDbEntity
  8
0
100
AcDbLine
 62
7
  6
CONTINUOUS
 10
4.5593715753
 20
4.7346606169
 11
3.6893715753
 21
4.7346606169
  0
LINE
  5
2A8
100
AcDbEntity
  8
0
100
AcDbLine
 62
7
  6
CONTINUOUS
 10
4.5853829767
 20
4.7386622732
 11
3.663360174
 21
4.7386622732
  0
LINE
  5
2A9
100
AcDbEntity
  8
0
100
AcDbLine
 62
7
  6
CONTINUOUS
 10
4.5593715753
 20
4.7567086485
 11
3.6893715753
 21
4.7567086485
  0
LINE
  5
2AA
100
AcDbEntity
  8
0
100
AcDbLine
 62
7
  6
CONTINUOUS
 10
4.5893715753
 20
4.7700599315
 11
4.6203715753
 21
4.7700599315
  0
LINE
  5
2AB
100
AcDbEntity
  8
0
100
AcDbLine
 62
7
  6
CONTINUOUS
 10
4.5593715753
 20
4.7773648564
 11
3.6893715753
 21
4.7773648564
  0
LINE
  5
2AC
100
AcDbEntity
  8
0
100
AcDbLine
 62
7
  6
CONTINUOUS
 10
4.5853829767
 20
4.7794819413
 11
3.663360174
 21
4.7794819413
  0
LINE
  5
2AD
100
AcDbEntity
  8
0
100
AcDbLine
 62
7
  6
CONTINUOUS
 10
5.7683766058
 20
1.8908594282
 11
5.7683766058
 21
2.7892604348
  0
LINE
  5
2AE
100
AcDbEntity
  8
0
100
AcDbLine
 62
7
  6
CONTINUOUS
 10
5.7753715753
 20
1.8900599315
 11
5.7753715753
 21
2.7900599315
  0
LINE
  5
2AF
100
AcDbEntity
  8
0
100
AcDbLine
 62
7
  6
CONTINUOUS
 10
5.8653715753
 20
1.8900599315
 11
5.8653715753
 21
2.7900599315
  0
LINE
  5
2B0
100
AcDbEntity
  8
0
100
AcDbLine
 62
7
  6
CONTINUOUS
 10
5.8873855344
 20
1.899233672
 11
5.8873855344
 21
2.780886191
  0
LINE
  5
2B1
100
AcDbEntity
  8
0
100
AcDbLine
 62
7
  6
CONTINUOUS
 10
4.5593715753
 20
4.7981515968
 11
3.6893715753
 21
4.7981515968
  0
LINE
  5
2B2
100
AcDbEntity
  8
0
100
AcDbLine
 62
7
  6
CONTINUOUS
 10
4.5593715753
 20
4.8174948035
 11
3.6893715753
 21
4.8174948035
  0
LINE
  5
2B3
100
AcDbEntity
  8
0
100
AcDbLine
 62
7
  6
CONTINUOUS
 10
4.5853829767
 20
4.8177069282
 11
3.663360174
 21
4.8177069282
  0
LINE
  5
2B4
100
AcDbEntity
  8
0
100
AcDbLine
 62
7
  6
CONTINUOUS
 10
4.5593715753
 20
4.8368200648
 11
3.6893715753
 21
4.8368200648
  0
LINE
  5
2B5
100
AcDbEntity
  8
0
100
AcDbLine
 62
7
  6
CONTINUOUS
 10
4.5593715753
 20
4.8546639846
 11
3.6893715753
 21
4.8546639846
  0
LINE
  5
2B6
100
AcDbEntity
  8
0
100
AcDbLine
 62
7
  6
CONTINUOUS
 10
4.5593715753
 20
4.8723416542
 11
3.6893715753
 21
4.8723416542
  0
LINE
  5
2B7
100
AcDbEntity
  8
0
100
AcDbLine
 62
7
  6
CONTINUOUS
 10
4.5593715753
 20
4.8885144404
 11
3.6893715753
 21
4.8885144404
  0
LINE
  5
2B8
100
AcDbEntity
  8
0
100
AcDbLine
 62
7
  6
CONTINUOUS
 10
4.5593715753
 20
4.9043742725
 11
3.6893715753
 21
4.9043742725
  0
LINE
  5
2B9
100
AcDbEntity
  8
0
100
AcDbLine
 62
7
  6
CONTINUOUS
 10
4.5593715753
 20
4.9187201723
 11
3.6893715753
 21
4.9187201723
  0
LINE
  5
2BA
100
AcDbEntity
  8
0
100
AcDbLine
 62
7
  6
CONTINUOUS
 10
4.5593715753
 20
4.9326094281
 11
3.6893715753
 21
4.9326094281
  0
LINE
  5
2BB
100
AcDbEntity
  8
0
100
AcDbLine
 62
7
  6
CONTINUOUS
 10
6.3503715753
 20
4.9350599315
 11
6.3603715753
 21
4.9350599315
  0
LINE
  5
2BC
100
AcDbEntity
  8
0
100
AcDbLine
 62
7
  6
CONTINUOUS
 10
4.5593715753
 20
4.9449902827
 11
3.6893715753
 21
4.9449902827
  0
LINE
  5
2BD
100
AcDbEntity
  8
0
100
AcDbLine
 62
7
  6
CONTINUOUS
 10
4.5593715753
 20
4.9567752012
 11
3.6893715753
 21
4.9567752012
  0
LINE
  5
2BE
100
AcDbEntity
  8
0
100
AcDbLine
 62
7
  6
CONTINUOUS
 10
4.5593715753
 20
4.9670717761
 11
3.6893715753
 21
4.9670717761
  0
LINE
  5
2BF
100
AcDbEntity
  8
0
100
AcDbLine
 62
7
  6
CONTINUOUS
 10
4.5593715753
 20
4.9766388619
 11
3.6893715753
 21
4.9766388619
  0
LINE
  5
2C0
100
AcDbEntity
  8
0
100
AcDbLine
 62
7
  6
CONTINUOUS
 10
4.5593715753
 20
4.9847519956
 11
3.6893715753
 21
4.9847519956
  0
LINE
  5
2C1
100
AcDbEntity
  8
0
100
AcDbLine
 62
7
  6
CONTINUOUS
 10
4.5593715753
 20
4.9920091125
 11
3.6893715753
 21
4.9920091125
  0
LINE
  5
2C2
100
AcDbEntity
  8
0
100
AcDbLine
 62
7
  6
CONTINUOUS
 10
4.5593715753
 20
4.997860671
 11
3.6893715753
 21
4.997860671
  0
LINE
  5
2C3
100
AcDbEntity
  8
0
100
AcDbLine
 62
7
  6
CONTINUOUS
 10
4.5593715753
 20
5.0027379291
 11
3.6893715753
 21
5.0027379291
  0
LINE
  5
2C4
100
AcDbEntity
  8
0
100
AcDbLine
 62
7
  6
CONTINUOUS
 10
4.5593715753
 20
5.0062715587
 11
3.6893715753
 21
5.0062715587
  0
LINE
  5
2C5
100
AcDbEntity
  8
0
100
AcDbLine
 62
7
  6
CONTINUOUS
 10
4.5593715753
 20
5.0087219872
 11
3.6893715753
 21
5.0087219872
  0
LINE
  5
2C6
100
AcDbEntity
  8
0
100
AcDbLine
 62
7
  6
CONTINUOUS
 10
4.5593715753
 20
5.0099036571
 11
3.6893715753
 21
5.0099036571
  0
LINE
  5
2C7
100
AcDbEntity
  8
0
100
AcDbLine
 62
7
  6
CONTINUOUS
 10
6.3203715753
 20
5.0100599315
 11
4.6503715753
 21
5.0100599315
  0
LINE
  5
2C8
100
AcDbEntity
  8
0
100
AcDbLine
 62
7
  6
CONTINUOUS
 10
6.1013715753
 20
2.1150599315
 11
6.1013715753
 21
2.5650599315
  0
LINE
  5
2C9
100
AcDbEntity
  8
0
100
AcDbLine
 62
7
  6
CONTINUOUS
 10
6.3203715753
 20
5.0100599315
 11
6.3203715753
 21
4.0100599315
  0
LINE
  5
2CA
100
AcDbEntity
  8
0
100
AcDbLine
 62
7
  6
CONTINUOUS
 10
6.3503715753
 20
4.9800599315
 11
6.3503715753
 21
4.0400599315
  0
LINE
  5
2CB
100
AcDbEntity
  8
0
100
AcDbLine
 62
7
  6
CONTINUOUS
 10
6.3603715753
 20
4.0378529294
 11
6.3603715753
 21
4.9822669336
  0
LINE
  5
2CC
100
AcDbEntity
  8
0
100
AcDbLine
 62
7
  6
CONTINUOUS
 10
6.3859813314
 20
4.0081759053
 11
6.3859813314
 21
5.0119439577
  0
LINE
  5
2CD
100
AcDbEntity
  8
0
100
AcDbLine
 62
7
  6
CONTINUOUS
 10
6.5293707985
 20
5.1396257752
 11
6.5293707985
 21
3.8804940878
  0
LINE
  5
2CE
100
AcDbEntity
  8
0
100
AcDbLine
 62
7
  6
CONTINUOUS
 10
6.6085028227
 20
3.4128825574
 11
6.6085028227
 21
5.6072373056
  0
LINE
  5
2CF
100
AcDbEntity
  8
0
100
AcDbLine
 62
7
  6
CONTINUOUS
 10
6.6384237024
 20
3.3850599315
 11
6.6384237024
 21
5.6350599315
  0
LINE
  5
2D0
100
AcDbEntity
  8
0
100
AcDbLine
 62
7
  6
CONTINUOUS
 10
6.6803715753
 20
2.1160599315
 11
6.6803715753
 21
2.5640599315
  0
LINE
  5
2D1
100
AcDbEntity
  8
0
100
AcDbLine
 62
7
  6
CONTINUOUS
 10
6.8603715753
 20
5.6350599315
 11
6.6384237024
 21
5.6350599315
  0
LINE
  5
2D2
100
AcDbEntity
  8
0
100
AcDbLine
 62
7
  6
CONTINUOUS
 10
6.6923715753
 20
2.1040599315
 11
6.6923715753
 21
2.5760599315
  0
LINE
  5
2D3
100
AcDbEntity
  8
0
100
AcDbLine
 62
7
  6
CONTINUOUS
 10
6.7653715753
 20
2.6200599315
 11
6.7653715753
 21
2.0600599315
  0
LINE
  5
2D4
100
AcDbEntity
  8
0
100
AcDbLine
 62
7
  6
CONTINUOUS
 10
6.8603715753
 20
1.4272164417
 11
6.8603715753
 21
7.5929034213
  0
LINE
  5
2D5
100
AcDbEntity
  8
0
100
AcDbLine
 62
7
  6
CONTINUOUS
 10
6.902308585
 20
1.3678417802
 11
6.902308585
 21
7.6522780829
  0
LINE
  5
2D6
100
AcDbEntity
  8
0
100
AcDbLine
 62
7
  6
CONTINUOUS
 10
6.975889225
 20
1.2985082472
 11
6.975889225
 21
7.7216116159
  0
LINE
  5
2D7
100
AcDbEntity
  8
0
100
AcDbLine
 62
7
  6
CONTINUOUS
 10
7.033908315
 20
1.2600599315
 11
7.033908315
 21
7.7600599315
  0
LINE
  5
2D8
100
AcDbEntity
  8
0
100
AcDbLine
 62
7
  6
CONTINUOUS
 10
7.1733715753
 20
7.7600599315
 11
7.1733715753
 21
1.2600599315
  0
LINE
  5
2D9
100
AcDbEntity
  8
0
100
AcDbLine
 62
7
  6
CONTINUOUS
 10
7.1903715753
 20
2.5275599315
 11
7.1903715753
 21
2.1525599315
  0
LINE
  5
2DA
100
AcDbEntity
  8
0
100
AcDbLine
 62
7
  6
CONTINUOUS
 10
6.1013715753
 20
2.1150599315
 11
5.8873855344
 21
1.899233672
  0
LINE
  5
2DB
100
AcDbEntity
  8
0
100
AcDbLine
 62
7
  6
CONTINUOUS
 10
7.1733715753
 20
7.7600599315
 11
7.033908315
 21
7.7600599315
  0
ARC
  5
2DC
100
AcDbEntity
  8
0
100
AcDbCircle
 62
7
  6
CONTINUOUS
 10
4.1150961813
 20
3.2314347126
 40
2.5
100
AcDbArc
 50
4.1621379224
 51
15.0477379833
  0
ARC
  5
2DD
100
AcDbEntity
  8
0
100
AcDbCircle
 62
7
  6
CONTINUOUS
 10
4.5593715753
 20
4.0400599315
 40
0.03
100
AcDbArc
 50
330.1172410133
 51
360.0
  0
ARC
  5
2DE
100
AcDbEntity
  8
0
100
AcDbCircle
 62
7
  6
CONTINUOUS
 10
4.6503715753
 20
4.0400599315
 40
0.03
100
AcDbArc
 50
180.0
 51
270.0
  0
ARC
  5
2DF
100
AcDbEntity
  8
0
100
AcDbCircle
 62
7
  6
CONTINUOUS
 10
3.6893715753
 20
4.0400599315
 40
0.03
100
AcDbArc
 50
180.0
 51
209.8827589639
  0
ARC
  5
2E0
100
AcDbEntity
  8
0
100
AcDbCircle
 62
7
  6
CONTINUOUS
 10
4.3443715753
 20
1.7300599315
 40
0.02
100
AcDbArc
 50
270.0
 51
360.0
  0
ARC
  5
2E1
100
AcDbEntity
  8
0
100
AcDbCircle
 62
7
  6
CONTINUOUS
 10
3.7343715753
 20
1.7300599315
 40
0.02
100
AcDbArc
 50
180.0
 51
270.0
  0
ARC
  5
2E2
100
AcDbEntity
  8
0
100
AcDbCircle
 62
7
  6
CONTINUOUS
 10
4.1150961813
 20
5.7886851504
 40
2.5
100
AcDbArc
 50
344.9522620167
 51
355.8378620776
  0
ARC
  5
2E3
100
AcDbEntity
  8
0
100
AcDbCircle
 62
7
  6
CONTINUOUS
 10
4.6503715753
 20
4.9800599315
 40
0.03
100
AcDbArc
 50
90.0
 51
180.0
  0
ARC
  5
2E4
100
AcDbEntity
  8
0
100
AcDbCircle
 62
7
  6
CONTINUOUS
 10
4.5593715753
 20
4.9800599315
 40
0.03
100
AcDbArc
 50
0.0
 51
29.8827589867
  0
ARC
  5
2E5
100
AcDbEntity
  8
0
100
AcDbCircle
 62
7
  6
CONTINUOUS
 10
3.6893715753
 20
4.9800599315
 40
0.03
100
AcDbArc
 50
150.1172410361
 51
180.0
  0
ARC
  5
2E6
100
AcDbEntity
  8
0
100
AcDbCircle
 62
7
  6
CONTINUOUS
 10
6.3603715753
 20
3.8350599315
 40
0.175
100
AcDbArc
 50
15.0477379833
 51
81.5850319153
  0
ARC
  5
2E7
100
AcDbEntity
  8
0
100
AcDbCircle
 62
7
  6
CONTINUOUS
 10
6.8603715753
 20
1.2496251489
 40
0.1254347826
100
AcDbArc
 50
22.9364108859
 51
70.4680059554
  0
ARC
  5
2E8
100
AcDbEntity
  8
0
100
AcDbCircle
 62
7
  6
CONTINUOUS
 10
6.8603715753
 20
2.0600599315
 40
0.095
100
AcDbArc
 50
180.0
 51
270.0
  0
ARC
  5
2E9
100
AcDbEntity
  8
0
100
AcDbCircle
 62
7
  6
CONTINUOUS
 10
6.8603715753
 20
2.6200599315
 40
0.095
100
AcDbArc
 50
90.0
 51
180.0
  0
ARC
  5
2EA
100
AcDbEntity
  8
0
100
AcDbCircle
 62
7
  6
CONTINUOUS
 10
6.9233715753
 20
1.4272164417
 40
0.063
100
AcDbArc
 50
180.0
 51
250.4680059544
  0
ARC
  5
2EB
100
AcDbEntity
  8
0
100
AcDbCircle
 62
7
  6
CONTINUOUS
 10
7.033908315
 20
1.3230599315
 40
0.063
100
AcDbArc
 50
202.9364108859
 51
270.0
  0
ARC
  5
2EC
100
AcDbEntity
  8
0
100
AcDbCircle
 62
7
  6
CONTINUOUS
 10
5.8653715753
 20
2.7590599315
 40
0.031
100
AcDbArc
 50
44.7546926505
 51
90.0
  0
ARC
  5
2ED
100
AcDbEntity
  8
0
100
AcDbCircle
 62
7
  6
CONTINUOUS
 10
5.7753715753
 20
2.7590599315
 40
0.031
100
AcDbArc
 50
90.0
 51
103.0407610339
  0
ARC
  5
2EE
100
AcDbEntity
  8
0
100
AcDbCircle
 62
7
  6
CONTINUOUS
 10
5.8653715753
 20
1.9210599315
 40
0.031
100
AcDbArc
 50
270.0
 51
315.2453073495
  0
ARC
  5
2EF
100
AcDbEntity
  8
0
100
AcDbCircle
 62
7
  6
CONTINUOUS
 10
5.7753715753
 20
1.9210599315
 40
0.031
100
AcDbArc
 50
256.9592389661
 51
270.0
  0
ARC
  5
2F0
100
AcDbEntity
  8
0
100
AcDbCircle
 62
7
  6
CONTINUOUS
 10
5.6393715753
 20
2.7275599315
 40
0.031
100
AcDbArc
 50
103.0407610339
 51
180.0
  0
ARC
  5
2F1
100
AcDbEntity
  8
0
100
AcDbCircle
 62
7
  6
CONTINUOUS
 10
5.6393715753
 20
1.9525599315
 40
0.031
100
AcDbArc
 50
180.0
 51
256.9592389661
  0
ARC
  5
2F2
100
AcDbEntity
  8
0
100
AcDbCircle
 62
7
  6
CONTINUOUS
 10
6.6384237024
 20
3.4150599315
 40
0.03
100
AcDbArc
 50
184.1621379224
 51
270.0
  0
ARC
  5
2F3
100
AcDbEntity
  8
0
100
AcDbCircle
 62
7
  6
CONTINUOUS
 10
6.3903715753
 20
4.0378529294
 40
0.03
100
AcDbArc
 50
180.0
 51
261.5850319153
  0
ARC
  5
2F4
100
AcDbEntity
  8
0
100
AcDbCircle
 62
7
  6
CONTINUOUS
 10
6.3203715753
 20
4.0400599315
 40
0.03
100
AcDbArc
 50
270.0
 51
360.0
  0
ARC
  5
2F5
100
AcDbEntity
  8
0
100
AcDbCircle
 62
7
  6
CONTINUOUS
 10
6.6923715753
 20
2.5640599315
 40
0.012
100
AcDbArc
 50
90.0
 51
180.0
  0
ARC
  5
2F6
100
AcDbEntity
  8
0
100
AcDbCircle
 62
7
  6
CONTINUOUS
 10
6.6923715753
 20
2.1160599315
 40
0.012
100
AcDbArc
 50
180.0
 51
270.0
  0
ARC
  5
2F7
100
AcDbEntity
  8
0
100
AcDbCircle
 62
7
  6
CONTINUOUS
 10
6.3603715753
 20
5.1850599315
 40
0.175
100
AcDbArc
 50
278.4149680847
 51
344.9522620167
  0
ARC
  5
2F8
100
AcDbEntity
  8
0
100
AcDbCircle
 62
7
  6
CONTINUOUS
 10
6.8603715753
 20
7.7704947141
 40
0.1254347826
100
AcDbArc
 50
289.5319940446
 51
337.0635891141
  0
ARC
  5
2F9
100
AcDbEntity
  8
0
100
AcDbCircle
 62
7
  6
CONTINUOUS
 10
6.9233715753
 20
7.5929034213
 40
0.063
100
AcDbArc
 50
109.5319940456
 51
180.0
  0
ARC
  5
2FA
100
AcDbEntity
  8
0
100
AcDbCircle
 62
7
  6
CONTINUOUS
 10
7.033908315
 20
7.6970599315
 40
0.063
100
AcDbArc
 50
90.0
 51
157.0635891141
  0
ARC
  5
2FB
100
AcDbEntity
  8
0
100
AcDbCircle
 62
7
  6
CONTINUOUS
 10
6.6384237024
 20
5.6050599315
 40
0.03
100
AcDbArc
 50
90.0
 51
175.8378620776
  0
ARC
  5
2FC
100
AcDbEntity
  8
0
100
AcDbCircle
 62
7
  6
CONTINUOUS
 10
6.3903715753
 20
4.9822669336
 40
0.03
100
AcDbArc
 50
98.4149680847
 51
180.0
  0
ARC
  5
2FD
100
AcDbEntity
  8
0
100
AcDbCircle
 62
7
  6
CONTINUOUS
 10
6.3203715753
 20
4.9800599315
 40
0.03
100
AcDbArc
 50
0.0
 51
90.0
  0
SPLINE
  5
2FE
100
AcDbEntity
  8
0
100
AcDbSpline
 62
7
  6
CONTINUOUS
 70
0
 71
3
 72
22
 73
18
 74
0
 42
0.0000001
 43
0.0000001
 44
0.0000000001
 40
0.0
 40
0.0
 40
0.0
 40
0.0
 40
0.1680430388
 40
0.3312705251
 40
0.4851838965
 40
0.5573749711
 40
0.6257807421
 40
0.6900058623
 40
0.7496941618
 40
0.8045438765
 40
0.8543023518
 40
0.8987765522
 40
0.937858383
 40
0.9553760236
 40
0.9715543604
 40
0.9864164281
 40
1.0
 40
1.0
 40
1.0
 40
1.0
 10
4.3423715753
 20
4.0280734172
 30
0.0
 10
4.3440632356
 20
4.0280734172
 30
0.0
 10
4.3473986456
 20
4.0279959521
 30
0.0
 10
4.3522725182
 20
4.0276523044
 30
0.0
 10
4.3561657598
 20
4.0271839058
 30
0.0
 10
4.3590924021
 20
4.0267077188
 30
0.0
 10
4.3611173227
 20
4.0263172116
 30
0.0
 10
4.3630061445
 20
4.0258906175
 30
0.0
 10
4.3647469303
 20
4.0254327482
 30
0.0
 10
4.3663289846
 20
4.0249487475
 30
0.0
 10
4.3677429395
 20
4.0244437081
 30
0.0
 10
4.368980545
 20
4.0239227023
 30
0.0
 10
4.3698901427
 20
4.0234639806
 30
0.0
 10
4.3705199026
 20
4.0230890584
 30
0.0
 10
4.3709263765
 20
4.0228170333
 30
0.0
 10
4.3712838575
 20
4.022544492
 30
0.0
 10
4.3714985592
 20
4.0223544421
 30
0.0
 10
4.3715966723
 20
4.022259192
 30
0.0
  0
SPLINE
  5
2FF
100
AcDbEntity
  8
0
100
AcDbSpline
 62
7
  6
CONTINUOUS
 70
0
 71
3
 72
22
 73
18
 74
0
 42
0.0000001
 43
0.0000001
 44
0.0000000001
 40
0.0
 40
0.0
 40
0.0
 40
0.0
 40
0.0135835719
 40
0.0284456397
 40
0.0446239766
 40
0.0621416176
 40
0.101223449
 40
0.1456976496
 40
0.1954561249
 40
0.2503058397
 40
0.3099941397
 40
0.3742192599
 40
0.4426250307
 40
0.514816105
 40
0.6687294733
 40
0.8319569595
 40
1.0
 40
1.0
 40
1.0
 40
1.0
 10
3.7071464784
 20
4.022259192
 30
0.0
 10
3.7072445915
 20
4.0223544421
 30
0.0
 10
3.7074592932
 20
4.022544492
 30
0.0
 10
3.7078167742
 20
4.0228170333
 30
0.0
 10
3.7082232481
 20
4.0230890584
 30
0.0
 10
3.708853008
 20
4.0234639806
 30
0.0
 10
3.7097626057
 20
4.0239227023
 30
0.0
 10
3.7110002113
 20
4.0244437082
 30
0.0
 10
3.7124141662
 20
4.0249487476
 30
0.0
 10
3.7139962204
 20
4.0254327482
 30
0.0
 10
3.7157370063
 20
4.0258906175
 30
0.0
 10
3.717625828
 20
4.0263172116
 30
0.0
 10
3.7196507486
 20
4.0267077188
 30
0.0
 10
3.7225773909
 20
4.0271839058
 30
0.0
 10
3.7264706324
 20
4.0276523044
 30
0.0
 10
3.7313445051
 20
4.0279959521
 30
0.0
 10
3.7346799151
 20
4.0280734172
 30
0.0
 10
3.7363715753
 20
4.0280734172
 30
0.0
  0
SPLINE
  5
300
100
AcDbEntity
  8
0
100
AcDbSpline
 62
7
  6
CONTINUOUS
 70
0
 71
3
 72
15
 73
11
 74
0
 42
0.0000001
 43
0.0000001
 44
0.0000000001
 40
0.0
 40
0.0
 40
0.0
 40
0.0
 40
0.1120729783
 40
0.227358428
 40
0.34638228
 40
0.4695806772
 40
0.5970985478
 40
0.7286652315
 40
0.863431632
 40
1.0
 40
1.0
 40
1.0
 40
1.0
 10
4.5853829767
 20
4.9950067372
 30
0.0
 10
4.5847989965
 20
4.9960230174
 30
0.0
 10
4.5834899257
 20
4.9980160392
 30
0.0
 10
4.5811433226
 20
5.0007874311
 30
0.0
 10
4.5783826115
 20
5.0033240773
 30
0.0
 10
4.575214091
 20
5.0055598015
 30
0.0
 10
4.5716616181
 20
5.0074199794
 30
0.0
 10
4.5677759641
 20
5.0088256828
 30
0.0
 10
4.563641683
 20
5.0097045487
 30
0.0
 10
4.5607998778
 20
5.0099036571
 30
0.0
 10
4.5593715753
 20
5.0099036571
 30
0.0
  0
SPLINE
  5
301
100
AcDbEntity
  8
0
100
AcDbSpline
 62
7
  6
CONTINUOUS
 70
0
 71
3
 72
15
 73
11
 74
0
 42
0.0000001
 43
0.0000001
 44
0.0000000001
 40
0.0
 40
0.0
 40
0.0
 40
0.0
 40
0.1080171741
 40
0.2203393609
 40
0.3376283867
 40
0.4603950615
 40
0.5887721698
 40
0.7223585404
 40
0.8600346293
 40
1.0
 40
1.0
 40
1.0
 40
1.0
 10
4.5853829767
 20
4.9926715858
 30
0.0
 10
4.5847960439
 20
4.9936040782
 30
0.0
 10
4.5834783139
 20
4.9954331593
 30
0.0
 10
4.5811287783
 20
4.99796285
 30
0.0
 10
4.57836596
 20
5.0002770426
 30
0.0
 10
4.5751967836
 20
5.0023154631
 30
0.0
 10
4.5716456221
 20
5.0040104186
 30
0.0
 10
4.5677635669
 20
5.0052905122
 30
0.0
 10
4.5636347667
 20
5.0060904717
 30
0.0
 10
4.5607992949
 20
5.0062715587
 30
0.0
 10
4.5593715753
 20
5.0062715587
 30
0.0
  0
SPLINE
  5
302
100
AcDbEntity
  8
0
100
AcDbSpline
 62
7
  6
CONTINUOUS
 70
0
 71
3
 72
15
 73
11
 74
0
 42
0.0000001
 43
0.0000001
 44
0.0000000001
 40
0.0
 40
0.0
 40
0.0
 40
0.0
 40
0.1034124949
 40
0.2124289148
 40
0.3278335567
 40
0.4501851969
 40
0.5795699274
 40
0.7154189715
 40
0.8563070985
 40
1.0
 40
1.0
 40
1.0
 40
1.0
 10
4.5853829767
 20
4.9856886203
 30
0.0
 10
4.5847921474
 20
4.9865287468
 30
0.0
 10
4.5834635728
 20
4.9881763802
 30
0.0
 10
4.5811112348
 20
4.9904392094
 30
0.0
 10
4.5783468681
 20
4.9925080449
 30
0.0
 10
4.5751778497
 20
4.9943292774
 30
0.0
 10
4.5716288138
 20
4.99584284
 30
0.0
 10
4.5677509354
 20
4.9969854218
 30
0.0
 10
4.563627856
 20
4.9976992078
 30
0.0
 10
4.5607987143
 20
4.997860671
 30
0.0
 10
4.5593715753
 20
4.997860671
 30
0.0
  0
SPLINE
  5
303
100
AcDbEntity
  8
0
100
AcDbSpline
 62
7
  6
CONTINUOUS
 70
0
 71
3
 72
15
 73
11
 74
0
 42
0.0000001
 43
0.0000001
 44
0.0000000001
 40
0.0
 40
0.0
 40
0.0
 40
0.0
 40
0.1120729818
 40
0.2273584295
 40
0.3463822913
 40
0.4695806928
 40
0.5970985677
 40
0.7286652423
 40
0.8634316312
 40
1.0
 40
1.0
 40
1.0
 40
1.0
 10
3.663360174
 20
4.0251131258
 30
0.0
 10
3.6639441542
 20
4.0240968456
 30
0.0
 10
3.6652532251
 20
4.0221038238
 30
0.0
 10
3.6675998281
 20
4.0193324317
 30
0.0
 10
3.6703605395
 20
4.0167957856
 30
0.0
 10
3.6735290601
 20
4.0145600612
 30
0.0
 10
3.677081533
 20
4.0126998835
 30
0.0
 10
3.6809671869
 20
4.0112941801
 30
0.0
 10
3.6851014678
 20
4.0104153143
 30
0.0
 10
3.6879432729
 20
4.0102162059
 30
0.0
 10
3.6893715753
 20
4.0102162059
 30
0.0
  0
SPLINE
  5
304
100
AcDbEntity
  8
0
100
AcDbSpline
 62
7
  6
CONTINUOUS
 70
0
 71
3
 72
15
 73
11
 74
0
 42
0.0000001
 43
0.0000001
 44
0.0000000001
 40
0.0
 40
0.0
 40
0.0
 40
0.0
 40
0.1365683311
 40
0.2713346956
 40
0.4029013727
 40
0.5304192704
 40
0.6536176865
 40
0.7726415612
 40
0.8879270116
 40
1.0
 40
1.0
 40
1.0
 40
1.0
 10
3.6893715753
 20
5.0099036571
 30
0.0
 10
3.6879432733
 20
5.0099036571
 30
0.0
 10
3.6851014689
 20
5.0097045488
 30
0.0
 10
3.6809671885
 20
5.0088256834
 30
0.0
 10
3.6770815346
 20
5.0074199801
 30
0.0
 10
3.6735290611
 20
5.0055598026
 30
0.0
 10
3.67036054
 20
5.0033240778
 30
0.0
 10
3.6675998284
 20
5.0007874316
 30
0.0
 10
3.6652532252
 20
4.9980160393
 30
0.0
 10
3.6639441542
 20
4.9960230175
 30
0.0
 10
3.663360174
 20
4.9950067372
 30
0.0
  0
SPLINE
  5
305
100
AcDbEntity
  8
0
100
AcDbSpline
 62
7
  6
CONTINUOUS
 70
0
 71
3
 72
15
 73
11
 74
0
 42
0.0000001
 43
0.0000001
 44
0.0000000001
 40
0.0
 40
0.0
 40
0.0
 40
0.0
 40
0.1399653329
 40
0.2776413853
 40
0.4112277497
 40
0.5396048861
 40
0.6623715799
 40
0.7796606286
 40
0.8919828161
 40
1.0
 40
1.0
 40
1.0
 40
1.0
 10
3.6893715753
 20
5.0062715587
 30
0.0
 10
3.6879438562
 20
5.0062715587
 30
0.0
 10
3.6851083851
 20
5.0060904717
 30
0.0
 10
3.6809795857
 20
5.0052905127
 30
0.0
 10
3.6770975306
 20
5.0040104192
 30
0.0
 10
3.6735463685
 20
5.0023154641
 30
0.0
 10
3.6703771915
 20
5.0002770431
 30
0.0
 10
3.6676143727
 20
4.9979628505
 30
0.0
 10
3.6652648369
 20
4.9954331594
 30
0.0
 10
3.6639471069
 20
4.9936040783
 30
0.0
 10
3.663360174
 20
4.9926715858
 30
0.0
  0
SPLINE
  5
306
100
AcDbEntity
  8
0
100
AcDbSpline
 62
7
  6
CONTINUOUS
 70
0
 71
3
 72
15
 73
11
 74
0
 42
0.0000001
 43
0.0000001
 44
0.0000000001
 40
0.0
 40
0.0
 40
0.0
 40
0.0
 40
0.1436928627
 40
0.2845809527
 40
0.4204299909
 40
0.5498147506
 40
0.6721664101
 40
0.7875710751
 40
0.8965874956
 40
1.0
 40
1.0
 40
1.0
 40
1.0
 10
3.6893715753
 20
4.997860671
 30
0.0
 10
3.6879444368
 20
4.997860671
 30
0.0
 10
3.6851152959
 20
4.9976992079
 30
0.0
 10
3.6809922172
 20
4.9969854222
 30
0.0
 10
3.6771143389
 20
4.9958428405
 30
0.0
 10
3.6735653024
 20
4.9943292783
 30
0.0
 10
3.6703962834
 20
4.9925080454
 30
0.0
 10
3.6676319162
 20
4.9904392099
 30
0.0
 10
3.665279578
 20
4.9881763803
 30
0.0
 10
3.6639510034
 20
4.9865287469
 30
0.0
 10
3.663360174
 20
4.9856886203
 30
0.0
  0
SPLINE
  5
307
100
AcDbEntity
  8
0
100
AcDbSpline
 62
7
  6
CONTINUOUS
 70
0
 71
3
 72
15
 73
11
 74
0
 42
0.0000001
 43
0.0000001
 44
0.0000000001
 40
0.0
 40
0.0
 40
0.0
 40
0.0
 40
0.1476530237
 40
0.2919747527
 40
0.4302799313
 40
0.5608107278
 40
0.6827940391
 40
0.796226282
 40
0.9016709792
 40
1.0
 40
1.0
 40
1.0
 40
1.0
 10
3.6893715753
 20
4.9847519956
 30
0.0
 10
3.6879449928
 20
4.9847519956
 30
0.0
 10
3.6851219338
 20
4.9846115381
 30
0.0
 10
3.6810045843
 20
4.9839902281
 30
0.0
 10
3.6771313135
 20
4.9829954911
 30
0.0
 10
3.6735852451
 20
4.9816774252
 30
0.0
 10
3.6704174521
 20
4.9800908803
 30
0.0
 10
3.6676525407
 20
4.978287818
 30
0.0
 10
3.6652980274
 20
4.9763145809
 30
0.0
 10
3.6639561368
 20
4.9748649425
 30
0.0
 10
3.663360174
 20
4.9741250905
 30
0.0
  0
SPLINE
  5
308
100
AcDbEntity
  8
0
100
AcDbSpline
 62
7
  6
CONTINUOUS
 70
0
 71
3
 72
16
 73
12
 74
0
 42
0.0000001
 43
0.0000001
 44
0.0000000001
 40
0.0
 40
0.0
 40
0.0
 40
0.0
 40
0.1516933861
 40
0.2995392431
 40
0.4404030594
 40
0.572181491
 40
0.6938671684
 40
0.7508761222
 40
0.8053611886
 40
0.9070926743
 40
1.0
 40
1.0
 40
1.0
 40
1.0
 10
3.6893715753
 20
4.9670717761
 30
0.0
 10
3.6879455028
 20
4.9670717761
 30
0.0
 10
3.6851280355
 20
4.966953486
 30
0.0
 10
3.6810161795
 20
4.966429981
 30
0.0
 10
3.6771476487
 20
4.9655917681
 30
0.0
 10
3.6736054642
 20
4.9644811361
 30
0.0
 10
3.6709118031
 20
4.963343354
 30
0.0
 10
3.6689652834
 20
4.9623330622
 30
0.0
 10
3.6672377458
 20
4.9613147019
 30
0.0
 10
3.6653204912
 20
4.9599603177
 30
0.0
 10
3.6639628422
 20
4.9587245462
 30
0.0
 10
3.663360174
 20
4.9580923596
 30
0.0
  0
SPLINE
  5
309
100
AcDbEntity
  8
0
100
AcDbSpline
 62
7
  6
CONTINUOUS
 70
0
 71
3
 72
15
 73
11
 74
0
 42
0.0000001
 43
0.0000001
 44
0.0000000001
 40
0.0
 40
0.0
 40
0.0
 40
0.0
 40
0.1556264302
 40
0.306924211
 40
0.4503343819
 40
0.5834150659
 40
0.7049093929
 40
0.8145025087
 40
0.9125868661
 40
1.0
 40
1.0
 40
1.0
 40
1.0
 10
3.6893715753
 20
4.9449902827
 30
0.0
 10
3.6879459471
 20
4.9449902827
 30
0.0
 10
3.6851333721
 20
4.9448951123
 30
0.0
 10
3.6810264474
 20
4.9444737515
 30
0.0
 10
3.6771626369
 20
4.9437991636
 30
0.0
 10
3.673624372
 20
4.9429053701
 30
0.0
 10
3.6704624575
 20
4.9418296216
 30
0.0
 10
3.6677010031
 20
4.9406070886
 30
0.0
 10
3.6653468564
 20
4.9392688903
 30
0.0
 10
3.66397138
 20
4.9382621666
 30
0.0
 10
3.663360174
 20
4.9377448315
 30
0.0
  0
SPLINE
  5
30A
100
AcDbEntity
  8
0
100
AcDbSpline
 62
7
  6
CONTINUOUS
 70
0
 71
3
 72
18
 73
14
 74
0
 42
0.0000001
 43
0.0000001
 44
0.0000000001
 40
0.0
 40
0.0
 40
0.0
 40
0.0
 40
0.1591519453
 40
0.3135588568
 40
0.4592903257
 40
0.5935991692
 40
0.7149877097
 40
0.7706579458
 40
0.8229662115
 40
0.8719672381
 40
0.9177415531
 40
0.9603828213
 40
1.0
 40
1.0
 40
1.0
 40
1.0
 10
3.6893715753
 20
4.9187201723
 30
0.0
 10
3.6879463087
 20
4.9187201723
 30
0.0
 10
3.6851377174
 20
4.9186488632
 30
0.0
 10
3.6810349542
 20
4.9183330548
 30
0.0
 10
3.6771752548
 20
4.9178275337
 30
0.0
 10
3.6736411827
 20
4.9171578947
 30
0.0
 10
3.6709370152
 20
4.9164681601
 30
0.0
 10
3.6689769929
 20
4.9158523273
 30
0.0
 10
3.6676525894
 20
4.9153797492
 30
0.0
 10
3.6664310638
 20
4.9148858526
 30
0.0
 10
3.6653117943
 20
4.9143731939
 30
0.0
 10
3.6642939692
 20
4.9138442386
 30
0.0
 10
3.6636595837
 20
4.9134687996
 30
0.0
 10
3.663360174
 20
4.913278464
 30
0.0
  0
SPLINE
  5
30B
100
AcDbEntity
  8
0
100
AcDbSpline
 62
7
  6
CONTINUOUS
 70
0
 71
3
 72
18
 73
14
 74
0
 42
0.0000001
 43
0.0000001
 44
0.0000000001
 40
0.0
 40
0.0
 40
0.0
 40
0.0
 40
0.1619868969
 40
0.3189063749
 40
0.4665381042
 40
0.6018912308
 40
0.7232659474
 40
0.7784709077
 40
0.8299817544
 40
0.8778293868
 40
0.9220688348
 40
0.9627661037
 40
1.0
 40
1.0
 40
1.0
 40
1.0
 10
3.6893715753
 20
4.8885144404
 30
0.0
 10
3.6879465735
 20
4.8885144404
 30
0.0
 10
3.6851409079
 20
4.8884675362
 30
0.0
 10
3.6810412507
 20
4.8882597677
 30
0.0
 10
3.677184822
 20
4.8879272513
 30
0.0
 10
3.6736541333
 20
4.8874868748
 30
0.0
 10
3.6709468475
 20
4.8870324999
 30
0.0
 10
3.6689817636
 20
4.8866258572
 30
0.0
 10
3.6676579479
 20
4.886314758
 30
0.0
 10
3.6664370521
 20
4.8859896826
 30
0.0
 10
3.6653184689
 20
4.8856523346
 30
0.0
 10
3.6643013619
 20
4.8853043523
 30
0.0
 10
3.6636622889
 20
4.8850554274
 30
0.0
 10
3.663360174
 20
4.8849288816
 30
0.0
  0
SPLINE
  5
30C
100
AcDbEntity
  8
0
100
AcDbSpline
 62
7
  6
CONTINUOUS
 70
0
 71
3
 72
17
 73
13
 74
0
 42
0.0000001
 43
0.0000001
 44
0.0000000001
 40
0.0
 40
0.0
 40
0.0
 40
0.0
 40
0.163791549
 40
0.3223156624
 40
0.4711711931
 40
0.5409395711
 40
0.6072146567
 40
0.7286108035
 40
0.8345452578
 40
0.9249125003
 40
0.9643433316
 40
1.0
 40
1.0
 40
1.0
 40
1.0
 10
3.6893715753
 20
4.8546639846
 30
0.0
 10
3.6879467312
 20
4.8546639846
 30
0.0
 10
3.6851428101
 20
4.8546418378
 30
0.0
 10
3.6810450376
 20
4.8545437102
 30
0.0
 10
3.6777667093
 20
4.8544101833
 30
0.0
 10
3.6752920001
 20
4.8542748047
 30
0.0
 10
3.6730571064
 20
4.854130849
 30
0.0
 10
3.6705107612
 20
4.8539289343
 30
0.0
 10
3.6677613681
 20
4.8536455281
 30
0.0
 10
3.6657279069
 20
4.8533771348
 30
0.0
 10
3.6643069373
 20
4.8531475532
 30
0.0
 10
3.6636644492
 20
4.8530293517
 30
0.0
 10
3.663360174
 20
4.8529691063
 30
0.0
  0
SPLINE
  5
30D
100
AcDbEntity
  8
0
100
AcDbSpline
 62
7
  6
CONTINUOUS
 70
0
 71
3
 72
17
 73
13
 74
0
 42
0.0000001
 43
0.0000001
 44
0.0000000001
 40
0.0
 40
0.0
 40
0.0
 40
0.0
 40
0.0356566666
 40
0.0750874946
 40
0.1654547349
 40
0.271389175
 40
0.3927853057
 40
0.4590603818
 40
0.5288287404
 40
0.6776842654
 40
0.8362084058
 40
1.0
 40
1.0
 40
1.0
 40
1.0
 10
3.663360174
 20
4.1671507567
 30
0.0
 10
3.6636644491
 20
4.1670905113
 30
0.0
 10
3.6643069372
 20
4.1669723099
 30
0.0
 10
3.6657279068
 20
4.1667427282
 30
0.0
 10
3.6677613678
 20
4.1664743349
 30
0.0
 10
3.6705107607
 20
4.1661909287
 30
0.0
 10
3.6730571055
 20
4.165989014
 30
0.0
 10
3.6752919988
 20
4.1658450584
 30
0.0
 10
3.6777667077
 20
4.1657096797
 30
0.0
 10
3.6810450361
 20
4.1655761529
 30
0.0
 10
3.6851428091
 20
4.1654780252
 30
0.0
 10
3.6879467309
 20
4.1654558784
 30
0.0
 10
3.6893715753
 20
4.1654558784
 30
0.0
  0
SPLINE
  5
30E
100
AcDbEntity
  8
0
100
AcDbSpline
 62
7
  6
CONTINUOUS
 70
0
 71
3
 72
18
 73
14
 74
0
 42
0.0000001
 43
0.0000001
 44
0.0000000001
 40
0.0
 40
0.0
 40
0.0
 40
0.0
 40
0.0372338944
 40
0.07793116
 40
0.1221706064
 40
0.1700182382
 40
0.2215290815
 40
0.2767340311
 40
0.3981087317
 40
0.5334618297
 40
0.6810935536
 40
0.8380130584
 40
1.0
 40
1.0
 40
1.0
 40
1.0
 10
3.663360174
 20
4.1351909814
 30
0.0
 10
3.6636622888
 20
4.1350644356
 30
0.0
 10
3.6643013618
 20
4.1348155108
 30
0.0
 10
3.6653184688
 20
4.1344675285
 30
0.0
 10
3.6664370519
 20
4.1341301805
 30
0.0
 10
3.6676579477
 20
4.1338051051
 30
0.0
 10
3.6689817633
 20
4.1334940059
 30
0.0
 10
3.6709468469
 20
4.1330873632
 30
0.0
 10
3.6736541322
 20
4.1326329884
 30
0.0
 10
3.6771848205
 20
4.1321926118
 30
0.0
 10
3.6810412491
 20
4.1318600955
 30
0.0
 10
3.6851409069
 20
4.1316523268
 30
0.0
 10
3.6879465731
 20
4.1316054226
 30
0.0
 10
3.6893715753
 20
4.1316054226
 30
0.0
  0
SPLINE
  5
30F
100
AcDbEntity
  8
0
100
AcDbSpline
 62
7
  6
CONTINUOUS
 70
0
 71
3
 72
18
 73
14
 74
0
 42
0.0000001
 43
0.0000001
 44
0.0000000001
 40
0.0
 40
0.0
 40
0.0
 40
0.0
 40
0.0396171768
 40
0.0822584415
 40
0.1280327549
 40
0.1770337809
 40
0.2293420433
 40
0.2850122688
 40
0.4064007934
 40
0.5407096091
 40
0.6864410727
 40
0.8408480108
 40
1.0
 40
1.0
 40
1.0
 40
1.0
 10
3.663360174
 20
4.106841399
 30
0.0
 10
3.6636595837
 20
4.1066510634
 30
0.0
 10
3.6642939691
 20
4.1062756244
 30
0.0
 10
3.6653117942
 20
4.1057466692
 30
0.0
 10
3.6664310637
 20
4.1052340105
 30
0.0
 10
3.6676525892
 20
4.1047401139
 30
0.0
 10
3.6689769926
 20
4.1042675358
 30
0.0
 10
3.6709370146
 20
4.103651703
 30
0.0
 10
3.6736411817
 20
4.1029619686
 30
0.0
 10
3.6771752533
 20
4.1022923295
 30
0.0
 10
3.6810349526
 20
4.1017868084
 30
0.0
 10
3.6851377164
 20
4.1014709999
 30
0.0
 10
3.6879463083
 20
4.1013996907
 30
0.0
 10
3.6893715753
 20
4.1013996907
 30
0.0
  0
SPLINE
  5
310
100
AcDbEntity
  8
0
100
AcDbSpline
 62
7
  6
CONTINUOUS
 70
0
 71
3
 72
15
 73
11
 74
0
 42
0.0000001
 43
0.0000001
 44
0.0000000001
 40
0.0
 40
0.0
 40
0.0
 40
0.0
 40
0.0874131284
 40
0.1854974834
 40
0.2950905855
 40
0.4165848969
 40
0.5496655538
 40
0.6930757199
 40
0.8443735268
 40
1.0
 40
1.0
 40
1.0
 40
1.0
 10
3.663360174
 20
4.0823750315
 30
0.0
 10
3.66397138
 20
4.0818576964
 30
0.0
 10
3.6653468563
 20
4.0808509728
 30
0.0
 10
3.6677010029
 20
4.0795127746
 30
0.0
 10
3.6704624569
 20
4.0782902416
 30
0.0
 10
3.6736243709
 20
4.0772144932
 30
0.0
 10
3.6771626353
 20
4.0763206997
 30
0.0
 10
3.6810264458
 20
4.0756461118
 30
0.0
 10
3.6851333711
 20
4.0752247508
 30
0.0
 10
3.6879459467
 20
4.0751295803
 30
0.0
 10
3.6893715753
 20
4.0751295803
 30
0.0
  0
SPLINE
  5
311
100
AcDbEntity
  8
0
100
AcDbSpline
 62
7
  6
CONTINUOUS
 70
0
 71
3
 72
16
 73
12
 74
0
 42
0.0000001
 43
0.0000001
 44
0.0000000001
 40
0.0
 40
0.0
 40
0.0
 40
0.0
 40
0.0929073199
 40
0.1946388032
 40
0.2491238665
 40
0.3061328099
 40
0.4278184719
 40
0.5595968774
 40
0.7004606892
 40
0.8483065721
 40
1.0
 40
1.0
 40
1.0
 40
1.0
 10
3.663360174
 20
4.0620275034
 30
0.0
 10
3.6639628422
 20
4.0613953168
 30
0.0
 10
3.6653204911
 20
4.0601595454
 30
0.0
 10
3.6672377456
 20
4.0588051613
 30
0.0
 10
3.6689652831
 20
4.057786801
 30
0.0
 10
3.6709118025
 20
4.0567765092
 30
0.0
 10
3.6736054631
 20
4.0556387273
 30
0.0
 10
3.6771476472
 20
4.0545280953
 30
0.0
 10
3.6810161779
 20
4.0536898823
 30
0.0
 10
3.6851280345
 20
4.0531663771
 30
0.0
 10
3.6879455024
 20
4.0530480869
 30
0.0
 10
3.6893715753
 20
4.0530480869
 30
0.0
  0
SPLINE
  5
312
100
AcDbEntity
  8
0
100
AcDbSpline
 62
7
  6
CONTINUOUS
 70
0
 71
3
 72
15
 73
11
 74
0
 42
0.0000001
 43
0.0000001
 44
0.0000000001
 40
0.0
 40
0.0
 40
0.0
 40
0.0
 40
0.0983290147
 40
0.2037737094
 40
0.317205939
 40
0.4391892353
 40
0.5697200064
 40
0.7080251812
 40
0.8523469356
 40
1.0
 40
1.0
 40
1.0
 40
1.0
 10
3.663360174
 20
4.0459947725
 30
0.0
 10
3.6639561368
 20
4.0452549205
 30
0.0
 10
3.6652980273
 20
4.0438052822
 30
0.0
 10
3.6676525404
 20
4.0418320453
 30
0.0
 10
3.6704174515
 20
4.040028983
 30
0.0
 10
3.673585244
 20
4.0384424383
 30
0.0
 10
3.677131312
 20
4.0371243723
 30
0.0
 10
3.6810045827
 20
4.0361296352
 30
0.0
 10
3.6851219327
 20
4.0355083249
 30
0.0
 10
3.6879449924
 20
4.0353678674
 30
0.0
 10
3.6893715753
 20
4.0353678674
 30
0.0
  0
SPLINE
  5
313
100
AcDbEntity
  8
0
100
AcDbSpline
 62
7
  6
CONTINUOUS
 70
0
 71
3
 72
15
 73
11
 74
0
 42
0.0000001
 43
0.0000001
 44
0.0000000001
 40
0.0
 40
0.0
 40
0.0
 40
0.0
 40
0.1034124982
 40
0.2124289161
 40
0.3278335679
 40
0.4501852125
 40
0.5795699479
 40
0.7154189826
 40
0.8563070977
 40
1.0
 40
1.0
 40
1.0
 40
1.0
 10
3.663360174
 20
4.0344312427
 30
0.0
 10
3.6639510033
 20
4.0335911162
 30
0.0
 10
3.6652795779
 20
4.0319434828
 30
0.0
 10
3.667631916
 20
4.0296806534
 30
0.0
 10
3.6703962828
 20
4.027611818
 30
0.0
 10
3.6735653014
 20
4.0257905853
 30
0.0
 10
3.6771143374
 20
4.024277023
 30
0.0
 10
3.6809922156
 20
4.0231344412
 30
0.0
 10
3.6851152948
 20
4.0224206552
 30
0.0
 10
3.6879444364
 20
4.022259192
 30
0.0
 10
3.6893715753
 20
4.022259192
 30
0.0
  0
SPLINE
  5
314
100
AcDbEntity
  8
0
100
AcDbSpline
 62
7
  6
CONTINUOUS
 70
0
 71
3
 72
15
 73
11
 74
0
 42
0.0000001
 43
0.0000001
 44
0.0000000001
 40
0.0
 40
0.0
 40
0.0
 40
0.0
 40
0.1080171775
 40
0.2203393623
 40
0.3376283979
 40
0.4603950771
 40
0.5887721899
 40
0.7223585513
 40
0.8600346285
 40
1.0
 40
1.0
 40
1.0
 40
1.0
 10
3.663360174
 20
4.0274482773
 30
0.0
 10
3.6639471068
 20
4.0265157848
 30
0.0
 10
3.6652648368
 20
4.0246867037
 30
0.0
 10
3.6676143725
 20
4.0221570128
 30
0.0
 10
3.6703771909
 20
4.0198428203
 30
0.0
 10
3.6735463675
 20
4.0178043996
 30
0.0
 10
3.6770975291
 20
4.0161094443
 30
0.0
 10
3.6809795841
 20
4.0148293507
 30
0.0
 10
3.6851083841
 20
4.0140293913
 30
0.0
 10
3.6879438558
 20
4.0138483043
 30
0.0
 10
3.6893715753
 20
4.0138483043
 30
0.0
  0
SPLINE
  5
315
100
AcDbEntity
  8
0
100
AcDbSpline
 62
7
  6
CONTINUOUS
 70
0
 71
3
 72
15
 73
11
 74
0
 42
0.0000001
 43
0.0000001
 44
0.0000000001
 40
0.0
 40
0.0
 40
0.0
 40
0.0
 40
0.0983290116
 40
0.2037737082
 40
0.3172059278
 40
0.4391892196
 40
0.5697199856
 40
0.7080251698
 40
0.8523469364
 40
1.0
 40
1.0
 40
1.0
 40
1.0
 10
4.5853829767
 20
4.9741250905
 30
0.0
 10
4.5847870139
 20
4.9748649425
 30
0.0
 10
4.5834451235
 20
4.9763145808
 30
0.0
 10
4.5810906104
 20
4.9782878176
 30
0.0
 10
4.5783256994
 20
4.9800908799
 30
0.0
 10
4.5751579071
 20
4.9816774244
 30
0.0
 10
4.5716118392
 20
4.9829954906
 30
0.0
 10
4.5677385683
 20
4.9839902277
 30
0.0
 10
4.5636212181
 20
4.9846115381
 30
0.0
 10
4.5607981583
 20
4.9847519956
 30
0.0
 10
4.5593715753
 20
4.9847519956
 30
0.0
  0
SPLINE
  5
316
100
AcDbEntity
  8
0
100
AcDbSpline
 62
7
  6
CONTINUOUS
 70
0
 71
3
 72
16
 73
12
 74
0
 42
0.0000001
 43
0.0000001
 44
0.0000000001
 40
0.0
 40
0.0
 40
0.0
 40
0.0
 40
0.0929073169
 40
0.1946388021
 40
0.2491238632
 40
0.3061327987
 40
0.4278184562
 40
0.5595968561
 40
0.7004606776
 40
0.848306573
 40
1.0
 40
1.0
 40
1.0
 40
1.0
 10
4.5853829767
 20
4.9580923596
 30
0.0
 10
4.5847803085
 20
4.9587245461
 30
0.0
 10
4.5834226596
 20
4.9599603176
 30
0.0
 10
4.5815054051
 20
4.9613147016
 30
0.0
 10
4.5797778677
 20
4.962333062
 30
0.0
 10
4.5778313485
 20
4.9633433537
 30
0.0
 10
4.575137688
 20
4.9644811355
 30
0.0
 10
4.571595504
 20
4.9655917676
 30
0.0
 10
4.5677269731
 20
4.9664299807
 30
0.0
 10
4.5636151163
 20
4.966953486
 30
0.0
 10
4.5607976483
 20
4.9670717761
 30
0.0
 10
4.5593715753
 20
4.9670717761
 30
0.0
  0
SPLINE
  5
317
100
AcDbEntity
  8
0
100
AcDbSpline
 62
7
  6
CONTINUOUS
 70
0
 71
3
 72
15
 73
11
 74
0
 42
0.0000001
 43
0.0000001
 44
0.0000000001
 40
0.0
 40
0.0
 40
0.0
 40
0.0
 40
0.0874131254
 40
0.1854974824
 40
0.2950905743
 40
0.4165848812
 40
0.5496655322
 40
0.693075708
 40
0.8443735278
 40
1.0
 40
1.0
 40
1.0
 40
1.0
 10
4.5853829767
 20
4.9377448315
 30
0.0
 10
4.5847717707
 20
4.9382621666
 30
0.0
 10
4.5833962944
 20
4.9392688902
 30
0.0
 10
4.5810421479
 20
4.9406070883
 30
0.0
 10
4.578280694
 20
4.9418296213
 30
0.0
 10
4.5751187802
 20
4.9429053696
 30
0.0
 10
4.5715805158
 20
4.9437991632
 30
0.0
 10
4.5677167052
 20
4.9444737512
 30
0.0
 10
4.5636097797
 20
4.9448951123
 30
0.0
 10
4.5607972039
 20
4.9449902827
 30
0.0
 10
4.5593715753
 20
4.9449902827
 30
0.0
  0
SPLINE
  5
318
100
AcDbEntity
  8
0
100
AcDbSpline
 62
7
  6
CONTINUOUS
 70
0
 71
3
 72
18
 73
14
 74
0
 42
0.0000001
 43
0.0000001
 44
0.0000000001
 40
0.0
 40
0.0
 40
0.0
 40
0.0
 40
0.0396171757
 40
0.0822584387
 40
0.1280327526
 40
0.17703378
 40
0.2293420401
 40
0.2850122576
 40
0.4064007777
 40
0.5407095872
 40
0.6864410606
 40
0.8408480118
 40
1.0
 40
1.0
 40
1.0
 40
1.0
 10
4.5853829767
 20
4.913278464
 30
0.0
 10
4.585083567
 20
4.9134687996
 30
0.0
 10
4.5844491816
 20
4.9138442386
 30
0.0
 10
4.5834313565
 20
4.9143731938
 30
0.0
 10
4.5823120871
 20
4.9148858525
 30
0.0
 10
4.5810905615
 20
4.915379749
 30
0.0
 10
4.5797661582
 20
4.9158523272
 30
0.0
 10
4.5778061364
 20
4.9164681599
 30
0.0
 10
4.5751019694
 20
4.9171578943
 30
0.0
 10
4.5715678979
 20
4.9178275335
 30
0.0
 10
4.5677081984
 20
4.9183330546
 30
0.0
 10
4.5636054344
 20
4.9186488631
 30
0.0
 10
4.5607968424
 20
4.9187201723
 30
0.0
 10
4.5593715753
 20
4.9187201723
 30
0.0
  0
SPLINE
  5
319
100
AcDbEntity
  8
0
100
AcDbSpline
 62
7
  6
CONTINUOUS
 70
0
 71
3
 72
18
 73
14
 74
0
 42
0.0000001
 43
0.0000001
 44
0.0000000001
 40
0.0
 40
0.0
 40
0.0
 40
0.0
 40
0.0372338933
 40
0.0779311572
 40
0.1221706042
 40
0.1700182374
 40
0.2215290783
 40
0.2767340199
 40
0.3981087159
 40
0.5334618075
 40
0.6810935414
 40
0.8380130594
 40
1.0
 40
1.0
 40
1.0
 40
1.0
 10
4.5853829767
 20
4.8849288816
 30
0.0
 10
4.5850808618
 20
4.8850554274
 30
0.0
 10
4.5844417889
 20
4.8853043522
 30
0.0
 10
4.5834246819
 20
4.8856523345
 30
0.0
 10
4.5823060988
 20
4.8859896825
 30
0.0
 10
4.581085203
 20
4.8863147579
 30
0.0
 10
4.5797613875
 20
4.8866258571
 30
0.0
 10
4.5777963041
 20
4.8870324998
 30
0.0
 10
4.5750890189
 20
4.8874868746
 30
0.0
 10
4.5715583307
 20
4.8879272511
 30
0.0
 10
4.5677019019
 20
4.8882597675
 30
0.0
 10
4.5636022439
 20
4.8884675362
 30
0.0
 10
4.5607965776
 20
4.8885144404
 30
0.0
 10
4.5593715753
 20
4.8885144404
 30
0.0
  0
SPLINE
  5
31A
100
AcDbEntity
  8
0
100
AcDbSpline
 62
7
  6
CONTINUOUS
 70
0
 71
3
 72
17
 73
13
 74
0
 42
0.0000001
 43
0.0000001
 44
0.0000000001
 40
0.0
 40
0.0
 40
0.0
 40
0.0
 40
0.0356566654
 40
0.0750874919
 40
0.1654547341
 40
0.2713891638
 40
0.3927852899
 40
0.4590603652
 40
0.528828718
 40
0.6776842531
 40
0.8362084068
 40
1.0
 40
1.0
 40
1.0
 40
1.0
 10
4.5853829767
 20
4.8529691063
 30
0.0
 10
4.5850787016
 20
4.8530293517
 30
0.0
 10
4.5844362135
 20
4.8531475531
 30
0.0
 10
4.5830152439
 20
4.8533771348
 30
0.0
 10
4.580981783
 20
4.8536455281
 30
0.0
 10
4.5782323903
 20
4.8539289343
 30
0.0
 10
4.5756860455
 20
4.8541308489
 30
0.0
 10
4.5734511523
 20
4.8542748046
 30
0.0
 10
4.5709764435
 20
4.8544101833
 30
0.0
 10
4.5676981149
 20
4.8545437101
 30
0.0
 10
4.5636003417
 20
4.8546418378
 30
0.0
 10
4.5607964198
 20
4.8546639846
 30
0.0
 10
4.5593715753
 20
4.8546639846
 30
0.0
  0
SPLINE
  5
31B
100
AcDbEntity
  8
0
100
AcDbSpline
 62
7
  6
CONTINUOUS
 70
0
 71
3
 72
17
 73
13
 74
0
 42
0.0000001
 43
0.0000001
 44
0.0000000001
 40
0.0
 40
0.0
 40
0.0
 40
0.0
 40
0.1637915706
 40
0.3223156813
 40
0.4711711985
 40
0.5409395751
 40
0.6072146591
 40
0.7286108042
 40
0.8345452596
 40
0.9249125003
 40
0.9643433315
 40
1.0
 40
1.0
 40
1.0
 40
1.0
 10
4.5593715753
 20
4.1654558784
 30
0.0
 10
4.5607964196
 20
4.1654558784
 30
0.0
 10
4.5636003409
 20
4.1654780252
 30
0.0
 10
4.5676981134
 20
4.1655761528
 30
0.0
 10
4.5709764416
 20
4.1657096797
 30
0.0
 10
4.5734511507
 20
4.1658450583
 30
0.0
 10
4.5756860443
 20
4.165989014
 30
0.0
 10
4.5782323895
 20
4.1661909287
 30
0.0
 10
4.5809817826
 20
4.1664743349
 30
0.0
 10
4.5830152438
 20
4.1667427282
 30
0.0
 10
4.5844362134
 20
4.1669723099
 30
0.0
 10
4.5850787015
 20
4.1670905113
 30
0.0
 10
4.5853829767
 20
4.1671507567
 30
0.0
  0
SPLINE
  5
31C
100
AcDbEntity
  8
0
100
AcDbSpline
 62
7
  6
CONTINUOUS
 70
0
 71
3
 72
18
 73
14
 74
0
 42
0.0000001
 43
0.0000001
 44
0.0000000001
 40
0.0
 40
0.0
 40
0.0
 40
0.0
 40
0.1619869183
 40
0.3189063936
 40
0.4665381097
 40
0.6018912332
 40
0.7232659481
 40
0.7784709093
 40
0.8299817562
 40
0.8778293876
 40
0.9220688348
 40
0.9627661037
 40
1.0
 40
1.0
 40
1.0
 40
1.0
 10
4.5593715753
 20
4.1316054226
 30
0.0
 10
4.5607965774
 20
4.1316054226
 30
0.0
 10
4.5636022432
 20
4.1316523268
 30
0.0
 10
4.5677019004
 20
4.1318600954
 30
0.0
 10
4.5715583289
 20
4.1321926117
 30
0.0
 10
4.5750890174
 20
4.1326329882
 30
0.0
 10
4.5777963032
 20
4.1330873631
 30
0.0
 10
4.5797613871
 20
4.1334940058
 30
0.0
 10
4.5810852028
 20
4.133805105
 30
0.0
 10
4.5823060987
 20
4.1341301805
 30
0.0
 10
4.5834246817
 20
4.1344675284
 30
0.0
 10
4.5844417888
 20
4.1348155107
 30
0.0
 10
4.5850808618
 20
4.1350644356
 30
0.0
 10
4.5853829767
 20
4.1351909814
 30
0.0
  0
SPLINE
  5
31D
100
AcDbEntity
  8
0
100
AcDbSpline
 62
7
  6
CONTINUOUS
 70
0
 71
3
 72
15
 73
11
 74
0
 42
0.0000001
 43
0.0000001
 44
0.0000000001
 40
0.0
 40
0.0
 40
0.0
 40
0.0
 40
0.1365683491
 40
0.2713347117
 40
0.4029013778
 40
0.5304192727
 40
0.6536176873
 40
0.7726415632
 40
0.8879270116
 40
1.0
 40
1.0
 40
1.0
 40
1.0
 10
4.5593715753
 20
4.0102162059
 30
0.0
 10
4.5607998776
 20
4.0102162059
 30
0.0
 10
4.5636416822
 20
4.0104153143
 30
0.0
 10
4.5677759626
 20
4.0112941797
 30
0.0
 10
4.5716616163
 20
4.012699883
 30
0.0
 10
4.5752140896
 20
4.0145600605
 30
0.0
 10
4.5783826107
 20
4.0167957852
 30
0.0
 10
4.5811433223
 20
4.0193324314
 30
0.0
 10
4.5834899255
 20
4.0221038237
 30
0.0
 10
4.5847989965
 20
4.0240968456
 30
0.0
 10
4.5853829767
 20
4.0251131258
 30
0.0
  0
SPLINE
  5
31E
100
AcDbEntity
  8
0
100
AcDbSpline
 62
7
  6
CONTINUOUS
 70
0
 71
3
 72
15
 73
11
 74
0
 42
0.0000001
 43
0.0000001
 44
0.0000000001
 40
0.0
 40
0.0
 40
0.0
 40
0.0
 40
0.1399653514
 40
0.2776414018
 40
0.4112277548
 40
0.5396048884
 40
0.6623715808
 40
0.7796606305
 40
0.8919828161
 40
1.0
 40
1.0
 40
1.0
 40
1.0
 10
4.5593715753
 20
4.0138483043
 30
0.0
 10
4.5607992947
 20
4.0138483043
 30
0.0
 10
4.5636347659
 20
4.0140293913
 30
0.0
 10
4.5677635654
 20
4.0148293504
 30
0.0
 10
4.5716456203
 20
4.0161094439
 30
0.0
 10
4.5751967822
 20
4.017804399
 30
0.0
 10
4.5783659592
 20
4.01984282
 30
0.0
 10
4.581128778
 20
4.0221570125
 30
0.0
 10
4.5834783138
 20
4.0246867036
 30
0.0
 10
4.5847960438
 20
4.0265157847
 30
0.0
 10
4.5853829767
 20
4.0274482773
 30
0.0
  0
SPLINE
  5
31F
100
AcDbEntity
  8
0
100
AcDbSpline
 62
7
  6
CONTINUOUS
 70
0
 71
3
 72
15
 73
11
 74
0
 42
0.0000001
 43
0.0000001
 44
0.0000000001
 40
0.0
 40
0.0
 40
0.0
 40
0.0
 40
0.1436928816
 40
0.2845809695
 40
0.420429996
 40
0.5498147529
 40
0.672166411
 40
0.787571077
 40
0.8965874956
 40
1.0
 40
1.0
 40
1.0
 40
1.0
 10
4.5593715753
 20
4.022259192
 30
0.0
 10
4.5607987141
 20
4.022259192
 30
0.0
 10
4.5636278552
 20
4.0224206552
 30
0.0
 10
4.5677509339
 20
4.0231344409
 30
0.0
 10
4.571628812
 20
4.0242770226
 30
0.0
 10
4.5751778483
 20
4.0257905847
 30
0.0
 10
4.5783468673
 20
4.0276118177
 30
0.0
 10
4.5811112345
 20
4.0296806532
 30
0.0
 10
4.5834635726
 20
4.0319434828
 30
0.0
 10
4.5847921473
 20
4.0335911162
 30
0.0
 10
4.5853829767
 20
4.0344312427
 30
0.0
  0
SPLINE
  5
320
100
AcDbEntity
  8
0
100
AcDbSpline
 62
7
  6
CONTINUOUS
 70
0
 71
3
 72
15
 73
11
 74
0
 42
0.0000001
 43
0.0000001
 44
0.0000000001
 40
0.0
 40
0.0
 40
0.0
 40
0.0
 40
0.1476530432
 40
0.2919747699
 40
0.4302799365
 40
0.5608107301
 40
0.6827940399
 40
0.7962262839
 40
0.9016709793
 40
1.0
 40
1.0
 40
1.0
 40
1.0
 10
4.5593715753
 20
4.0353678674
 30
0.0
 10
4.5607981581
 20
4.0353678674
 30
0.0
 10
4.5636212173
 20
4.0355083249
 30
0.0
 10
4.5677385668
 20
4.036129635
 30
0.0
 10
4.5716118374
 20
4.037124372
 30
0.0
 10
4.5751579057
 20
4.0384424378
 30
0.0
 10
4.5783256986
 20
4.0400289827
 30
0.0
 10
4.58109061
 20
4.041832045
 30
0.0
 10
4.5834451233
 20
4.0438052821
 30
0.0
 10
4.5847870139
 20
4.0452549205
 30
0.0
 10
4.5853829767
 20
4.0459947725
 30
0.0
  0
SPLINE
  5
321
100
AcDbEntity
  8
0
100
AcDbSpline
 62
7
  6
CONTINUOUS
 70
0
 71
3
 72
16
 73
12
 74
0
 42
0.0000001
 43
0.0000001
 44
0.0000000001
 40
0.0
 40
0.0
 40
0.0
 40
0.0
 40
0.1516934061
 40
0.2995392608
 40
0.4404030647
 40
0.5721814934
 40
0.6938671691
 40
0.7508761239
 40
0.8053611904
 40
0.9070926743
 40
1.0
 40
1.0
 40
1.0
 40
1.0
 10
4.5593715753
 20
4.0530480869
 30
0.0
 10
4.5607976481
 20
4.0530480869
 30
0.0
 10
4.5636151155
 20
4.053166377
 30
0.0
 10
4.5677269716
 20
4.053689882
 30
0.0
 10
4.5715955022
 20
4.054528095
 30
0.0
 10
4.5751376866
 20
4.0556387269
 30
0.0
 10
4.5778313476
 20
4.056776509
 30
0.0
 10
4.5797778673
 20
4.0577868008
 30
0.0
 10
4.5815054049
 20
4.0588051612
 30
0.0
 10
4.5834226595
 20
4.0601595454
 30
0.0
 10
4.5847803085
 20
4.0613953168
 30
0.0
 10
4.5853829767
 20
4.0620275034
 30
0.0
  0
SPLINE
  5
322
100
AcDbEntity
  8
0
100
AcDbSpline
 62
7
  6
CONTINUOUS
 70
0
 71
3
 72
15
 73
11
 74
0
 42
0.0000001
 43
0.0000001
 44
0.0000000001
 40
0.0
 40
0.0
 40
0.0
 40
0.0
 40
0.1556264508
 40
0.3069242291
 40
0.4503343872
 40
0.5834150683
 40
0.7049093936
 40
0.8145025105
 40
0.9125868661
 40
1.0
 40
1.0
 40
1.0
 40
1.0
 10
4.5593715753
 20
4.0751295803
 30
0.0
 10
4.5607972037
 20
4.0751295803
 30
0.0
 10
4.5636097789
 20
4.0752247507
 30
0.0
 10
4.5677167037
 20
4.0756461116
 30
0.0
 10
4.5715805141
 20
4.0763206995
 30
0.0
 10
4.5751187788
 20
4.0772144929
 30
0.0
 10
4.5782806932
 20
4.0782902415
 30
0.0
 10
4.5810421476
 20
4.0795127744
 30
0.0
 10
4.5833962943
 20
4.0808509727
 30
0.0
 10
4.5847717707
 20
4.0818576964
 30
0.0
 10
4.5853829767
 20
4.0823750315
 30
0.0
  0
SPLINE
  5
323
100
AcDbEntity
  8
0
100
AcDbSpline
 62
7
  6
CONTINUOUS
 70
0
 71
3
 72
18
 73
14
 74
0
 42
0.0000001
 43
0.0000001
 44
0.0000000001
 40
0.0
 40
0.0
 40
0.0
 40
0.0
 40
0.1591519663
 40
0.3135588753
 40
0.4592903311
 40
0.5935991716
 40
0.7149877104
 40
0.7706579474
 40
0.8229662132
 40
0.8719672388
 40
0.9177415531
 40
0.9603828212
 40
1.0
 40
1.0
 40
1.0
 40
1.0
 10
4.5593715753
 20
4.1013996907
 30
0.0
 10
4.5607968422
 20
4.1013996907
 30
0.0
 10
4.5636054337
 20
4.1014709999
 30
0.0
 10
4.5677081969
 20
4.1017868082
 30
0.0
 10
4.5715678961
 20
4.1022923293
 30
0.0
 10
4.575101968
 20
4.1029619683
 30
0.0
 10
4.5778061356
 20
4.1036517029
 30
0.0
 10
4.5797661578
 20
4.1042675357
 30
0.0
 10
4.5810905613
 20
4.1047401139
 30
0.0
 10
4.5823120869
 20
4.1052340104
 30
0.0
 10
4.5834313564
 20
4.1057466691
 30
0.0
 10
4.5844491815
 20
4.1062756244
 30
0.0
 10
4.585083567
 20
4.1066510634
 30
0.0
 10
4.5853829767
 20
4.106841399
 30
0.0
  0
LINE
  5
324
100
AcDbEntity
  8
0
100
AcDbLine
 62
7
  6
CONTINUOUS
 10
3.6893715753
 20
4.0281107505
 11
3.7363715753
 21
4.0280403882
  0
LINE
  5
325
100
AcDbEntity
  8
0
100
AcDbLine
 62
7
  6
CONTINUOUS
 10
4.3423715753
 20
4.0280403882
 11
4.5593715753
 21
4.0281107505
  0
SPLINE
  5
326
100
AcDbEntity
  8
0
100
AcDbSpline
 62
7
  6
CONTINUOUS
 70
0
 71
3
 72
15
 73
11
 74
0
 42
0.0000001
 43
0.0000001
 44
0.0000000001
 40
0.0
 40
0.0
 40
0.0
 40
0.0
 40
0.1335637407
 40
0.2657710466
 40
0.3955856464
 40
0.5223897875
 40
0.6460096857
 40
0.766578104
 40
0.8844442768
 40
1.0
 40
1.0
 40
1.0
 40
1.0
 10
4.5593715753
 20
5.0087219872
 30
0.0
 10
4.5608004403
 20
5.0087219872
 30
0.0
 10
4.563648339
 20
5.0085066772
 30
0.0
 10
4.5677876687
 20
5.0075570986
 30
0.0
 10
4.5716762825
 20
5.0060391441
 30
0.0
 10
4.5752293796
 20
5.004031756
 30
0.0
 10
4.5783967242
 20
5.0016206569
 30
0.0
 10
4.581155135
 20
4.9988865625
 30
0.0
 10
4.5834989777
 20
4.99590073
 30
0.0
 10
4.584801232
 20
4.9937623658
 30
0.0
 10
4.5853829767
 20
4.9926715858
 30
0.0
  0
SPLINE
  5
327
100
AcDbEntity
  8
0
100
AcDbSpline
 62
7
  6
CONTINUOUS
 70
0
 71
3
 72
15
 73
11
 74
0
 42
0.0000001
 43
0.0000001
 44
0.0000000001
 40
0.0
 40
0.0
 40
0.0
 40
0.0
 40
0.1309881545
 40
0.2610130978
 40
0.3893519339
 40
0.515578344
 40
0.6395873404
 40
0.7614850365
 40
0.88153288
 40
1.0
 40
1.0
 40
1.0
 40
1.0
 10
4.5593715753
 20
5.0027379291
 30
0.0
 10
4.5608009613
 20
5.0027379291
 30
0.0
 10
4.5636544841
 20
5.0025084457
 30
0.0
 10
4.5677982819
 20
5.001497209
 30
0.0
 10
4.5716892247
 20
4.9998816685
 30
0.0
 10
4.5752424345
 20
4.9977466695
 30
0.0
 10
4.5784083557
 20
4.9951838494
 30
0.0
 10
4.5811645354
 20
4.9922790945
 30
0.0
 10
4.5835059525
 20
4.9891079235
 30
0.0
 10
4.5848029171
 20
4.9868439295
 30
0.0
 10
4.5853829767
 20
4.9856886203
 30
0.0
  0
SPLINE
  5
328
100
AcDbEntity
  8
0
100
AcDbSpline
 62
7
  6
CONTINUOUS
 70
0
 71
3
 72
15
 73
11
 74
0
 42
0.0000001
 43
0.0000001
 44
0.0000000001
 40
0.0
 40
0.0
 40
0.0
 40
0.0
 40
0.1155557164
 40
0.2334218885
 40
0.3539902928
 40
0.477610178
 40
0.6044142998
 40
0.7342289082
 40
0.8664362401
 40
1.0
 40
1.0
 40
1.0
 40
1.0
 10
3.663360174
 20
4.9926715858
 30
0.0
 10
3.6639419186
 20
4.9937623657
 30
0.0
 10
3.6652441729
 20
4.9959007299
 30
0.0
 10
3.6675880155
 20
4.9988865622
 30
0.0
 10
3.6703464259
 20
5.0016206565
 30
0.0
 10
3.6735137701
 20
5.0040317552
 30
0.0
 10
3.6770668669
 20
5.0060391436
 30
0.0
 10
3.6809554808
 20
5.0075570982
 30
0.0
 10
3.685094811
 20
5.0085066771
 30
0.0
 10
3.6879427102
 20
5.0087219872
 30
0.0
 10
3.6893715753
 20
5.0087219872
 30
0.0
  0
SPLINE
  5
329
100
AcDbEntity
  8
0
100
AcDbSpline
 62
7
  6
CONTINUOUS
 70
0
 71
3
 72
15
 73
11
 74
0
 42
0.0000001
 43
0.0000001
 44
0.0000000001
 40
0.0
 40
0.0
 40
0.0
 40
0.0
 40
0.1184671131
 40
0.2385149558
 40
0.360412638
 40
0.4844216215
 40
0.6106480128
 40
0.7389868576
 40
0.8690118266
 40
1.0
 40
1.0
 40
1.0
 40
1.0
 10
3.663360174
 20
4.9856886203
 30
0.0
 10
3.6639402335
 20
4.9868439295
 30
0.0
 10
3.6652371981
 20
4.9891079234
 30
0.0
 10
3.667578615
 20
4.9922790941
 30
0.0
 10
3.6703347944
 20
4.995183849
 30
0.0
 10
3.6735007153
 20
4.9977466688
 30
0.0
 10
3.6770539246
 20
4.999881668
 30
0.0
 10
3.6809448676
 20
5.0014972086
 30
0.0
 10
3.6850886659
 20
5.0025084456
 30
0.0
 10
3.6879421892
 20
5.0027379291
 30
0.0
 10
3.6893715753
 20
5.0027379291
 30
0.0
  0
SPLINE
  5
32A
100
AcDbEntity
  8
0
100
AcDbSpline
 62
7
  6
CONTINUOUS
 70
0
 71
3
 72
18
 73
14
 74
0
 42
0.0000001
 43
0.0000001
 44
0.0000000001
 40
0.0
 40
0.0
 40
0.0
 40
0.0
 40
0.1207868147
 40
0.2425794033
 40
0.3655415762
 40
0.4898542197
 40
0.5525828664
 40
0.6156752889
 40
0.6791124852
 40
0.7428742784
 40
0.8069102359
 40
0.8711757243
 40
1.0
 40
1.0
 40
1.0
 40
1.0
 10
3.663360174
 20
4.9741250905
 30
0.0
 10
3.6639389795
 20
4.9753343422
 30
0.0
 10
3.6652319034
 20
4.977703193
 30
0.0
 10
3.6675713885
 20
4.9810290499
 30
0.0
 10
3.6703252724
 20
4.9840760012
 30
0.0
 10
3.6729561901
 20
4.986311715
 30
0.0
 10
3.6752515367
 20
4.9878771265
 30
0.0
 10
3.6770707866
 20
4.9889313443
 30
0.0
 10
3.6789749691
 20
4.9898499175
 30
0.0
 10
3.6809548957
 20
4.9906208474
 30
0.0
 10
3.6829993339
 20
4.9912336204
 30
0.0
 10
3.6857929627
 20
4.9918273839
 30
0.0
 10
3.6879417298
 20
4.9920091125
 30
0.0
 10
3.6893715753
 20
4.9920091125
 30
0.0
  0
SPLINE
  5
32B
100
AcDbEntity
  8
0
100
AcDbSpline
 62
7
  6
CONTINUOUS
 70
0
 71
3
 72
20
 73
16
 74
0
 42
0.0000001
 43
0.0000001
 44
0.0000000001
 40
0.0
 40
0.0
 40
0.0
 40
0.0
 40
0.1225779704
 40
0.2457274454
 40
0.3695277665
 40
0.4317438675
 40
0.4941654977
 40
0.5567889781
 40
0.619622151
 40
0.6826521119
 40
0.7458700119
 40
0.8092430206
 40
0.8727496412
 40
0.9363668304
 40
1.0
 40
1.0
 40
1.0
 40
1.0
 10
3.663360174
 20
4.9580923596
 30
0.0
 10
3.6639380724
 20
4.9593444405
 30
0.0
 10
3.6652281163
 20
4.9617965279
 30
0.0
 10
3.6675656831
 20
4.9652447231
 30
0.0
 10
3.6698570998
 20
4.967875021
 30
0.0
 10
3.6718924023
 20
4.9697931642
 30
0.0
 10
3.673522376
 20
4.9711306636
 30
0.0
 10
3.6752494022
 20
4.972352443
 30
0.0
 10
3.6770686118
 20
4.9734458814
 30
0.0
 10
3.6789728847
 20
4.9743987544
 30
0.0
 10
3.6809530848
 20
4.9751985151
 30
0.0
 10
3.6829976165
 20
4.9758342376
 30
0.0
 10
3.6850930826
 20
4.9762960709
 30
0.0
 10
3.6872233484
 20
4.9765760421
 30
0.0
 10
3.6886556973
 20
4.9766388619
 30
0.0
 10
3.6893715753
 20
4.9766388619
 30
0.0
  0
SPLINE
  5
32C
100
AcDbEntity
  8
0
100
AcDbSpline
 62
7
  6
CONTINUOUS
 70
0
 71
3
 72
19
 73
15
 74
0
 42
0.0000001
 43
0.0000001
 44
0.0000000001
 40
0.0
 40
0.0
 40
0.0
 40
0.0
 40
0.1238824877
 40
0.248031207
 40
0.3724636191
 40
0.4972418132
 40
0.559806207
 40
0.6224690003
 40
0.6852212528
 40
0.7480619529
 40
0.8109707863
 40
0.8739429614
 40
0.936976093
 40
1.0
 40
1.0
 40
1.0
 40
1.0
 10
3.663360174
 20
4.9377448315
 30
0.0
 10
3.6639374546
 20
4.9390282051
 30
0.0
 10
3.6652253859
 20
4.9415409689
 30
0.0
 10
3.6675621694
 20
4.9450788995
 30
0.0
 10
3.6703131807
 20
4.9483209984
 30
0.0
 10
3.6729478234
 20
4.9507061809
 30
0.0
 10
3.6752477939
 20
4.9523758538
 30
0.0
 10
3.677067033
 20
4.9534980347
 30
0.0
 10
3.6789713519
 20
4.9544759415
 30
0.0
 10
3.6809517036
 20
4.9552967759
 30
0.0
 10
3.6829964711
 20
4.9559492788
 30
0.0
 10
3.6850922632
 20
4.9564233265
 30
0.0
 10
3.687222915
 20
4.9567107123
 30
0.0
 10
3.6886556612
 20
4.9567752012
 30
0.0
 10
3.6893715753
 20
4.9567752012
 30
0.0
  0
SPLINE
  5
32D
100
AcDbEntity
  8
0
100
AcDbSpline
 62
7
  6
CONTINUOUS
 70
0
 71
3
 72
19
 73
15
 74
0
 42
0.0000001
 43
0.0000001
 44
0.0000000001
 40
0.0
 40
0.0
 40
0.0
 40
0.0
 40
0.1246748415
 40
0.2494310973
 40
0.3742477799
 40
0.4991545786
 40
0.5616813204
 40
0.6242378593
 40
0.6868175129
 40
0.7494239515
 40
0.8120444896
 40
0.8746846266
 40
0.9373547903
 40
1.0
 40
1.0
 40
1.0
 40
1.0
 10
3.663360174
 20
4.913278464
 30
0.0
 10
3.6639370886
 20
4.9145812825
 30
0.0
 10
3.6652238049
 20
4.9171317706
 30
0.0
 10
3.6675598952
 20
4.920725258
 30
0.0
 10
3.6703101389
 20
4.9240184637
 30
0.0
 10
3.6729456725
 20
4.9264428648
 30
0.0
 10
3.6752468208
 20
4.9281399288
 30
0.0
 10
3.6770660457
 20
4.9292799317
 30
0.0
 10
3.6789703953
 20
4.9302734021
 30
0.0
 10
3.6809508355
 20
4.9311073303
 30
0.0
 10
3.6829957488
 20
4.9317702641
 30
0.0
 10
3.6850917447
 20
4.9322519052
 30
0.0
 10
3.6872226402
 20
4.9325439013
 30
0.0
 10
3.6886556383
 20
4.9326094281
 30
0.0
 10
3.6893715753
 20
4.9326094281
 30
0.0
  0
SPLINE
  5
32E
100
AcDbEntity
  8
0
100
AcDbSpline
 62
7
  6
CONTINUOUS
 70
0
 71
3
 72
19
 73
15
 74
0
 42
0.0000001
 43
0.0000001
 44
0.0000000001
 40
0.0
 40
0.0
 40
0.0
 40
0.0
 40
0.1249739543
 40
0.2499599286
 40
0.374922308
 40
0.4998783336
 40
0.5623911211
 40
0.6249077056
 40
0.6874222229
 40
0.7499400874
 40
0.8124514875
 40
0.874965821
 40
0.937498388
 40
1.0
 40
1.0
 40
1.0
 40
1.0
 10
3.663360174
 20
4.8849288816
 30
0.0
 10
3.6639369526
 20
4.8862391031
 30
0.0
 10
3.6652232162
 20
4.8888039508
 30
0.0
 10
3.6675590445
 20
4.8924185816
 30
0.0
 10
3.670308995
 20
4.8957312351
 30
0.0
 10
3.6729448588
 20
4.8981705676
 30
0.0
 10
3.6752464514
 20
4.8998780638
 30
0.0
 10
3.6770656698
 20
4.901024851
 30
0.0
 10
3.6789700301
 20
4.9020242465
 30
0.0
 10
3.6809505032
 20
4.9028631599
 30
0.0
 10
3.6829954717
 20
4.9035300655
 30
0.0
 10
3.6850915454
 20
4.9040145983
 30
0.0
 10
3.6872225345
 20
4.9043083503
 30
0.0
 10
3.6886556295
 20
4.9043742725
 30
0.0
 10
3.6893715753
 20
4.9043742725
 30
0.0
  0
SPLINE
  5
32F
100
AcDbEntity
  8
0
100
AcDbSpline
 62
7
  6
CONTINUOUS
 70
0
 71
3
 72
19
 73
15
 74
0
 42
0.0000001
 43
0.0000001
 44
0.0000000001
 40
0.0
 40
0.0
 40
0.0
 40
0.0
 40
0.1247837019
 40
0.2496235389
 40
0.3744932067
 40
0.4994178782
 40
0.5619395248
 40
0.6244815126
 40
0.6870374588
 40
0.7496116702
 40
0.8121925076
 40
0.8747868883
 40
0.9374070111
 40
1.0
 40
1.0
 40
1.0
 40
1.0
 10
3.663360174
 20
4.8529691063
 30
0.0
 10
3.6639370389
 20
4.854274615
 30
0.0
 10
3.6652235901
 20
4.8568303216
 30
0.0
 10
3.6675595851
 20
4.8604314931
 30
0.0
 10
3.6703097223
 20
4.8637317667
 30
0.0
 10
3.6729453765
 20
4.8661615939
 30
0.0
 10
3.6752466865
 20
4.8678624487
 30
0.0
 10
3.6770659091
 20
4.8690049171
 30
0.0
 10
3.6789702627
 20
4.8700005407
 30
0.0
 10
3.6809507149
 20
4.8708362805
 30
0.0
 10
3.6829956482
 20
4.8715006576
 30
0.0
 10
3.6850916724
 20
4.8719833495
 30
0.0
 10
3.6872226019
 20
4.8722759837
 30
0.0
 10
3.6886556351
 20
4.8723416542
 30
0.0
 10
3.6893715753
 20
4.8723416542
 30
0.0
  0
SPLINE
  5
330
100
AcDbEntity
  8
0
100
AcDbSpline
 62
7
  6
CONTINUOUS
 70
0
 71
3
 72
19
 73
15
 74
0
 42
0.0000001
 43
0.0000001
 44
0.0000000001
 40
0.0
 40
0.0
 40
0.0
 40
0.0
 40
0.1241016113
 40
0.2484181989
 40
0.3729566354
 40
0.497770134
 40
0.5603240159
 40
0.6229573653
 40
0.685661879
 40
0.7484378491
 40
0.8112670734
 40
0.8741476006
 40
0.9370805755
 40
1.0
 40
1.0
 40
1.0
 40
1.0
 10
3.663360174
 20
4.8177069282
 30
0.0
 10
3.6639373525
 20
4.8189956554
 30
0.0
 10
3.6652249455
 20
4.8215188068
 30
0.0
 10
3.6675615374
 20
4.8250720367
 30
0.0
 10
3.6703123378
 20
4.8283282102
 30
0.0
 10
3.6729472293
 20
4.8307241904
 30
0.0
 10
3.6752475255
 20
4.8324014033
 30
0.0
 10
3.6770667612
 20
4.8335284914
 30
0.0
 10
3.678971089
 20
4.8345106834
 30
0.0
 10
3.6809514653
 20
4.8353351227
 30
0.0
 10
3.6829962731
 20
4.8359904973
 30
0.0
 10
3.6850921211
 20
4.8364666354
 30
0.0
 10
3.6872228398
 20
4.8367552903
 30
0.0
 10
3.6886556549
 20
4.8368200648
 30
0.0
 10
3.6893715753
 20
4.8368200648
 30
0.0
  0
LINE
  5
331
100
AcDbEntity
  8
0
100
AcDbLine
 62
7
  6
CONTINUOUS
 10
3.6893715753
 20
4.8174948035
 11
3.663360174
 21
4.8177069282
  0
SPLINE
  5
332
100
AcDbEntity
  8
0
100
AcDbSpline
 62
7
  6
CONTINUOUS
 70
0
 71
3
 72
20
 73
16
 74
0
 42
0.0000001
 43
0.0000001
 44
0.0000000001
 40
0.0
 40
0.0
 40
0.0
 40
0.0
 40
0.1229100108
 40
0.2463128966
 40
0.3702722567
 40
0.4325283208
 40
0.4949619205
 40
0.5575688215
 40
0.6203569875
 40
0.6833145619
 40
0.7464347256
 40
0.8096878615
 40
0.8730567405
 40
0.9365235806
 40
1.0
 40
1.0
 40
1.0
 40
1.0
 10
3.663360174
 20
4.7794819413
 30
0.0
 10
3.6639379117
 20
4.7807419859
 30
0.0
 10
3.6652274283
 20
4.7832095333
 30
0.0
 10
3.6675647041
 20
4.7866805032
 30
0.0
 10
3.6698563561
 20
4.7893288188
 30
0.0
 10
3.6718920462
 20
4.7912601265
 30
0.0
 10
3.6735219923
 20
4.7926065277
 30
0.0
 10
3.6752490006
 20
4.793836451
 30
0.0
 10
3.6770682079
 20
4.7949371909
 30
0.0
 10
3.6789724964
 20
4.7958964387
 30
0.0
 10
3.680952735
 20
4.7967015611
 30
0.0
 10
3.6829973271
 20
4.7973415538
 30
0.0
 10
3.6850928758
 20
4.7978064948
 30
0.0
 10
3.6872232391
 20
4.7980883523
 30
0.0
 10
3.6886556882
 20
4.7981515968
 30
0.0
 10
3.6893715753
 20
4.7981515968
 30
0.0
  0
SPLINE
  5
333
100
AcDbEntity
  8
0
100
AcDbSpline
 62
7
  6
CONTINUOUS
 70
0
 71
3
 72
18
 73
14
 74
0
 42
0.0000001
 43
0.0000001
 44
0.0000000001
 40
0.0
 40
0.0
 40
0.0
 40
0.0
 40
0.1634939106
 40
0.3217530717
 40
0.4704059311
 40
0.5401048308
 40
0.6063352379
 40
0.72772595
 40
0.8337858803
 40
0.8810228048
 40
0.9244390699
 40
0.964080074
 40
1.0
 40
1.0
 40
1.0
 40
1.0
 10
3.6893715753
 20
4.7773648564
 30
0.0
 10
3.6879467058
 20
4.7773648564
 30
0.0
 10
3.6851425022
 20
4.7773925248
 30
0.0
 10
3.6810444291
 20
4.7775151152
 30
0.0
 10
3.6777661676
 20
4.7776819144
 30
0.0
 10
3.6752917162
 20
4.7778510068
 30
0.0
 10
3.6730563192
 20
4.7780308571
 30
0.0
 10
3.6705090224
 20
4.7782832644
 30
0.0
 10
3.6681341941
 20
4.7785888907
 30
0.0
 10
3.6664404979
 20
4.7788550129
 30
0.0
 10
3.6653224513
 20
4.7790540323
 30
0.0
 10
3.6643059661
 20
4.7792592622
 30
0.0
 10
3.6636640645
 20
4.7794067835
 30
0.0
 10
3.663360174
 20
4.7794819413
 30
0.0
  0
SPLINE
  5
334
100
AcDbEntity
  8
0
100
AcDbSpline
 62
7
  6
CONTINUOUS
 70
0
 71
3
 72
19
 73
15
 74
0
 42
0.0000001
 43
0.0000001
 44
0.0000000001
 40
0.0
 40
0.0
 40
0.0
 40
0.0
 40
0.1212219203
 40
0.2433413588
 40
0.3665014652
 40
0.4908668082
 40
0.553564764
 40
0.6165885429
 40
0.6799207101
 40
0.7435439287
 40
0.8074121308
 40
0.8714863819
 40
0.9357222535
 40
1.0
 40
1.0
 40
1.0
 40
1.0
 10
3.663360174
 20
4.7386622732
 30
0.0
 10
3.6639387503
 20
4.7398820195
 30
0.0
 10
3.6652309309
 20
4.7422712582
 30
0.0
 10
3.6675700286
 20
4.745627171
 30
0.0
 10
3.6703235124
 20
4.7487017846
 30
0.0
 10
3.6729549906
 20
4.7509586561
 30
0.0
 10
3.6752510034
 20
4.7525388138
 30
0.0
 10
3.6770702593
 20
4.7536026566
 30
0.0
 10
3.6789744502
 20
4.7545296304
 30
0.0
 10
3.680954493
 20
4.7553076271
 30
0.0
 10
3.6829987767
 20
4.7559260149
 30
0.0
 10
3.6850939098
 20
4.7563752356
 30
0.0
 10
3.6872237847
 20
4.7566475513
 30
0.0
 10
3.6886557336
 20
4.7567086485
 30
0.0
 10
3.6893715753
 20
4.7567086485
 30
0.0
  0
SPLINE
  5
335
100
AcDbEntity
  8
0
100
AcDbSpline
 62
7
  6
CONTINUOUS
 70
0
 71
3
 72
18
 73
14
 74
0
 42
0.0000001
 43
0.0000001
 44
0.0000000001
 40
0.0
 40
0.0
 40
0.0
 40
0.0
 40
0.1614351765
 40
0.3178648979
 40
0.4651247083
 40
0.6002710666
 40
0.7216440797
 40
0.7769375792
 40
0.8286021643
 40
0.8766739
 40
0.9212135287
 40
0.9622935025
 40
1.0
 40
1.0
 40
1.0
 40
1.0
 10
3.6893715753
 20
4.7346606169
 30
0.0
 10
3.6879465236
 20
4.7346606169
 30
0.0
 10
3.6851403063
 20
4.7347129813
 30
0.0
 10
3.6810400594
 20
4.7349449283
 30
0.0
 10
3.6771829995
 20
4.735316155
 30
0.0
 10
3.6736516432
 20
4.7358078202
 30
0.0
 10
3.6709449265
 20
4.7363149517
 30
0.0
 10
3.6689808213
 20
4.7367685978
 30
0.0
 10
3.6676568767
 20
4.7371158657
 30
0.0
 10
3.6664358372
 20
4.73747875
 30
0.0
 10
3.6653170902
 20
4.737855356
 30
0.0
 10
3.664299802
 20
4.7382438602
 30
0.0
 10
3.6636617036
 20
4.7385213156
 30
0.0
 10
3.663360174
 20
4.7386622732
 30
0.0
  0
SPLINE
  5
336
100
AcDbEntity
  8
0
100
AcDbSpline
 62
7
  6
CONTINUOUS
 70
0
 71
3
 72
15
 73
11
 74
0
 42
0.0000001
 43
0.0000001
 44
0.0000000001
 40
0.0
 40
0.0
 40
0.0
 40
0.0
 40
0.1190378318
 40
0.239515852
 40
0.3616781261
 40
0.4857673611
 40
0.6118826574
 40
0.7399311332
 40
0.8695236755
 40
1.0
 40
1.0
 40
1.0
 40
1.0
 10
3.663360174
 20
4.6956410396
 30
0.0
 10
3.663939921
 20
4.696809271
 30
0.0
 10
3.6652358902
 20
4.6990983979
 30
0.0
 10
3.6675768223
 20
4.7023066373
 30
0.0
 10
3.6703325345
 20
4.7052455227
 30
0.0
 10
3.6734981293
 20
4.7078386968
 30
0.0
 10
3.6770513133
 20
4.7099992535
 30
0.0
 10
3.6809426929
 20
4.7116343711
 30
0.0
 10
3.6850873935
 20
4.7126580004
 30
0.0
 10
3.6879420811
 20
4.7128903382
 30
0.0
 10
3.6893715753
 20
4.7128903382
 30
0.0
  0
SPLINE
  5
337
100
AcDbEntity
  8
0
100
AcDbSpline
 62
7
  6
CONTINUOUS
 70
0
 71
3
 72
15
 73
11
 74
0
 42
0.0000001
 43
0.0000001
 44
0.0000000001
 40
0.0
 40
0.0
 40
0.0
 40
0.0
 40
0.1584273752
 40
0.3121948612
 40
0.4574483133
 40
0.5915039181
 40
0.712915197
 40
0.821215896
 40
0.9166691074
 40
1.0
 40
1.0
 40
1.0
 40
1.0
 10
3.6893715753
 20
4.6897933499
 30
0.0
 10
3.6879462363
 20
4.6897933499
 30
0.0
 10
3.6851368485
 20
4.6898700157
 30
0.0
 10
3.6810332335
 20
4.6902095257
 30
0.0
 10
3.6771727151
 20
4.6907530134
 30
0.0
 10
3.6736376447
 20
4.6914729661
 30
0.0
 10
3.6704788618
 20
4.6923392227
 30
0.0
 10
3.6677204188
 20
4.6933232318
 30
0.0
 10
3.6653688842
 20
4.6943997702
 30
0.0
 10
3.6639792277
 20
4.6952181456
 30
0.0
 10
3.663360174
 20
4.6956410396
 30
0.0
  0
SPLINE
  5
338
100
AcDbEntity
  8
0
100
AcDbSpline
 62
7
  6
CONTINUOUS
 70
0
 71
3
 72
15
 73
11
 74
0
 42
0.0000001
 43
0.0000001
 44
0.0000000001
 40
0.0
 40
0.0
 40
0.0
 40
0.0
 40
0.1162516864
 40
0.2346374157
 40
0.3555204525
 40
0.4792302823
 40
0.6058946665
 40
0.7353573638
 40
0.8670465804
 40
1.0
 40
1.0
 40
1.0
 40
1.0
 10
3.663360174
 20
4.6508325585
 30
0.0
 10
3.6639415014
 20
4.6519385629
 30
0.0
 10
3.6652424583
 20
4.6541065868
 30
0.0
 10
3.6675857293
 20
4.6571361804
 30
0.0
 10
3.6703436305
 20
4.6599105714
 30
0.0
 10
3.6735106709
 20
4.6623574847
 30
0.0
 10
3.6770638302
 20
4.6643949758
 30
0.0
 10
3.6809530149
 20
4.6659359261
 30
0.0
 10
3.6850933927
 20
4.6669000182
 30
0.0
 10
3.6879425901
 20
4.6671186603
 30
0.0
 10
3.6893715753
 20
4.6671186603
 30
0.0
  0
SPLINE
  5
339
100
AcDbEntity
  8
0
100
AcDbSpline
 62
7
  6
CONTINUOUS
 70
0
 71
3
 72
15
 73
11
 74
0
 42
0.0000001
 43
0.0000001
 44
0.0000000001
 40
0.0
 40
0.0
 40
0.0
 40
0.0
 40
0.154776979
 40
0.3053276965
 40
0.4481839609
 40
0.5809772421
 40
0.7025063315
 40
0.8124979748
 40
0.9113761171
 40
1.0
 40
1.0
 40
1.0
 40
1.0
 10
3.6893715753
 20
4.6431951519
 30
0.0
 10
3.687945855
 20
4.6431951519
 30
0.0
 10
3.6851322653
 20
4.6432955311
 30
0.0
 10
3.6810243007
 20
4.643739919
 30
0.0
 10
3.6771594845
 20
4.6444513903
 30
0.0
 10
3.6736202909
 20
4.6453940925
 30
0.0
 10
3.670457534
 20
4.6465287789
 30
0.0
 10
3.6676953689
 20
4.6478183991
 30
0.0
 10
3.6653407444
 20
4.6492301445
 30
0.0
 10
3.6639693207
 20
4.6502890745
 30
0.0
 10
3.663360174
 20
4.6508325585
 30
0.0
  0
SPLINE
  5
33A
100
AcDbEntity
  8
0
100
AcDbSpline
 62
7
  6
CONTINUOUS
 70
0
 71
3
 72
15
 73
11
 74
0
 42
0.0000001
 43
0.0000001
 44
0.0000000001
 40
0.0
 40
0.0
 40
0.0
 40
0.0
 40
0.112896682
 40
0.2287895544
 40
0.3481741828
 40
0.4714679918
 40
0.5988149477
 40
0.7299686448
 40
0.8641348505
 40
1.0
 40
1.0
 40
1.0
 40
1.0
 10
3.663360174
 20
4.60466836
 30
0.0
 10
3.6639436021
 20
4.6057020232
 30
0.0
 10
3.6652510109
 20
4.6077289901
 30
0.0
 10
3.6675969781
 20
4.6105504601
 30
0.0
 10
3.670357184
 20
4.613133212
 30
0.0
 10
3.673525478
 20
4.6154098691
 30
0.0
 10
3.6770781432
 20
4.6173043768
 30
0.0
 10
3.6809645107
 20
4.618736228
 30
0.0
 10
3.685099957
 20
4.6196315473
 30
0.0
 10
3.6879431453
 20
4.6198344209
 30
0.0
 10
3.6893715753
 20
4.6198344209
 30
0.0
  0
SPLINE
  5
33B
100
AcDbEntity
  8
0
100
AcDbSpline
 62
7
  6
CONTINUOUS
 70
0
 71
3
 72
15
 73
11
 74
0
 42
0.0000001
 43
0.0000001
 44
0.0000000001
 40
0.0
 40
0.0
 40
0.0
 40
0.0
 40
0.1508535258
 40
0.297970745
 40
0.4383145848
 40
0.5698579169
 40
0.6916470496
 40
0.7488470062
 40
0.8036189928
 40
1.0
 40
1.0
 40
1.0
 40
1.0
 10
3.6893715753
 20
4.5953147889
 30
0.0
 10
3.6879453945
 20
4.5953147889
 30
0.0
 10
3.6851267386
 20
4.5954380941
 30
0.0
 10
3.6810136963
 20
4.5959837454
 30
0.0
 10
3.6771441159
 20
4.5968574027
 30
0.0
 10
3.6736010031
 20
4.5980150593
 30
0.0
 10
3.6709089881
 20
4.599199975
 30
0.0
 10
3.6689637681
 20
4.6002518665
 30
0.0
 10
3.6664803158
 20
4.6017767559
 30
0.0
 10
3.6646136138
 20
4.6032987408
 30
0.0
 10
3.663360174
 20
4.60466836
 30
0.0
  0
SPLINE
  5
33C
100
AcDbEntity
  8
0
100
AcDbSpline
 62
7
  6
CONTINUOUS
 70
0
 71
3
 72
17
 73
13
 74
0
 42
0.0000001
 43
0.0000001
 44
0.0000000001
 40
0.0
 40
0.0
 40
0.0
 40
0.0
 40
0.1089526076
 40
0.2219495301
 40
0.3396228571
 40
0.4004093059
 40
0.4625305615
 40
0.590686572
 40
0.723783972
 40
0.791916517
 40
0.8608395161
 40
1.0
 40
1.0
 40
1.0
 40
1.0
 10
3.663360174
 20
4.5575930306
 30
0.0
 10
3.6639463781
 20
4.5585449089
 30
0.0
 10
3.6652620459
 20
4.560411995
 30
0.0
 10
3.667610745
 20
4.5629975385
 30
0.0
 10
3.6698887846
 20
4.5649482901
 30
0.0
 10
3.6719070126
 20
4.5663719947
 30
0.0
 10
3.6741033812
 20
4.5677210401
 30
0.0
 10
3.6770938988
 20
4.5691805934
 30
0.0
 10
3.6803059457
 20
4.5702633825
 30
0.0
 10
3.6830074695
 20
4.5708918502
 30
0.0
 10
3.6858052151
 20
4.5713532772
 30
0.0
 10
3.6879437257
 20
4.5714929932
 30
0.0
 10
3.6893715753
 20
4.5714929932
 30
0.0
  0
SPLINE
  5
33D
100
AcDbEntity
  8
0
100
AcDbSpline
 62
7
  6
CONTINUOUS
 70
0
 71
3
 72
15
 73
11
 74
0
 42
0.0000001
 43
0.0000001
 44
0.0000000001
 40
0.0
 40
0.0
 40
0.0
 40
0.0
 40
0.1467595091
 40
0.2903046633
 40
0.4280510203
 40
0.5583163694
 40
0.6803759498
 40
0.7942501072
 40
0.9005058736
 40
1.0
 40
1.0
 40
1.0
 40
1.0
 10
3.6893715753
 20
4.546613375
 30
0.0
 10
3.6879448725
 20
4.546613375
 30
0.0
 10
3.6851204958
 20
4.5467586086
 30
0.0
 10
3.6810018854
 20
4.5474009633
 30
0.0
 10
3.6771275644
 20
4.5484293645
 30
0.0
 10
3.6735807671
 20
4.5497919803
 30
0.0
 10
3.6704126001
 20
4.5514320563
 30
0.0
 10
3.6676476991
 20
4.5532958006
 30
0.0
 10
3.6652935818
 20
4.5553352163
 30
0.0
 10
3.6639548721
 20
4.5568302421
 30
0.0
 10
3.663360174
 20
4.5575930306
 30
0.0
  0
SPLINE
  5
33E
100
AcDbEntity
  8
0
100
AcDbSpline
 62
7
  6
CONTINUOUS
 70
0
 71
3
 72
15
 73
11
 74
0
 42
0.0000001
 43
0.0000001
 44
0.0000000001
 40
0.0
 40
0.0
 40
0.0
 40
0.0
 40
0.1044805416
 40
0.214257955
 40
0.3300914997
 40
0.4525324175
 40
0.5816806546
 40
0.7170079309
 40
0.8571596574
 40
1.0
 40
1.0
 40
1.0
 40
1.0
 10
3.663360174
 20
4.5100599315
 30
0.0
 10
3.6639500419
 20
4.5109212894
 30
0.0
 10
3.6652760009
 20
4.5126107052
 30
0.0
 10
3.6676277495
 20
4.5149348933
 30
0.0
 10
3.6703918426
 20
4.5170601112
 30
0.0
 10
3.673560981
 20
4.5189312095
 30
0.0
 10
3.6771105631
 20
4.5204863761
 30
0.0
 10
3.6809894134
 20
4.5216604657
 30
0.0
 10
3.6851137733
 20
4.5223939803
 30
0.0
 10
3.6879443087
 20
4.5225599315
 30
0.0
 10
3.6893715753
 20
4.5225599315
 30
0.0
  0
SPLINE
  5
33F
100
AcDbEntity
  8
0
100
AcDbSpline
 62
7
  6
CONTINUOUS
 70
0
 71
3
 72
15
 73
11
 74
0
 42
0.0000001
 43
0.0000001
 44
0.0000000001
 40
0.0
 40
0.0
 40
0.0
 40
0.0
 40
0.1428403031
 40
0.2829920047
 40
0.4183192843
 40
0.5474675457
 40
0.6699084783
 40
0.7857420361
 40
0.8955194521
 40
1.0
 40
1.0
 40
1.0
 40
1.0
 10
3.6893715753
 20
4.4975599315
 30
0.0
 10
3.6879443091
 20
4.4975599315
 30
0.0
 10
3.6851137744
 20
4.4977258827
 30
0.0
 10
3.680989415
 20
4.498459397
 30
0.0
 10
3.6771105647
 20
4.4996334864
 30
0.0
 10
3.673560982
 20
4.5011886529
 30
0.0
 10
3.6703918432
 20
4.5030597515
 30
0.0
 10
3.6676277498
 20
4.5051849695
 30
0.0
 10
3.665276001
 20
4.5075091577
 30
0.0
 10
3.6639500419
 20
4.5091985736
 30
0.0
 10
3.663360174
 20
4.5100599315
 30
0.0
  0
SPLINE
  5
340
100
AcDbEntity
  8
0
100
AcDbSpline
 62
7
  6
CONTINUOUS
 70
0
 71
3
 72
15
 73
11
 74
0
 42
0.0000001
 43
0.0000001
 44
0.0000000001
 40
0.0
 40
0.0
 40
0.0
 40
0.0
 40
0.0994941203
 40
0.2057498842
 40
0.3196240284
 40
0.4416835937
 40
0.5719489177
 40
0.7096952709
 40
0.8532404504
 40
1.0
 40
1.0
 40
1.0
 40
1.0
 10
3.663360174
 20
4.4625268324
 30
0.0
 10
3.6639548721
 20
4.4632896209
 30
0.0
 10
3.6652935817
 20
4.4647846467
 30
0.0
 10
3.6676476988
 20
4.4668240622
 30
0.0
 10
3.6704125995
 20
4.4686878064
 30
0.0
 10
3.673580766
 20
4.4703278822
 30
0.0
 10
3.6771275629
 20
4.4716904981
 30
0.0
 10
3.6810018838
 20
4.4727188994
 30
0.0
 10
3.6851204947
 20
4.4733612544
 30
0.0
 10
3.6879448721
 20
4.473506488
 30
0.0
 10
3.6893715753
 20
4.473506488
 30
0.0
  0
SPLINE
  5
341
100
AcDbEntity
  8
0
100
AcDbSpline
 62
7
  6
CONTINUOUS
 70
0
 71
3
 72
17
 73
13
 74
0
 42
0.0000001
 43
0.0000001
 44
0.0000000001
 40
0.0
 40
0.0
 40
0.0
 40
0.0
 40
0.1391604455
 40
0.2080834282
 40
0.276215965
 40
0.4093133678
 40
0.5374694017
 40
0.599590664
 40
0.6603771207
 40
0.7780504607
 40
0.8910473859
 40
1.0
 40
1.0
 40
1.0
 40
1.0
 10
3.6893715753
 20
4.4486268698
 30
0.0
 10
3.6879437261
 20
4.4486268698
 30
0.0
 10
3.6858052161
 20
4.4487665858
 30
0.0
 10
3.6830074711
 20
4.4492280125
 30
0.0
 10
3.6803059475
 20
4.44985648
 30
0.0
 10
3.6770939004
 20
4.450939269
 30
0.0
 10
3.6741033823
 20
4.4523988222
 30
0.0
 10
3.6719070133
 20
4.4537478677
 30
0.0
 10
3.6698887851
 20
4.4551715726
 30
0.0
 10
3.6676107452
 20
4.4571223242
 30
0.0
 10
3.665262046
 20
4.4597078679
 30
0.0
 10
3.6639463782
 20
4.4615749541
 30
0.0
 10
3.663360174
 20
4.4625268324
 30
0.0
  0
SPLINE
  5
342
100
AcDbEntity
  8
0
100
AcDbSpline
 62
7
  6
CONTINUOUS
 70
0
 71
3
 72
15
 73
11
 74
0
 42
0.0000001
 43
0.0000001
 44
0.0000000001
 40
0.0
 40
0.0
 40
0.0
 40
0.0
 40
0.1963809989
 40
0.2511529824
 40
0.3083529286
 40
0.4301420461
 40
0.5616853521
 40
0.7020291876
 40
0.8491464326
 40
1.0
 40
1.0
 40
1.0
 40
1.0
 10
3.663360174
 20
4.415451503
 30
0.0
 10
3.6646136138
 20
4.4168211221
 30
0.0
 10
3.6664803156
 20
4.418343107
 30
0.0
 10
3.6689637677
 20
4.4198679963
 30
0.0
 10
3.6709089875
 20
4.4209198878
 30
0.0
 10
3.673601002
 20
4.4221048032
 30
0.0
 10
3.6771441144
 20
4.42326246
 30
0.0
 10
3.6810136947
 20
4.4241361173
 30
0.0
 10
3.6851267376
 20
4.4246817688
 30
0.0
 10
3.6879453941
 20
4.4248050741
 30
0.0
 10
3.6893715753
 20
4.4248050741
 30
0.0
  0
SPLINE
  5
343
100
AcDbEntity
  8
0
100
AcDbSpline
 62
7
  6
CONTINUOUS
 70
0
 71
3
 72
15
 73
11
 74
0
 42
0.0000001
 43
0.0000001
 44
0.0000000001
 40
0.0
 40
0.0
 40
0.0
 40
0.0
 40
0.135865112
 40
0.2700312933
 40
0.4011849928
 40
0.5285319714
 40
0.651825795
 40
0.7712104362
 40
0.8871033114
 40
1.0
 40
1.0
 40
1.0
 40
1.0
 10
3.6893715753
 20
4.4002854421
 30
0.0
 10
3.6879431457
 20
4.4002854421
 30
0.0
 10
3.685099958
 20
4.4004883156
 30
0.0
 10
3.6809645124
 20
4.4013836346
 30
0.0
 10
3.6770781448
 20
4.4028154856
 30
0.0
 10
3.673525479
 20
4.4047099931
 30
0.0
 10
3.6703571846
 20
4.4069866506
 30
0.0
 10
3.6675969783
 20
4.4095694026
 30
0.0
 10
3.665251011
 20
4.4123908728
 30
0.0
 10
3.6639436022
 20
4.4144178398
 30
0.0
 10
3.663360174
 20
4.415451503
 30
0.0
  0
SPLINE
  5
344
100
AcDbEntity
  8
0
100
AcDbSpline
 62
7
  6
CONTINUOUS
 70
0
 71
3
 72
15
 73
11
 74
0
 42
0.0000001
 43
0.0000001
 44
0.0000000001
 40
0.0
 40
0.0
 40
0.0
 40
0.0
 40
0.0886238773
 40
0.1875020172
 40
0.2974936469
 40
0.4190227207
 40
0.551815975
 40
0.6946722347
 40
0.8452229783
 40
1.0
 40
1.0
 40
1.0
 40
1.0
 10
3.663360174
 20
4.3692873045
 30
0.0
 10
3.6639693207
 20
4.3698307885
 30
0.0
 10
3.6653407443
 20
4.3708897185
 30
0.0
 10
3.6676953686
 20
4.3723014637
 30
0.0
 10
3.6704575334
 20
4.3735910839
 30
0.0
 10
3.6736202898
 20
4.3747257702
 30
0.0
 10
3.677159483
 20
4.3756684724
 30
0.0
 10
3.6810242991
 20
4.3763799438
 30
0.0
 10
3.6851322642
 20
4.3768243319
 30
0.0
 10
3.6879458546
 20
4.3769247111
 30
0.0
 10
3.6893715753
 20
4.3769247111
 30
0.0
  0
SPLINE
  5
345
100
AcDbEntity
  8
0
100
AcDbSpline
 62
7
  6
CONTINUOUS
 70
0
 71
3
 72
15
 73
11
 74
0
 42
0.0000001
 43
0.0000001
 44
0.0000000001
 40
0.0
 40
0.0
 40
0.0
 40
0.0
 40
0.1329534111
 40
0.2646426207
 40
0.3941053173
 40
0.5207697081
 40
0.6444795424
 40
0.7653625813
 40
0.883748312
 40
1.0
 40
1.0
 40
1.0
 40
1.0
 10
3.6893715753
 20
4.3530012028
 30
0.0
 10
3.6879425902
 20
4.3530012028
 30
0.0
 10
3.6850933929
 20
4.3532198448
 30
0.0
 10
3.6809530153
 20
4.3541839367
 30
0.0
 10
3.6770638306
 20
4.3557248871
 30
0.0
 10
3.6735106712
 20
4.3577623781
 30
0.0
 10
3.6703436306
 20
4.3602092915
 30
0.0
 10
3.6675857293
 20
4.3629836825
 30
0.0
 10
3.6652424584
 20
4.3660132762
 30
0.0
 10
3.6639415014
 20
4.3681813001
 30
0.0
 10
3.663360174
 20
4.3692873045
 30
0.0
  0
SPLINE
  5
346
100
AcDbEntity
  8
0
100
AcDbSpline
 62
7
  6
CONTINUOUS
 70
0
 71
3
 72
15
 73
11
 74
0
 42
0.0000001
 43
0.0000001
 44
0.0000000001
 40
0.0
 40
0.0
 40
0.0
 40
0.0
 40
0.0833308872
 40
0.1787840963
 40
0.2870847814
 40
0.4084960446
 40
0.5425516217
 40
0.6878050686
 40
0.8415725811
 40
1.0
 40
1.0
 40
1.0
 40
1.0
 10
3.663360174
 20
4.3244788234
 30
0.0
 10
3.6639792277
 20
4.3249017174
 30
0.0
 10
3.6653688841
 20
4.3257200927
 30
0.0
 10
3.6677204185
 20
4.3267966311
 30
0.0
 10
3.6704788612
 20
4.3277806402
 30
0.0
 10
3.6736376436
 20
4.3286468966
 30
0.0
 10
3.6771727136
 20
4.3293668494
 30
0.0
 10
3.6810332319
 20
4.3299103372
 30
0.0
 10
3.6851368475
 20
4.3302498473
 30
0.0
 10
3.6879462359
 20
4.3303265131
 30
0.0
 10
3.6893715753
 20
4.3303265131
 30
0.0
  0
SPLINE
  5
347
100
AcDbEntity
  8
0
100
AcDbSpline
 62
7
  6
CONTINUOUS
 70
0
 71
3
 72
15
 73
11
 74
0
 42
0.0000001
 43
0.0000001
 44
0.0000000001
 40
0.0
 40
0.0
 40
0.0
 40
0.0
 40
0.1304762884
 40
0.2600688068
 40
0.3881172844
 40
0.5142326021
 40
0.6383218514
 40
0.7604841382
 40
0.8809621612
 40
1.0
 40
1.0
 40
1.0
 40
1.0
 10
3.6893715753
 20
4.3072295248
 30
0.0
 10
3.6879420815
 20
4.3072295248
 30
0.0
 10
3.6850873946
 20
4.3074618626
 30
0.0
 10
3.6809426945
 20
4.3084854914
 30
0.0
 10
3.6770513148
 20
4.3101206088
 30
0.0
 10
3.6734981303
 20
4.3122811654
 30
0.0
 10
3.670332535
 20
4.3148743399
 30
0.0
 10
3.6675768226
 20
4.3178132253
 30
0.0
 10
3.6652358903
 20
4.321021465
 30
0.0
 10
3.6639399211
 20
4.323310592
 30
0.0
 10
3.663360174
 20
4.3244788234
 30
0.0
  0
SPLINE
  5
348
100
AcDbEntity
  8
0
100
AcDbSpline
 62
7
  6
CONTINUOUS
 70
0
 71
3
 72
18
 73
14
 74
0
 42
0.0000001
 43
0.0000001
 44
0.0000000001
 40
0.0
 40
0.0
 40
0.0
 40
0.0
 40
0.0377064957
 40
0.0787864661
 40
0.1233260932
 40
0.1713978282
 40
0.22306241
 40
0.2783558988
 40
0.399728896
 40
0.5348752258
 40
0.6821350308
 40
0.838564779
 40
1.0
 40
1.0
 40
1.0
 40
1.0
 10
3.663360174
 20
4.2814575898
 30
0.0
 10
3.6636617036
 20
4.2815985474
 30
0.0
 10
3.6642998019
 20
4.2818760028
 30
0.0
 10
3.6653170901
 20
4.282264507
 30
0.0
 10
3.666435837
 20
4.2826411129
 30
0.0
 10
3.6676568765
 20
4.2830039973
 30
0.0
 10
3.668980821
 20
4.2833512651
 30
0.0
 10
3.6709449259
 20
4.2838049113
 30
0.0
 10
3.6736516421
 20
4.2843120426
 30
0.0
 10
3.677182998
 20
4.2848037079
 30
0.0
 10
3.6810400578
 20
4.2851749346
 30
0.0
 10
3.6851403053
 20
4.2854068817
 30
0.0
 10
3.6879465232
 20
4.2854592462
 30
0.0
 10
3.6893715753
 20
4.2854592462
 30
0.0
  0
SPLINE
  5
349
100
AcDbEntity
  8
0
100
AcDbSpline
 62
7
  6
CONTINUOUS
 70
0
 71
3
 72
19
 73
15
 74
0
 42
0.0000001
 43
0.0000001
 44
0.0000000001
 40
0.0
 40
0.0
 40
0.0
 40
0.0
 40
0.0642777365
 40
0.1285135827
 40
0.192587818
 40
0.256456012
 40
0.3200792276
 40
0.3834113995
 40
0.4464351924
 40
0.5091331553
 40
0.6334985125
 40
0.7566586313
 40
0.8787780727
 40
1.0
 40
1.0
 40
1.0
 40
1.0
 10
3.6893715753
 20
4.2634112145
 30
0.0
 10
3.6886557337
 20
4.2634112145
 30
0.0
 10
3.6872237852
 20
4.2634723115
 30
0.0
 10
3.6850939109
 20
4.2637446273
 30
0.0
 10
3.6829987783
 20
4.2641938476
 30
0.0
 10
3.6809544948
 20
4.2648122354
 30
0.0
 10
3.678974452
 20
4.2655902316
 30
0.0
 10
3.677070261
 20
4.2665172057
 30
0.0
 10
3.6752510046
 20
4.2675810483
 30
0.0
 10
3.6729549915
 20
4.2691612062
 30
0.0
 10
3.670323513
 20
4.2714180779
 30
0.0
 10
3.6675700289
 20
4.2744926916
 30
0.0
 10
3.665230931
 20
4.2778486046
 30
0.0
 10
3.6639387503
 20
4.2802378434
 30
0.0
 10
3.663360174
 20
4.2814575898
 30
0.0
  0
SPLINE
  5
34A
100
AcDbEntity
  8
0
100
AcDbSpline
 62
7
  6
CONTINUOUS
 70
0
 71
3
 72
18
 73
14
 74
0
 42
0.0000001
 43
0.0000001
 44
0.0000000001
 40
0.0
 40
0.0
 40
0.0
 40
0.0
 40
0.0359199242
 40
0.075560925
 40
0.1189771886
 40
0.1662141124
 40
0.2722740286
 40
0.3936647245
 40
0.4598951221
 40
0.5295940025
 40
0.6782468562
 40
0.8365060444
 40
1.0
 40
1.0
 40
1.0
 40
1.0
 10
3.663360174
 20
4.2406379217
 30
0.0
 10
3.6636640645
 20
4.2407130795
 30
0.0
 10
3.664305966
 20
4.2408606008
 30
0.0
 10
3.6653224512
 20
4.2410658307
 30
0.0
 10
3.6664404977
 20
4.2412648501
 30
0.0
 10
3.6681341938
 20
4.2415309722
 30
0.0
 10
3.6705090219
 20
4.2418365985
 30
0.0
 10
3.6730563183
 20
4.2420890058
 30
0.0
 10
3.6752917149
 20
4.2422688561
 30
0.0
 10
3.677766166
 20
4.2424379486
 30
0.0
 10
3.6810444275
 20
4.2426047478
 30
0.0
 10
3.6851425012
 20
4.2427273382
 30
0.0
 10
3.6879467054
 20
4.2427550066
 30
0.0
 10
3.6893715753
 20
4.2427550066
 30
0.0
  0
SPLINE
  5
34B
100
AcDbEntity
  8
0
100
AcDbSpline
 62
7
  6
CONTINUOUS
 70
0
 71
3
 72
20
 73
16
 74
0
 42
0.0000001
 43
0.0000001
 44
0.0000000001
 40
0.0
 40
0.0
 40
0.0
 40
0.0
 40
0.0634764094
 40
0.1269432245
 40
0.1903120879
 40
0.2535652157
 40
0.3166853762
 40
0.3796429552
 40
0.4424311349
 40
0.505038043
 40
0.5674716487
 40
0.6297277209
 40
0.7536870935
 40
0.8770899821
 40
1.0
 40
1.0
 40
1.0
 40
1.0
 10
3.6893715753
 20
4.2219682663
 30
0.0
 10
3.6886556883
 20
4.2219682663
 30
0.0
 10
3.6872232396
 20
4.2220315105
 30
0.0
 10
3.6850928769
 20
4.2223133682
 30
0.0
 10
3.6829973287
 20
4.2227783087
 30
0.0
 10
3.6809527368
 20
4.2234183013
 30
0.0
 10
3.6789724981
 20
4.2242234233
 30
0.0
 10
3.6770682096
 20
4.2251826713
 30
0.0
 10
3.6752490018
 20
4.2262834111
 30
0.0
 10
3.6735219932
 20
4.2275133345
 30
0.0
 10
3.671892047
 20
4.2288597358
 30
0.0
 10
3.6698563567
 20
4.2307910437
 30
0.0
 10
3.6675647043
 20
4.2334393594
 30
0.0
 10
3.6652274284
 20
4.2369103295
 30
0.0
 10
3.6639379117
 20
4.2393778771
 30
0.0
 10
3.663360174
 20
4.2406379217
 30
0.0
  0
LINE
  5
34C
100
AcDbEntity
  8
0
100
AcDbLine
 62
7
  6
CONTINUOUS
 10
3.663360174
 20
4.2024129348
 11
3.6893715753
 21
4.2026250595
  0
SPLINE
  5
34D
100
AcDbEntity
  8
0
100
AcDbSpline
 62
7
  6
CONTINUOUS
 70
0
 71
3
 72
19
 73
15
 74
0
 42
0.0000001
 43
0.0000001
 44
0.0000000001
 40
0.0
 40
0.0
 40
0.0
 40
0.0
 40
0.0629194147
 40
0.1258523647
 40
0.1887328764
 40
0.2515620925
 40
0.3143380593
 40
0.3770425777
 40
0.4396759406
 40
0.5022298295
 40
0.6270433421
 40
0.7515817911
 40
0.8758983816
 40
1.0
 40
1.0
 40
1.0
 40
1.0
 10
3.6893715753
 20
4.1832997982
 30
0.0
 10
3.688655655
 20
4.1832997982
 30
0.0
 10
3.6872228403
 20
4.1833645726
 30
0.0
 10
3.6850921222
 20
4.1836532276
 30
0.0
 10
3.6829962746
 20
4.1841293652
 30
0.0
 10
3.6809514672
 20
4.1847847397
 30
0.0
 10
3.6789710907
 20
4.1856091786
 30
0.0
 10
3.6770667629
 20
4.1865913708
 30
0.0
 10
3.6752475268
 20
4.1877184588
 30
0.0
 10
3.6729472302
 20
4.1893956718
 30
0.0
 10
3.6703123384
 20
4.1917916523
 30
0.0
 10
3.6675615377
 20
4.1950478259
 30
0.0
 10
3.6652249457
 20
4.198601056
 30
0.0
 10
3.6639373525
 20
4.2011242075
 30
0.0
 10
3.663360174
 20
4.2024129348
 30
0.0
  0
SPLINE
  5
34E
100
AcDbEntity
  8
0
100
AcDbSpline
 62
7
  6
CONTINUOUS
 70
0
 71
3
 72
19
 73
15
 74
0
 42
0.0000001
 43
0.0000001
 44
0.0000000001
 40
0.0
 40
0.0
 40
0.0
 40
0.0
 40
0.0625929791
 40
0.1252130771
 40
0.1878074424
 40
0.2503882717
 40
0.3129624797
 40
0.3755184306
 40
0.4380604318
 40
0.5005820853
 40
0.6255067707
 40
0.7503764511
 40
0.8752162909
 40
1.0
 40
1.0
 40
1.0
 40
1.0
 10
3.6893715753
 20
4.1477782089
 30
0.0
 10
3.6886556352
 20
4.1477782089
 30
0.0
 10
3.6872226024
 20
4.1478438792
 30
0.0
 10
3.6850916735
 20
4.1481365135
 30
0.0
 10
3.6829956498
 20
4.1486192049
 30
0.0
 10
3.6809507167
 20
4.149283582
 30
0.0
 10
3.6789702644
 20
4.1501193213
 30
0.0
 10
3.6770659108
 20
4.1511149451
 30
0.0
 10
3.6752466877
 20
4.1522574134
 30
0.0
 10
3.6729453774
 20
4.1539582684
 30
0.0
 10
3.6703097229
 20
4.1563880958
 30
0.0
 10
3.6675595853
 20
4.1596883695
 30
0.0
 10
3.6652235902
 20
4.1632895412
 30
0.0
 10
3.663937039
 20
4.1658452479
 30
0.0
 10
3.663360174
 20
4.1671507567
 30
0.0
  0
SPLINE
  5
34F
100
AcDbEntity
  8
0
100
AcDbSpline
 62
7
  6
CONTINUOUS
 70
0
 71
3
 72
19
 73
15
 74
0
 42
0.0000001
 43
0.0000001
 44
0.0000000001
 40
0.0
 40
0.0
 40
0.0
 40
0.0
 40
0.0625016022
 40
0.1250341445
 40
0.1875484626
 40
0.2500598545
 40
0.3125777157
 40
0.3750922376
 40
0.4376088355
 40
0.5001216299
 40
0.6250776695
 40
0.7500400613
 40
0.8750260385
 40
1.0
 40
1.0
 40
1.0
 40
1.0
 10
3.6893715753
 20
4.1157455905
 30
0.0
 10
3.6886556296
 20
4.1157455905
 30
0.0
 10
3.687222535
 20
4.1158115125
 30
0.0
 10
3.6850915465
 20
4.1161052647
 30
0.0
 10
3.6829954732
 20
4.116589797
 30
0.0
 10
3.6809505051
 20
4.1172567026
 30
0.0
 10
3.6789700319
 20
4.1180956155
 30
0.0
 10
3.6770656715
 20
4.1190950112
 30
0.0
 10
3.6752464526
 20
4.1202417983
 30
0.0
 10
3.6729448596
 20
4.1219492946
 30
0.0
 10
3.6703089956
 20
4.1243886273
 30
0.0
 10
3.6675590447
 20
4.127701281
 30
0.0
 10
3.6652232163
 20
4.131315912
 30
0.0
 10
3.6639369527
 20
4.1338807598
 30
0.0
 10
3.663360174
 20
4.1351909814
 30
0.0
  0
SPLINE
  5
350
100
AcDbEntity
  8
0
100
AcDbSpline
 62
7
  6
CONTINUOUS
 70
0
 71
3
 72
19
 73
15
 74
0
 42
0.0000001
 43
0.0000001
 44
0.0000000001
 40
0.0
 40
0.0
 40
0.0
 40
0.0
 40
0.0626451999
 40
0.1253153388
 40
0.1879554604
 40
0.2505759904
 40
0.3131824256
 40
0.3757620838
 40
0.4383186363
 40
0.5008453849
 40
0.6257521976
 40
0.7505688926
 40
0.8753251514
 40
1.0
 40
1.0
 40
1.0
 40
1.0
 10
3.6893715753
 20
4.0875104349
 30
0.0
 10
3.6886556384
 20
4.0875104349
 30
0.0
 10
3.6872226407
 20
4.0875759615
 30
0.0
 10
3.6850917458
 20
4.0878679578
 30
0.0
 10
3.6829957504
 20
4.0883495984
 30
0.0
 10
3.6809508374
 20
4.0890125322
 30
0.0
 10
3.6789703971
 20
4.0898464599
 30
0.0
 10
3.6770660474
 20
4.0908399305
 30
0.0
 10
3.675246822
 20
4.0919799333
 30
0.0
 10
3.6729456734
 20
4.0936769974
 30
0.0
 10
3.6703101395
 20
4.0961013988
 30
0.0
 10
3.6675598954
 20
4.0993946046
 30
0.0
 10
3.665223805
 20
4.1029880922
 30
0.0
 10
3.6639370886
 20
4.1055385805
 30
0.0
 10
3.663360174
 20
4.106841399
 30
0.0
  0
SPLINE
  5
351
100
AcDbEntity
  8
0
100
AcDbSpline
 62
7
  6
CONTINUOUS
 70
0
 71
3
 72
19
 73
15
 74
0
 42
0.0000001
 43
0.0000001
 44
0.0000000001
 40
0.0
 40
0.0
 40
0.0
 40
0.0
 40
0.0630238971
 40
0.1260570038
 40
0.1890291634
 40
0.2519379887
 40
0.3147786856
 40
0.3775309427
 40
0.4401937496
 40
0.5027581503
 40
0.6275363584
 40
0.751968783
 40
0.8761175051
 40
1.0
 40
1.0
 40
1.0
 40
1.0
 10
3.6893715753
 20
4.0633446619
 30
0.0
 10
3.6886556613
 20
4.0633446619
 30
0.0
 10
3.6872229155
 20
4.0634091505
 30
0.0
 10
3.6850922643
 20
4.0636965364
 30
0.0
 10
3.6829964727
 20
4.0641705837
 30
0.0
 10
3.6809517055
 20
4.0648230865
 30
0.0
 10
3.6789713537
 20
4.0656439205
 30
0.0
 10
3.6770670347
 20
4.0666218275
 30
0.0
 10
3.6752477951
 20
4.0677440083
 30
0.0
 10
3.6729478243
 20
4.0694136814
 30
0.0
 10
3.6703131813
 20
4.0717988641
 30
0.0
 10
3.6675621696
 20
4.0750409631
 30
0.0
 10
3.665225386
 20
4.078578894
 30
0.0
 10
3.6639374546
 20
4.0810916579
 30
0.0
 10
3.663360174
 20
4.0823750315
 30
0.0
  0
SPLINE
  5
352
100
AcDbEntity
  8
0
100
AcDbSpline
 62
7
  6
CONTINUOUS
 70
0
 71
3
 72
20
 73
16
 74
0
 42
0.0000001
 43
0.0000001
 44
0.0000000001
 40
0.0
 40
0.0
 40
0.0
 40
0.0
 40
0.0636331596
 40
0.1272503237
 40
0.1907569287
 40
0.2541299293
 40
0.317347826
 40
0.3803777917
 40
0.4432109783
 40
0.5058344657
 40
0.568256102
 40
0.6304722111
 40
0.7542725447
 40
0.8774220225
 40
1.0
 40
1.0
 40
1.0
 40
1.0
 10
3.6893715753
 20
4.0434810011
 30
0.0
 10
3.6886556974
 20
4.0434810011
 30
0.0
 10
3.6872233488
 20
4.0435438207
 30
0.0
 10
3.6850930837
 20
4.043823792
 30
0.0
 10
3.6829976181
 20
4.0442856249
 30
0.0
 10
3.6809530867
 20
4.0449213474
 30
0.0
 10
3.6789728865
 20
4.0457211076
 30
0.0
 10
3.6770686135
 20
4.0466739808
 30
0.0
 10
3.6752494034
 20
4.0477674191
 30
0.0
 10
3.673522377
 20
4.0489891987
 30
0.0
 10
3.671892403
 20
4.0503266981
 30
0.0
 10
3.6698571003
 20
4.0522448416
 30
0.0
 10
3.6675656834
 20
4.0548751395
 30
0.0
 10
3.6652281164
 20
4.058323335
 30
0.0
 10
3.6639380724
 20
4.0607754224
 30
0.0
 10
3.663360174
 20
4.0620275034
 30
0.0
  0
SPLINE
  5
353
100
AcDbEntity
  8
0
100
AcDbSpline
 62
7
  6
CONTINUOUS
 70
0
 71
3
 72
18
 73
14
 74
0
 42
0.0000001
 43
0.0000001
 44
0.0000000001
 40
0.0
 40
0.0
 40
0.0
 40
0.0
 40
0.12882424
 40
0.1930897128
 40
0.2571256621
 40
0.3208874523
 40
0.3843246533
 40
0.4474170899
 40
0.5101457437
 40
0.6344584014
 40
0.7574205869
 40
0.8792131783
 40
1.0
 40
1.0
 40
1.0
 40
1.0
 10
3.6893715753
 20
4.0281107505
 30
0.0
 10
3.6879417302
 20
4.0281107505
 30
0.0
 10
3.6857929637
 20
4.0282924791
 30
0.0
 10
3.6829993355
 20
4.0288862422
 30
0.0
 10
3.6809548975
 20
4.029499015
 30
0.0
 10
3.6789749709
 20
4.0302699446
 30
0.0
 10
3.6770707883
 20
4.031188518
 30
0.0
 10
3.675251538
 20
4.0322427356
 30
0.0
 10
3.672956191
 20
4.0338081473
 30
0.0
 10
3.670325273
 20
4.0360438613
 30
0.0
 10
3.6675713887
 20
4.0390908128
 30
0.0
 10
3.6652319035
 20
4.0424166698
 30
0.0
 10
3.6639389795
 20
4.0447855207
 30
0.0
 10
3.663360174
 20
4.0459947725
 30
0.0
  0
SPLINE
  5
354
100
AcDbEntity
  8
0
100
AcDbSpline
 62
7
  6
CONTINUOUS
 70
0
 71
3
 72
15
 73
11
 74
0
 42
0.0000001
 43
0.0000001
 44
0.0000000001
 40
0.0
 40
0.0
 40
0.0
 40
0.0
 40
0.1309881372
 40
0.2610130822
 40
0.3893519288
 40
0.5155783417
 40
0.6395873395
 40
0.7614850344
 40
0.8815328799
 40
1.0
 40
1.0
 40
1.0
 40
1.0
 10
3.6893715753
 20
4.0173819339
 30
0.0
 10
3.6879421896
 20
4.0173819339
 30
0.0
 10
3.6850886669
 20
4.0176114173
 30
0.0
 10
3.6809448692
 20
4.0186226539
 30
0.0
 10
3.6770539262
 20
4.0202381944
 30
0.0
 10
3.6735007163
 20
4.0223731935
 30
0.0
 10
3.670334795
 20
4.0249360135
 30
0.0
 10
3.6675786153
 20
4.0278407685
 30
0.0
 10
3.6652371982
 20
4.0310119395
 30
0.0
 10
3.6639402336
 20
4.0332759335
 30
0.0
 10
3.663360174
 20
4.0344312427
 30
0.0
  0
SPLINE
  5
355
100
AcDbEntity
  8
0
100
AcDbSpline
 62
7
  6
CONTINUOUS
 70
0
 71
3
 72
15
 73
11
 74
0
 42
0.0000001
 43
0.0000001
 44
0.0000000001
 40
0.0
 40
0.0
 40
0.0
 40
0.0
 40
0.133563723
 40
0.2657710307
 40
0.3955856413
 40
0.5223897852
 40
0.6460096848
 40
0.7665781019
 40
0.8844442768
 40
1.0
 40
1.0
 40
1.0
 40
1.0
 10
3.6893715753
 20
4.0113978758
 30
0.0
 10
3.6879427106
 20
4.0113978758
 30
0.0
 10
3.6850948121
 20
4.0116131858
 30
0.0
 10
3.6809554824
 20
4.0125627643
 30
0.0
 10
3.6770668684
 20
4.0140807187
 30
0.0
 10
3.6735137712
 20
4.016088107
 30
0.0
 10
3.6703464265
 20
4.0184992061
 30
0.0
 10
3.6675880157
 20
4.0212333005
 30
0.0
 10
3.665244173
 20
4.024219133
 30
0.0
 10
3.6639419187
 20
4.0263574972
 30
0.0
 10
3.663360174
 20
4.0274482773
 30
0.0
  0
SPLINE
  5
356
100
AcDbEntity
  8
0
100
AcDbSpline
 62
7
  6
CONTINUOUS
 70
0
 71
3
 72
18
 73
14
 74
0
 42
0.0000001
 43
0.0000001
 44
0.0000000001
 40
0.0
 40
0.0
 40
0.0
 40
0.0
 40
0.128824257
 40
0.1930897326
 40
0.2571256775
 40
0.3208874604
 40
0.3843246583
 40
0.4474170936
 40
0.5101457459
 40
0.6344584023
 40
0.757420589
 40
0.8792131783
 40
1.0
 40
1.0
 40
1.0
 40
1.0
 10
4.5593715753
 20
4.9920091125
 30
0.0
 10
4.5608014207
 20
4.9920091125
 30
0.0
 10
4.5629501874
 20
4.9918273839
 30
0.0
 10
4.5657438158
 20
4.9912336207
 30
0.0
 10
4.5677882536
 20
4.9906208479
 30
0.0
 10
4.56976818
 20
4.9898499183
 30
0.0
 10
4.5716723625
 20
4.9889313449
 30
0.0
 10
4.5734916128
 20
4.9878771273
 30
0.0
 10
4.5757869597
 20
4.9863117156
 30
0.0
 10
4.5784178777
 20
4.9840760016
 30
0.0
 10
4.581171762
 20
4.9810290502
 30
0.0
 10
4.5835112472
 20
4.9777031932
 30
0.0
 10
4.5848041712
 20
4.9753343423
 30
0.0
 10
4.5853829767
 20
4.9741250905
 30
0.0
  0
SPLINE
  5
357
100
AcDbEntity
  8
0
100
AcDbSpline
 62
7
  6
CONTINUOUS
 70
0
 71
3
 72
20
 73
16
 74
0
 42
0.0000001
 43
0.0000001
 44
0.0000000001
 40
0.0
 40
0.0
 40
0.0
 40
0.0
 40
0.0636331649
 40
0.1272503405
 40
0.1907569483
 40
0.2541299444
 40
0.317347834
 40
0.3803777965
 40
0.443210982
 40
0.5058344679
 40
0.5682561027
 40
0.6304722119
 40
0.7542725468
 40
0.8774220226
 40
1.0
 40
1.0
 40
1.0
 40
1.0
 10
4.5593715753
 20
4.9766388619
 30
0.0
 10
4.5600874534
 20
4.9766388619
 30
0.0
 10
4.5615198021
 20
4.9765760422
 30
0.0
 10
4.5636500675
 20
4.976296071
 30
0.0
 10
4.5657455332
 20
4.9758342379
 30
0.0
 10
4.5677900645
 20
4.9751985155
 30
0.0
 10
4.5697702645
 20
4.9743987552
 30
0.0
 10
4.5716745373
 20
4.9734458821
 30
0.0
 10
4.5734937473
 20
4.9723524438
 30
0.0
 10
4.5752207737
 20
4.9711306643
 30
0.0
 10
4.5768507477
 20
4.9697931649
 30
0.0
 10
4.5788860504
 20
4.9678750214
 30
0.0
 10
4.5811774674
 20
4.9652447235
 30
0.0
 10
4.5835150343
 20
4.961796528
 30
0.0
 10
4.5848050783
 20
4.9593444406
 30
0.0
 10
4.5853829767
 20
4.9580923596
 30
0.0
  0
SPLINE
  5
358
100
AcDbEntity
  8
0
100
AcDbSpline
 62
7
  6
CONTINUOUS
 70
0
 71
3
 72
19
 73
15
 74
0
 42
0.0000001
 43
0.0000001
 44
0.0000000001
 40
0.0
 40
0.0
 40
0.0
 40
0.0
 40
0.0630239024
 40
0.1260570204
 40
0.1890291828
 40
0.2519380037
 40
0.3147786935
 40
0.3775309475
 40
0.4401937533
 40
0.5027581524
 40
0.6275363593
 40
0.7519687851
 40
0.8761175052
 40
1.0
 40
1.0
 40
1.0
 40
1.0
 10
4.5593715753
 20
4.9567752012
 30
0.0
 10
4.5600874895
 20
4.9567752012
 30
0.0
 10
4.5615202354
 20
4.9567107124
 30
0.0
 10
4.5636508869
 20
4.9564233266
 30
0.0
 10
4.5657466785
 20
4.9559492792
 30
0.0
 10
4.5677914457
 20
4.9552967764
 30
0.0
 10
4.5697717973
 20
4.9544759424
 30
0.0
 10
4.5716761161
 20
4.9534980354
 30
0.0
 10
4.5734953557
 20
4.9523758547
 30
0.0
 10
4.5757953265
 20
4.9507061816
 30
0.0
 10
4.5784299694
 20
4.9483209989
 30
0.0
 10
4.5811809811
 20
4.9450788999
 30
0.0
 10
4.5835177646
 20
4.941540969
 30
0.0
 10
4.584805696
 20
4.9390282051
 30
0.0
 10
4.5853829767
 20
4.9377448315
 30
0.0
  0
SPLINE
  5
359
100
AcDbEntity
  8
0
100
AcDbSpline
 62
7
  6
CONTINUOUS
 70
0
 71
3
 72
19
 73
15
 74
0
 42
0.0000001
 43
0.0000001
 44
0.0000000001
 40
0.0
 40
0.0
 40
0.0
 40
0.0
 40
0.0626452052
 40
0.1253153554
 40
0.1879554797
 40
0.2505760053
 40
0.3131824334
 40
0.3757620886
 40
0.4383186399
 40
0.5008453871
 40
0.6257521985
 40
0.7505688947
 40
0.8753251514
 40
1.0
 40
1.0
 40
1.0
 40
1.0
 10
4.5593715753
 20
4.9326094281
 30
0.0
 10
4.5600875124
 20
4.9326094281
 30
0.0
 10
4.5615205102
 20
4.9325439014
 30
0.0
 10
4.5636514054
 20
4.9322519052
 30
0.0
 10
4.5657474009
 20
4.9317702644
 30
0.0
 10
4.5677923138
 20
4.9311073307
 30
0.0
 10
4.5697727539
 20
4.930273403
 30
0.0
 10
4.5716771035
 20
4.9292799324
 30
0.0
 10
4.5734963288
 20
4.9281399297
 30
0.0
 10
4.5757974773
 20
4.9264428655
 30
0.0
 10
4.5784330112
 20
4.9240184642
 30
0.0
 10
4.5811832553
 20
4.9207252584
 30
0.0
 10
4.5835193457
 20
4.9171317707
 30
0.0
 10
4.5848060621
 20
4.9145812825
 30
0.0
 10
4.5853829767
 20
4.913278464
 30
0.0
  0
SPLINE
  5
35A
100
AcDbEntity
  8
0
100
AcDbSpline
 62
7
  6
CONTINUOUS
 70
0
 71
3
 72
19
 73
15
 74
0
 42
0.0000001
 43
0.0000001
 44
0.0000000001
 40
0.0
 40
0.0
 40
0.0
 40
0.0
 40
0.0625016075
 40
0.125034161
 40
0.1875484818
 40
0.2500598694
 40
0.3125777235
 40
0.3750922424
 40
0.4376088392
 40
0.500121632
 40
0.6250776704
 40
0.7500400634
 40
0.8750260386
 40
1.0
 40
1.0
 40
1.0
 40
1.0
 10
4.5593715753
 20
4.9043742725
 30
0.0
 10
4.5600875212
 20
4.9043742725
 30
0.0
 10
4.5615206159
 20
4.9043083504
 30
0.0
 10
4.5636516047
 20
4.9040145983
 30
0.0
 10
4.565747678
 20
4.9035300659
 30
0.0
 10
4.5677926461
 20
4.9028631603
 30
0.0
 10
4.5697731191
 20
4.9020242473
 30
0.0
 10
4.5716774794
 20
4.9010248517
 30
0.0
 10
4.5734966981
 20
4.8998780647
 30
0.0
 10
4.5757982911
 20
4.8981705683
 30
0.0
 10
4.5784341552
 20
4.8957312356
 30
0.0
 10
4.581184106
 20
4.892418582
 30
0.0
 10
4.5835199344
 20
4.888803951
 30
0.0
 10
4.584806198
 20
4.8862391032
 30
0.0
 10
4.5853829767
 20
4.8849288816
 30
0.0
  0
SPLINE
  5
35B
100
AcDbEntity
  8
0
100
AcDbSpline
 62
7
  6
CONTINUOUS
 70
0
 71
3
 72
19
 73
15
 74
0
 42
0.0000001
 43
0.0000001
 44
0.0000000001
 40
0.0
 40
0.0
 40
0.0
 40
0.0
 40
0.0625929843
 40
0.1252130937
 40
0.1878074617
 40
0.2503882866
 40
0.3129624876
 40
0.3755184354
 40
0.4380604355
 40
0.5005820875
 40
0.6255067716
 40
0.7503764532
 40
0.875216291
 40
1.0
 40
1.0
 40
1.0
 40
1.0
 10
4.5593715753
 20
4.8723416542
 30
0.0
 10
4.5600875156
 20
4.8723416542
 30
0.0
 10
4.5615205485
 20
4.8722759838
 30
0.0
 10
4.5636514777
 20
4.8719833495
 30
0.0
 10
4.5657475014
 20
4.8715006579
 30
0.0
 10
4.5677924344
 20
4.8708362809
 30
0.0
 10
4.5697728865
 20
4.8700005416
 30
0.0
 10
4.5716772401
 20
4.8690049178
 30
0.0
 10
4.5734964631
 20
4.8678624496
 30
0.0
 10
4.5757977734
 20
4.8661615946
 30
0.0
 10
4.5784334278
 20
4.8637317672
 30
0.0
 10
4.5811835654
 20
4.8604314935
 30
0.0
 10
4.5835195605
 20
4.8568303218
 30
0.0
 10
4.5848061117
 20
4.8542746151
 30
0.0
 10
4.5853829767
 20
4.8529691063
 30
0.0
  0
SPLINE
  5
35C
100
AcDbEntity
  8
0
100
AcDbSpline
 62
7
  6
CONTINUOUS
 70
0
 71
3
 72
19
 73
15
 74
0
 42
0.0000001
 43
0.0000001
 44
0.0000000001
 40
0.0
 40
0.0
 40
0.0
 40
0.0
 40
0.0629194199
 40
0.1258523813
 40
0.1887328958
 40
0.2515621075
 40
0.3143380672
 40
0.3770425826
 40
0.4396759443
 40
0.5022298317
 40
0.627043343
 40
0.7515817932
 40
0.8758983816
 40
1.0
 40
1.0
 40
1.0
 40
1.0
 10
4.5593715753
 20
4.8368200648
 30
0.0
 10
4.5600874957
 20
4.8368200648
 30
0.0
 10
4.5615203107
 20
4.8367552903
 30
0.0
 10
4.5636510289
 20
4.8364666354
 30
0.0
 10
4.5657468766
 20
4.8359904976
 30
0.0
 10
4.567791684
 20
4.8353351232
 30
0.0
 10
4.5697720602
 20
4.8345106842
 30
0.0
 10
4.571676388
 20
4.8335284921
 30
0.0
 10
4.573495624
 20
4.8324014042
 30
0.0
 10
4.5757959206
 20
4.8307241912
 30
0.0
 10
4.5784308123
 20
4.8283282107
 30
0.0
 10
4.5811816131
 20
4.8250720371
 30
0.0
 10
4.583518205
 20
4.8215188069
 30
0.0
 10
4.5848057981
 20
4.8189956555
 30
0.0
 10
4.5853829767
 20
4.8177069282
 30
0.0
  0
LINE
  5
35D
100
AcDbEntity
  8
0
100
AcDbLine
 62
7
  6
CONTINUOUS
 10
4.5853829767
 20
4.8177069282
 11
4.5593715753
 21
4.8174948035
  0
SPLINE
  5
35E
100
AcDbEntity
  8
0
100
AcDbSpline
 62
7
  6
CONTINUOUS
 70
0
 71
3
 72
20
 73
16
 74
0
 42
0.0000001
 43
0.0000001
 44
0.0000000001
 40
0.0
 40
0.0
 40
0.0
 40
0.0
 40
0.0634764147
 40
0.1269432412
 40
0.1903121074
 40
0.2535652308
 40
0.3166853841
 40
0.3796429601
 40
0.4424311386
 40
0.5050380451
 40
0.5674716493
 40
0.6297277218
 40
0.7536870956
 40
0.8770899822
 40
1.0
 40
1.0
 40
1.0
 40
1.0
 10
4.5593715753
 20
4.7981515968
 30
0.0
 10
4.5600874625
 20
4.7981515968
 30
0.0
 10
4.5615199113
 20
4.7980883524
 30
0.0
 10
4.5636502743
 20
4.7978064948
 30
0.0
 10
4.5657458226
 20
4.7973415541
 30
0.0
 10
4.5677904143
 20
4.7967015616
 30
0.0
 10
4.5697706528
 20
4.7958964395
 30
0.0
 10
4.5716749413
 20
4.7949371916
 30
0.0
 10
4.573494149
 20
4.7938364518
 30
0.0
 10
4.5752211575
 20
4.7926065284
 30
0.0
 10
4.5768511037
 20
4.7912601272
 30
0.0
 10
4.578886794
 20
4.7893288193
 30
0.0
 10
4.5811784464
 20
4.7866805035
 30
0.0
 10
4.5835157223
 20
4.7832095335
 30
0.0
 10
4.584805239
 20
4.7807419859
 30
0.0
 10
4.5853829767
 20
4.7794819413
 30
0.0
  0
SPLINE
  5
35F
100
AcDbEntity
  8
0
100
AcDbSpline
 62
7
  6
CONTINUOUS
 70
0
 71
3
 72
18
 73
14
 74
0
 42
0.0000001
 43
0.0000001
 44
0.0000000001
 40
0.0
 40
0.0
 40
0.0
 40
0.0
 40
0.035919923
 40
0.0755609222
 40
0.1189771864
 40
0.1662141116
 40
0.2722740174
 40
0.3936647087
 40
0.4598951056
 40
0.5295939801
 40
0.6782468439
 40
0.8365060453
 40
1.0
 40
1.0
 40
1.0
 40
1.0
 10
4.5853829767
 20
4.7794819413
 30
0.0
 10
4.5850790862
 20
4.7794067835
 30
0.0
 10
4.5844371847
 20
4.7792592622
 30
0.0
 10
4.5834206996
 20
4.7790540323
 30
0.0
 10
4.582302653
 20
4.7788550129
 30
0.0
 10
4.580608957
 20
4.7785888908
 30
0.0
 10
4.5782341291
 20
4.7782832645
 30
0.0
 10
4.5756868328
 20
4.7780308573
 30
0.0
 10
4.5734514363
 20
4.777851007
 30
0.0
 10
4.5709769851
 20
4.7776819145
 30
0.0
 10
4.5676987234
 20
4.7775151152
 30
0.0
 10
4.5636006496
 20
4.7773925248
 30
0.0
 10
4.5607964453
 20
4.7773648564
 30
0.0
 10
4.5593715753
 20
4.7773648564
 30
0.0
  0
SPLINE
  5
360
100
AcDbEntity
  8
0
100
AcDbSpline
 62
7
  6
CONTINUOUS
 70
0
 71
3
 72
19
 73
15
 74
0
 42
0.0000001
 43
0.0000001
 44
0.0000000001
 40
0.0
 40
0.0
 40
0.0
 40
0.0
 40
0.0642777419
 40
0.1285135996
 40
0.1925878378
 40
0.2564560273
 40
0.3200792356
 40
0.3834114044
 40
0.4464351961
 40
0.5091331575
 40
0.6334985133
 40
0.7566586334
 40
0.8787780727
 40
1.0
 40
1.0
 40
1.0
 40
1.0
 10
4.5593715753
 20
4.7567086485
 30
0.0
 10
4.560087417
 20
4.7567086485
 30
0.0
 10
4.5615193657
 20
4.7566475514
 30
0.0
 10
4.5636492402
 20
4.7563752357
 30
0.0
 10
4.5657443729
 20
4.7559260152
 30
0.0
 10
4.5677886563
 20
4.7553076275
 30
0.0
 10
4.569768699
 20
4.7545296312
 30
0.0
 10
4.5716728899
 20
4.7536026572
 30
0.0
 10
4.5734921462
 20
4.7525388146
 30
0.0
 10
4.5757881593
 20
4.7509586568
 30
0.0
 10
4.5784196377
 20
4.7487017851
 30
0.0
 10
4.5811731218
 20
4.7456271714
 30
0.0
 10
4.5835122197
 20
4.7422712584
 30
0.0
 10
4.5848044004
 20
4.7398820196
 30
0.0
 10
4.5853829767
 20
4.7386622732
 30
0.0
  0
SPLINE
  5
361
100
AcDbEntity
  8
0
100
AcDbSpline
 62
7
  6
CONTINUOUS
 70
0
 71
3
 72
18
 73
14
 74
0
 42
0.0000001
 43
0.0000001
 44
0.0000000001
 40
0.0
 40
0.0
 40
0.0
 40
0.0
 40
0.0377064945
 40
0.0787864633
 40
0.123326091
 40
0.1713978274
 40
0.2230624068
 40
0.2783558876
 40
0.3997288802
 40
0.5348752037
 40
0.6821350185
 40
0.83856478
 40
1.0
 40
1.0
 40
1.0
 40
1.0
 10
4.5853829767
 20
4.7386622732
 30
0.0
 10
4.5850814471
 20
4.7385213156
 30
0.0
 10
4.5844433488
 20
4.7382438602
 30
0.0
 10
4.5834260607
 20
4.737855356
 30
0.0
 10
4.5823073137
 20
4.7374787501
 30
0.0
 10
4.5810862743
 20
4.7371158657
 30
0.0
 10
4.5797623299
 20
4.7367685979
 30
0.0
 10
4.577798225
 20
4.7363149518
 30
0.0
 10
4.575091509
 20
4.7358078205
 30
0.0
 10
4.5715601531
 20
4.7353161551
 30
0.0
 10
4.5677030932
 20
4.7349449284
 30
0.0
 10
4.5636028455
 20
4.7347129813
 30
0.0
 10
4.5607966275
 20
4.7346606169
 30
0.0
 10
4.5593715753
 20
4.7346606169
 30
0.0
  0
SPLINE
  5
362
100
AcDbEntity
  8
0
100
AcDbSpline
 62
7
  6
CONTINUOUS
 70
0
 71
3
 72
15
 73
11
 74
0
 42
0.0000001
 43
0.0000001
 44
0.0000000001
 40
0.0
 40
0.0
 40
0.0
 40
0.0
 40
0.1304763057
 40
0.2600688224
 40
0.3881172894
 40
0.5142326044
 40
0.6383218523
 40
0.7604841402
 40
0.8809621613
 40
1.0
 40
1.0
 40
1.0
 40
1.0
 10
4.5593715753
 20
4.7128903382
 30
0.0
 10
4.5608010694
 20
4.7128903382
 30
0.0
 10
4.5636557565
 20
4.7126580004
 30
0.0
 10
4.5678004566
 20
4.7116343715
 30
0.0
 10
4.5716918361
 20
4.7099992541
 30
0.0
 10
4.5752450204
 20
4.7078386976
 30
0.0
 10
4.5784106157
 20
4.7052455231
 30
0.0
 10
4.5811663281
 20
4.7023066377
 30
0.0
 10
4.5835072604
 20
4.699098398
 30
0.0
 10
4.5848032296
 20
4.696809271
 30
0.0
 10
4.5853829767
 20
4.6956410396
 30
0.0
  0
SPLINE
  5
363
100
AcDbEntity
  8
0
100
AcDbSpline
 62
7
  6
CONTINUOUS
 70
0
 71
3
 72
15
 73
11
 74
0
 42
0.0000001
 43
0.0000001
 44
0.0000000001
 40
0.0
 40
0.0
 40
0.0
 40
0.0
 40
0.0833308843
 40
0.1787840954
 40
0.2870847702
 40
0.4084960289
 40
0.5425515998
 40
0.6878050566
 40
0.841572582
 40
1.0
 40
1.0
 40
1.0
 40
1.0
 10
4.5853829767
 20
4.6956410396
 30
0.0
 10
4.584763923
 20
4.6952181456
 30
0.0
 10
4.5833742666
 20
4.6943997703
 30
0.0
 10
4.5810227323
 20
4.693323232
 30
0.0
 10
4.5782642897
 20
4.6923392229
 30
0.0
 10
4.5751055075
 20
4.6914729665
 30
0.0
 10
4.5715704375
 20
4.6907530137
 30
0.0
 10
4.567709919
 20
4.6902095259
 30
0.0
 10
4.5636063033
 20
4.6898700157
 30
0.0
 10
4.5607969148
 20
4.6897933499
 30
0.0
 10
4.5593715753
 20
4.6897933499
 30
0.0
  0
SPLINE
  5
364
100
AcDbEntity
  8
0
100
AcDbSpline
 62
7
  6
CONTINUOUS
 70
0
 71
3
 72
15
 73
11
 74
0
 42
0.0000001
 43
0.0000001
 44
0.0000000001
 40
0.0
 40
0.0
 40
0.0
 40
0.0
 40
0.1329534217
 40
0.2646426392
 40
0.3941053358
 40
0.5207697193
 40
0.6444795486
 40
0.7653625848
 40
0.883748314
 40
1.0
 40
1.0
 40
1.0
 40
1.0
 10
4.5593715753
 20
4.6671186603
 30
0.0
 10
4.5608005606
 20
4.6671186603
 30
0.0
 10
4.5636497581
 20
4.6669000182
 30
0.0
 10
4.5677901358
 20
4.6659359261
 30
0.0
 10
4.5716793206
 20
4.6643949757
 30
0.0
 10
4.5752324798
 20
4.6623574847
 30
0.0
 10
4.5783995203
 20
4.6599105713
 30
0.0
 10
4.5811574214
 20
4.6571361804
 30
0.0
 10
4.5835006923
 20
4.6541065868
 30
0.0
 10
4.5848016493
 20
4.6519385629
 30
0.0
 10
4.5853829767
 20
4.6508325585
 30
0.0
  0
SPLINE
  5
365
100
AcDbEntity
  8
0
100
AcDbSpline
 62
7
  6
CONTINUOUS
 70
0
 71
3
 72
15
 73
11
 74
0
 42
0.0000001
 43
0.0000001
 44
0.0000000001
 40
0.0
 40
0.0
 40
0.0
 40
0.0
 40
0.0886238743
 40
0.1875020162
 40
0.2974936357
 40
0.419022705
 40
0.5518159535
 40
0.6946722229
 40
0.8452229793
 40
1.0
 40
1.0
 40
1.0
 40
1.0
 10
4.5853829767
 20
4.6508325585
 30
0.0
 10
4.58477383
 20
4.6502890746
 30
0.0
 10
4.5834024065
 20
4.6492301446
 30
0.0
 10
4.5810477822
 20
4.6478183994
 30
0.0
 10
4.5782856175
 20
4.6465287792
 30
0.0
 10
4.5751228613
 20
4.645394093
 30
0.0
 10
4.5715836682
 20
4.6444513906
 30
0.0
 10
4.5677188519
 20
4.6437399193
 30
0.0
 10
4.5636108866
 20
4.6432955311
 30
0.0
 10
4.5607972961
 20
4.6431951519
 30
0.0
 10
4.5593715753
 20
4.6431951519
 30
0.0
  0
SPLINE
  5
366
100
AcDbEntity
  8
0
100
AcDbSpline
 62
7
  6
CONTINUOUS
 70
0
 71
3
 72
15
 73
11
 74
0
 42
0.0000001
 43
0.0000001
 44
0.0000000001
 40
0.0
 40
0.0
 40
0.0
 40
0.0
 40
0.1358651299
 40
0.2700313094
 40
0.4011849979
 40
0.5285319737
 40
0.6518257958
 40
0.7712104382
 40
0.8871033114
 40
1.0
 40
1.0
 40
1.0
 40
1.0
 10
4.5593715753
 20
4.6198344209
 30
0.0
 10
4.5608000051
 20
4.6198344209
 30
0.0
 10
4.563643193
 20
4.6196315474
 30
0.0
 10
4.5677786387
 20
4.6187362284
 30
0.0
 10
4.5716650061
 20
4.6173043773
 30
0.0
 10
4.5752176717
 20
4.6154098698
 30
0.0
 10
4.5783859661
 20
4.6131332123
 30
0.0
 10
4.5811461724
 20
4.6105504604
 30
0.0
 10
4.5834921397
 20
4.6077289902
 30
0.0
 10
4.5847995485
 20
4.6057020232
 30
0.0
 10
4.5853829767
 20
4.60466836
 30
0.0
  0
SPLINE
  5
367
100
AcDbEntity
  8
0
100
AcDbSpline
 62
7
  6
CONTINUOUS
 70
0
 71
3
 72
15
 73
11
 74
0
 42
0.0000001
 43
0.0000001
 44
0.0000000001
 40
0.0
 40
0.0
 40
0.0
 40
0.0
 40
0.1963809977
 40
0.2511529791
 40
0.3083529174
 40
0.4301420303
 40
0.561685331
 40
0.702029176
 40
0.8491464335
 40
1.0
 40
1.0
 40
1.0
 40
1.0
 10
4.5853829767
 20
4.60466836
 30
0.0
 10
4.5841295369
 20
4.6032987409
 30
0.0
 10
4.5822628351
 20
4.6017767561
 30
0.0
 10
4.5797793831
 20
4.6002518668
 30
0.0
 10
4.5778341634
 20
4.5991999753
 30
0.0
 10
4.5751421491
 20
4.59801506
 30
0.0
 10
4.5715990368
 20
4.5968574031
 30
0.0
 10
4.5677294563
 20
4.5959837458
 30
0.0
 10
4.5636164132
 20
4.5954380942
 30
0.0
 10
4.5607977566
 20
4.5953147889
 30
0.0
 10
4.5593715753
 20
4.5953147889
 30
0.0
  0
SPLINE
  5
368
100
AcDbEntity
  8
0
100
AcDbSpline
 62
7
  6
CONTINUOUS
 70
0
 71
3
 72
17
 73
13
 74
0
 42
0.0000001
 43
0.0000001
 44
0.0000000001
 40
0.0
 40
0.0
 40
0.0
 40
0.0
 40
0.1391604639
 40
0.2080834494
 40
0.2762159813
 40
0.4093133729
 40
0.537469404
 40
0.5995906646
 40
0.6603771216
 40
0.7780504627
 40
0.8910473859
 40
1.0
 40
1.0
 40
1.0
 40
1.0
 10
4.5593715753
 20
4.5714929932
 30
0.0
 10
4.5607994248
 20
4.5714929932
 30
0.0
 10
4.562937935
 20
4.5713532772
 30
0.0
 10
4.5657356801
 20
4.5708918504
 30
0.0
 10
4.5684372036
 20
4.5702633829
 30
0.0
 10
4.5716492505
 20
4.5691805939
 30
0.0
 10
4.5746397684
 20
4.5677210407
 30
0.0
 10
4.5768361374
 20
4.5663719952
 30
0.0
 10
4.5788543656
 20
4.5649482904
 30
0.0
 10
4.5811324055
 20
4.5629975388
 30
0.0
 10
4.5834811047
 20
4.5604119951
 30
0.0
 10
4.5847967725
 20
4.5585449089
 30
0.0
 10
4.5853829767
 20
4.5575930306
 30
0.0
  0
SPLINE
  5
369
100
AcDbEntity
  8
0
100
AcDbSpline
 62
7
  6
CONTINUOUS
 70
0
 71
3
 72
15
 73
11
 74
0
 42
0.0000001
 43
0.0000001
 44
0.0000000001
 40
0.0
 40
0.0
 40
0.0
 40
0.0
 40
0.0994941171
 40
0.205749883
 40
0.3196240171
 40
0.441683578
 40
0.571948897
 40
0.7096952596
 40
0.8532404513
 40
1.0
 40
1.0
 40
1.0
 40
1.0
 10
4.5853829767
 20
4.5575930306
 30
0.0
 10
4.5847882786
 20
4.5568302421
 30
0.0
 10
4.5834495691
 20
4.5553352164
 30
0.0
 10
4.5810954519
 20
4.5532958009
 30
0.0
 10
4.5783305514
 20
4.5514320567
 30
0.0
 10
4.5751623851
 20
4.5497919811
 30
0.0
 10
4.5716155883
 20
4.548429365
 30
0.0
 10
4.5677412671
 20
4.5474009637
 30
0.0
 10
4.5636226561
 20
4.5467586086
 30
0.0
 10
4.5607982786
 20
4.546613375
 30
0.0
 10
4.5593715753
 20
4.546613375
 30
0.0
  0
SPLINE
  5
36A
100
AcDbEntity
  8
0
100
AcDbSpline
 62
7
  6
CONTINUOUS
 70
0
 71
3
 72
15
 73
11
 74
0
 42
0.0000001
 43
0.0000001
 44
0.0000000001
 40
0.0
 40
0.0
 40
0.0
 40
0.0
 40
0.142840322
 40
0.2829920215
 40
0.4183192895
 40
0.547467548
 40
0.6699084791
 40
0.7857420381
 40
0.8955194521
 40
1.0
 40
1.0
 40
1.0
 40
1.0
 10
4.5593715753
 20
4.5225599315
 30
0.0
 10
4.5607988418
 20
4.5225599315
 30
0.0
 10
4.5636293767
 20
4.5223939803
 30
0.0
 10
4.5677537361
 20
4.521660466
 30
0.0
 10
4.5716325862
 20
4.5204863765
 30
0.0
 10
4.5751821687
 20
4.51893121
 30
0.0
 10
4.5783513075
 20
4.5170601115
 30
0.0
 10
4.5811154009
 20
4.5149348935
 30
0.0
 10
4.5834671497
 20
4.5126107053
 30
0.0
 10
4.5847931088
 20
4.5109212895
 30
0.0
 10
4.5853829767
 20
4.5100599315
 30
0.0
  0
SPLINE
  5
36B
100
AcDbEntity
  8
0
100
AcDbSpline
 62
7
  6
CONTINUOUS
 70
0
 71
3
 72
15
 73
11
 74
0
 42
0.0000001
 43
0.0000001
 44
0.0000000001
 40
0.0
 40
0.0
 40
0.0
 40
0.0
 40
0.1044805383
 40
0.2142579537
 40
0.3300914884
 40
0.4525324018
 40
0.5816806342
 40
0.7170079198
 40
0.8571596583
 40
1.0
 40
1.0
 40
1.0
 40
1.0
 10
4.5853829767
 20
4.5100599315
 30
0.0
 10
4.5847931088
 20
4.5091985736
 30
0.0
 10
4.5834671498
 20
4.5075091578
 30
0.0
 10
4.5811154012
 20
4.5051849699
 30
0.0
 10
4.5783513084
 20
4.503059752
 30
0.0
 10
4.5751821701
 20
4.5011886538
 30
0.0
 10
4.571632588
 20
4.499633487
 30
0.0
 10
4.5677537376
 20
4.4984593974
 30
0.0
 10
4.5636293775
 20
4.4977258828
 30
0.0
 10
4.560798842
 20
4.4975599315
 30
0.0
 10
4.5593715753
 20
4.4975599315
 30
0.0
  0
SPLINE
  5
36C
100
AcDbEntity
  8
0
100
AcDbSpline
 62
7
  6
CONTINUOUS
 70
0
 71
3
 72
15
 73
11
 74
0
 42
0.0000001
 43
0.0000001
 44
0.0000000001
 40
0.0
 40
0.0
 40
0.0
 40
0.0
 40
0.1467595285
 40
0.2903046804
 40
0.4280510255
 40
0.5583163717
 40
0.6803759506
 40
0.7942501091
 40
0.9005058736
 40
1.0
 40
1.0
 40
1.0
 40
1.0
 10
4.5593715753
 20
4.473506488
 30
0.0
 10
4.5607982784
 20
4.473506488
 30
0.0
 10
4.5636226553
 20
4.4733612544
 30
0.0
 10
4.5677412656
 20
4.4727188997
 30
0.0
 10
4.5716155865
 20
4.4716904984
 30
0.0
 10
4.5751623837
 20
4.4703278827
 30
0.0
 10
4.5783305506
 20
4.4686878067
 30
0.0
 10
4.5810954516
 20
4.4668240625
 30
0.0
 10
4.5834495689
 20
4.4647846467
 30
0.0
 10
4.5847882786
 20
4.4632896209
 30
0.0
 10
4.5853829767
 20
4.4625268324
 30
0.0
  0
SPLINE
  5
36D
100
AcDbEntity
  8
0
100
AcDbSpline
 62
7
  6
CONTINUOUS
 70
0
 71
3
 72
17
 73
13
 74
0
 42
0.0000001
 43
0.0000001
 44
0.0000000001
 40
0.0
 40
0.0
 40
0.0
 40
0.0
 40
0.1089526043
 40
0.2219495287
 40
0.3396228459
 40
0.4004092899
 40
0.4625305458
 40
0.5906865519
 40
0.7237839611
 40
0.7919165138
 40
0.8608395169
 40
1.0
 40
1.0
 40
1.0
 40
1.0
 10
4.5853829767
 20
4.4625268324
 30
0.0
 10
4.5847967726
 20
4.4615749542
 30
0.0
 10
4.5834811048
 20
4.459707868
 30
0.0
 10
4.5811324058
 20
4.4571223246
 30
0.0
 10
4.5788543664
 20
4.4551715731
 30
0.0
 10
4.5768361385
 20
4.4537478685
 30
0.0
 10
4.57463977
 20
4.4523988232
 30
0.0
 10
4.5716492523
 20
4.4509392697
 30
0.0
 10
4.5684372053
 20
4.4498564806
 30
0.0
 10
4.5657356813
 20
4.4492280129
 30
0.0
 10
4.5629379356
 20
4.4487665858
 30
0.0
 10
4.560799425
 20
4.4486268698
 30
0.0
 10
4.5593715753
 20
4.4486268698
 30
0.0
  0
SPLINE
  5
36E
100
AcDbEntity
  8
0
100
AcDbSpline
 62
7
  6
CONTINUOUS
 70
0
 71
3
 72
15
 73
11
 74
0
 42
0.0000001
 43
0.0000001
 44
0.0000000001
 40
0.0
 40
0.0
 40
0.0
 40
0.0
 40
0.1508535457
 40
0.2979707626
 40
0.4383145901
 40
0.5698579192
 40
0.6916470504
 40
0.7488470079
 40
0.8036189947
 40
1.0
 40
1.0
 40
1.0
 40
1.0
 10
4.5593715753
 20
4.4248050741
 30
0.0
 10
4.5607977564
 20
4.4248050741
 30
0.0
 10
4.5636164124
 20
4.4246817689
 30
0.0
 10
4.5677294548
 20
4.4241361175
 30
0.0
 10
4.571599035
 20
4.4232624603
 30
0.0
 10
4.5751421477
 20
4.4221048037
 30
0.0
 10
4.5778341626
 20
4.420919888
 30
0.0
 10
4.5797793827
 20
4.4198679965
 30
0.0
 10
4.5822628349
 20
4.4183431071
 30
0.0
 10
4.5841295369
 20
4.4168211222
 30
0.0
 10
4.5853829767
 20
4.415451503
 30
0.0
  0
SPLINE
  5
36F
100
AcDbEntity
  8
0
100
AcDbSpline
 62
7
  6
CONTINUOUS
 70
0
 71
3
 72
15
 73
11
 74
0
 42
0.0000001
 43
0.0000001
 44
0.0000000001
 40
0.0
 40
0.0
 40
0.0
 40
0.0
 40
0.1128966785
 40
0.228789553
 40
0.3481741714
 40
0.4714679761
 40
0.5988149279
 40
0.7299686341
 40
0.8641348513
 40
1.0
 40
1.0
 40
1.0
 40
1.0
 10
4.5853829767
 20
4.415451503
 30
0.0
 10
4.5847995486
 20
4.4144178399
 30
0.0
 10
4.5834921399
 20
4.4123908729
 30
0.0
 10
4.5811461727
 20
4.4095694031
 30
0.0
 10
4.5783859669
 20
4.4069866512
 30
0.0
 10
4.5752176731
 20
4.4047099942
 30
0.0
 10
4.5716650079
 20
4.4028154863
 30
0.0
 10
4.5677786402
 20
4.4013836351
 30
0.0
 10
4.5636431938
 20
4.4004883157
 30
0.0
 10
4.5608000053
 20
4.4002854421
 30
0.0
 10
4.5593715753
 20
4.4002854421
 30
0.0
  0
SPLINE
  5
370
100
AcDbEntity
  8
0
100
AcDbSpline
 62
7
  6
CONTINUOUS
 70
0
 71
3
 72
15
 73
11
 74
0
 42
0.0000001
 43
0.0000001
 44
0.0000000001
 40
0.0
 40
0.0
 40
0.0
 40
0.0
 40
0.1547769994
 40
0.3053277145
 40
0.4481839663
 40
0.5809772445
 40
0.7025063322
 40
0.8124979767
 40
0.9113761171
 40
1.0
 40
1.0
 40
1.0
 40
1.0
 10
4.5593715753
 20
4.3769247111
 30
0.0
 10
4.5607972959
 20
4.3769247111
 30
0.0
 10
4.5636108858
 20
4.3768243319
 30
0.0
 10
4.5677188504
 20
4.376379944
 30
0.0
 10
4.5715836664
 20
4.3756684727
 30
0.0
 10
4.5751228599
 20
4.3747257705
 30
0.0
 10
4.5782856167
 20
4.3735910841
 30
0.0
 10
4.5810477818
 20
4.3723014639
 30
0.0
 10
4.5834024063
 20
4.3708897185
 30
0.0
 10
4.5847738299
 20
4.3698307885
 30
0.0
 10
4.5853829767
 20
4.3692873045
 30
0.0
  0
SPLINE
  5
371
100
AcDbEntity
  8
0
100
AcDbSpline
 62
7
  6
CONTINUOUS
 70
0
 71
3
 72
15
 73
11
 74
0
 42
0.0000001
 43
0.0000001
 44
0.0000000001
 40
0.0
 40
0.0
 40
0.0
 40
0.0
 40
0.1162516877
 40
0.2346374182
 40
0.3555204566
 40
0.4792302903
 40
0.6058946803
 40
0.7353573766
 40
0.8670465871
 40
1.0
 40
1.0
 40
1.0
 40
1.0
 10
4.5853829767
 20
4.3692873045
 30
0.0
 10
4.5848016492
 20
4.3681813001
 30
0.0
 10
4.5835006923
 20
4.3660132762
 30
0.0
 10
4.5811574214
 20
4.3629836825
 30
0.0
 10
4.5783995201
 20
4.3602092916
 30
0.0
 10
4.5752324795
 20
4.3577623781
 30
0.0
 10
4.5716793201
 20
4.3557248871
 30
0.0
 10
4.5677901354
 20
4.3541839368
 30
0.0
 10
4.5636497578
 20
4.3532198448
 30
0.0
 10
4.5608005606
 20
4.3530012028
 30
0.0
 10
4.5593715753
 20
4.3530012028
 30
0.0
  0
SPLINE
  5
372
100
AcDbEntity
  8
0
100
AcDbSpline
 62
7
  6
CONTINUOUS
 70
0
 71
3
 72
15
 73
11
 74
0
 42
0.0000001
 43
0.0000001
 44
0.0000000001
 40
0.0
 40
0.0
 40
0.0
 40
0.0
 40
0.1584273961
 40
0.3121948796
 40
0.4574483187
 40
0.5915039205
 40
0.7129151977
 40
0.8212158978
 40
0.9166691074
 40
1.0
 40
1.0
 40
1.0
 40
1.0
 10
4.5593715753
 20
4.3303265131
 30
0.0
 10
4.5607969146
 20
4.3303265131
 30
0.0
 10
4.5636063025
 20
4.3302498473
 30
0.0
 10
4.5677099175
 20
4.3299103373
 30
0.0
 10
4.5715704358
 20
4.3293668495
 30
0.0
 10
4.575105506
 20
4.3286468969
 30
0.0
 10
4.578264289
 20
4.3277806403
 30
0.0
 10
4.5810227319
 20
4.3267966312
 30
0.0
 10
4.5833742665
 20
4.3257200928
 30
0.0
 10
4.584763923
 20
4.3249017174
 30
0.0
 10
4.5853829767
 20
4.3244788234
 30
0.0
  0
SPLINE
  5
373
100
AcDbEntity
  8
0
100
AcDbSpline
 62
7
  6
CONTINUOUS
 70
0
 71
3
 72
15
 73
11
 74
0
 42
0.0000001
 43
0.0000001
 44
0.0000000001
 40
0.0
 40
0.0
 40
0.0
 40
0.0
 40
0.1190378282
 40
0.2395158504
 40
0.3616781147
 40
0.4857673454
 40
0.611882638
 40
0.7399311227
 40
0.8695236763
 40
1.0
 40
1.0
 40
1.0
 40
1.0
 10
4.5853829767
 20
4.3244788234
 30
0.0
 10
4.5848032297
 20
4.3233105921
 30
0.0
 10
4.5835072605
 20
4.3210214652
 30
0.0
 10
4.5811663284
 20
4.3178132259
 30
0.0
 10
4.5784106165
 20
4.3148743405
 30
0.0
 10
4.5752450217
 20
4.3122811665
 30
0.0
 10
4.5716918379
 20
4.3101206097
 30
0.0
 10
4.5678004581
 20
4.3084854921
 30
0.0
 10
4.5636557573
 20
4.3074618627
 30
0.0
 10
4.5608010696
 20
4.3072295248
 30
0.0
 10
4.5593715753
 20
4.3072295248
 30
0.0
  0
SPLINE
  5
374
100
AcDbEntity
  8
0
100
AcDbSpline
 62
7
  6
CONTINUOUS
 70
0
 71
3
 72
18
 73
14
 74
0
 42
0.0000001
 43
0.0000001
 44
0.0000000001
 40
0.0
 40
0.0
 40
0.0
 40
0.0
 40
0.1614351978
 40
0.3178649166
 40
0.4651247137
 40
0.600271069
 40
0.7216440804
 40
0.7769375808
 40
0.8286021661
 40
0.8766739007
 40
0.9212135287
 40
0.9622935024
 40
1.0
 40
1.0
 40
1.0
 40
1.0
 10
4.5593715753
 20
4.2854592462
 30
0.0
 10
4.5607966273
 20
4.2854592462
 30
0.0
 10
4.5636028447
 20
4.2854068817
 30
0.0
 10
4.5677030917
 20
4.2851749347
 30
0.0
 10
4.5715601514
 20
4.284803708
 30
0.0
 10
4.5750915076
 20
4.2843120428
 30
0.0
 10
4.5777982242
 20
4.2838049114
 30
0.0
 10
4.5797623294
 20
4.2833512652
 30
0.0
 10
4.581086274
 20
4.2830039973
 30
0.0
 10
4.5823073135
 20
4.282641113
 30
0.0
 10
4.5834260605
 20
4.282264507
 30
0.0
 10
4.5844433487
 20
4.2818760028
 30
0.0
 10
4.5850814471
 20
4.2815985474
 30
0.0
 10
4.5853829767
 20
4.2814575898
 30
0.0
  0
SPLINE
  5
375
100
AcDbEntity
  8
0
100
AcDbSpline
 62
7
  6
CONTINUOUS
 70
0
 71
3
 72
19
 73
15
 74
0
 42
0.0000001
 43
0.0000001
 44
0.0000000001
 40
0.0
 40
0.0
 40
0.0
 40
0.0
 40
0.1212219167
 40
0.2433413572
 40
0.3665014538
 40
0.4908667925
 40
0.5535647486
 40
0.6165885237
 40
0.6799206918
 40
0.7435439184
 40
0.8074121278
 40
0.8714863826
 40
0.9357222542
 40
1.0
 40
1.0
 40
1.0
 40
1.0
 10
4.5853829767
 20
4.2814575898
 30
0.0
 10
4.5848044004
 20
4.2802378435
 30
0.0
 10
4.5835122198
 20
4.2778486048
 30
0.0
 10
4.5811731221
 20
4.2744926922
 30
0.0
 10
4.5784196385
 20
4.2714180786
 30
0.0
 10
4.5757881604
 20
4.2691612072
 30
0.0
 10
4.5734921478
 20
4.2675810495
 30
0.0
 10
4.5716728919
 20
4.2665172067
 30
0.0
 10
4.5697687009
 20
4.2655902328
 30
0.0
 10
4.567788658
 20
4.2648122361
 30
0.0
 10
4.5657443741
 20
4.2641938481
 30
0.0
 10
4.5636492409
 20
4.2637446274
 30
0.0
 10
4.561519366
 20
4.2634723117
 30
0.0
 10
4.5600874171
 20
4.2634112145
 30
0.0
 10
4.5593715753
 20
4.2634112145
 30
0.0
  0
SPLINE
  5
376
100
AcDbEntity
  8
0
100
AcDbSpline
 62
7
  6
CONTINUOUS
 70
0
 71
3
 72
18
 73
14
 74
0
 42
0.0000001
 43
0.0000001
 44
0.0000000001
 40
0.0
 40
0.0
 40
0.0
 40
0.0
 40
0.1634939321
 40
0.3217530906
 40
0.4704059365
 40
0.5401048348
 40
0.6063352404
 40
0.7277259506
 40
0.8337858821
 40
0.8810228055
 40
0.9244390699
 40
0.9640800739
 40
1.0
 40
1.0
 40
1.0
 40
1.0
 10
4.5593715753
 20
4.2427550066
 30
0.0
 10
4.5607964451
 20
4.2427550066
 30
0.0
 10
4.5636006488
 20
4.2427273382
 30
0.0
 10
4.567698722
 20
4.2426047479
 30
0.0
 10
4.5709769833
 20
4.2424379486
 30
0.0
 10
4.5734514346
 20
4.2422688562
 30
0.0
 10
4.5756868315
 20
4.2420890059
 30
0.0
 10
4.5782341283
 20
4.2418365986
 30
0.0
 10
4.5806089566
 20
4.2415309723
 30
0.0
 10
4.5823026528
 20
4.2412648501
 30
0.0
 10
4.5834206994
 20
4.2410658307
 30
0.0
 10
4.5844371846
 20
4.2408606008
 30
0.0
 10
4.5850790862
 20
4.2407130795
 30
0.0
 10
4.5853829767
 20
4.2406379217
 30
0.0
  0
SPLINE
  5
377
100
AcDbEntity
  8
0
100
AcDbSpline
 62
7
  6
CONTINUOUS
 70
0
 71
3
 72
20
 73
16
 74
0
 42
0.0000001
 43
0.0000001
 44
0.0000000001
 40
0.0
 40
0.0
 40
0.0
 40
0.0
 40
0.1229100071
 40
0.246312895
 40
0.3702722453
 40
0.4325283046
 40
0.4949619048
 40
0.5575688062
 40
0.6203569684
 40
0.6833145437
 40
0.7464347153
 40
0.8096878584
 40
0.8730567412
 40
0.9365235813
 40
1.0
 40
1.0
 40
1.0
 40
1.0
 10
4.5853829767
 20
4.2406379217
 30
0.0
 10
4.584805239
 20
4.2393778772
 30
0.0
 10
4.5835157225
 20
4.2369103297
 30
0.0
 10
4.5811784467
 20
4.23343936
 30
0.0
 10
4.5788867948
 20
4.2307910444
 30
0.0
 10
4.5768511048
 20
4.2288597368
 30
0.0
 10
4.5752211588
 20
4.2275133356
 30
0.0
 10
4.5734941506
 20
4.2262834124
 30
0.0
 10
4.5716749433
 20
4.2251826723
 30
0.0
 10
4.5697706548
 20
4.2242234246
 30
0.0
 10
4.567790416
 20
4.223418302
 30
0.0
 10
4.5657458237
 20
4.2227783093
 30
0.0
 10
4.5636502749
 20
4.2223133683
 30
0.0
 10
4.5615199116
 20
4.2220315107
 30
0.0
 10
4.5600874625
 20
4.2219682663
 30
0.0
 10
4.5593715753
 20
4.2219682663
 30
0.0
  0
LINE
  5
378
100
AcDbEntity
  8
0
100
AcDbLine
 62
7
  6
CONTINUOUS
 10
4.5593715753
 20
4.2026250595
 11
4.5853829767
 21
4.2024129348
  0
SPLINE
  5
379
100
AcDbEntity
  8
0
100
AcDbSpline
 62
7
  6
CONTINUOUS
 70
0
 71
3
 72
19
 73
15
 74
0
 42
0.0000001
 43
0.0000001
 44
0.0000000001
 40
0.0
 40
0.0
 40
0.0
 40
0.0
 40
0.1241016076
 40
0.2484181973
 40
0.3729566239
 40
0.4977701183
 40
0.5603240007
 40
0.6229573463
 40
0.685661861
 40
0.7484378389
 40
0.8112670704
 40
0.8741476013
 40
0.9370805762
 40
1.0
 40
1.0
 40
1.0
 40
1.0
 10
4.5853829767
 20
4.2024129348
 30
0.0
 10
4.5848057982
 20
4.2011242076
 30
0.0
 10
4.5835182052
 20
4.1986010562
 30
0.0
 10
4.5811816133
 20
4.1950478265
 30
0.0
 10
4.5784308131
 20
4.191791653
 30
0.0
 10
4.5757959218
 20
4.1893956729
 30
0.0
 10
4.5734956256
 20
4.18771846
 30
0.0
 10
4.57167639
 20
4.1865913719
 30
0.0
 10
4.5697720622
 20
4.1856091799
 30
0.0
 10
4.5677916857
 20
4.1847847404
 30
0.0
 10
4.5657468778
 20
4.1841293657
 30
0.0
 10
4.5636510296
 20
4.1836532277
 30
0.0
 10
4.5615203109
 20
4.1833645727
 30
0.0
 10
4.5600874958
 20
4.1832997982
 30
0.0
 10
4.5593715753
 20
4.1832997982
 30
0.0
  0
SPLINE
  5
37A
100
AcDbEntity
  8
0
100
AcDbSpline
 62
7
  6
CONTINUOUS
 70
0
 71
3
 72
19
 73
15
 74
0
 42
0.0000001
 43
0.0000001
 44
0.0000000001
 40
0.0
 40
0.0
 40
0.0
 40
0.0
 40
0.1247836982
 40
0.2496235372
 40
0.3744931953
 40
0.4994178625
 40
0.5619395096
 40
0.6244814936
 40
0.6870374408
 40
0.74961166
 40
0.8121925046
 40
0.874786889
 40
0.9374070118
 40
1.0
 40
1.0
 40
1.0
 40
1.0
 10
4.5853829767
 20
4.1671507567
 30
0.0
 10
4.5848061118
 20
4.165845248
 30
0.0
 10
4.5835195606
 20
4.1632895414
 30
0.0
 10
4.5811835657
 20
4.1596883701
 30
0.0
 10
4.5784334287
 20
4.1563880965
 30
0.0
 10
4.5757977746
 20
4.1539582695
 30
0.0
 10
4.5734964647
 20
4.1522574146
 30
0.0
 10
4.5716772422
 20
4.1511149461
 30
0.0
 10
4.5697728885
 20
4.1501193226
 30
0.0
 10
4.5677924361
 20
4.1492835827
 30
0.0
 10
4.5657475026
 20
4.1486192054
 30
0.0
 10
4.5636514783
 20
4.1481365135
 30
0.0
 10
4.5615205488
 20
4.1478438793
 30
0.0
 10
4.5600875156
 20
4.1477782089
 30
0.0
 10
4.5593715753
 20
4.1477782089
 30
0.0
  0
SPLINE
  5
37B
100
AcDbEntity
  8
0
100
AcDbSpline
 62
7
  6
CONTINUOUS
 70
0
 71
3
 72
19
 73
15
 74
0
 42
0.0000001
 43
0.0000001
 44
0.0000000001
 40
0.0
 40
0.0
 40
0.0
 40
0.0
 40
0.1249739506
 40
0.2499599269
 40
0.3749222965
 40
0.4998783179
 40
0.5623911058
 40
0.6249076867
 40
0.6874222049
 40
0.7499400772
 40
0.8124514845
 40
0.8749658217
 40
0.9374983887
 40
1.0
 40
1.0
 40
1.0
 40
1.0
 10
4.5853829767
 20
4.1351909814
 30
0.0
 10
4.5848061981
 20
4.1338807599
 30
0.0
 10
4.5835199346
 20
4.1313159122
 30
0.0
 10
4.5811841063
 20
4.1277012816
 30
0.0
 10
4.578434156
 20
4.1243886281
 30
0.0
 10
4.5757982923
 20
4.1219492957
 30
0.0
 10
4.5734966998
 20
4.1202417995
 30
0.0
 10
4.5716774815
 20
4.1190950122
 30
0.0
 10
4.5697731211
 20
4.1180956168
 30
0.0
 10
4.5677926478
 20
4.1172567033
 30
0.0
 10
4.5657476792
 20
4.1165897975
 30
0.0
 10
4.5636516053
 20
4.1161052647
 30
0.0
 10
4.5615206161
 20
4.1158115127
 30
0.0
 10
4.5600875212
 20
4.1157455905
 30
0.0
 10
4.5593715753
 20
4.1157455905
 30
0.0
  0
SPLINE
  5
37C
100
AcDbEntity
  8
0
100
AcDbSpline
 62
7
  6
CONTINUOUS
 70
0
 71
3
 72
15
 73
11
 74
0
 42
0.0000001
 43
0.0000001
 44
0.0000000001
 40
0.0
 40
0.0
 40
0.0
 40
0.0
 40
0.1155557129
 40
0.2334218869
 40
0.3539902814
 40
0.4776101623
 40
0.6044142802
 40
0.7342288976
 40
0.8664362409
 40
1.0
 40
1.0
 40
1.0
 40
1.0
 10
4.5853829767
 20
4.0274482773
 30
0.0
 10
4.5848012321
 20
4.0263574973
 30
0.0
 10
4.5834989779
 20
4.0242191331
 30
0.0
 10
4.5811551353
 20
4.021233301
 30
0.0
 10
4.578396725
 20
4.0184992067
 30
0.0
 10
4.5752293809
 20
4.0160881081
 30
0.0
 10
4.5716762843
 20
4.0140807195
 30
0.0
 10
4.5677876702
 20
4.0125627649
 30
0.0
 10
4.5636483398
 20
4.0116131859
 30
0.0
 10
4.5608004405
 20
4.0113978758
 30
0.0
 10
4.5593715753
 20
4.0113978758
 30
0.0
  0
SPLINE
  5
37D
100
AcDbEntity
  8
0
100
AcDbSpline
 62
7
  6
CONTINUOUS
 70
0
 71
3
 72
15
 73
11
 74
0
 42
0.0000001
 43
0.0000001
 44
0.0000000001
 40
0.0
 40
0.0
 40
0.0
 40
0.0
 40
0.1184671095
 40
0.2385149543
 40
0.3604126266
 40
0.4844216058
 40
0.6106479934
 40
0.7389868472
 40
0.8690118274
 40
1.0
 40
1.0
 40
1.0
 40
1.0
 10
4.5853829767
 20
4.0344312427
 30
0.0
 10
4.5848029172
 20
4.0332759336
 30
0.0
 10
4.5835059526
 20
4.0310119397
 30
0.0
 10
4.5811645357
 20
4.0278407691
 30
0.0
 10
4.5784083566
 20
4.0249360142
 30
0.0
 10
4.5752424358
 20
4.0223731946
 30
0.0
 10
4.5716892266
 20
4.0202381952
 30
0.0
 10
4.5677982834
 20
4.0186226546
 30
0.0
 10
4.5636544849
 20
4.0176114174
 30
0.0
 10
4.5608009615
 20
4.0173819339
 30
0.0
 10
4.5593715753
 20
4.0173819339
 30
0.0
  0
SPLINE
  5
37E
100
AcDbEntity
  8
0
100
AcDbSpline
 62
7
  6
CONTINUOUS
 70
0
 71
3
 72
18
 73
14
 74
0
 42
0.0000001
 43
0.0000001
 44
0.0000000001
 40
0.0
 40
0.0
 40
0.0
 40
0.0
 40
0.1207868111
 40
0.2425794017
 40
0.3655415648
 40
0.4898542041
 40
0.5525828511
 40
0.6156752697
 40
0.6791124669
 40
0.742874268
 40
0.8069102328
 40
0.8711757251
 40
1.0
 40
1.0
 40
1.0
 40
1.0
 10
4.5853829767
 20
4.0459947725
 30
0.0
 10
4.5848041712
 20
4.0447855208
 30
0.0
 10
4.5835112473
 20
4.04241667
 30
0.0
 10
4.5811717623
 20
4.0390908133
 30
0.0
 10
4.5784178785
 20
4.036043862
 30
0.0
 10
4.5757869609
 20
4.0338081484
 30
0.0
 10
4.5734916144
 20
4.0322427368
 30
0.0
 10
4.5716723646
 20
4.031188519
 30
0.0
 10
4.569768182
 20
4.0302699458
 30
0.0
 10
4.5677882553
 20
4.0294990157
 30
0.0
 10
4.5657438169
 20
4.0288862426
 30
0.0
 10
4.562950188
 20
4.0282924792
 30
0.0
 10
4.5608014209
 20
4.0281107505
 30
0.0
 10
4.5593715753
 20
4.0281107505
 30
0.0
  0
SPLINE
  5
37F
100
AcDbEntity
  8
0
100
AcDbSpline
 62
7
  6
CONTINUOUS
 70
0
 71
3
 72
20
 73
16
 74
0
 42
0.0000001
 43
0.0000001
 44
0.0000000001
 40
0.0
 40
0.0
 40
0.0
 40
0.0
 40
0.1225779668
 40
0.2457274437
 40
0.3695277551
 40
0.4317438513
 40
0.494165482
 40
0.5567889628
 40
0.6196221319
 40
0.6826520938
 40
0.7458700016
 40
0.8092430175
 40
0.8727496419
 40
0.9363668311
 40
1.0
 40
1.0
 40
1.0
 40
1.0
 10
4.5853829767
 20
4.0620275034
 30
0.0
 10
4.5848050783
 20
4.0607754226
 30
0.0
 10
4.5835150345
 20
4.0583233352
 30
0.0
 10
4.5811774676
 20
4.0548751401
 30
0.0
 10
4.5788860511
 20
4.0522448423
 30
0.0
 10
4.5768507488
 20
4.0503266991
 30
0.0
 10
4.5752207751
 20
4.0489891997
 30
0.0
 10
4.573493749
 20
4.0477674204
 30
0.0
 10
4.5716745394
 20
4.0466739818
 30
0.0
 10
4.5697702665
 20
4.0457211089
 30
0.0
 10
4.5677900662
 20
4.0449213481
 30
0.0
 10
4.5657455343
 20
4.0442856255
 30
0.0
 10
4.5636500681
 20
4.0438237921
 30
0.0
 10
4.5615198023
 20
4.0435438209
 30
0.0
 10
4.5600874534
 20
4.0434810011
 30
0.0
 10
4.5593715753
 20
4.0434810011
 30
0.0
  0
SPLINE
  5
380
100
AcDbEntity
  8
0
100
AcDbSpline
 62
7
  6
CONTINUOUS
 70
0
 71
3
 72
19
 73
15
 74
0
 42
0.0000001
 43
0.0000001
 44
0.0000000001
 40
0.0
 40
0.0
 40
0.0
 40
0.0
 40
0.123882484
 40
0.2480312054
 40
0.3724636077
 40
0.4972417975
 40
0.5598061917
 40
0.6224689813
 40
0.6852212347
 40
0.7480619426
 40
0.8109707833
 40
0.8739429621
 40
0.9369760937
 40
1.0
 40
1.0
 40
1.0
 40
1.0
 10
4.5853829767
 20
4.0823750315
 30
0.0
 10
4.5848056961
 20
4.081091658
 30
0.0
 10
4.5835177648
 20
4.0785788941
 30
0.0
 10
4.5811809814
 20
4.0750409637
 30
0.0
 10
4.5784299703
 20
4.0717988648
 30
0.0
 10
4.5757953277
 20
4.0694136825
 30
0.0
 10
4.5734953573
 20
4.0677440095
 30
0.0
 10
4.5716761182
 20
4.0666218286
 30
0.0
 10
4.5697717992
 20
4.0656439218
 30
0.0
 10
4.5677914474
 20
4.0648230872
 30
0.0
 10
4.5657466797
 20
4.0641705842
 30
0.0
 10
4.5636508875
 20
4.0636965365
 30
0.0
 10
4.5615202357
 20
4.0634091507
 30
0.0
 10
4.5600874895
 20
4.0633446619
 30
0.0
 10
4.5593715753
 20
4.0633446619
 30
0.0
  0
SPLINE
  5
381
100
AcDbEntity
  8
0
100
AcDbSpline
 62
7
  6
CONTINUOUS
 70
0
 71
3
 72
19
 73
15
 74
0
 42
0.0000001
 43
0.0000001
 44
0.0000000001
 40
0.0
 40
0.0
 40
0.0
 40
0.0
 40
0.1246748377
 40
0.2494310957
 40
0.3742477684
 40
0.4991545629
 40
0.5616813051
 40
0.6242378404
 40
0.6868174949
 40
0.7494239413
 40
0.8120444866
 40
0.8746846273
 40
0.937354791
 40
1.0
 40
1.0
 40
1.0
 40
1.0
 10
4.5853829767
 20
4.106841399
 30
0.0
 10
4.5848060621
 20
4.1055385806
 30
0.0
 10
4.5835193459
 20
4.1029880924
 30
0.0
 10
4.5811832556
 20
4.0993946052
 30
0.0
 10
4.5784330121
 20
4.0961013995
 30
0.0
 10
4.5757974785
 20
4.0936769985
 30
0.0
 10
4.5734963304
 20
4.0919799345
 30
0.0
 10
4.5716771056
 20
4.0908399315
 30
0.0
 10
4.5697727558
 20
4.0898464612
 30
0.0
 10
4.5677923155
 20
4.0890125329
 30
0.0
 10
4.565747402
 20
4.0883495989
 30
0.0
 10
4.563651406
 20
4.0878679579
 30
0.0
 10
4.5615205104
 20
4.0875759617
 30
0.0
 10
4.5600875124
 20
4.0875104349
 30
0.0
 10
4.5593715753
 20
4.0875104349
 30
0.0
  0
ENDSEC
  0
SECTION
  2
OBJECTS
  0
DICTIONARY
  5
C
100
AcDbDictionary
280
0
281
1
  3
ACAD_GROUP
350
D
  3
ACAD_MLINESTYLE
350
17
  3
ACAD_LAYOUT
350
1A
  3
ACAD_PLOTSETTINGS
350
19
  3
ACAD_PLOTSTYLENAME
350
E
  0
DICTIONARY
  5
D
102
{ACAD_REACTORS
330
C
102
}
100
AcDbDictionary
280
0
281
1
  0
ACDBDICTIONARYWDFLT
  5
E
102
{ACAD_REACTORS
330
C
102
}
100
AcDbDictionary
281
1
  3
Normal
350
F
100
AcDbDictionaryWithDefault
340
F
  0
DICTIONARY
  5
17
102
{ACAD_REACTORS
330
C
102
}
100
AcDbDictionary
280
0
281
1
  3
Standard
350
18
  0
DICTIONARY
  5
19
102
{ACAD_REACTORS
330
C
102
}
100
AcDbDictionary
281
1
  0
DICTIONARY
  5
1A
102
{ACAD_REACTORS
330
C
102
}
100
AcDbDictionary
281
1
  3
Model
350
382
  3
Layout1
350
383
  0
ACDBPLACEHOLDER
  5
F
102
{ACAD_REACTORS
330
E
102
}
  0
MLINESTYLE
  5
18
102
{ACAD_REACTORS
330
17
102
}
100
AcDbMlineStyle
  2
STANDARD
 70
0
  3

 62
256
 51
90.0
 52
90.0
 71
2
 49
0.5
 62
256
  6
BYLAYER
 49
-0.5
 62
256
  6
BYLAYER
  0
LAYOUT
  5
382
102
{ACAD_REACTORS
330
1A
102
}
100
AcDbPlotSettings
  1

  2
none_device
  4
ANSI_A_(11.00_x_8.50_Inches)
  6

 40
0.0
 41
0.0
 42
0.0
 43
0.0
 44
279.4
 45
215.9
 46
0.0
 47
0.0
 48
0.0
 49
0.0
140
0.0
141
0.0
142
1.0
143
1.0
 70
1024
 72
0
 73
0
 74
0
  7

 75
0
147
1.0
148
0.0
149
0.0
100
AcDbLayout
  1
Model
 70
0
 71
0
 10
0.0
 20
0.0
 11
11.0
 21
8.5
 12
0.0
 22
0.0
 32
0.0
 14
0.0
 24
0.0
 34
0.0
 15
0.0
 25
0.0
 35
0.0
146
0.0
 13
0.0
 23
0.0
 33
0.0
 16
1.0
 26
0.0
 36
0.0
 17
0.0
 27
1.0
 37
0.0
 76
0
330
203
345
0
346
0
  0
LAYOUT
  5
383
102
{ACAD_REACTORS
330
1A
102
}
100
AcDbPlotSettings
  1

  2
none_device
  4
ANSI_A_(11.00_x_8.50_Inches)
  6

 40
0.0
 41
0.0
 42
0.0
 43
0.0
 44
279.4
 45
215.9
 46
0.0
 47
0.0
 48
0.0
 49
0.0
140
0.0
141
0.0
142
1.0
143
1.0
 70
0
 72
0
 73
0
 74
0
  7

 75
0
147
1.0
148
0.0
149
0.0
100
AcDbLayout
  1
Layout1
 70
0
 71
1
 10
0.0
 20
0.0
 11
11.0
 21
8.5
 12
0.0
 22
0.0
 32
0.0
 14
0.0
 24
0.0
 34
0.0
 15
0.0
 25
0.0
 35
0.0
146
0.0
 13
0.0
 23
0.0
 33
0.0
 16
1.0
 26
0.0
 36
0.0
 17
0.0
 27
1.0
 37
0.0
 76
0
330
204
345
0
346
0
  0
ENDSEC
  0
EOF
