999
DXF file: 5-3232bp_top.dxf
999
Pro/ENGINEER 2023134 by Parametric Technology Corporation
  0
SECTION
  2
HEADER
  9
$ACADVER
  1
AC1032
  9
$DWGCODEPAGE
  3
ANSI_1252
  9
$EXTMAX
 10
11.0
 20
8.5
 30
0.0
  9
$EXTMIN
 10
0.0
 20
0.0
 30
0.0
  9
$LIMMIN
 10
0.0
 20
0.0
  9
$LIMMAX
 10
11.0
 20
8.5
  9
$VIEWCTR
 10
5.5
 20
4.25
  9
$VIEWSIZE
 40
8.5
  9
$CLAYER
  8
0
  9
$LTSCALE
 40
0.605
  9
$CELTYPE
  6
BYLAYER
  9
$DIMSCALE
 40
1.0
  9
$DIMASZ
 40
0.1
  9
$DIMEXO
 40
0.0625
  9
$DIMDLI
 40
0.418
  9
$DIMEXE
 40
0.125
  9
$DIMCEN
 40
0.099
  9
$DIMLFAC
 40
1.0
  9
$DIMBLK
  1
_FILLED
  9
$DIMALT
 70
1
  9
$DIMALTD
 70
2
  9
$DIMALTTD
 70
2
  9
$DIMALTF
 40
25.4
  9
$DIMTXT
 40
0.08
  9
$DIMTOL
 70
1
  9
$DIMLIM
 70
0
  9
$DIMTFAC
 40
1.0
  9
$DIMTP
 40
0.001
  9
$DIMTM
 40
0.001
  9
$DIMGAP
 40
0.09
  9
$DIMDSEP
 70
46
  9
$AUNITS
 70
0
  9
$PDMODE
 70
3
  9
$PDSIZE
 40
0.3125
  9
$HANDSEED
  5
357
  9
$TILEMODE
 70
1
  9
$MEASUREMENT
 70
0
  9
$INSUNITS
 70
1
  0
ENDSEC
  0
SECTION
  2
CLASSES
  0
CLASS
  1
ACDBDICTIONARYWDFLT
  2
AcDbDictionaryWithDefault
  3
AutoCAD 2000
 90
0
 91
1
280
0
281
0
  0
CLASS
  1
ACDBPLACEHOLDER
  2
AcDbPlaceHolder
  3
AutoCAD 2000
 90
0
 91
1
280
0
281
0
  0
CLASS
  1
LAYOUT
  2
AcDbLayout
  3
AutoCAD 2000
 90
0
 91
0
280
0
281
0
  0
ENDSEC
  0
SECTION
  2
TABLES
  0
TABLE
  2
VPORT
  5
8
100
AcDbSymbolTable
 70
2
  0
VPORT
  5
1F4
100
AcDbSymbolTableRecord
100
AcDbViewportTableRecord
  2
*ACTIVE
 70
0
 10
0.0
 20
0.0
 11
1.0
 21
1.0
 12
5.5
 22
4.25
 13
0.0
 23
0.0
 14
1.0
 24
1.0
 15
0.0
 25
0.0
 16
0.0
 26
0.0
 36
1.0
 17
0.0
 27
0.0
 37
0.0
 40
8.5
 41
1.2941176471
 42
50.0
 43
0.0
 44
0.0
 50
0.0
 51
0.0
 71
0
 72
100
 73
1
 74
1
 75
0
 76
0
 77
0
 78
0
  0
ENDTAB
  0
TABLE
  2
LTYPE
  5
5
100
AcDbSymbolTable
 70
6
  0
LTYPE
  5
14
100
AcDbSymbolTableRecord
100
AcDbLinetypeTableRecord
  2
BYBLOCK
 70
0
  3

 72
65
 73
0
 40
0.0
  0
LTYPE
  5
15
100
AcDbSymbolTableRecord
100
AcDbLinetypeTableRecord
  2
BYLAYER
 70
0
  3

 72
65
 73
0
 40
0.0
  0
LTYPE
  5
16
100
AcDbSymbolTableRecord
100
AcDbLinetypeTableRecord
  2
CONTINUOUS
 70
64
  3
Solid line
 72
65
 73
0
 40
0.0
  0
LTYPE
  5
1F5
100
AcDbSymbolTableRecord
100
AcDbLinetypeTableRecord
  2
CENTER
 70
64
  3
____ _ ____ _ ____ _ ____ _ ____ _ ____ _ ____
 72
65
 73
4
 40
0.6
 49
0.375
 74
0
 49
-0.075
 74
0
 49
0.075
 74
0
 49
-0.075
 74
0
  0
LTYPE
  5
1F6
100
AcDbSymbolTableRecord
100
AcDbLinetypeTableRecord
  2
HIDDEN
 70
64
  3
- - - - - - - - - - - - - - - - - - - -
 72
65
 73
2
 40
0.2
 49
0.1
 74
0
 49
-0.1
 74
0
  0
LTYPE
  5
1F7
100
AcDbSymbolTableRecord
100
AcDbLinetypeTableRecord
  2
PHANTOM
 70
64
  3
_____ _ _ _____ _ _ _____ _ _ _____
 72
65
 73
6
 40
0.8
 49
0.45
 74
0
 49
-0.05
 74
0
 49
0.1
 74
0
 49
-0.05
 74
0
 49
0.1
 74
0
 49
-0.05
 74
0
  0
LTYPE
  5
1F8
100
AcDbSymbolTableRecord
100
AcDbLinetypeTableRecord
  2
DOT
 70
64
  3
. . . . . . . . . . . . . . . . . . . .
 72
65
 73
2
 40
0.2
 49
0.1
 74
0
 49
-0.1
 74
0
  0
LTYPE
  5
1F9
100
AcDbSymbolTableRecord
100
AcDbLinetypeTableRecord
  2
DASHED
 70
64
  3
- - - - - - - - - - - - - - - - - - - -
 72
65
 73
2
 40
0.2
 49
0.1
 74
0
 49
-0.1
 74
0
  0
ENDTAB
  0
TABLE
  2
LAYER
  5
2
100
AcDbSymbolTable
 70
36
  0
LAYER
  5
10
100
AcDbSymbolTableRecord
100
AcDbLayerTableRecord
  2
0
 70
0
 62
7
  6
CONTINUOUS
370
-3
390
F
  0
LAYER
  5
1FA
100
AcDbSymbolTableRecord
100
AcDbLayerTableRecord
  2
DEFAULT_1
 70
0
 62
7
  6
CENTER
370
-3
390
F
  0
LAYER
  5
1FB
100
AcDbSymbolTableRecord
100
AcDbLayerTableRecord
  2
DEFAULT_2
 70
0
 62
8
  6
HIDDEN
370
-3
390
F
  0
LAYER
  5
1FC
100
AcDbSymbolTableRecord
100
AcDbLayerTableRecord
  2
DEFAULT_3
 70
0
 62
7
  6
PHANTOM
370
-3
390
F
  0
LAYER
  5
1FD
100
AcDbSymbolTableRecord
100
AcDbLayerTableRecord
  2
DEFAULT_COORDINATE_SYSTEM
 70
0
 62
7
  6
CONTINUOUS
370
-3
390
F
  0
LAYER
  5
1FE
100
AcDbSymbolTableRecord
100
AcDbLayerTableRecord
  2
DEFAULT_DATUM_AXES
 70
0
 62
7
  6
CONTINUOUS
370
-3
390
F
  0
LAYER
  5
1FF
100
AcDbSymbolTableRecord
100
AcDbLayerTableRecord
  2
DEFAULT_DATUM_CURVES
 70
0
 62
7
  6
CONTINUOUS
370
-3
390
F
  0
LAYER
  5
200
100
AcDbSymbolTableRecord
100
AcDbLayerTableRecord
  2
DEFAULT_DATUM_PLANES
 70
0
 62
7
  6
CONTINUOUS
370
-3
390
F
  0
ENDTAB
  0
TABLE
  2
STYLE
  5
3
100
AcDbSymbolTable
 70
1
  0
STYLE
  5
11
100
AcDbSymbolTableRecord
100
AcDbTextStyleTableRecord
  2
STANDARD
 70
0
 40
0.0
 41
0.8
 50
0.0
 71
0
 42
0.2
  3
txt
  4

  0
STYLE
  5
201
100
AcDbSymbolTableRecord
100
AcDbTextStyleTableRecord
  2
TEXTSTYLE_1
 70
0
 40
0.0
 41
0.8
 50
0.0
 71
0
 42
0.2
  3
gdt
  4

  0
ENDTAB
  0
TABLE
  2
VIEW
  5
6
100
AcDbSymbolTable
 70
0
  0
ENDTAB
  0
TABLE
  2
UCS
  5
7
100
AcDbSymbolTable
 70
0
  0
ENDTAB
  0
TABLE
  2
APPID
  5
9
100
AcDbSymbolTable
 70
1
  0
APPID
  5
202
100
AcDbSymbolTableRecord
100
AcDbRegAppTableRecord
  2
ACAD
 70
0
  0
ENDTAB
  0
TABLE
  2
BLOCK_RECORD
  5
1
100
AcDbSymbolTable
 70
0
  0
BLOCK_RECORD
  5
203
100
AcDbSymbolTableRecord
100
AcDbBlockTableRecord
  2
*Model_Space
  0
BLOCK_RECORD
  5
204
100
AcDbSymbolTableRecord
100
AcDbBlockTableRecord
  2
*Paper_Space
  0
BLOCK_RECORD
  5
205
100
AcDbSymbolTableRecord
100
AcDbBlockTableRecord
  2
_FILLED
  0
ENDTAB
  0
TABLE
  2
DIMSTYLE
  5
A
100
AcDbSymbolTable
 70
1
100
AcDbDimStyleTable
 71
0
  0
DIMSTYLE
105
206
100
AcDbSymbolTableRecord
100
AcDbDimStyleTableRecord
  2
STANDARD
 70
0
  3

  4

 40
1.0
 41
0.1
 42
0.0625
 43
0.38
 44
0.125
 45
0.0
 46
0.0
 47
0.001
 48
0.001
140
0.08
141
0.09
142
0.0
143
25.4
144
1.0
145
0.0
146
1.0
147
0.09
 71
1
 72
0
 73
1
 74
1
 75
0
 76
0
 77
0
 78
4
 79
1
170
1
171
2
172
0
173
0
174
0
175
0
176
0
177
0
178
0
270
2
179
3
271
3
272
3
273
2
274
2
275
0
280
0
281
0
282
0
283
1
284
4
285
0
286
0
287
3
288
0
340
11
278
46
341
205
342
205
343
205
344
205
  0
ENDTAB
  0
ENDSEC
  0
SECTION
  2
BLOCKS
  0
BLOCK
  5
20
100
AcDbEntity
  8
0
100
AcDbBlockBegin
  2
*Model_Space
 70
0
 10
0.0
 20
0.0
 30
0.0
  3
*Model_Space
  1

  0
ENDBLK
  5
21
100
AcDbEntity
  8
0
100
AcDbBlockEnd
  0
BLOCK
  5
1C
100
AcDbEntity
  8
0
100
AcDbBlockBegin
  2
*Paper_Space
 70
0
 10
0.0
 20
0.0
 30
0.0
  3
*Paper_Space
  1

  0
ENDBLK
  5
1D
100
AcDbEntity
  8
0
100
AcDbBlockEnd
  0
BLOCK
  5
207
100
AcDbEntity
  8
0
100
AcDbBlockBegin
  2
_FILLED
 70
64
 10
0.0
 20
0.0
  3
_FILLED
  1

  0
SOLID
  5
208
100
AcDbEntity
  8
0
  6
BYBLOCK
 62
0
100
AcDbTrace
 10
0.0
 20
0.0
 11
-1.0
 21
0.2
 12
-1.0
 22
-0.2
 13
-1.0
 23
-0.2
  0
ENDBLK
  5
209
100
AcDbEntity
  8
0
  6
BYBLOCK
 62
0
100
AcDbBlockEnd
  0
ENDSEC
  0
SECTION
  2
ENTITIES
  0
MTEXT
  5
20A
100
AcDbEntity
  8
0
100
AcDbMText
 62
2
  6
CONTINUOUS
  7
STANDARD
 71
3
 72
1
 10
5.6005565068
 20
2.0305017123
 30
0.0
 11
1.0
 21
0.0
 31
0.0
 73
2
 44
0.9
  1
SCALE 1.000
 40
0.08
 41
0.704
  0
LINE
  5
20B
100
AcDbEntity
  8
0
100
AcDbLine
 62
7
  6
CONTINUOUS
 10
0.0
 20
0.0
 11
0.0
 21
8.5
  0
LINE
  5
20C
100
AcDbEntity
  8
0
100
AcDbLine
 62
7
  6
CONTINUOUS
 10
0.0
 20
0.0
 11
11.0
 21
0.0
  0
LINE
  5
20D
100
AcDbEntity
  8
0
100
AcDbLine
 62
7
  6
CONTINUOUS
 10
0.0
 20
8.5
 11
11.0
 21
8.5
  0
LINE
  5
20E
100
AcDbEntity
  8
0
100
AcDbLine
 62
7
  6
CONTINUOUS
 10
11.0
 20
0.0
 11
11.0
 21
8.5
  0
LINE
  5
20F
100
AcDbEntity
  8
0
100
AcDbLine
 62
7
  6
CONTINUOUS
 10
2.1748715753
 20
6.1190966711
 11
2.1748715753
 21
6.2585599315
  0
LINE
  5
210
100
AcDbEntity
  8
0
100
AcDbLine
 62
7
  6
CONTINUOUS
 10
5.8948715753
 20
2.7445599315
 11
4.9548715753
 21
2.7445599315
  0
LINE
  5
211
100
AcDbEntity
  8
0
100
AcDbLine
 62
7
  6
CONTINUOUS
 10
5.9247153009
 20
2.7745599315
 11
5.923533631
 21
2.7745599315
  0
LINE
  5
212
100
AcDbEntity
  8
0
100
AcDbLine
 62
7
  6
CONTINUOUS
 10
5.9210832025
 20
2.7745599315
 11
5.9175495729
 21
2.7745599315
  0
LINE
  5
213
100
AcDbEntity
  8
0
100
AcDbLine
 62
7
  6
CONTINUOUS
 10
5.9126723149
 20
2.7745599315
 11
5.9068207564
 21
2.7745599315
  0
LINE
  5
214
100
AcDbEntity
  8
0
100
AcDbLine
 62
7
  6
CONTINUOUS
 10
5.8995636394
 20
2.7745599315
 11
5.8914505058
 21
2.7745599315
  0
LINE
  5
215
100
AcDbEntity
  8
0
100
AcDbLine
 62
7
  6
CONTINUOUS
 10
5.88188342
 20
2.7745599315
 11
5.871586845
 21
2.7745599315
  0
LINE
  5
216
100
AcDbEntity
  8
0
100
AcDbLine
 62
7
  6
CONTINUOUS
 10
5.8598019266
 20
2.7745599315
 11
5.847421072
 21
2.7745599315
  0
LINE
  5
217
100
AcDbEntity
  8
0
100
AcDbLine
 62
7
  6
CONTINUOUS
 10
5.8335318161
 20
2.7745599315
 11
5.8191859163
 21
2.7745599315
  0
LINE
  5
218
100
AcDbEntity
  8
0
100
AcDbLine
 62
7
  6
CONTINUOUS
 10
5.8033260842
 20
2.7745599315
 11
5.787153298
 21
2.7745599315
  0
LINE
  5
219
100
AcDbEntity
  8
0
100
AcDbLine
 62
7
  6
CONTINUOUS
 10
5.7694756285
 20
2.7745599315
 11
5.7516317086
 21
2.7745599315
  0
LINE
  5
21A
100
AcDbEntity
  8
0
100
AcDbLine
 62
7
  6
CONTINUOUS
 10
5.7323064473
 20
2.7745599315
 11
5.7129632406
 21
2.7745599315
  0
LINE
  5
21B
100
AcDbEntity
  8
0
100
AcDbLine
 62
7
  6
CONTINUOUS
 10
5.6921765003
 20
2.7745599315
 11
5.6715202923
 21
2.7745599315
  0
LINE
  5
21C
100
AcDbEntity
  8
0
100
AcDbLine
 62
7
  6
CONTINUOUS
 10
5.6494722607
 20
2.7745599315
 11
5.627701982
 21
2.7745599315
  0
LINE
  5
21D
100
AcDbEntity
  8
0
100
AcDbLine
 62
7
  6
CONTINUOUS
 10
5.6046049937
 20
2.7745599315
 11
5.5819303041
 21
2.7745599315
  0
LINE
  5
21E
100
AcDbEntity
  8
0
100
AcDbLine
 62
7
  6
CONTINUOUS
 10
5.5580067957
 20
2.7745599315
 11
5.5346460647
 21
2.7745599315
  0
LINE
  5
21F
100
AcDbEntity
  8
0
100
AcDbLine
 62
7
  6
CONTINUOUS
 10
5.5101264327
 20
2.7745599315
 11
5.486304637
 21
2.7745599315
  0
LINE
  5
220
100
AcDbEntity
  8
0
100
AcDbLine
 62
7
  6
CONTINUOUS
 10
5.4614250189
 20
2.7745599315
 11
5.4373715753
 21
2.7745599315
  0
LINE
  5
221
100
AcDbEntity
  8
0
100
AcDbLine
 62
7
  6
CONTINUOUS
 10
5.4123715753
 20
2.7745599315
 11
5.3883181318
 21
2.7745599315
  0
LINE
  5
222
100
AcDbEntity
  8
0
100
AcDbLine
 62
7
  6
CONTINUOUS
 10
5.3634385137
 20
2.7745599315
 11
5.339616718
 21
2.7745599315
  0
LINE
  5
223
100
AcDbEntity
  8
0
100
AcDbLine
 62
7
  6
CONTINUOUS
 10
5.315097086
 20
2.7745599315
 11
5.291736355
 21
2.7745599315
  0
LINE
  5
224
100
AcDbEntity
  8
0
100
AcDbLine
 62
7
  6
CONTINUOUS
 10
5.2678128466
 20
2.7745599315
 11
5.2451381569
 21
2.7745599315
  0
LINE
  5
225
100
AcDbEntity
  8
0
100
AcDbLine
 62
7
  6
CONTINUOUS
 10
5.2220411686
 20
2.7745599315
 11
5.20027089
 21
2.7745599315
  0
LINE
  5
226
100
AcDbEntity
  8
0
100
AcDbLine
 62
7
  6
CONTINUOUS
 10
5.1782228584
 20
2.7745599315
 11
5.1575666504
 21
2.7745599315
  0
LINE
  5
227
100
AcDbEntity
  8
0
100
AcDbLine
 62
7
  6
CONTINUOUS
 10
5.1367799101
 20
2.7745599315
 11
5.1174367034
 21
2.7745599315
  0
LINE
  5
228
100
AcDbEntity
  8
0
100
AcDbLine
 62
7
  6
CONTINUOUS
 10
5.098111442
 20
2.7745599315
 11
5.0802675222
 21
2.7745599315
  0
LINE
  5
229
100
AcDbEntity
  8
0
100
AcDbLine
 62
7
  6
CONTINUOUS
 10
5.0625898527
 20
2.7745599315
 11
5.0464170665
 21
2.7745599315
  0
LINE
  5
22A
100
AcDbEntity
  8
0
100
AcDbLine
 62
7
  6
CONTINUOUS
 10
5.0305572344
 20
2.7745599315
 11
5.0162113345
 21
2.7745599315
  0
LINE
  5
22B
100
AcDbEntity
  8
0
100
AcDbLine
 62
7
  6
CONTINUOUS
 10
5.0023220787
 20
2.7745599315
 11
4.9899412241
 21
2.7745599315
  0
LINE
  5
22C
100
AcDbEntity
  8
0
100
AcDbLine
 62
7
  6
CONTINUOUS
 10
4.9781563057
 20
2.7745599315
 11
4.9678597307
 21
2.7745599315
  0
LINE
  5
22D
100
AcDbEntity
  8
0
100
AcDbLine
 62
7
  6
CONTINUOUS
 10
4.9582926449
 20
2.7745599315
 11
4.9501795112
 21
2.7745599315
  0
LINE
  5
22E
100
AcDbEntity
  8
0
100
AcDbLine
 62
7
  6
CONTINUOUS
 10
4.9321935778
 20
2.7745599315
 11
4.9286599482
 21
2.7745599315
  0
LINE
  5
22F
100
AcDbEntity
  8
0
100
AcDbLine
 62
7
  6
CONTINUOUS
 10
4.9429223943
 20
2.7745599315
 11
4.9370708358
 21
2.7745599315
  0
LINE
  5
230
100
AcDbEntity
  8
0
100
AcDbLine
 62
7
  6
CONTINUOUS
 10
4.9262095197
 20
2.7745599315
 11
4.9250278498
 21
2.7745599315
  0
LINE
  5
231
100
AcDbEntity
  8
0
100
AcDbLine
 62
7
  6
CONTINUOUS
 10
4.2998715753
 20
5.7236120586
 11
4.2998715753
 21
5.9455599315
  0
LINE
  5
232
100
AcDbEntity
  8
0
100
AcDbLine
 62
7
  6
CONTINUOUS
 10
4.9250278498
 20
3.6445599315
 11
4.9262095197
 21
3.6445599315
  0
LINE
  5
233
100
AcDbEntity
  8
0
100
AcDbLine
 62
7
  6
CONTINUOUS
 10
4.9286599482
 20
3.6445599315
 11
4.9321935778
 21
3.6445599315
  0
LINE
  5
234
100
AcDbEntity
  8
0
100
AcDbLine
 62
7
  6
CONTINUOUS
 10
4.9370708358
 20
3.6445599315
 11
4.9429223943
 21
3.6445599315
  0
LINE
  5
235
100
AcDbEntity
  8
0
100
AcDbLine
 62
7
  6
CONTINUOUS
 10
4.9501795112
 20
3.6445599315
 11
4.9582926449
 21
3.6445599315
  0
LINE
  5
236
100
AcDbEntity
  8
0
100
AcDbLine
 62
7
  6
CONTINUOUS
 10
4.9678597307
 20
3.6445599315
 11
4.9781563057
 21
3.6445599315
  0
LINE
  5
237
100
AcDbEntity
  8
0
100
AcDbLine
 62
7
  6
CONTINUOUS
 10
4.9899412241
 20
3.6445599315
 11
5.0023220787
 21
3.6445599315
  0
LINE
  5
238
100
AcDbEntity
  8
0
100
AcDbLine
 62
7
  6
CONTINUOUS
 10
5.0162113345
 20
3.6445599315
 11
5.0305572344
 21
3.6445599315
  0
LINE
  5
239
100
AcDbEntity
  8
0
100
AcDbLine
 62
7
  6
CONTINUOUS
 10
5.0464170665
 20
3.6445599315
 11
5.0625898527
 21
3.6445599315
  0
LINE
  5
23A
100
AcDbEntity
  8
0
100
AcDbLine
 62
7
  6
CONTINUOUS
 10
5.0802675222
 20
3.6445599315
 11
5.098111442
 21
3.6445599315
  0
LINE
  5
23B
100
AcDbEntity
  8
0
100
AcDbLine
 62
7
  6
CONTINUOUS
 10
5.1174367034
 20
3.6445599315
 11
5.1367799101
 21
3.6445599315
  0
LINE
  5
23C
100
AcDbEntity
  8
0
100
AcDbLine
 62
7
  6
CONTINUOUS
 10
5.1575666504
 20
3.6445599315
 11
5.1782228584
 21
3.6445599315
  0
LINE
  5
23D
100
AcDbEntity
  8
0
100
AcDbLine
 62
7
  6
CONTINUOUS
 10
5.20027089
 20
3.6445599315
 11
5.2220411686
 21
3.6445599315
  0
LINE
  5
23E
100
AcDbEntity
  8
0
100
AcDbLine
 62
7
  6
CONTINUOUS
 10
5.2451381569
 20
3.6445599315
 11
5.2678128466
 21
3.6445599315
  0
LINE
  5
23F
100
AcDbEntity
  8
0
100
AcDbLine
 62
7
  6
CONTINUOUS
 10
5.291736355
 20
3.6445599315
 11
5.315097086
 21
3.6445599315
  0
LINE
  5
240
100
AcDbEntity
  8
0
100
AcDbLine
 62
7
  6
CONTINUOUS
 10
5.339616718
 20
3.6445599315
 11
5.3634385137
 21
3.6445599315
  0
LINE
  5
241
100
AcDbEntity
  8
0
100
AcDbLine
 62
7
  6
CONTINUOUS
 10
5.3883181318
 20
3.6445599315
 11
5.4123715753
 21
3.6445599315
  0
LINE
  5
242
100
AcDbEntity
  8
0
100
AcDbLine
 62
7
  6
CONTINUOUS
 10
5.4373715753
 20
3.6445599315
 11
5.4614250189
 21
3.6445599315
  0
LINE
  5
243
100
AcDbEntity
  8
0
100
AcDbLine
 62
7
  6
CONTINUOUS
 10
5.486304637
 20
3.6445599315
 11
5.5101264327
 21
3.6445599315
  0
LINE
  5
244
100
AcDbEntity
  8
0
100
AcDbLine
 62
7
  6
CONTINUOUS
 10
5.5346460647
 20
3.6445599315
 11
5.5580067957
 21
3.6445599315
  0
LINE
  5
245
100
AcDbEntity
  8
0
100
AcDbLine
 62
7
  6
CONTINUOUS
 10
5.5819303041
 20
3.6445599315
 11
5.6046049937
 21
3.6445599315
  0
LINE
  5
246
100
AcDbEntity
  8
0
100
AcDbLine
 62
7
  6
CONTINUOUS
 10
5.627701982
 20
3.6445599315
 11
5.6494722607
 21
3.6445599315
  0
LINE
  5
247
100
AcDbEntity
  8
0
100
AcDbLine
 62
7
  6
CONTINUOUS
 10
5.6715202923
 20
3.6445599315
 11
5.6921765003
 21
3.6445599315
  0
LINE
  5
248
100
AcDbEntity
  8
0
100
AcDbLine
 62
7
  6
CONTINUOUS
 10
5.7129632406
 20
3.6445599315
 11
5.7323064473
 21
3.6445599315
  0
LINE
  5
249
100
AcDbEntity
  8
0
100
AcDbLine
 62
7
  6
CONTINUOUS
 10
5.7516317086
 20
3.6445599315
 11
5.7694756285
 21
3.6445599315
  0
LINE
  5
24A
100
AcDbEntity
  8
0
100
AcDbLine
 62
7
  6
CONTINUOUS
 10
5.787153298
 20
3.6445599315
 11
5.8033260842
 21
3.6445599315
  0
LINE
  5
24B
100
AcDbEntity
  8
0
100
AcDbLine
 62
7
  6
CONTINUOUS
 10
5.8191859163
 20
3.6445599315
 11
5.8335318161
 21
3.6445599315
  0
LINE
  5
24C
100
AcDbEntity
  8
0
100
AcDbLine
 62
7
  6
CONTINUOUS
 10
5.847421072
 20
3.6445599315
 11
5.8598019266
 21
3.6445599315
  0
LINE
  5
24D
100
AcDbEntity
  8
0
100
AcDbLine
 62
7
  6
CONTINUOUS
 10
5.871586845
 20
3.6445599315
 11
5.88188342
 21
3.6445599315
  0
LINE
  5
24E
100
AcDbEntity
  8
0
100
AcDbLine
 62
7
  6
CONTINUOUS
 10
5.8914505058
 20
3.6445599315
 11
5.8995636394
 21
3.6445599315
  0
LINE
  5
24F
100
AcDbEntity
  8
0
100
AcDbLine
 62
7
  6
CONTINUOUS
 10
5.9068207564
 20
3.6445599315
 11
5.9126723149
 21
3.6445599315
  0
LINE
  5
250
100
AcDbEntity
  8
0
100
AcDbLine
 62
7
  6
CONTINUOUS
 10
5.9175495729
 20
3.6445599315
 11
5.9210832025
 21
3.6445599315
  0
LINE
  5
251
100
AcDbEntity
  8
0
100
AcDbLine
 62
7
  6
CONTINUOUS
 10
5.923533631
 20
3.6445599315
 11
5.9247153009
 21
3.6445599315
  0
LINE
  5
252
100
AcDbEntity
  8
0
100
AcDbLine
 62
7
  6
CONTINUOUS
 10
4.9548715753
 20
3.6745599315
 11
5.8948715753
 21
3.6745599315
  0
LINE
  5
253
100
AcDbEntity
  8
0
100
AcDbLine
 62
7
  6
CONTINUOUS
 10
5.8948715753
 20
3.7055599315
 11
4.9548715753
 21
3.7055599315
  0
LINE
  5
254
100
AcDbEntity
  8
0
100
AcDbLine
 62
7
  6
CONTINUOUS
 10
5.9248715753
 20
3.7355599315
 11
4.9248715753
 21
3.7355599315
  0
LINE
  5
255
100
AcDbEntity
  8
0
100
AcDbLine
 62
7
  6
CONTINUOUS
 10
4.9248715753
 20
5.4055599315
 11
4.9248715753
 21
3.7355599315
  0
LINE
  5
256
100
AcDbEntity
  8
0
100
AcDbLine
 62
7
  6
CONTINUOUS
 10
4.9250278498
 20
3.6445599937
 11
4.9250278498
 21
2.7745599328
  0
LINE
  5
257
100
AcDbEntity
  8
0
100
AcDbLine
 62
7
  6
CONTINUOUS
 10
4.9262095197
 20
3.6445599315
 11
4.9262095197
 21
2.7745599315
  0
LINE
  5
258
100
AcDbEntity
  8
0
100
AcDbLine
 62
7
  6
CONTINUOUS
 10
4.9286599482
 20
3.6445599315
 11
4.9286599482
 21
2.7745599315
  0
LINE
  5
259
100
AcDbEntity
  8
0
100
AcDbLine
 62
7
  6
CONTINUOUS
 10
4.9321935778
 20
3.6445599315
 11
4.9321935778
 21
2.7745599315
  0
LINE
  5
25A
100
AcDbEntity
  8
0
100
AcDbLine
 62
7
  6
CONTINUOUS
 10
4.9370708358
 20
3.6445599315
 11
4.9370708358
 21
2.7745599315
  0
LINE
  5
25B
100
AcDbEntity
  8
0
100
AcDbLine
 62
7
  6
CONTINUOUS
 10
4.9429223943
 20
3.6445599315
 11
4.9429223943
 21
2.7745599315
  0
LINE
  5
25C
100
AcDbEntity
  8
0
100
AcDbLine
 62
7
  6
CONTINUOUS
 10
4.9501795112
 20
3.6445599315
 11
4.9501795112
 21
2.7745599315
  0
LINE
  5
25D
100
AcDbEntity
  8
0
100
AcDbLine
 62
7
  6
CONTINUOUS
 10
4.9582926449
 20
3.6445599315
 11
4.9582926449
 21
2.7745599315
  0
LINE
  5
25E
100
AcDbEntity
  8
0
100
AcDbLine
 62
7
  6
CONTINUOUS
 10
4.9678597307
 20
3.6445599315
 11
4.9678597307
 21
2.7745599315
  0
LINE
  5
25F
100
AcDbEntity
  8
0
100
AcDbLine
 62
7
  6
CONTINUOUS
 10
4.9781563057
 20
3.6445599315
 11
4.9781563057
 21
2.7745599315
  0
LINE
  5
260
100
AcDbEntity
  8
0
100
AcDbLine
 62
7
  6
CONTINUOUS
 10
4.9899412241
 20
3.6445599315
 11
4.9899412241
 21
2.7745599315
  0
LINE
  5
261
100
AcDbEntity
  8
0
100
AcDbLine
 62
7
  6
CONTINUOUS
 10
4.9998715753
 20
5.4355599315
 11
4.9998715753
 21
5.4455599315
  0
LINE
  5
262
100
AcDbEntity
  8
0
100
AcDbLine
 62
7
  6
CONTINUOUS
 10
5.0023220787
 20
3.6445599315
 11
5.0023220787
 21
2.7745599315
  0
LINE
  5
263
100
AcDbEntity
  8
0
100
AcDbLine
 62
7
  6
CONTINUOUS
 10
5.0162113345
 20
3.6445599315
 11
5.0162113345
 21
2.7745599315
  0
LINE
  5
264
100
AcDbEntity
  8
0
100
AcDbLine
 62
7
  6
CONTINUOUS
 10
5.0305572344
 20
3.6445599315
 11
5.0305572344
 21
2.7745599315
  0
LINE
  5
265
100
AcDbEntity
  8
0
100
AcDbLine
 62
7
  6
CONTINUOUS
 10
5.0464170665
 20
3.6445599315
 11
5.0464170665
 21
2.7745599315
  0
LINE
  5
266
100
AcDbEntity
  8
0
100
AcDbLine
 62
7
  6
CONTINUOUS
 10
5.0625898527
 20
3.6445599315
 11
5.0625898527
 21
2.7745599315
  0
LINE
  5
267
100
AcDbEntity
  8
0
100
AcDbLine
 62
7
  6
CONTINUOUS
 10
5.0802675222
 20
3.6445599315
 11
5.0802675222
 21
2.7745599315
  0
LINE
  5
268
100
AcDbEntity
  8
0
100
AcDbLine
 62
7
  6
CONTINUOUS
 10
5.098111442
 20
3.6445599315
 11
5.098111442
 21
2.7745599315
  0
LINE
  5
269
100
AcDbEntity
  8
0
100
AcDbLine
 62
7
  6
CONTINUOUS
 10
5.1172245786
 20
3.6705713329
 11
5.1172245786
 21
2.7485485302
  0
LINE
  5
26A
100
AcDbEntity
  8
0
100
AcDbLine
 62
7
  6
CONTINUOUS
 10
5.1174367034
 20
3.6445599315
 11
5.1174367034
 21
2.7745599315
  0
LINE
  5
26B
100
AcDbEntity
  8
0
100
AcDbLine
 62
7
  6
CONTINUOUS
 10
5.1367799101
 20
3.6445599315
 11
5.1367799101
 21
2.7745599315
  0
LINE
  5
26C
100
AcDbEntity
  8
0
100
AcDbLine
 62
7
  6
CONTINUOUS
 10
5.1554495655
 20
3.6705713329
 11
5.1554495655
 21
2.7485485302
  0
LINE
  5
26D
100
AcDbEntity
  8
0
100
AcDbLine
 62
7
  6
CONTINUOUS
 10
5.1575666504
 20
3.6445599315
 11
5.1575666504
 21
2.7745599315
  0
LINE
  5
26E
100
AcDbEntity
  8
0
100
AcDbLine
 62
7
  6
CONTINUOUS
 10
5.1648715753
 20
3.6745599315
 11
5.1648715753
 21
3.7055599315
  0
LINE
  5
26F
100
AcDbEntity
  8
0
100
AcDbLine
 62
7
  6
CONTINUOUS
 10
5.1782228584
 20
3.6445599315
 11
5.1782228584
 21
2.7745599315
  0
LINE
  5
270
100
AcDbEntity
  8
0
100
AcDbLine
 62
7
  6
CONTINUOUS
 10
5.1962692336
 20
3.6705713329
 11
5.1962692336
 21
2.7485485302
  0
LINE
  5
271
100
AcDbEntity
  8
0
100
AcDbLine
 62
7
  6
CONTINUOUS
 10
5.20027089
 20
3.6445599315
 11
5.20027089
 21
2.7745599315
  0
LINE
  5
272
100
AcDbEntity
  8
0
100
AcDbLine
 62
7
  6
CONTINUOUS
 10
5.2220411686
 20
3.6445599315
 11
5.2220411686
 21
2.7745599315
  0
LINE
  5
273
100
AcDbEntity
  8
0
100
AcDbLine
 62
7
  6
CONTINUOUS
 10
5.2373715753
 20
6.2755599315
 11
5.2373715753
 21
6.2585599315
  0
LINE
  5
274
100
AcDbEntity
  8
0
100
AcDbLine
 62
7
  6
CONTINUOUS
 10
5.2392904672
 20
3.6705713329
 11
5.2392904672
 21
2.7485485302
  0
LINE
  5
275
100
AcDbEntity
  8
0
100
AcDbLine
 62
7
  6
CONTINUOUS
 10
5.2451381569
 20
3.6445599315
 11
5.2451381569
 21
2.7745599315
  0
LINE
  5
276
100
AcDbEntity
  8
0
100
AcDbLine
 62
7
  6
CONTINUOUS
 10
5.2678128466
 20
3.6445599315
 11
5.2678128466
 21
2.7745599315
  0
LINE
  5
277
100
AcDbEntity
  8
0
100
AcDbLine
 62
7
  6
CONTINUOUS
 10
5.2840989484
 20
3.6705713329
 11
5.2840989484
 21
2.7485485302
  0
LINE
  5
278
100
AcDbEntity
  8
0
100
AcDbLine
 62
7
  6
CONTINUOUS
 10
5.291736355
 20
3.6445599315
 11
5.291736355
 21
2.7745599315
  0
LINE
  5
279
100
AcDbEntity
  8
0
100
AcDbLine
 62
7
  6
CONTINUOUS
 10
5.315097086
 20
3.6445599315
 11
5.315097086
 21
2.7745599315
  0
LINE
  5
27A
100
AcDbEntity
  8
0
100
AcDbLine
 62
7
  6
CONTINUOUS
 10
5.3302631469
 20
3.6705713329
 11
5.3302631469
 21
2.7485485302
  0
LINE
  5
27B
100
AcDbEntity
  8
0
100
AcDbLine
 62
7
  6
CONTINUOUS
 10
5.339616718
 20
3.6445599315
 11
5.339616718
 21
2.7745599315
  0
LINE
  5
27C
100
AcDbEntity
  8
0
100
AcDbLine
 62
7
  6
CONTINUOUS
 10
5.3634385137
 20
3.6445599315
 11
5.3634385137
 21
2.7745599315
  0
LINE
  5
27D
100
AcDbEntity
  8
0
100
AcDbLine
 62
7
  6
CONTINUOUS
 10
5.3773384762
 20
3.6705713329
 11
5.3773384762
 21
2.7485485302
  0
LINE
  5
27E
100
AcDbEntity
  8
0
100
AcDbLine
 62
7
  6
CONTINUOUS
 10
5.3883181318
 20
3.6445599315
 11
5.3883181318
 21
2.7745599315
  0
LINE
  5
27F
100
AcDbEntity
  8
0
100
AcDbLine
 62
7
  6
CONTINUOUS
 10
5.4123715753
 20
3.6445599315
 11
5.4123715753
 21
2.7745599315
  0
LINE
  5
280
100
AcDbEntity
  8
0
100
AcDbLine
 62
7
  6
CONTINUOUS
 10
5.4248715753
 20
3.6705713329
 11
5.4248715753
 21
2.7485485302
  0
LINE
  5
281
100
AcDbEntity
  8
0
100
AcDbLine
 62
7
  6
CONTINUOUS
 10
5.4373715753
 20
3.6445599315
 11
5.4373715753
 21
2.7745599315
  0
LINE
  5
282
100
AcDbEntity
  8
0
100
AcDbLine
 62
7
  6
CONTINUOUS
 10
5.4614250189
 20
3.6445599315
 11
5.4614250189
 21
2.7745599315
  0
LINE
  5
283
100
AcDbEntity
  8
0
100
AcDbLine
 62
7
  6
CONTINUOUS
 10
5.4724046744
 20
3.6705713329
 11
5.4724046744
 21
2.7485485302
  0
LINE
  5
284
100
AcDbEntity
  8
0
100
AcDbLine
 62
7
  6
CONTINUOUS
 10
5.486304637
 20
3.6445599315
 11
5.486304637
 21
2.7745599315
  0
LINE
  5
285
100
AcDbEntity
  8
0
100
AcDbLine
 62
7
  6
CONTINUOUS
 10
5.5101264327
 20
3.6445599315
 11
5.5101264327
 21
2.7745599315
  0
LINE
  5
286
100
AcDbEntity
  8
0
100
AcDbLine
 62
7
  6
CONTINUOUS
 10
5.5194800038
 20
3.6705713329
 11
5.5194800038
 21
2.7485485302
  0
LINE
  5
287
100
AcDbEntity
  8
0
100
AcDbLine
 62
7
  6
CONTINUOUS
 10
5.5346460647
 20
3.6445599315
 11
5.5346460647
 21
2.7745599315
  0
LINE
  5
288
100
AcDbEntity
  8
0
100
AcDbLine
 62
7
  6
CONTINUOUS
 10
5.5580067957
 20
3.6445599315
 11
5.5580067957
 21
2.7745599315
  0
LINE
  5
289
100
AcDbEntity
  8
0
100
AcDbLine
 62
7
  6
CONTINUOUS
 10
5.5656442023
 20
3.6705713329
 11
5.5656442023
 21
2.7485485302
  0
LINE
  5
28A
100
AcDbEntity
  8
0
100
AcDbLine
 62
7
  6
CONTINUOUS
 10
5.5819303041
 20
3.6445599315
 11
5.5819303041
 21
2.7745599315
  0
LINE
  5
28B
100
AcDbEntity
  8
0
100
AcDbLine
 62
7
  6
CONTINUOUS
 10
5.6046049937
 20
3.6445599315
 11
5.6046049937
 21
2.7745599315
  0
LINE
  5
28C
100
AcDbEntity
  8
0
100
AcDbLine
 62
7
  6
CONTINUOUS
 10
5.6104526835
 20
3.6705713329
 11
5.6104526835
 21
2.7485485302
  0
LINE
  5
28D
100
AcDbEntity
  8
0
100
AcDbLine
 62
7
  6
CONTINUOUS
 10
5.6123715753
 20
6.2755599315
 11
5.6123715753
 21
6.2585599315
  0
LINE
  5
28E
100
AcDbEntity
  8
0
100
AcDbLine
 62
7
  6
CONTINUOUS
 10
5.627701982
 20
3.6445599315
 11
5.627701982
 21
2.7745599315
  0
LINE
  5
28F
100
AcDbEntity
  8
0
100
AcDbLine
 62
7
  6
CONTINUOUS
 10
5.6494722607
 20
3.6445599315
 11
5.6494722607
 21
2.7745599315
  0
LINE
  5
290
100
AcDbEntity
  8
0
100
AcDbLine
 62
7
  6
CONTINUOUS
 10
5.6534739171
 20
3.6705713329
 11
5.6534739171
 21
2.7485485302
  0
LINE
  5
291
100
AcDbEntity
  8
0
100
AcDbLine
 62
7
  6
CONTINUOUS
 10
5.6715202923
 20
3.6445599315
 11
5.6715202923
 21
2.7745599315
  0
LINE
  5
292
100
AcDbEntity
  8
0
100
AcDbLine
 62
7
  6
CONTINUOUS
 10
5.6848715753
 20
3.6745599315
 11
5.6848715753
 21
3.7055599315
  0
LINE
  5
293
100
AcDbEntity
  8
0
100
AcDbLine
 62
7
  6
CONTINUOUS
 10
5.6921765003
 20
3.6445599315
 11
5.6921765003
 21
2.7745599315
  0
LINE
  5
294
100
AcDbEntity
  8
0
100
AcDbLine
 62
7
  6
CONTINUOUS
 10
5.6942935852
 20
3.6705713329
 11
5.6942935852
 21
2.7485485302
  0
LINE
  5
295
100
AcDbEntity
  8
0
100
AcDbLine
 62
7
  6
CONTINUOUS
 10
5.7129632406
 20
3.6445599315
 11
5.7129632406
 21
2.7745599315
  0
LINE
  5
296
100
AcDbEntity
  8
0
100
AcDbLine
 62
7
  6
CONTINUOUS
 10
5.7323064473
 20
3.6445599315
 11
5.7323064473
 21
2.7745599315
  0
LINE
  5
297
100
AcDbEntity
  8
0
100
AcDbLine
 62
7
  6
CONTINUOUS
 10
5.732518572
 20
3.6705713329
 11
5.732518572
 21
2.7485485302
  0
LINE
  5
298
100
AcDbEntity
  8
0
100
AcDbLine
 62
7
  6
CONTINUOUS
 10
5.7516317086
 20
3.6445599315
 11
5.7516317086
 21
2.7745599315
  0
LINE
  5
299
100
AcDbEntity
  8
0
100
AcDbLine
 62
7
  6
CONTINUOUS
 10
5.7694756285
 20
3.6445599315
 11
5.7694756285
 21
2.7745599315
  0
LINE
  5
29A
100
AcDbEntity
  8
0
100
AcDbLine
 62
7
  6
CONTINUOUS
 10
5.787153298
 20
3.6445599315
 11
5.787153298
 21
2.7745599315
  0
LINE
  5
29B
100
AcDbEntity
  8
0
100
AcDbLine
 62
7
  6
CONTINUOUS
 10
5.8033260842
 20
3.6445599315
 11
5.8033260842
 21
2.7745599315
  0
LINE
  5
29C
100
AcDbEntity
  8
0
100
AcDbLine
 62
7
  6
CONTINUOUS
 10
5.8191859163
 20
3.6445599315
 11
5.8191859163
 21
2.7745599315
  0
LINE
  5
29D
100
AcDbEntity
  8
0
100
AcDbLine
 62
7
  6
CONTINUOUS
 10
5.8335318161
 20
3.6445599315
 11
5.8335318161
 21
2.7745599315
  0
LINE
  5
29E
100
AcDbEntity
  8
0
100
AcDbLine
 62
7
  6
CONTINUOUS
 10
5.847421072
 20
3.6445599315
 11
5.847421072
 21
2.7745599315
  0
LINE
  5
29F
100
AcDbEntity
  8
0
100
AcDbLine
 62
7
  6
CONTINUOUS
 10
5.8498715753
 20
5.4355599315
 11
5.8498715753
 21
5.4455599315
  0
LINE
  5
2A0
100
AcDbEntity
  8
0
100
AcDbLine
 62
7
  6
CONTINUOUS
 10
5.8598019266
 20
3.6445599315
 11
5.8598019266
 21
2.7745599315
  0
LINE
  5
2A1
100
AcDbEntity
  8
0
100
AcDbLine
 62
7
  6
CONTINUOUS
 10
5.871586845
 20
3.6445599315
 11
5.871586845
 21
2.7745599315
  0
LINE
  5
2A2
100
AcDbEntity
  8
0
100
AcDbLine
 62
7
  6
CONTINUOUS
 10
5.88188342
 20
3.6445599315
 11
5.88188342
 21
2.7745599315
  0
LINE
  5
2A3
100
AcDbEntity
  8
0
100
AcDbLine
 62
7
  6
CONTINUOUS
 10
5.8914505058
 20
3.6445599315
 11
5.8914505058
 21
2.7745599315
  0
LINE
  5
2A4
100
AcDbEntity
  8
0
100
AcDbLine
 62
7
  6
CONTINUOUS
 10
5.8995636394
 20
3.6445599315
 11
5.8995636394
 21
2.7745599315
  0
LINE
  5
2A5
100
AcDbEntity
  8
0
100
AcDbLine
 62
7
  6
CONTINUOUS
 10
5.9068207564
 20
3.6445599315
 11
5.9068207564
 21
2.7745599315
  0
LINE
  5
2A6
100
AcDbEntity
  8
0
100
AcDbLine
 62
7
  6
CONTINUOUS
 10
5.9126723149
 20
3.6445599315
 11
5.9126723149
 21
2.7745599315
  0
LINE
  5
2A7
100
AcDbEntity
  8
0
100
AcDbLine
 62
7
  6
CONTINUOUS
 10
5.9175495729
 20
3.6445599315
 11
5.9175495729
 21
2.7745599315
  0
LINE
  5
2A8
100
AcDbEntity
  8
0
100
AcDbLine
 62
7
  6
CONTINUOUS
 10
5.9210832025
 20
3.6445599315
 11
5.9210832025
 21
2.7745599315
  0
LINE
  5
2A9
100
AcDbEntity
  8
0
100
AcDbLine
 62
7
  6
CONTINUOUS
 10
5.923533631
 20
3.6445599315
 11
5.923533631
 21
2.7745599315
  0
LINE
  5
2AA
100
AcDbEntity
  8
0
100
AcDbLine
 62
7
  6
CONTINUOUS
 10
5.9247153009
 20
3.6445599315
 11
5.9247153009
 21
2.7745599315
  0
LINE
  5
2AB
100
AcDbEntity
  8
0
100
AcDbLine
 62
7
  6
CONTINUOUS
 10
5.9248715753
 20
5.4055599315
 11
5.9248715753
 21
3.7355599315
  0
LINE
  5
2AC
100
AcDbEntity
  8
0
100
AcDbLine
 62
7
  6
CONTINUOUS
 10
4.9248715753
 20
5.4055599315
 11
5.9248715753
 21
5.4055599315
  0
LINE
  5
2AD
100
AcDbEntity
  8
0
100
AcDbLine
 62
7
  6
CONTINUOUS
 10
4.9548715753
 20
5.4355599315
 11
5.8948715753
 21
5.4355599315
  0
LINE
  5
2AE
100
AcDbEntity
  8
0
100
AcDbLine
 62
7
  6
CONTINUOUS
 10
5.8970785774
 20
5.4455599315
 11
4.9526645732
 21
5.4455599315
  0
LINE
  5
2AF
100
AcDbEntity
  8
0
100
AcDbLine
 62
7
  6
CONTINUOUS
 10
5.9267556015
 20
5.4711696876
 11
4.9229875492
 21
5.4711696876
  0
LINE
  5
2B0
100
AcDbEntity
  8
0
100
AcDbLine
 62
7
  6
CONTINUOUS
 10
6.5498715753
 20
5.7236120586
 11
6.5498715753
 21
5.9455599315
  0
LINE
  5
2B1
100
AcDbEntity
  8
0
100
AcDbLine
 62
7
  6
CONTINUOUS
 10
4.7953057316
 20
5.6145591547
 11
6.0544374191
 21
5.6145591547
  0
LINE
  5
2B2
100
AcDbEntity
  8
0
100
AcDbLine
 62
7
  6
CONTINUOUS
 10
6.5220489495
 20
5.6936911789
 11
4.3276942012
 21
5.6936911789
  0
LINE
  5
2B3
100
AcDbEntity
  8
0
100
AcDbLine
 62
7
  6
CONTINUOUS
 10
6.5498715753
 20
5.7236120586
 11
4.2998715753
 21
5.7236120586
  0
LINE
  5
2B4
100
AcDbEntity
  8
0
100
AcDbLine
 62
7
  6
CONTINUOUS
 10
8.5077150651
 20
5.9455599315
 11
2.3420280856
 21
5.9455599315
  0
LINE
  5
2B5
100
AcDbEntity
  8
0
100
AcDbLine
 62
7
  6
CONTINUOUS
 10
8.5670897267
 20
5.9874969412
 11
2.282653424
 21
5.9874969412
  0
LINE
  5
2B6
100
AcDbEntity
  8
0
100
AcDbLine
 62
7
  6
CONTINUOUS
 10
8.6364232597
 20
6.0610775812
 11
2.213319891
 21
6.0610775812
  0
LINE
  5
2B7
100
AcDbEntity
  8
0
100
AcDbLine
 62
7
  6
CONTINUOUS
 10
8.6748715753
 20
6.1190966711
 11
2.1748715753
 21
6.1190966711
  0
LINE
  5
2B8
100
AcDbEntity
  8
0
100
AcDbLine
 62
7
  6
CONTINUOUS
 10
2.1748715753
 20
6.2585599315
 11
8.6748715753
 21
6.2585599315
  0
LINE
  5
2B9
100
AcDbEntity
  8
0
100
AcDbLine
 62
7
  6
CONTINUOUS
 10
5.2373715753
 20
6.2755599315
 11
5.6123715753
 21
6.2755599315
  0
LINE
  5
2BA
100
AcDbEntity
  8
0
100
AcDbLine
 62
7
  6
CONTINUOUS
 10
8.6748715753
 20
6.1190966711
 11
8.6748715753
 21
6.2585599315
  0
ARC
  5
2BB
100
AcDbEntity
  8
0
100
AcDbCircle
 62
7
  6
CONTINUOUS
 10
4.1462463564
 20
3.2002845375
 40
2.5
100
AcDbArc
 50
74.9522620167
 51
85.8378620776
  0
ARC
  5
2BC
100
AcDbEntity
  8
0
100
AcDbCircle
 62
7
  6
CONTINUOUS
 10
6.7034967943
 20
3.2002845375
 40
2.5
100
AcDbArc
 50
94.1621379224
 51
105.0477379833
  0
ARC
  5
2BD
100
AcDbEntity
  8
0
100
AcDbCircle
 62
7
  6
CONTINUOUS
 10
4.7498715753
 20
5.4455599315
 40
0.175
100
AcDbArc
 50
8.4149680847
 51
74.9522620167
  0
ARC
  5
2BE
100
AcDbEntity
  8
0
100
AcDbCircle
 62
7
  6
CONTINUOUS
 10
6.0998715753
 20
5.4455599315
 40
0.175
100
AcDbArc
 50
105.0477379833
 51
171.5850319153
  0
ARC
  5
2BF
100
AcDbEntity
  8
0
100
AcDbCircle
 62
7
  6
CONTINUOUS
 10
2.1644367927
 20
5.9455599315
 40
0.1254347826
100
AcDbArc
 50
19.5319940446
 51
67.0635891141
  0
ARC
  5
2C0
100
AcDbEntity
  8
0
100
AcDbCircle
 62
7
  6
CONTINUOUS
 10
8.685306358
 20
5.9455599315
 40
0.1254347826
100
AcDbArc
 50
112.9364108859
 51
160.4680059554
  0
ARC
  5
2C1
100
AcDbEntity
  8
0
100
AcDbCircle
 62
7
  6
CONTINUOUS
 10
8.6118715753
 20
6.1190966711
 40
0.063
100
AcDbArc
 50
292.9364108859
 51
360.0
  0
ARC
  5
2C2
100
AcDbEntity
  8
0
100
AcDbCircle
 62
7
  6
CONTINUOUS
 10
2.2378715753
 20
6.1190966711
 40
0.063
100
AcDbArc
 50
180.0
 51
247.0635891141
  0
ARC
  5
2C3
100
AcDbEntity
  8
0
100
AcDbCircle
 62
7
  6
CONTINUOUS
 10
8.5077150651
 20
6.0085599315
 40
0.063
100
AcDbArc
 50
270.0
 51
340.4680059554
  0
ARC
  5
2C4
100
AcDbEntity
  8
0
100
AcDbCircle
 62
7
  6
CONTINUOUS
 10
2.3420280856
 20
6.0085599315
 40
0.063
100
AcDbArc
 50
199.5319940446
 51
270.0
  0
ARC
  5
2C5
100
AcDbEntity
  8
0
100
AcDbCircle
 62
7
  6
CONTINUOUS
 10
4.9548715753
 20
3.6445599315
 40
0.03
100
AcDbArc
 50
90.0
 51
119.8827588896
  0
ARC
  5
2C6
100
AcDbEntity
  8
0
100
AcDbCircle
 62
7
  6
CONTINUOUS
 10
5.8948715753
 20
3.6445599315
 40
0.03
100
AcDbArc
 50
60.1172411104
 51
90.0
  0
ARC
  5
2C7
100
AcDbEntity
  8
0
100
AcDbCircle
 62
7
  6
CONTINUOUS
 10
4.9548715753
 20
2.7745599315
 40
0.03
100
AcDbArc
 50
240.1172411104
 51
270.0
  0
ARC
  5
2C8
100
AcDbEntity
  8
0
100
AcDbCircle
 62
7
  6
CONTINUOUS
 10
5.8948715753
 20
2.7745599315
 40
0.03
100
AcDbArc
 50
270.0
 51
299.8827588896
  0
ARC
  5
2C9
100
AcDbEntity
  8
0
100
AcDbCircle
 62
7
  6
CONTINUOUS
 10
4.9548715753
 20
5.4055599315
 40
0.03
100
AcDbArc
 50
90.0
 51
180.0
  0
ARC
  5
2CA
100
AcDbEntity
  8
0
100
AcDbCircle
 62
7
  6
CONTINUOUS
 10
5.8948715753
 20
5.4055599315
 40
0.03
100
AcDbArc
 50
0.0
 51
90.0
  0
ARC
  5
2CB
100
AcDbEntity
  8
0
100
AcDbCircle
 62
7
  6
CONTINUOUS
 10
4.9548715753
 20
3.7355599315
 40
0.03
100
AcDbArc
 50
180.0
 51
270.0
  0
ARC
  5
2CC
100
AcDbEntity
  8
0
100
AcDbCircle
 62
7
  6
CONTINUOUS
 10
5.8948715753
 20
3.7355599315
 40
0.03
100
AcDbArc
 50
270.0
 51
360.0
  0
ARC
  5
2CD
100
AcDbEntity
  8
0
100
AcDbCircle
 62
7
  6
CONTINUOUS
 10
4.9526645732
 20
5.4755599315
 40
0.03
100
AcDbArc
 50
188.4149680847
 51
270.0
  0
ARC
  5
2CE
100
AcDbEntity
  8
0
100
AcDbCircle
 62
7
  6
CONTINUOUS
 10
5.8970785774
 20
5.4755599315
 40
0.03
100
AcDbArc
 50
270.0
 51
351.5850319153
  0
ARC
  5
2CF
100
AcDbEntity
  8
0
100
AcDbCircle
 62
7
  6
CONTINUOUS
 10
4.3298715753
 20
5.7236120586
 40
0.03
100
AcDbArc
 50
180.0
 51
265.8378620776
  0
ARC
  5
2D0
100
AcDbEntity
  8
0
100
AcDbCircle
 62
7
  6
CONTINUOUS
 10
6.5198715753
 20
5.7236120586
 40
0.03
100
AcDbArc
 50
274.1621379224
 51
360.0
  0
ARC
  5
2D1
100
AcDbEntity
  8
0
100
AcDbCircle
 62
7
  6
CONTINUOUS
 10
4.9545913542
 20
3.6450446739
 40
0.029440092
100
AcDbArc
 50
119.8799308782
 51
128.5051181692
  0
ARC
  5
2D2
100
AcDbEntity
  8
0
100
AcDbCircle
 62
7
  6
CONTINUOUS
 10
5.8951517971
 20
2.7740751881
 40
0.0294400909
100
AcDbArc
 50
299.8799307451
 51
308.5052178022
  0
ARC
  5
2D3
100
AcDbEntity
  8
0
100
AcDbCircle
 62
7
  6
CONTINUOUS
 10
4.9545913519
 20
2.7740751856
 40
0.0294400878
100
AcDbArc
 50
231.4947896688
 51
240.1200697476
  0
ARC
  5
2D4
100
AcDbEntity
  8
0
100
AcDbCircle
 62
7
  6
CONTINUOUS
 10
5.8951518001
 20
3.6450446793
 40
0.0294400856
100
AcDbArc
 50
51.4948728869
 51
60.1200701176
  0
SPLINE
  5
2D5
100
AcDbEntity
  8
0
100
AcDbSpline
 62
7
  6
CONTINUOUS
 70
0
 71
3
 72
15
 73
11
 74
0
 42
0.0000001
 43
0.0000001
 44
0.0000000001
 40
0.0
 40
0.0
 40
0.0
 40
0.0
 40
0.112072995
 40
0.227358455
 40
0.3463823094
 40
0.4695807008
 40
0.5970985583
 40
0.728665229
 40
0.8634316209
 40
1.0
 40
1.0
 40
1.0
 40
1.0
 10
4.9399247697
 20
3.6705713329
 30
0.0
 10
4.9389084913
 20
3.6699873538
 30
0.0
 10
4.9369154731
 20
3.6686782856
 30
0.0
 10
4.9341440856
 20
3.6663316879
 30
0.0
 10
4.9316074429
 20
3.6635709837
 30
0.0
 10
4.9293717205
 20
3.6604024715
 30
0.0
 10
4.9275115429
 20
3.656850008
 30
0.0
 10
4.9261058363
 20
3.652964364
 30
0.0
 10
4.9252269679
 20
3.6488300925
 30
0.0
 10
4.9250278498
 20
3.6459882934
 30
0.0
 10
4.9250278498
 20
3.6445599937
 30
0.0
  0
SPLINE
  5
2D6
100
AcDbEntity
  8
0
100
AcDbSpline
 62
7
  6
CONTINUOUS
 70
0
 71
3
 72
15
 73
11
 74
0
 42
0.0000001
 43
0.0000001
 44
0.0000000001
 40
0.0
 40
0.0
 40
0.0
 40
0.0
 40
0.1080171741
 40
0.2203393609
 40
0.3376283867
 40
0.4603950615
 40
0.5887721698
 40
0.7223585404
 40
0.8600346293
 40
1.0
 40
1.0
 40
1.0
 40
1.0
 10
4.9422599211
 20
3.6705713329
 30
0.0
 10
4.9413274286
 20
3.6699844
 30
0.0
 10
4.9394983476
 20
3.6686666701
 30
0.0
 10
4.9369686568
 20
3.6663171344
 30
0.0
 10
4.9346544643
 20
3.6635543162
 30
0.0
 10
4.9326160437
 20
3.6603851397
 30
0.0
 10
4.9309210883
 20
3.6568339782
 30
0.0
 10
4.9296409947
 20
3.652951923
 30
0.0
 10
4.9288410352
 20
3.6488231229
 30
0.0
 10
4.9286599482
 20
3.6459876511
 30
0.0
 10
4.9286599482
 20
3.6445599315
 30
0.0
  0
SPLINE
  5
2D7
100
AcDbEntity
  8
0
100
AcDbSpline
 62
7
  6
CONTINUOUS
 70
0
 71
3
 72
15
 73
11
 74
0
 42
0.0000001
 43
0.0000001
 44
0.0000000001
 40
0.0
 40
0.0
 40
0.0
 40
0.0
 40
0.1034124949
 40
0.2124289148
 40
0.3278335567
 40
0.4501851969
 40
0.5795699274
 40
0.7154189715
 40
0.8563070985
 40
1.0
 40
1.0
 40
1.0
 40
1.0
 10
4.9492428866
 20
3.6705713329
 30
0.0
 10
4.9484027601
 20
3.6699805035
 30
0.0
 10
4.9467551267
 20
3.668651929
 30
0.0
 10
4.9444922974
 20
3.6662995909
 30
0.0
 10
4.9424234619
 20
3.6635352243
 30
0.0
 10
4.9406022294
 20
3.6603662058
 30
0.0
 10
4.9390886669
 20
3.6568171699
 30
0.0
 10
4.9379460851
 20
3.6529392915
 30
0.0
 10
4.937232299
 20
3.6488162121
 30
0.0
 10
4.9370708358
 20
3.6459870705
 30
0.0
 10
4.9370708358
 20
3.6445599315
 30
0.0
  0
SPLINE
  5
2D8
100
AcDbEntity
  8
0
100
AcDbSpline
 62
7
  6
CONTINUOUS
 70
0
 71
3
 72
15
 73
11
 74
0
 42
0.0000001
 43
0.0000001
 44
0.0000000001
 40
0.0
 40
0.0
 40
0.0
 40
0.0
 40
0.0983290158
 40
0.2037737117
 40
0.3172059429
 40
0.4391892432
 40
0.5697200208
 40
0.708025195
 40
0.852346943
 40
1.0
 40
1.0
 40
1.0
 40
1.0
 10
4.9608064163
 20
3.6705713329
 30
0.0
 10
4.9600665643
 20
3.6699753701
 30
0.0
 10
4.958616926
 20
3.6686334796
 30
0.0
 10
4.9566436891
 20
3.6662789664
 30
0.0
 10
4.9548406267
 20
3.6635140552
 30
0.0
 10
4.9532540821
 20
3.6603462626
 30
0.0
 10
4.951936016
 20
3.6568001945
 30
0.0
 10
4.950941279
 20
3.6529269238
 30
0.0
 10
4.9503199688
 20
3.6488095739
 30
0.0
 10
4.9501795112
 20
3.6459865144
 30
0.0
 10
4.9501795112
 20
3.6445599315
 30
0.0
  0
SPLINE
  5
2D9
100
AcDbEntity
  8
0
100
AcDbSpline
 62
7
  6
CONTINUOUS
 70
0
 71
3
 72
16
 73
12
 74
0
 42
0.0000001
 43
0.0000001
 44
0.0000000001
 40
0.0
 40
0.0
 40
0.0
 40
0.0
 40
0.0929073169
 40
0.1946388021
 40
0.2491238632
 40
0.3061327987
 40
0.4278184562
 40
0.5595968561
 40
0.7004606776
 40
0.848306573
 40
1.0
 40
1.0
 40
1.0
 40
1.0
 10
4.9768391472
 20
3.6705713329
 30
0.0
 10
4.9762069607
 20
3.6699686647
 30
0.0
 10
4.9749711893
 20
3.6686110158
 30
0.0
 10
4.9736168052
 20
3.6666937613
 30
0.0
 10
4.9725984449
 20
3.6649662239
 30
0.0
 10
4.9715881532
 20
3.6630197046
 30
0.0
 10
4.9704503713
 20
3.6603260441
 30
0.0
 10
4.9693397392
 20
3.6567838601
 30
0.0
 10
4.9685015262
 20
3.6529153293
 30
0.0
 10
4.9679780209
 20
3.6488034725
 30
0.0
 10
4.9678597307
 20
3.6459860045
 30
0.0
 10
4.9678597307
 20
3.6445599315
 30
0.0
  0
SPLINE
  5
2DA
100
AcDbEntity
  8
0
100
AcDbSpline
 62
7
  6
CONTINUOUS
 70
0
 71
3
 72
15
 73
11
 74
0
 42
0.0000001
 43
0.0000001
 44
0.0000000001
 40
0.0
 40
0.0
 40
0.0
 40
0.0
 40
0.0874131254
 40
0.1854974824
 40
0.2950905743
 40
0.4165848812
 40
0.5496655322
 40
0.693075708
 40
0.8443735278
 40
1.0
 40
1.0
 40
1.0
 40
1.0
 10
4.9971866753
 20
3.6705713329
 30
0.0
 10
4.9966693403
 20
3.6699601269
 30
0.0
 10
4.9956626166
 20
3.6685846506
 30
0.0
 10
4.9943244185
 20
3.6662305041
 30
0.0
 10
4.9931018855
 20
3.6634690502
 30
0.0
 10
4.9920261372
 20
3.6603071364
 30
0.0
 10
4.9911323436
 20
3.656768872
 30
0.0
 10
4.9904577556
 20
3.6529050613
 30
0.0
 10
4.9900363946
 20
3.6487981359
 30
0.0
 10
4.9899412241
 20
3.6459855601
 30
0.0
 10
4.9899412241
 20
3.6445599315
 30
0.0
  0
SPLINE
  5
2DB
100
AcDbEntity
  8
0
100
AcDbSpline
 62
7
  6
CONTINUOUS
 70
0
 71
3
 72
18
 73
14
 74
0
 42
0.0000001
 43
0.0000001
 44
0.0000000001
 40
0.0
 40
0.0
 40
0.0
 40
0.0
 40
0.0396171757
 40
0.0822584387
 40
0.1280327526
 40
0.17703378
 40
0.2293420401
 40
0.2850122576
 40
0.4064007777
 40
0.5407095872
 40
0.6864410606
 40
0.8408480118
 40
1.0
 40
1.0
 40
1.0
 40
1.0
 10
5.0216530428
 20
3.6705713329
 30
0.0
 10
5.0214627073
 20
3.6702719232
 30
0.0
 10
5.0210872683
 20
3.6696375377
 30
0.0
 10
5.020558313
 20
3.6686197127
 30
0.0
 10
5.0200456543
 20
3.6675004432
 30
0.0
 10
5.0195517578
 20
3.6662789177
 30
0.0
 10
5.0190791797
 20
3.6649545144
 30
0.0
 10
5.0184633469
 20
3.6629944926
 30
0.0
 10
5.0177736126
 20
3.6602903256
 30
0.0
 10
5.0171039734
 20
3.656756254
 30
0.0
 10
5.0165984522
 20
3.6528965545
 30
0.0
 10
5.0162826437
 20
3.6487937906
 30
0.0
 10
5.0162113345
 20
3.6459851986
 30
0.0
 10
5.0162113345
 20
3.6445599315
 30
0.0
  0
SPLINE
  5
2DC
100
AcDbEntity
  8
0
100
AcDbSpline
 62
7
  6
CONTINUOUS
 70
0
 71
3
 72
18
 73
14
 74
0
 42
0.0000001
 43
0.0000001
 44
0.0000000001
 40
0.0
 40
0.0
 40
0.0
 40
0.0
 40
0.0372338933
 40
0.0779311572
 40
0.1221706042
 40
0.1700182374
 40
0.2215290783
 40
0.2767340199
 40
0.3981087159
 40
0.5334618075
 40
0.6810935414
 40
0.8380130594
 40
1.0
 40
1.0
 40
1.0
 40
1.0
 10
5.0500026252
 20
3.6705713329
 30
0.0
 10
5.0498760794
 20
3.670269218
 30
0.0
 10
5.0496271546
 20
3.6696301451
 30
0.0
 10
5.0492791723
 20
3.6686130381
 30
0.0
 10
5.0489418244
 20
3.667494455
 30
0.0
 10
5.048616749
 20
3.6662735592
 30
0.0
 10
5.0483056498
 20
3.6649497437
 30
0.0
 10
5.0478990071
 20
3.6629846602
 30
0.0
 10
5.0474446323
 20
3.660277375
 30
0.0
 10
5.0470042557
 20
3.6567466868
 30
0.0
 10
5.0466717393
 20
3.652890258
 30
0.0
 10
5.0464639706
 20
3.6487906001
 30
0.0
 10
5.0464170665
 20
3.6459849338
 30
0.0
 10
5.0464170665
 20
3.6445599315
 30
0.0
  0
SPLINE
  5
2DD
100
AcDbEntity
  8
0
100
AcDbSpline
 62
7
  6
CONTINUOUS
 70
0
 71
3
 72
17
 73
13
 74
0
 42
0.0000001
 43
0.0000001
 44
0.0000000001
 40
0.0
 40
0.0
 40
0.0
 40
0.0
 40
0.0356566654
 40
0.0750874919
 40
0.1654547341
 40
0.2713891638
 40
0.3927852899
 40
0.4590603652
 40
0.528828718
 40
0.6776842531
 40
0.8362084068
 40
1.0
 40
1.0
 40
1.0
 40
1.0
 10
5.0819624005
 20
3.6705713329
 30
0.0
 10
5.0819021551
 20
3.6702670577
 30
0.0
 10
5.0817839537
 20
3.6696245696
 30
0.0
 10
5.0815543721
 20
3.6682036001
 30
0.0
 10
5.0812859788
 20
3.6661701391
 30
0.0
 10
5.0810025726
 20
3.6634207464
 30
0.0
 10
5.0808006579
 20
3.6608744017
 30
0.0
 10
5.0806567023
 20
3.6586395085
 30
0.0
 10
5.0805213236
 20
3.6561647996
 30
0.0
 10
5.0803877967
 20
3.6528864711
 30
0.0
 10
5.080289669
 20
3.6487886979
 30
0.0
 10
5.0802675222
 20
3.645984776
 30
0.0
 10
5.0802675222
 20
3.6445599315
 30
0.0
  0
SPLINE
  5
2DE
100
AcDbEntity
  8
0
100
AcDbSpline
 62
7
  6
CONTINUOUS
 70
0
 71
3
 72
17
 73
13
 74
0
 42
0.0000001
 43
0.0000001
 44
0.0000000001
 40
0.0
 40
0.0
 40
0.0
 40
0.0
 40
0.0356566666
 40
0.0750874946
 40
0.1654547349
 40
0.271389175
 40
0.3927853057
 40
0.4590603818
 40
0.5288287404
 40
0.6776842654
 40
0.8362084058
 40
1.0
 40
1.0
 40
1.0
 40
1.0
 10
5.7677807501
 20
2.7485485302
 30
0.0
 10
5.7678409955
 20
2.7488528053
 30
0.0
 10
5.767959197
 20
2.7494952934
 30
0.0
 10
5.7681887786
 20
2.750916263
 30
0.0
 10
5.7684571719
 20
2.752949724
 30
0.0
 10
5.7687405781
 20
2.7556991168
 30
0.0
 10
5.7689424928
 20
2.7582454617
 30
0.0
 10
5.7690864485
 20
2.760480355
 30
0.0
 10
5.7692218271
 20
2.7629550638
 30
0.0
 10
5.769355354
 20
2.7662333922
 30
0.0
 10
5.7694534817
 20
2.7703311652
 30
0.0
 10
5.7694756285
 20
2.773135087
 30
0.0
 10
5.7694756285
 20
2.7745599315
 30
0.0
  0
SPLINE
  5
2DF
100
AcDbEntity
  8
0
100
AcDbSpline
 62
7
  6
CONTINUOUS
 70
0
 71
3
 72
18
 73
14
 74
0
 42
0.0000001
 43
0.0000001
 44
0.0000000001
 40
0.0
 40
0.0
 40
0.0
 40
0.0
 40
0.0372338944
 40
0.07793116
 40
0.1221706064
 40
0.1700182382
 40
0.2215290815
 40
0.2767340311
 40
0.3981087317
 40
0.5334618297
 40
0.6810935536
 40
0.8380130584
 40
1.0
 40
1.0
 40
1.0
 40
1.0
 10
5.7997405255
 20
2.7485485302
 30
0.0
 10
5.7998670713
 20
2.748850645
 30
0.0
 10
5.8001159961
 20
2.749489718
 30
0.0
 10
5.8004639784
 20
2.750506825
 30
0.0
 10
5.8008013263
 20
2.7516254081
 30
0.0
 10
5.8011264018
 20
2.7528463039
 30
0.0
 10
5.801437501
 20
2.7541701194
 30
0.0
 10
5.8018441436
 20
2.756135203
 30
0.0
 10
5.8022985185
 20
2.7588424884
 30
0.0
 10
5.802738895
 20
2.7623731766
 30
0.0
 10
5.8030714114
 20
2.7662296053
 30
0.0
 10
5.8032791801
 20
2.770329263
 30
0.0
 10
5.8033260842
 20
2.7731349292
 30
0.0
 10
5.8033260842
 20
2.7745599315
 30
0.0
  0
SPLINE
  5
2E0
100
AcDbEntity
  8
0
100
AcDbSpline
 62
7
  6
CONTINUOUS
 70
0
 71
3
 72
18
 73
14
 74
0
 42
0.0000001
 43
0.0000001
 44
0.0000000001
 40
0.0
 40
0.0
 40
0.0
 40
0.0
 40
0.0396171768
 40
0.0822584415
 40
0.1280327549
 40
0.1770337809
 40
0.2293420433
 40
0.2850122688
 40
0.4064007934
 40
0.5407096091
 40
0.6864410727
 40
0.8408480108
 40
1.0
 40
1.0
 40
1.0
 40
1.0
 10
5.8280901078
 20
2.7485485302
 30
0.0
 10
5.8282804434
 20
2.7488479399
 30
0.0
 10
5.8286558824
 20
2.7494823253
 30
0.0
 10
5.8291848377
 20
2.7505001504
 30
0.0
 10
5.8296974964
 20
2.7516194198
 30
0.0
 10
5.8301913929
 20
2.7528409454
 30
0.0
 10
5.8306639711
 20
2.7541653488
 30
0.0
 10
5.8312798038
 20
2.7561253707
 30
0.0
 10
5.8319695382
 20
2.7588295378
 30
0.0
 10
5.8326391774
 20
2.7623636094
 30
0.0
 10
5.8331446985
 20
2.7662233088
 30
0.0
 10
5.833460507
 20
2.7703260725
 30
0.0
 10
5.8335318161
 20
2.7731346644
 30
0.0
 10
5.8335318161
 20
2.7745599315
 30
0.0
  0
SPLINE
  5
2E1
100
AcDbEntity
  8
0
100
AcDbSpline
 62
7
  6
CONTINUOUS
 70
0
 71
3
 72
15
 73
11
 74
0
 42
0.0000001
 43
0.0000001
 44
0.0000000001
 40
0.0
 40
0.0
 40
0.0
 40
0.0
 40
0.0874131284
 40
0.1854974834
 40
0.2950905855
 40
0.4165848969
 40
0.5496655538
 40
0.6930757199
 40
0.8443735268
 40
1.0
 40
1.0
 40
1.0
 40
1.0
 10
5.8525564753
 20
2.7485485302
 30
0.0
 10
5.8530738104
 20
2.7491597362
 30
0.0
 10
5.8540805341
 20
2.7505352125
 30
0.0
 10
5.8554187322
 20
2.752889359
 30
0.0
 10
5.8566412652
 20
2.7556508131
 30
0.0
 10
5.8577170136
 20
2.758812727
 30
0.0
 10
5.8586108071
 20
2.7623509915
 30
0.0
 10
5.8592853951
 20
2.766214802
 30
0.0
 10
5.8597067561
 20
2.7703217273
 30
0.0
 10
5.8598019266
 20
2.7731343029
 30
0.0
 10
5.8598019266
 20
2.7745599315
 30
0.0
  0
SPLINE
  5
2E2
100
AcDbEntity
  8
0
100
AcDbSpline
 62
7
  6
CONTINUOUS
 70
0
 71
3
 72
16
 73
12
 74
0
 42
0.0000001
 43
0.0000001
 44
0.0000000001
 40
0.0
 40
0.0
 40
0.0
 40
0.0
 40
0.0929073199
 40
0.1946388032
 40
0.2491238665
 40
0.3061328099
 40
0.4278184719
 40
0.5595968774
 40
0.7004606892
 40
0.8483065721
 40
1.0
 40
1.0
 40
1.0
 40
1.0
 10
5.8729040035
 20
2.7485485302
 30
0.0
 10
5.87353619
 20
2.7491511983
 30
0.0
 10
5.8747719614
 20
2.7505088473
 30
0.0
 10
5.8761263455
 20
2.7524261018
 30
0.0
 10
5.8771447059
 20
2.7541536393
 30
0.0
 10
5.8781549976
 20
2.7561001586
 30
0.0
 10
5.8792927795
 20
2.7587938193
 30
0.0
 10
5.8804034115
 20
2.7623360033
 30
0.0
 10
5.8812416246
 20
2.766204534
 30
0.0
 10
5.8817651298
 20
2.7703163906
 30
0.0
 10
5.88188342
 20
2.7731338585
 30
0.0
 10
5.88188342
 20
2.7745599315
 30
0.0
  0
SPLINE
  5
2E3
100
AcDbEntity
  8
0
100
AcDbSpline
 62
7
  6
CONTINUOUS
 70
0
 71
3
 72
15
 73
11
 74
0
 42
0.0000001
 43
0.0000001
 44
0.0000000001
 40
0.0
 40
0.0
 40
0.0
 40
0.0
 40
0.0983290147
 40
0.2037737094
 40
0.3172059389
 40
0.4391892351
 40
0.5697200062
 40
0.708025181
 40
0.8523469355
 40
1.0
 40
1.0
 40
1.0
 40
1.0
 10
5.8889367344
 20
2.7485485302
 30
0.0
 10
5.8896765863
 20
2.749144493
 30
0.0
 10
5.8911262247
 20
2.7504863834
 30
0.0
 10
5.8930994616
 20
2.7528408966
 30
0.0
 10
5.8949025239
 20
2.7556058077
 30
0.0
 10
5.8964890685
 20
2.7587736002
 30
0.0
 10
5.8978071345
 20
2.7623196681
 30
0.0
 10
5.8988018716
 20
2.7661929389
 30
0.0
 10
5.8994231819
 20
2.7703102889
 30
0.0
 10
5.8995636394
 20
2.7731333485
 30
0.0
 10
5.8995636394
 20
2.7745599315
 30
0.0
  0
SPLINE
  5
2E4
100
AcDbEntity
  8
0
100
AcDbSpline
 62
7
  6
CONTINUOUS
 70
0
 71
3
 72
15
 73
11
 74
0
 42
0.0000001
 43
0.0000001
 44
0.0000000001
 40
0.0
 40
0.0
 40
0.0
 40
0.0
 40
0.1034124982
 40
0.2124289161
 40
0.3278335679
 40
0.4501852125
 40
0.5795699479
 40
0.7154189826
 40
0.8563070977
 40
1.0
 40
1.0
 40
1.0
 40
1.0
 10
5.9005002641
 20
2.7485485302
 30
0.0
 10
5.9013403906
 20
2.7491393595
 30
0.0
 10
5.902988024
 20
2.7504679341
 30
0.0
 10
5.9052508534
 20
2.7528202722
 30
0.0
 10
5.9073196889
 20
2.755584639
 30
0.0
 10
5.9091409215
 20
2.7587536576
 30
0.0
 10
5.9106544839
 20
2.7623026935
 30
0.0
 10
5.9117970657
 20
2.7661805718
 30
0.0
 10
5.9125108516
 20
2.770303651
 30
0.0
 10
5.9126723149
 20
2.7731327925
 30
0.0
 10
5.9126723149
 20
2.7745599315
 30
0.0
  0
SPLINE
  5
2E5
100
AcDbEntity
  8
0
100
AcDbSpline
 62
7
  6
CONTINUOUS
 70
0
 71
3
 72
15
 73
11
 74
0
 42
0.0000001
 43
0.0000001
 44
0.0000000001
 40
0.0
 40
0.0
 40
0.0
 40
0.0
 40
0.1080171775
 40
0.2203393623
 40
0.3376283979
 40
0.4603950771
 40
0.5887721899
 40
0.7223585513
 40
0.8600346285
 40
1.0
 40
1.0
 40
1.0
 40
1.0
 10
5.9074832296
 20
2.7485485302
 30
0.0
 10
5.9084157221
 20
2.749135463
 30
0.0
 10
5.9102448031
 20
2.750453193
 30
0.0
 10
5.912774494
 20
2.7528027287
 30
0.0
 10
5.9150886865
 20
2.7555655471
 30
0.0
 10
5.9171271072
 20
2.7587347237
 30
0.0
 10
5.9188220625
 20
2.7622858853
 30
0.0
 10
5.9201021561
 20
2.7661679403
 30
0.0
 10
5.9209021155
 20
2.7702967402
 30
0.0
 10
5.9210832025
 20
2.7731322119
 30
0.0
 10
5.9210832025
 20
2.7745599315
 30
0.0
  0
SPLINE
  5
2E6
100
AcDbEntity
  8
0
100
AcDbSpline
 62
7
  6
CONTINUOUS
 70
0
 71
3
 72
15
 73
11
 74
0
 42
0.0000001
 43
0.0000001
 44
0.0000000001
 40
0.0
 40
0.0
 40
0.0
 40
0.0
 40
0.1120729818
 40
0.2273584295
 40
0.3463822913
 40
0.4695806928
 40
0.5970985677
 40
0.7286652423
 40
0.8634316312
 40
1.0
 40
1.0
 40
1.0
 40
1.0
 10
5.909818381
 20
2.7485485302
 30
0.0
 10
5.9108346612
 20
2.7491325103
 30
0.0
 10
5.9128276831
 20
2.7504415812
 30
0.0
 10
5.9155990751
 20
2.7527881843
 30
0.0
 10
5.9181357212
 20
2.7555488956
 30
0.0
 10
5.9203714457
 20
2.7587174163
 30
0.0
 10
5.9222316233
 20
2.7622698892
 30
0.0
 10
5.9236373268
 20
2.7661555431
 30
0.0
 10
5.9245161925
 20
2.770289824
 30
0.0
 10
5.9247153009
 20
2.7731316291
 30
0.0
 10
5.9247153009
 20
2.7745599315
 30
0.0
  0
SPLINE
  5
2E7
100
AcDbEntity
  8
0
100
AcDbSpline
 62
7
  6
CONTINUOUS
 70
0
 71
3
 72
15
 73
11
 74
0
 42
0.0000001
 43
0.0000001
 44
0.0000000001
 40
0.0
 40
0.0
 40
0.0
 40
0.0
 40
0.1365683308
 40
0.2713346955
 40
0.4029013729
 40
0.5304192708
 40
0.6536176871
 40
0.7726415617
 40
0.8879270119
 40
1.0
 40
1.0
 40
1.0
 40
1.0
 10
4.9250278498
 20
2.7745599328
 30
0.0
 10
4.9250278498
 20
2.7731316307
 30
0.0
 10
4.9252269579
 20
2.7702898261
 30
0.0
 10
4.9261058232
 20
2.7661555456
 30
0.0
 10
4.9275115264
 20
2.7622698914
 30
0.0
 10
4.929371704
 20
2.7587174178
 30
0.0
 10
4.9316074288
 20
2.7555488965
 30
0.0
 10
4.934144075
 20
2.7527881847
 30
0.0
 10
4.9369154674
 20
2.7504415814
 30
0.0
 10
4.9389084894
 20
2.7491325104
 30
0.0
 10
4.9399247697
 20
2.7485485302
 30
0.0
  0
SPLINE
  5
2E8
100
AcDbEntity
  8
0
100
AcDbSpline
 62
7
  6
CONTINUOUS
 70
0
 71
3
 72
15
 73
11
 74
0
 42
0.0000001
 43
0.0000001
 44
0.0000000001
 40
0.0
 40
0.0
 40
0.0
 40
0.0
 40
0.1399653329
 40
0.2776413853
 40
0.4112277497
 40
0.5396048861
 40
0.6623715799
 40
0.7796606286
 40
0.8919828161
 40
1.0
 40
1.0
 40
1.0
 40
1.0
 10
4.9286599482
 20
2.7745599315
 30
0.0
 10
4.9286599482
 20
2.7731322123
 30
0.0
 10
4.9288410351
 20
2.7702967413
 30
0.0
 10
4.9296409941
 20
2.7661679419
 30
0.0
 10
4.9309210876
 20
2.7622858868
 30
0.0
 10
4.9326160428
 20
2.7587347247
 30
0.0
 10
4.9346544638
 20
2.7555655477
 30
0.0
 10
4.9369686564
 20
2.7528027289
 30
0.0
 10
4.9394983474
 20
2.7504531931
 30
0.0
 10
4.9413274286
 20
2.749135463
 30
0.0
 10
4.9422599211
 20
2.7485485302
 30
0.0
  0
SPLINE
  5
2E9
100
AcDbEntity
  8
0
100
AcDbSpline
 62
7
  6
CONTINUOUS
 70
0
 71
3
 72
15
 73
11
 74
0
 42
0.0000001
 43
0.0000001
 44
0.0000000001
 40
0.0
 40
0.0
 40
0.0
 40
0.0
 40
0.1436928627
 40
0.2845809527
 40
0.4204299909
 40
0.5498147506
 40
0.6721664101
 40
0.7875710751
 40
0.8965874956
 40
1.0
 40
1.0
 40
1.0
 40
1.0
 10
4.9370708358
 20
2.7745599315
 30
0.0
 10
4.9370708358
 20
2.7731327929
 30
0.0
 10
4.937232299
 20
2.770303652
 30
0.0
 10
4.9379460846
 20
2.7661805734
 30
0.0
 10
4.9390886663
 20
2.7623026951
 30
0.0
 10
4.9406022286
 20
2.7587536586
 30
0.0
 10
4.9424234615
 20
2.7555846396
 30
0.0
 10
4.944492297
 20
2.7528202724
 30
0.0
 10
4.9467551266
 20
2.7504679342
 30
0.0
 10
4.94840276
 20
2.7491393595
 30
0.0
 10
4.9492428866
 20
2.7485485302
 30
0.0
  0
SPLINE
  5
2EA
100
AcDbEntity
  8
0
100
AcDbSpline
 62
7
  6
CONTINUOUS
 70
0
 71
3
 72
15
 73
11
 74
0
 42
0.0000001
 43
0.0000001
 44
0.0000000001
 40
0.0
 40
0.0
 40
0.0
 40
0.0
 40
0.1476530551
 40
0.2919748021
 40
0.4302799768
 40
0.5608107553
 40
0.6827940561
 40
0.7962262879
 40
0.9016709839
 40
1.0
 40
1.0
 40
1.0
 40
1.0
 10
4.9501795112
 20
2.7745599315
 30
0.0
 10
4.9501795112
 20
2.7731333486
 30
0.0
 10
4.9503199688
 20
2.7703102891
 30
0.0
 10
4.950941279
 20
2.7661929393
 30
0.0
 10
4.951936016
 20
2.7623196685
 30
0.0
 10
4.953254082
 20
2.7587736004
 30
0.0
 10
4.9548406267
 20
2.7556058078
 30
0.0
 10
4.9566436891
 20
2.7528408966
 30
0.0
 10
4.958616926
 20
2.7504863835
 30
0.0
 10
4.9600665643
 20
2.749144493
 30
0.0
 10
4.9608064163
 20
2.7485485302
 30
0.0
  0
SPLINE
  5
2EB
100
AcDbEntity
  8
0
100
AcDbSpline
 62
7
  6
CONTINUOUS
 70
0
 71
3
 72
16
 73
12
 74
0
 42
0.0000001
 43
0.0000001
 44
0.0000000001
 40
0.0
 40
0.0
 40
0.0
 40
0.0
 40
0.1516933861
 40
0.2995392431
 40
0.4404030594
 40
0.572181491
 40
0.6938671684
 40
0.7508761222
 40
0.8053611886
 40
0.9070926743
 40
1.0
 40
1.0
 40
1.0
 40
1.0
 10
4.9678597307
 20
2.7745599315
 30
0.0
 10
4.9678597307
 20
2.7731338589
 30
0.0
 10
4.9679780209
 20
2.7703163917
 30
0.0
 10
4.9685015258
 20
2.7662045356
 30
0.0
 10
4.9693397388
 20
2.7623360049
 30
0.0
 10
4.9704503707
 20
2.7587938204
 30
0.0
 10
4.9715881528
 20
2.7561001592
 30
0.0
 10
4.9725984446
 20
2.7541536396
 30
0.0
 10
4.973616805
 20
2.7524261019
 30
0.0
 10
4.9749711892
 20
2.7505088474
 30
0.0
 10
4.9762069606
 20
2.7491511984
 30
0.0
 10
4.9768391472
 20
2.7485485302
 30
0.0
  0
SPLINE
  5
2EC
100
AcDbEntity
  8
0
100
AcDbSpline
 62
7
  6
CONTINUOUS
 70
0
 71
3
 72
15
 73
11
 74
0
 42
0.0000001
 43
0.0000001
 44
0.0000000001
 40
0.0
 40
0.0
 40
0.0
 40
0.0
 40
0.1556264302
 40
0.306924211
 40
0.4503343819
 40
0.5834150659
 40
0.7049093929
 40
0.8145025087
 40
0.9125868661
 40
1.0
 40
1.0
 40
1.0
 40
1.0
 10
4.9899412241
 20
2.7745599315
 30
0.0
 10
4.9899412241
 20
2.7731343033
 30
0.0
 10
4.9900363946
 20
2.7703217283
 30
0.0
 10
4.9904577554
 20
2.7662148036
 30
0.0
 10
4.9911323433
 20
2.762350993
 30
0.0
 10
4.9920261367
 20
2.7588127281
 30
0.0
 10
4.9931018853
 20
2.7556508137
 30
0.0
 10
4.9943244183
 20
2.7528893593
 30
0.0
 10
4.9956626166
 20
2.7505352126
 30
0.0
 10
4.9966693402
 20
2.7491597362
 30
0.0
 10
4.9971866753
 20
2.7485485302
 30
0.0
  0
SPLINE
  5
2ED
100
AcDbEntity
  8
0
100
AcDbSpline
 62
7
  6
CONTINUOUS
 70
0
 71
3
 72
18
 73
14
 74
0
 42
0.0000001
 43
0.0000001
 44
0.0000000001
 40
0.0
 40
0.0
 40
0.0
 40
0.0
 40
0.1591519453
 40
0.3135588568
 40
0.4592903257
 40
0.5935991692
 40
0.7149877097
 40
0.7706579458
 40
0.8229662115
 40
0.8719672381
 40
0.9177415531
 40
0.9603828213
 40
1.0
 40
1.0
 40
1.0
 40
1.0
 10
5.0162113345
 20
2.7745599315
 30
0.0
 10
5.0162113345
 20
2.7731346648
 30
0.0
 10
5.0162826437
 20
2.7703260735
 30
0.0
 10
5.016598452
 20
2.7662233104
 30
0.0
 10
5.0171039731
 20
2.762363611
 30
0.0
 10
5.0177736122
 20
2.7588295389
 30
0.0
 10
5.0184633467
 20
2.7561253713
 30
0.0
 10
5.0190791795
 20
2.7541653491
 30
0.0
 10
5.0195517577
 20
2.7528409456
 30
0.0
 10
5.0200456542
 20
2.75161942
 30
0.0
 10
5.020558313
 20
2.7505001505
 30
0.0
 10
5.0210872683
 20
2.7494823254
 30
0.0
 10
5.0214627072
 20
2.7488479399
 30
0.0
 10
5.0216530428
 20
2.7485485302
 30
0.0
  0
SPLINE
  5
2EE
100
AcDbEntity
  8
0
100
AcDbSpline
 62
7
  6
CONTINUOUS
 70
0
 71
3
 72
18
 73
14
 74
0
 42
0.0000001
 43
0.0000001
 44
0.0000000001
 40
0.0
 40
0.0
 40
0.0
 40
0.0
 40
0.1619868969
 40
0.3189063749
 40
0.4665381042
 40
0.6018912308
 40
0.7232659474
 40
0.7784709077
 40
0.8299817544
 40
0.8778293868
 40
0.9220688348
 40
0.9627661037
 40
1.0
 40
1.0
 40
1.0
 40
1.0
 10
5.0464170665
 20
2.7745599315
 30
0.0
 10
5.0464170665
 20
2.7731349296
 30
0.0
 10
5.0464639706
 20
2.770329264
 30
0.0
 10
5.0466717392
 20
2.7662296069
 30
0.0
 10
5.0470042555
 20
2.7623731782
 30
0.0
 10
5.047444632
 20
2.7588424895
 30
0.0
 10
5.0478990069
 20
2.7561352036
 30
0.0
 10
5.0483056497
 20
2.7541701198
 30
0.0
 10
5.0486167489
 20
2.7528463041
 30
0.0
 10
5.0489418243
 20
2.7516254082
 30
0.0
 10
5.0492791723
 20
2.7505068251
 30
0.0
 10
5.0496271546
 20
2.749489718
 30
0.0
 10
5.0498760794
 20
2.748850645
 30
0.0
 10
5.0500026252
 20
2.7485485302
 30
0.0
  0
SPLINE
  5
2EF
100
AcDbEntity
  8
0
100
AcDbSpline
 62
7
  6
CONTINUOUS
 70
0
 71
3
 72
17
 73
13
 74
0
 42
0.0000001
 43
0.0000001
 44
0.0000000001
 40
0.0
 40
0.0
 40
0.0
 40
0.0
 40
0.163791549
 40
0.3223156624
 40
0.4711711931
 40
0.5409395711
 40
0.6072146567
 40
0.7286108035
 40
0.8345452578
 40
0.9249125003
 40
0.9643433316
 40
1.0
 40
1.0
 40
1.0
 40
1.0
 10
5.0802675222
 20
2.7745599315
 30
0.0
 10
5.0802675222
 20
2.7731350874
 30
0.0
 10
5.080289669
 20
2.7703311663
 30
0.0
 10
5.0803877967
 20
2.7662333938
 30
0.0
 10
5.0805213235
 20
2.7629550655
 30
0.0
 10
5.0806567021
 20
2.7604803563
 30
0.0
 10
5.0808006578
 20
2.7582454626
 30
0.0
 10
5.0810025725
 20
2.7556991174
 30
0.0
 10
5.0812859787
 20
2.7529497243
 30
0.0
 10
5.081554372
 20
2.7509162631
 30
0.0
 10
5.0817839537
 20
2.7494952935
 30
0.0
 10
5.0819021551
 20
2.7488528053
 30
0.0
 10
5.0819624005
 20
2.7485485302
 30
0.0
  0
SPLINE
  5
2F0
100
AcDbEntity
  8
0
100
AcDbSpline
 62
7
  6
CONTINUOUS
 70
0
 71
3
 72
17
 73
13
 74
0
 42
0.0000001
 43
0.0000001
 44
0.0000000001
 40
0.0
 40
0.0
 40
0.0
 40
0.0
 40
0.1637915706
 40
0.3223156813
 40
0.4711711985
 40
0.5409395751
 40
0.6072146591
 40
0.7286108042
 40
0.8345452596
 40
0.9249125003
 40
0.9643433315
 40
1.0
 40
1.0
 40
1.0
 40
1.0
 10
5.7694756285
 20
3.6445599315
 30
0.0
 10
5.7694756285
 20
3.6459847758
 30
0.0
 10
5.7694534817
 20
3.6487886971
 30
0.0
 10
5.769355354
 20
3.6528864696
 30
0.0
 10
5.7692218272
 20
3.6561647978
 30
0.0
 10
5.7690864485
 20
3.6586395068
 30
0.0
 10
5.7689424929
 20
3.6608744005
 30
0.0
 10
5.7687405782
 20
3.6634207457
 30
0.0
 10
5.768457172
 20
3.6661701387
 30
0.0
 10
5.7681887786
 20
3.6682035999
 30
0.0
 10
5.767959197
 20
3.6696245695
 30
0.0
 10
5.7678409956
 20
3.6702670577
 30
0.0
 10
5.7677807501
 20
3.6705713329
 30
0.0
  0
SPLINE
  5
2F1
100
AcDbEntity
  8
0
100
AcDbSpline
 62
7
  6
CONTINUOUS
 70
0
 71
3
 72
18
 73
14
 74
0
 42
0.0000001
 43
0.0000001
 44
0.0000000001
 40
0.0
 40
0.0
 40
0.0
 40
0.0
 40
0.1619869183
 40
0.3189063936
 40
0.4665381097
 40
0.6018912332
 40
0.7232659481
 40
0.7784709093
 40
0.8299817562
 40
0.8778293876
 40
0.9220688348
 40
0.9627661037
 40
1.0
 40
1.0
 40
1.0
 40
1.0
 10
5.8033260842
 20
3.6445599315
 30
0.0
 10
5.8033260842
 20
3.6459849336
 30
0.0
 10
5.8032791801
 20
3.6487905993
 30
0.0
 10
5.8030714115
 20
3.6528902565
 30
0.0
 10
5.8027388951
 20
3.6567466851
 30
0.0
 10
5.8022985187
 20
3.6602773736
 30
0.0
 10
5.8018441437
 20
3.6629846594
 30
0.0
 10
5.801437501
 20
3.6649497433
 30
0.0
 10
5.8011264018
 20
3.6662735589
 30
0.0
 10
5.8008013264
 20
3.6674944548
 30
0.0
 10
5.8004639784
 20
3.6686130379
 30
0.0
 10
5.8001159961
 20
3.669630145
 30
0.0
 10
5.7998670713
 20
3.670269218
 30
0.0
 10
5.7997405255
 20
3.6705713329
 30
0.0
  0
SPLINE
  5
2F2
100
AcDbEntity
  8
0
100
AcDbSpline
 62
7
  6
CONTINUOUS
 70
0
 71
3
 72
18
 73
14
 74
0
 42
0.0000001
 43
0.0000001
 44
0.0000000001
 40
0.0
 40
0.0
 40
0.0
 40
0.0
 40
0.1591519663
 40
0.3135588753
 40
0.4592903311
 40
0.5935991716
 40
0.7149877104
 40
0.7706579474
 40
0.8229662132
 40
0.8719672388
 40
0.9177415531
 40
0.9603828212
 40
1.0
 40
1.0
 40
1.0
 40
1.0
 10
5.8335318161
 20
3.6445599315
 30
0.0
 10
5.8335318161
 20
3.6459851984
 30
0.0
 10
5.833460507
 20
3.6487937898
 30
0.0
 10
5.8331446986
 20
3.652896553
 30
0.0
 10
5.8326391775
 20
3.6567562523
 30
0.0
 10
5.8319695385
 20
3.6602903242
 30
0.0
 10
5.831279804
 20
3.6629944917
 30
0.0
 10
5.8306639712
 20
3.664954514
 30
0.0
 10
5.830191393
 20
3.6662789175
 30
0.0
 10
5.8296974964
 20
3.6675004431
 30
0.0
 10
5.8291848377
 20
3.6686197125
 30
0.0
 10
5.8286558824
 20
3.6696375377
 30
0.0
 10
5.8282804435
 20
3.6702719231
 30
0.0
 10
5.8280901078
 20
3.6705713329
 30
0.0
  0
SPLINE
  5
2F3
100
AcDbEntity
  8
0
100
AcDbSpline
 62
7
  6
CONTINUOUS
 70
0
 71
3
 72
15
 73
11
 74
0
 42
0.0000001
 43
0.0000001
 44
0.0000000001
 40
0.0
 40
0.0
 40
0.0
 40
0.0
 40
0.1556264508
 40
0.3069242291
 40
0.4503343872
 40
0.5834150683
 40
0.7049093936
 40
0.8145025105
 40
0.9125868661
 40
1.0
 40
1.0
 40
1.0
 40
1.0
 10
5.8598019266
 20
3.6445599315
 30
0.0
 10
5.8598019266
 20
3.6459855599
 30
0.0
 10
5.8597067561
 20
3.6487981351
 30
0.0
 10
5.8592853953
 20
3.6529050599
 30
0.0
 10
5.8586108073
 20
3.6567688702
 30
0.0
 10
5.857717014
 20
3.660307135
 30
0.0
 10
5.8566412654
 20
3.6634690494
 30
0.0
 10
5.8554187324
 20
3.6662305037
 30
0.0
 10
5.8540805341
 20
3.6685846504
 30
0.0
 10
5.8530738105
 20
3.6699601268
 30
0.0
 10
5.8525564753
 20
3.6705713329
 30
0.0
  0
SPLINE
  5
2F4
100
AcDbEntity
  8
0
100
AcDbSpline
 62
7
  6
CONTINUOUS
 70
0
 71
3
 72
16
 73
12
 74
0
 42
0.0000001
 43
0.0000001
 44
0.0000000001
 40
0.0
 40
0.0
 40
0.0
 40
0.0
 40
0.1516934061
 40
0.2995392608
 40
0.4404030647
 40
0.5721814934
 40
0.6938671691
 40
0.7508761239
 40
0.8053611904
 40
0.9070926743
 40
1.0
 40
1.0
 40
1.0
 40
1.0
 10
5.88188342
 20
3.6445599315
 30
0.0
 10
5.88188342
 20
3.6459860043
 30
0.0
 10
5.8817651298
 20
3.6488034717
 30
0.0
 10
5.8812416248
 20
3.6529153278
 30
0.0
 10
5.8804034118
 20
3.6567838584
 30
0.0
 10
5.87929278
 20
3.6603260427
 30
0.0
 10
5.8781549978
 20
3.6630197038
 30
0.0
 10
5.877144706
 20
3.6649662234
 30
0.0
 10
5.8761263457
 20
3.6666937611
 30
0.0
 10
5.8747719615
 20
3.6686110156
 30
0.0
 10
5.87353619
 20
3.6699686647
 30
0.0
 10
5.8729040035
 20
3.6705713329
 30
0.0
  0
SPLINE
  5
2F5
100
AcDbEntity
  8
0
100
AcDbSpline
 62
7
  6
CONTINUOUS
 70
0
 71
3
 72
15
 73
11
 74
0
 42
0.0000001
 43
0.0000001
 44
0.0000000001
 40
0.0
 40
0.0
 40
0.0
 40
0.0
 40
0.1476530669
 40
0.2919748222
 40
0.4302799963
 40
0.5608107666
 40
0.6827940621
 40
0.796226291
 40
0.9016709856
 40
1.0
 40
1.0
 40
1.0
 40
1.0
 10
5.8995636394
 20
3.6445599315
 30
0.0
 10
5.8995636394
 20
3.6459865145
 30
0.0
 10
5.8994231819
 20
3.6488095742
 30
0.0
 10
5.8988018716
 20
3.6529269242
 30
0.0
 10
5.8978071345
 20
3.656800195
 30
0.0
 10
5.8964890685
 20
3.6603462629
 30
0.0
 10
5.8949025239
 20
3.6635140554
 30
0.0
 10
5.8930994615
 20
3.6662789664
 30
0.0
 10
5.8911262247
 20
3.6686334796
 30
0.0
 10
5.8896765863
 20
3.6699753701
 30
0.0
 10
5.8889367344
 20
3.6705713329
 30
0.0
  0
SPLINE
  5
2F6
100
AcDbEntity
  8
0
100
AcDbSpline
 62
7
  6
CONTINUOUS
 70
0
 71
3
 72
15
 73
11
 74
0
 42
0.0000001
 43
0.0000001
 44
0.0000000001
 40
0.0
 40
0.0
 40
0.0
 40
0.0
 40
0.1436928816
 40
0.2845809695
 40
0.420429996
 40
0.5498147529
 40
0.672166411
 40
0.787571077
 40
0.8965874956
 40
1.0
 40
1.0
 40
1.0
 40
1.0
 10
5.9126723149
 20
3.6445599315
 30
0.0
 10
5.9126723149
 20
3.6459870703
 30
0.0
 10
5.9125108517
 20
3.6488162113
 30
0.0
 10
5.911797066
 20
3.65293929
 30
0.0
 10
5.9106544843
 20
3.6568171681
 30
0.0
 10
5.9091409221
 20
3.6603662045
 30
0.0
 10
5.9073196892
 20
3.6635352235
 30
0.0
 10
5.9052508537
 20
3.6662995906
 30
0.0
 10
5.9029880241
 20
3.6686519288
 30
0.0
 10
5.9013403907
 20
3.6699805035
 30
0.0
 10
5.9005002641
 20
3.6705713329
 30
0.0
  0
SPLINE
  5
2F7
100
AcDbEntity
  8
0
100
AcDbSpline
 62
7
  6
CONTINUOUS
 70
0
 71
3
 72
15
 73
11
 74
0
 42
0.0000001
 43
0.0000001
 44
0.0000000001
 40
0.0
 40
0.0
 40
0.0
 40
0.0
 40
0.1399653514
 40
0.2776414018
 40
0.4112277548
 40
0.5396048884
 40
0.6623715808
 40
0.7796606305
 40
0.8919828161
 40
1.0
 40
1.0
 40
1.0
 40
1.0
 10
5.9210832025
 20
3.6445599315
 30
0.0
 10
5.9210832025
 20
3.6459876509
 30
0.0
 10
5.9209021155
 20
3.6488231221
 30
0.0
 10
5.9201021565
 20
3.6529519215
 30
0.0
 10
5.918822063
 20
3.6568339764
 30
0.0
 10
5.9171271079
 20
3.6603851384
 30
0.0
 10
5.9150886869
 20
3.6635543154
 30
0.0
 10
5.9127744943
 20
3.6663171341
 30
0.0
 10
5.9102448032
 20
3.6686666699
 30
0.0
 10
5.9084157221
 20
3.6699844
 30
0.0
 10
5.9074832296
 20
3.6705713329
 30
0.0
  0
SPLINE
  5
2F8
100
AcDbEntity
  8
0
100
AcDbSpline
 62
7
  6
CONTINUOUS
 70
0
 71
3
 72
15
 73
11
 74
0
 42
0.0000001
 43
0.0000001
 44
0.0000000001
 40
0.0
 40
0.0
 40
0.0
 40
0.0
 40
0.1365683491
 40
0.2713347117
 40
0.4029013778
 40
0.5304192727
 40
0.6536176873
 40
0.7726415632
 40
0.8879270116
 40
1.0
 40
1.0
 40
1.0
 40
1.0
 10
5.9247153009
 20
3.6445599315
 30
0.0
 10
5.9247153009
 20
3.6459882337
 30
0.0
 10
5.9245161926
 20
3.6488300383
 30
0.0
 10
5.9236373271
 20
3.6529643187
 30
0.0
 10
5.9222316238
 20
3.6568499725
 30
0.0
 10
5.9203714464
 20
3.6604024458
 30
0.0
 10
5.9181357216
 20
3.6635709668
 30
0.0
 10
5.9155990755
 20
3.6663316785
 30
0.0
 10
5.9128276832
 20
3.6686782817
 30
0.0
 10
5.9108346613
 20
3.6699873526
 30
0.0
 10
5.909818381
 20
3.6705713329
 30
0.0
  0
SPLINE
  5
2F9
100
AcDbEntity
  8
0
100
AcDbSpline
 62
7
  6
CONTINUOUS
 70
0
 71
3
 72
15
 73
11
 74
0
 42
0.0000001
 43
0.0000001
 44
0.0000000001
 40
0.0
 40
0.0
 40
0.0
 40
0.0
 40
0.1335637407
 40
0.2657710466
 40
0.3955856464
 40
0.5223897875
 40
0.6460096857
 40
0.766578104
 40
0.8844442768
 40
1.0
 40
1.0
 40
1.0
 40
1.0
 10
4.9262095197
 20
3.6445599315
 30
0.0
 10
4.9262095197
 20
3.6459887965
 30
0.0
 10
4.9264248297
 20
3.6488366952
 30
0.0
 10
4.9273744083
 20
3.6529760248
 30
0.0
 10
4.9288923627
 20
3.6568646386
 30
0.0
 10
4.9308997509
 20
3.6604177358
 30
0.0
 10
4.93331085
 20
3.6635850804
 30
0.0
 10
4.9360449443
 20
3.6663434912
 30
0.0
 10
4.9390307768
 20
3.6686873339
 30
0.0
 10
4.941169141
 20
3.6699895882
 30
0.0
 10
4.9422599211
 20
3.6705713329
 30
0.0
  0
SPLINE
  5
2FA
100
AcDbEntity
  8
0
100
AcDbSpline
 62
7
  6
CONTINUOUS
 70
0
 71
3
 72
15
 73
11
 74
0
 42
0.0000001
 43
0.0000001
 44
0.0000000001
 40
0.0
 40
0.0
 40
0.0
 40
0.0
 40
0.1309881545
 40
0.2610130978
 40
0.3893519339
 40
0.515578344
 40
0.6395873404
 40
0.7614850365
 40
0.88153288
 40
1.0
 40
1.0
 40
1.0
 40
1.0
 10
4.9321935778
 20
3.6445599315
 30
0.0
 10
4.9321935778
 20
3.6459893175
 30
0.0
 10
4.9324230612
 20
3.6488428403
 30
0.0
 10
4.9334342978
 20
3.6529866381
 30
0.0
 10
4.9350498383
 20
3.6568775809
 30
0.0
 10
4.9371848373
 20
3.6604307907
 30
0.0
 10
4.9397476574
 20
3.6635967119
 30
0.0
 10
4.9426524124
 20
3.6663528916
 30
0.0
 10
4.9458235834
 20
3.6686943086
 30
0.0
 10
4.9480875773
 20
3.6699912733
 30
0.0
 10
4.9492428866
 20
3.6705713329
 30
0.0
  0
SPLINE
  5
2FB
100
AcDbEntity
  8
0
100
AcDbSpline
 62
7
  6
CONTINUOUS
 70
0
 71
3
 72
18
 73
14
 74
0
 42
0.0000001
 43
0.0000001
 44
0.0000000001
 40
0.0
 40
0.0
 40
0.0
 40
0.0
 40
0.128824257
 40
0.1930897326
 40
0.2571256775
 40
0.3208874604
 40
0.3843246583
 40
0.4474170936
 40
0.5101457459
 40
0.6344584023
 40
0.757420589
 40
0.8792131783
 40
1.0
 40
1.0
 40
1.0
 40
1.0
 10
4.9429223943
 20
3.6445599315
 30
0.0
 10
4.9429223943
 20
3.6459897768
 30
0.0
 10
4.943104123
 20
3.6481385436
 30
0.0
 10
4.9436978862
 20
3.6509321719
 30
0.0
 10
4.944310659
 20
3.6529766098
 30
0.0
 10
4.9450815886
 20
3.6549565362
 30
0.0
 10
4.946000162
 20
3.6568607187
 30
0.0
 10
4.9470543795
 20
3.6586799689
 30
0.0
 10
4.9486197912
 20
3.6609753159
 30
0.0
 10
4.9508555052
 20
3.6636062339
 30
0.0
 10
4.9539024566
 20
3.6663601182
 30
0.0
 10
4.9572283137
 20
3.6686996033
 30
0.0
 10
4.9595971646
 20
3.6699925274
 30
0.0
 10
4.9608064163
 20
3.6705713329
 30
0.0
  0
SPLINE
  5
2FC
100
AcDbEntity
  8
0
100
AcDbSpline
 62
7
  6
CONTINUOUS
 70
0
 71
3
 72
20
 73
16
 74
0
 42
0.0000001
 43
0.0000001
 44
0.0000000001
 40
0.0
 40
0.0
 40
0.0
 40
0.0
 40
0.0636331649
 40
0.1272503405
 40
0.1907569483
 40
0.2541299444
 40
0.317347834
 40
0.3803777965
 40
0.443210982
 40
0.5058344679
 40
0.5682561027
 40
0.6304722119
 40
0.7542725468
 40
0.8774220226
 40
1.0
 40
1.0
 40
1.0
 40
1.0
 10
4.9582926449
 20
3.6445599315
 30
0.0
 10
4.9582926449
 20
3.6452758095
 30
0.0
 10
4.9583554647
 20
3.6467081582
 30
0.0
 10
4.9586354359
 20
3.6488384236
 30
0.0
 10
4.959097269
 20
3.6509338894
 30
0.0
 10
4.9597329913
 20
3.6529784206
 30
0.0
 10
4.9605327516
 20
3.6549586207
 30
0.0
 10
4.9614856248
 20
3.6568628935
 30
0.0
 10
4.962579063
 20
3.6586821035
 30
0.0
 10
4.9638008425
 20
3.6604091299
 30
0.0
 10
4.965138342
 20
3.6620391039
 30
0.0
 10
4.9670564854
 20
3.6640744065
 30
0.0
 10
4.9696867833
 20
3.6663658235
 30
0.0
 10
4.9731349788
 20
3.6687033905
 30
0.0
 10
4.9755870663
 20
3.6699934344
 30
0.0
 10
4.9768391472
 20
3.6705713329
 30
0.0
  0
SPLINE
  5
2FD
100
AcDbEntity
  8
0
100
AcDbSpline
 62
7
  6
CONTINUOUS
 70
0
 71
3
 72
19
 73
15
 74
0
 42
0.0000001
 43
0.0000001
 44
0.0000000001
 40
0.0
 40
0.0
 40
0.0
 40
0.0
 40
0.0630239024
 40
0.1260570204
 40
0.1890291828
 40
0.2519380037
 40
0.3147786935
 40
0.3775309475
 40
0.4401937533
 40
0.5027581524
 40
0.6275363593
 40
0.7519687851
 40
0.8761175052
 40
1.0
 40
1.0
 40
1.0
 40
1.0
 10
4.9781563057
 20
3.6445599315
 30
0.0
 10
4.9781563057
 20
3.6452758456
 30
0.0
 10
4.9782207944
 20
3.6467085916
 30
0.0
 10
4.9785081803
 20
3.6488392431
 30
0.0
 10
4.9789822277
 20
3.6509350347
 30
0.0
 10
4.9796347305
 20
3.6529798019
 30
0.0
 10
4.9804555645
 20
3.6549601534
 30
0.0
 10
4.9814334715
 20
3.6568644723
 30
0.0
 10
4.9825556522
 20
3.6586837118
 30
0.0
 10
4.9842253253
 20
3.6609836826
 30
0.0
 10
4.986610508
 20
3.6636183256
 30
0.0
 10
4.989852607
 20
3.6663693373
 30
0.0
 10
4.9933905378
 20
3.6687061208
 30
0.0
 10
4.9959033017
 20
3.6699940522
 30
0.0
 10
4.9971866753
 20
3.6705713329
 30
0.0
  0
SPLINE
  5
2FE
100
AcDbEntity
  8
0
100
AcDbSpline
 62
7
  6
CONTINUOUS
 70
0
 71
3
 72
19
 73
15
 74
0
 42
0.0000001
 43
0.0000001
 44
0.0000000001
 40
0.0
 40
0.0
 40
0.0
 40
0.0
 40
0.0626452052
 40
0.1253153554
 40
0.1879554797
 40
0.2505760053
 40
0.3131824334
 40
0.3757620886
 40
0.4383186399
 40
0.5008453871
 40
0.6257521985
 40
0.7505688947
 40
0.8753251514
 40
1.0
 40
1.0
 40
1.0
 40
1.0
 10
5.0023220787
 20
3.6445599315
 30
0.0
 10
5.0023220787
 20
3.6452758685
 30
0.0
 10
5.0023876055
 20
3.6467088664
 30
0.0
 10
5.0026796016
 20
3.6488397616
 30
0.0
 10
5.0031612424
 20
3.650935757
 30
0.0
 10
5.0038241761
 20
3.6529806699
 30
0.0
 10
5.0046581039
 20
3.65496111
 30
0.0
 10
5.0056515744
 20
3.6568654596
 30
0.0
 10
5.0067915772
 20
3.6586846849
 30
0.0
 10
5.0084886413
 20
3.6609858335
 30
0.0
 10
5.0109130427
 20
3.6636213674
 30
0.0
 10
5.0142062484
 20
3.6663716115
 30
0.0
 10
5.0177997361
 20
3.6687077019
 30
0.0
 10
5.0203502243
 20
3.6699944183
 30
0.0
 10
5.0216530428
 20
3.6705713329
 30
0.0
  0
SPLINE
  5
2FF
100
AcDbEntity
  8
0
100
AcDbSpline
 62
7
  6
CONTINUOUS
 70
0
 71
3
 72
19
 73
15
 74
0
 42
0.0000001
 43
0.0000001
 44
0.0000000001
 40
0.0
 40
0.0
 40
0.0
 40
0.0
 40
0.0625016075
 40
0.125034161
 40
0.1875484818
 40
0.2500598694
 40
0.3125777235
 40
0.3750922424
 40
0.4376088392
 40
0.500121632
 40
0.6250776704
 40
0.7500400634
 40
0.8750260386
 40
1.0
 40
1.0
 40
1.0
 40
1.0
 10
5.0305572344
 20
3.6445599315
 30
0.0
 10
5.0305572344
 20
3.6452758773
 30
0.0
 10
5.0306231565
 20
3.646708972
 30
0.0
 10
5.0309169085
 20
3.6488399608
 30
0.0
 10
5.031401441
 20
3.6509360342
 30
0.0
 10
5.0320683465
 20
3.6529810022
 30
0.0
 10
5.0329072595
 20
3.6549614753
 30
0.0
 10
5.0339066551
 20
3.6568658355
 30
0.0
 10
5.0350534422
 20
3.6586850543
 30
0.0
 10
5.0367609385
 20
3.6609866473
 30
0.0
 10
5.0392002712
 20
3.6636225113
 30
0.0
 10
5.0425129249
 20
3.6663724622
 30
0.0
 10
5.0461275559
 20
3.6687082906
 30
0.0
 10
5.0486924037
 20
3.6699945542
 30
0.0
 10
5.0500026252
 20
3.6705713329
 30
0.0
  0
SPLINE
  5
300
100
AcDbEntity
  8
0
100
AcDbSpline
 62
7
  6
CONTINUOUS
 70
0
 71
3
 72
19
 73
15
 74
0
 42
0.0000001
 43
0.0000001
 44
0.0000000001
 40
0.0
 40
0.0
 40
0.0
 40
0.0
 40
0.0625929843
 40
0.1252130937
 40
0.1878074617
 40
0.2503882866
 40
0.3129624876
 40
0.3755184354
 40
0.4380604355
 40
0.5005820875
 40
0.6255067716
 40
0.7503764532
 40
0.875216291
 40
1.0
 40
1.0
 40
1.0
 40
1.0
 10
5.0625898527
 20
3.6445599315
 30
0.0
 10
5.0625898527
 20
3.6452758717
 30
0.0
 10
5.0626555231
 20
3.6467089047
 30
0.0
 10
5.0629481573
 20
3.6488398339
 30
0.0
 10
5.0634308489
 20
3.6509358576
 30
0.0
 10
5.0640952259
 20
3.6529807906
 30
0.0
 10
5.0649309653
 20
3.6549612427
 30
0.0
 10
5.065926589
 20
3.6568655962
 30
0.0
 10
5.0670690573
 20
3.6586848192
 30
0.0
 10
5.0687699122
 20
3.6609861296
 30
0.0
 10
5.0711997397
 20
3.663621784
 30
0.0
 10
5.0745000134
 20
3.6663719216
 30
0.0
 10
5.0781011851
 20
3.6687079166
 30
0.0
 10
5.0806568917
 20
3.6699944679
 30
0.0
 10
5.0819624005
 20
3.6705713329
 30
0.0
  0
SPLINE
  5
301
100
AcDbEntity
  8
0
100
AcDbSpline
 62
7
  6
CONTINUOUS
 70
0
 71
3
 72
19
 73
15
 74
0
 42
0.0000001
 43
0.0000001
 44
0.0000000001
 40
0.0
 40
0.0
 40
0.0
 40
0.0
 40
0.0629194199
 40
0.1258523813
 40
0.1887328958
 40
0.2515621075
 40
0.3143380672
 40
0.3770425826
 40
0.4396759443
 40
0.5022298317
 40
0.627043343
 40
0.7515817932
 40
0.8758983816
 40
1.0
 40
1.0
 40
1.0
 40
1.0
 10
5.098111442
 20
3.6445599315
 30
0.0
 10
5.098111442
 20
3.6452758519
 30
0.0
 10
5.0981762165
 20
3.6467086668
 30
0.0
 10
5.0984648714
 20
3.6488393851
 30
0.0
 10
5.0989410092
 20
3.6509352328
 30
0.0
 10
5.0995963837
 20
3.6529800402
 30
0.0
 10
5.1004208226
 20
3.6549604164
 30
0.0
 10
5.1014030148
 20
3.6568647441
 30
0.0
 10
5.1025301027
 20
3.6586839801
 30
0.0
 10
5.1042073157
 20
3.6609842767
 30
0.0
 10
5.1066032962
 20
3.6636191685
 30
0.0
 10
5.1098594697
 20
3.6663699692
 30
0.0
 10
5.1134126999
 20
3.6687065612
 30
0.0
 10
5.1159358514
 20
3.6699941543
 30
0.0
 10
5.1172245786
 20
3.6705713329
 30
0.0
  0
LINE
  5
302
100
AcDbEntity
  8
0
100
AcDbLine
 62
7
  6
CONTINUOUS
 10
5.1172245786
 20
3.6705713329
 11
5.1174367034
 21
3.6445599315
  0
SPLINE
  5
303
100
AcDbEntity
  8
0
100
AcDbSpline
 62
7
  6
CONTINUOUS
 70
0
 71
3
 72
20
 73
16
 74
0
 42
0.0000001
 43
0.0000001
 44
0.0000000001
 40
0.0
 40
0.0
 40
0.0
 40
0.0
 40
0.0634764147
 40
0.1269432412
 40
0.1903121074
 40
0.2535652308
 40
0.3166853841
 40
0.3796429601
 40
0.4424311386
 40
0.5050380451
 40
0.5674716493
 40
0.6297277218
 40
0.7536870956
 40
0.8770899822
 40
1.0
 40
1.0
 40
1.0
 40
1.0
 10
5.1367799101
 20
3.6445599315
 30
0.0
 10
5.1367799101
 20
3.6452758186
 30
0.0
 10
5.1368431544
 20
3.6467082675
 30
0.0
 10
5.137125012
 20
3.6488386304
 30
0.0
 10
5.1375899528
 20
3.6509341787
 30
0.0
 10
5.1382299452
 20
3.6529787705
 30
0.0
 10
5.1390350673
 20
3.654959009
 30
0.0
 10
5.1399943153
 20
3.6568632974
 30
0.0
 10
5.141095055
 20
3.6586825051
 30
0.0
 10
5.1423249784
 20
3.6604095137
 30
0.0
 10
5.1436713797
 20
3.6620394599
 30
0.0
 10
5.1456026876
 20
3.6640751502
 30
0.0
 10
5.1482510033
 20
3.6663668026
 30
0.0
 10
5.1517219734
 20
3.6687040785
 30
0.0
 10
5.1541895209
 20
3.6699935951
 30
0.0
 10
5.1554495655
 20
3.6705713329
 30
0.0
  0
SPLINE
  5
304
100
AcDbEntity
  8
0
100
AcDbSpline
 62
7
  6
CONTINUOUS
 70
0
 71
3
 72
18
 73
14
 74
0
 42
0.0000001
 43
0.0000001
 44
0.0000000001
 40
0.0
 40
0.0
 40
0.0
 40
0.0
 40
0.035919923
 40
0.0755609222
 40
0.1189771864
 40
0.1662141116
 40
0.2722740174
 40
0.3936647087
 40
0.4598951056
 40
0.5295939801
 40
0.6782468439
 40
0.8365060453
 40
1.0
 40
1.0
 40
1.0
 40
1.0
 10
5.1554495655
 20
3.6705713329
 30
0.0
 10
5.1555247234
 20
3.6702674424
 30
0.0
 10
5.1556722446
 20
3.6696255409
 30
0.0
 10
5.1558774745
 20
3.6686090557
 30
0.0
 10
5.1560764939
 20
3.6674910092
 30
0.0
 10
5.1563426161
 20
3.6657973132
 30
0.0
 10
5.1566482423
 20
3.6634224852
 30
0.0
 10
5.1569006496
 20
3.6608751889
 30
0.0
 10
5.1570804999
 20
3.6586397925
 30
0.0
 10
5.1572495924
 20
3.6561653413
 30
0.0
 10
5.1574163916
 20
3.6528870796
 30
0.0
 10
5.1575389821
 20
3.6487890057
 30
0.0
 10
5.1575666504
 20
3.6459848014
 30
0.0
 10
5.1575666504
 20
3.6445599315
 30
0.0
  0
SPLINE
  5
305
100
AcDbEntity
  8
0
100
AcDbSpline
 62
7
  6
CONTINUOUS
 70
0
 71
3
 72
15
 73
11
 74
0
 42
0.0000001
 43
0.0000001
 44
0.0000000001
 40
0.0
 40
0.0
 40
0.0
 40
0.0
 40
0.1428403031
 40
0.2829920047
 40
0.4183192843
 40
0.5474675457
 40
0.6699084783
 40
0.7857420361
 40
0.8955194521
 40
1.0
 40
1.0
 40
1.0
 40
1.0
 10
5.4373715753
 20
2.7745599315
 30
0.0
 10
5.4373715753
 20
2.7731326653
 30
0.0
 10
5.4372056241
 20
2.7703021305
 30
0.0
 10
5.4364721099
 20
2.7661777712
 30
0.0
 10
5.4352980204
 20
2.7622989208
 30
0.0
 10
5.4337428539
 20
2.7587493382
 30
0.0
 10
5.4318717553
 20
2.7555801993
 30
0.0
 10
5.4297465374
 20
2.752816106
 30
0.0
 10
5.4274223491
 20
2.7504643572
 30
0.0
 10
5.4257329333
 20
2.7491383981
 30
0.0
 10
5.4248715753
 20
2.7485485302
 30
0.0
  0
SPLINE
  5
306
100
AcDbEntity
  8
0
100
AcDbSpline
 62
7
  6
CONTINUOUS
 70
0
 71
3
 72
15
 73
11
 74
0
 42
0.0000001
 43
0.0000001
 44
0.0000000001
 40
0.0
 40
0.0
 40
0.0
 40
0.0
 40
0.0994941203
 40
0.2057498842
 40
0.3196240284
 40
0.4416835937
 40
0.5719489177
 40
0.7096952709
 40
0.8532404504
 40
1.0
 40
1.0
 40
1.0
 40
1.0
 10
5.4724046744
 20
2.7485485302
 30
0.0
 10
5.4716418859
 20
2.7491432282
 30
0.0
 10
5.4701468602
 20
2.7504819378
 30
0.0
 10
5.4681074446
 20
2.752836055
 30
0.0
 10
5.4662437005
 20
2.7556009557
 30
0.0
 10
5.4646036247
 20
2.7587691222
 30
0.0
 10
5.4632410088
 20
2.762315919
 30
0.0
 10
5.4622126074
 20
2.76619024
 30
0.0
 10
5.4615702525
 20
2.7703088509
 30
0.0
 10
5.4614250189
 20
2.7731332282
 30
0.0
 10
5.4614250189
 20
2.7745599315
 30
0.0
  0
SPLINE
  5
307
100
AcDbEntity
  8
0
100
AcDbSpline
 62
7
  6
CONTINUOUS
 70
0
 71
3
 72
17
 73
13
 74
0
 42
0.0000001
 43
0.0000001
 44
0.0000000001
 40
0.0
 40
0.0
 40
0.0
 40
0.0
 40
0.1391604455
 40
0.2080834282
 40
0.276215965
 40
0.4093133678
 40
0.5374694017
 40
0.599590664
 40
0.6603771207
 40
0.7780504607
 40
0.8910473859
 40
1.0
 40
1.0
 40
1.0
 40
1.0
 10
5.486304637
 20
2.7745599315
 30
0.0
 10
5.486304637
 20
2.7731320822
 30
0.0
 10
5.4861649211
 20
2.7709935723
 30
0.0
 10
5.4857034943
 20
2.7681958273
 30
0.0
 10
5.4850750268
 20
2.7654943037
 30
0.0
 10
5.4839922378
 20
2.7622822565
 30
0.0
 10
5.4825326846
 20
2.7592917385
 30
0.0
 10
5.4811836391
 20
2.7570953695
 30
0.0
 10
5.4797599343
 20
2.7550771413
 30
0.0
 10
5.4778091827
 20
2.7527991014
 30
0.0
 10
5.475223639
 20
2.7504504022
 30
0.0
 10
5.4733565527
 20
2.7491347343
 30
0.0
 10
5.4724046744
 20
2.7485485302
 30
0.0
  0
SPLINE
  5
308
100
AcDbEntity
  8
0
100
AcDbSpline
 62
7
  6
CONTINUOUS
 70
0
 71
3
 72
15
 73
11
 74
0
 42
0.0000001
 43
0.0000001
 44
0.0000000001
 40
0.0
 40
0.0
 40
0.0
 40
0.0
 40
0.1963809989
 40
0.2511529824
 40
0.3083529286
 40
0.4301420461
 40
0.5616853521
 40
0.7020291876
 40
0.8491464326
 40
1.0
 40
1.0
 40
1.0
 40
1.0
 10
5.5194800038
 20
2.7485485302
 30
0.0
 10
5.5181103847
 20
2.7498019699
 30
0.0
 10
5.5165883999
 20
2.7516686718
 30
0.0
 10
5.5150635105
 20
2.7541521239
 30
0.0
 10
5.5140116191
 20
2.7560973437
 30
0.0
 10
5.5128267036
 20
2.7587893582
 30
0.0
 10
5.5116690469
 20
2.7623324705
 30
0.0
 10
5.5107953895
 20
2.7662020509
 30
0.0
 10
5.510249738
 20
2.7703150937
 30
0.0
 10
5.5101264327
 20
2.7731337502
 30
0.0
 10
5.5101264327
 20
2.7745599315
 30
0.0
  0
SPLINE
  5
309
100
AcDbEntity
  8
0
100
AcDbSpline
 62
7
  6
CONTINUOUS
 70
0
 71
3
 72
15
 73
11
 74
0
 42
0.0000001
 43
0.0000001
 44
0.0000000001
 40
0.0
 40
0.0
 40
0.0
 40
0.0
 40
0.135865112
 40
0.2700312933
 40
0.4011849928
 40
0.5285319714
 40
0.651825795
 40
0.7712104362
 40
0.8871033114
 40
1.0
 40
1.0
 40
1.0
 40
1.0
 10
5.5346460647
 20
2.7745599315
 30
0.0
 10
5.5346460647
 20
2.7731315019
 30
0.0
 10
5.5344431912
 20
2.7702883142
 30
0.0
 10
5.5335478723
 20
2.7661528685
 30
0.0
 10
5.5321160213
 20
2.762266501
 30
0.0
 10
5.5302215137
 20
2.7587138352
 30
0.0
 10
5.5279448562
 20
2.7555455408
 30
0.0
 10
5.5253621043
 20
2.7527853345
 30
0.0
 10
5.5225406341
 20
2.7504393671
 30
0.0
 10
5.5205136671
 20
2.7491319583
 30
0.0
 10
5.5194800038
 20
2.7485485302
 30
0.0
  0
SPLINE
  5
30A
100
AcDbEntity
  8
0
100
AcDbSpline
 62
7
  6
CONTINUOUS
 70
0
 71
3
 72
15
 73
11
 74
0
 42
0.0000001
 43
0.0000001
 44
0.0000000001
 40
0.0
 40
0.0
 40
0.0
 40
0.0
 40
0.0886238773
 40
0.1875020172
 40
0.2974936469
 40
0.4190227207
 40
0.551815975
 40
0.6946722347
 40
0.8452229783
 40
1.0
 40
1.0
 40
1.0
 40
1.0
 10
5.5656442023
 20
2.7485485302
 30
0.0
 10
5.5651007184
 20
2.7491576769
 30
0.0
 10
5.5640417884
 20
2.7505291004
 30
0.0
 10
5.5626300431
 20
2.7528837248
 30
0.0
 10
5.561340423
 20
2.7556458896
 30
0.0
 10
5.5602057367
 20
2.758808646
 30
0.0
 10
5.5592630344
 20
2.7623478391
 30
0.0
 10
5.5585515631
 20
2.7662126553
 30
0.0
 10
5.5581071749
 20
2.7703206204
 30
0.0
 10
5.5580067957
 20
2.7731342108
 30
0.0
 10
5.5580067957
 20
2.7745599315
 30
0.0
  0
SPLINE
  5
30B
100
AcDbEntity
  8
0
100
AcDbSpline
 62
7
  6
CONTINUOUS
 70
0
 71
3
 72
15
 73
11
 74
0
 42
0.0000001
 43
0.0000001
 44
0.0000000001
 40
0.0
 40
0.0
 40
0.0
 40
0.0
 40
0.1329533828
 40
0.2646425751
 40
0.3941052744
 40
0.5207696807
 40
0.644479525
 40
0.7653625746
 40
0.8837483067
 40
1.0
 40
1.0
 40
1.0
 40
1.0
 10
5.5819303041
 20
2.7745599315
 30
0.0
 10
5.5819303041
 20
2.7731309466
 30
0.0
 10
5.5817116621
 20
2.7702817499
 30
0.0
 10
5.5807475705
 20
2.7661413727
 30
0.0
 10
5.5792066203
 20
2.7622521879
 30
0.0
 10
5.5771691294
 20
2.7586990281
 30
0.0
 10
5.5747222156
 20
2.7555319872
 30
0.0
 10
5.5719478246
 20
2.7527740857
 30
0.0
 10
5.5689182307
 20
2.7504308146
 30
0.0
 10
5.5667502068
 20
2.7491298576
 30
0.0
 10
5.5656442023
 20
2.7485485302
 30
0.0
  0
SPLINE
  5
30C
100
AcDbEntity
  8
0
100
AcDbSpline
 62
7
  6
CONTINUOUS
 70
0
 71
3
 72
15
 73
11
 74
0
 42
0.0000001
 43
0.0000001
 44
0.0000000001
 40
0.0
 40
0.0
 40
0.0
 40
0.0
 40
0.0833308872
 40
0.1787840963
 40
0.2870847814
 40
0.4084960446
 40
0.5425516217
 40
0.6878050686
 40
0.8415725811
 40
1.0
 40
1.0
 40
1.0
 40
1.0
 10
5.6104526835
 20
2.7485485302
 30
0.0
 10
5.6100297895
 20
2.7491675839
 30
0.0
 10
5.6092114141
 20
2.7505572402
 30
0.0
 10
5.6081348758
 20
2.7529087747
 30
0.0
 10
5.6071508667
 20
2.7556672173
 30
0.0
 10
5.6062846102
 20
2.7588259998
 30
0.0
 10
5.6055646575
 20
2.7623610697
 30
0.0
 10
5.6050211697
 20
2.7662215881
 30
0.0
 10
5.6046816596
 20
2.7703252037
 30
0.0
 10
5.6046049937
 20
2.773134592
 30
0.0
 10
5.6046049937
 20
2.7745599315
 30
0.0
  0
SPLINE
  5
30D
100
AcDbEntity
  8
0
100
AcDbSpline
 62
7
  6
CONTINUOUS
 70
0
 71
3
 72
15
 73
11
 74
0
 42
0.0000001
 43
0.0000001
 44
0.0000000001
 40
0.0
 40
0.0
 40
0.0
 40
0.0
 40
0.1304762884
 40
0.2600688068
 40
0.3881172844
 40
0.5142326021
 40
0.6383218514
 40
0.7604841382
 40
0.8809621612
 40
1.0
 40
1.0
 40
1.0
 40
1.0
 10
5.627701982
 20
2.7745599315
 30
0.0
 10
5.627701982
 20
2.7731304377
 30
0.0
 10
5.6274696443
 20
2.7702757507
 30
0.0
 10
5.6264460154
 20
2.7661310506
 30
0.0
 10
5.624810898
 20
2.762239671
 30
0.0
 10
5.6226503415
 20
2.7586864865
 30
0.0
 10
5.620057167
 20
2.7555208912
 30
0.0
 10
5.6171182815
 20
2.7527651787
 30
0.0
 10
5.6139100418
 20
2.7504242465
 30
0.0
 10
5.6116209149
 20
2.7491282772
 30
0.0
 10
5.6104526835
 20
2.7485485302
 30
0.0
  0
SPLINE
  5
30E
100
AcDbEntity
  8
0
100
AcDbSpline
 62
7
  6
CONTINUOUS
 70
0
 71
3
 72
18
 73
14
 74
0
 42
0.0000001
 43
0.0000001
 44
0.0000000001
 40
0.0
 40
0.0
 40
0.0
 40
0.0
 40
0.0377064957
 40
0.0787864661
 40
0.1233260932
 40
0.1713978282
 40
0.22306241
 40
0.2783558988
 40
0.399728896
 40
0.5348752258
 40
0.6821350308
 40
0.838564779
 40
1.0
 40
1.0
 40
1.0
 40
1.0
 10
5.6534739171
 20
2.7485485302
 30
0.0
 10
5.6533329594
 20
2.7488500598
 30
0.0
 10
5.653055504
 20
2.7494881581
 30
0.0
 10
5.6526669999
 20
2.7505054462
 30
0.0
 10
5.6522903939
 20
2.7516241932
 30
0.0
 10
5.6519275096
 20
2.7528452326
 30
0.0
 10
5.6515802417
 20
2.7541691771
 30
0.0
 10
5.6511265956
 20
2.7561332821
 30
0.0
 10
5.6506194642
 20
2.7588399983
 30
0.0
 10
5.650127799
 20
2.7623713542
 30
0.0
 10
5.6497565722
 20
2.766228414
 30
0.0
 10
5.6495246252
 20
2.7703286615
 30
0.0
 10
5.6494722607
 20
2.7731348793
 30
0.0
 10
5.6494722607
 20
2.7745599315
 30
0.0
  0
SPLINE
  5
30F
100
AcDbEntity
  8
0
100
AcDbSpline
 62
7
  6
CONTINUOUS
 70
0
 71
3
 72
19
 73
15
 74
0
 42
0.0000001
 43
0.0000001
 44
0.0000000001
 40
0.0
 40
0.0
 40
0.0
 40
0.0
 40
0.0642777365
 40
0.1285135827
 40
0.192587818
 40
0.256456012
 40
0.3200792276
 40
0.3834113995
 40
0.4464351924
 40
0.5091331553
 40
0.6334985125
 40
0.7566586313
 40
0.8787780727
 40
1.0
 40
1.0
 40
1.0
 40
1.0
 10
5.6715202923
 20
2.7745599315
 30
0.0
 10
5.6715202923
 20
2.7738440899
 30
0.0
 10
5.6714591953
 20
2.7724121414
 30
0.0
 10
5.6711868795
 20
2.7702822671
 30
0.0
 10
5.6707376592
 20
2.7681871345
 30
0.0
 10
5.6701192715
 20
2.766142851
 30
0.0
 10
5.6693412752
 20
2.7641628082
 30
0.0
 10
5.6684143011
 20
2.7622586171
 30
0.0
 10
5.6673504585
 20
2.7604393608
 30
0.0
 10
5.6657703006
 20
2.7581433477
 30
0.0
 10
5.663513429
 20
2.7555118692
 30
0.0
 10
5.6604388152
 20
2.752758385
 30
0.0
 10
5.6570829022
 20
2.7504192872
 30
0.0
 10
5.6546936634
 20
2.7491271065
 30
0.0
 10
5.6534739171
 20
2.7485485302
 30
0.0
  0
SPLINE
  5
310
100
AcDbEntity
  8
0
100
AcDbSpline
 62
7
  6
CONTINUOUS
 70
0
 71
3
 72
18
 73
14
 74
0
 42
0.0000001
 43
0.0000001
 44
0.0000000001
 40
0.0
 40
0.0
 40
0.0
 40
0.0
 40
0.0359199242
 40
0.075560925
 40
0.1189771886
 40
0.1662141124
 40
0.2722740286
 40
0.3936647245
 40
0.4598951221
 40
0.5295940025
 40
0.6782468562
 40
0.8365060444
 40
1.0
 40
1.0
 40
1.0
 40
1.0
 10
5.6942935852
 20
2.7485485302
 30
0.0
 10
5.6942184273
 20
2.7488524207
 30
0.0
 10
5.6940709061
 20
2.7494943222
 30
0.0
 10
5.6938656762
 20
2.7505108073
 30
0.0
 10
5.6936666568
 20
2.7516288539
 30
0.0
 10
5.6934005346
 20
2.7533225499
 30
0.0
 10
5.6930949083
 20
2.755697378
 30
0.0
 10
5.692842501
 20
2.7582446745
 30
0.0
 10
5.6926626508
 20
2.760480071
 30
0.0
 10
5.6924935583
 20
2.7629545222
 30
0.0
 10
5.6923267591
 20
2.7662327837
 30
0.0
 10
5.6922041686
 20
2.7703308574
 30
0.0
 10
5.6921765003
 20
2.7731350616
 30
0.0
 10
5.6921765003
 20
2.7745599315
 30
0.0
  0
SPLINE
  5
311
100
AcDbEntity
  8
0
100
AcDbSpline
 62
7
  6
CONTINUOUS
 70
0
 71
3
 72
20
 73
16
 74
0
 42
0.0000001
 43
0.0000001
 44
0.0000000001
 40
0.0
 40
0.0
 40
0.0
 40
0.0
 40
0.0634764094
 40
0.1269432245
 40
0.1903120879
 40
0.2535652157
 40
0.3166853762
 40
0.3796429552
 40
0.4424311349
 40
0.505038043
 40
0.5674716487
 40
0.6297277209
 40
0.7536870935
 40
0.8770899821
 40
1.0
 40
1.0
 40
1.0
 40
1.0
 10
5.7129632406
 20
2.7745599315
 30
0.0
 10
5.7129632406
 20
2.7738440444
 30
0.0
 10
5.7128999964
 20
2.7724115958
 30
0.0
 10
5.7126181387
 20
2.7702812331
 30
0.0
 10
5.7121531981
 20
2.7681856848
 30
0.0
 10
5.7115132055
 20
2.766141093
 30
0.0
 10
5.7107080835
 20
2.7641608543
 30
0.0
 10
5.7097488355
 20
2.7622565657
 30
0.0
 10
5.7086480957
 20
2.760437358
 30
0.0
 10
5.7074181723
 20
2.7587103494
 30
0.0
 10
5.706071771
 20
2.7570804031
 30
0.0
 10
5.7041404632
 20
2.7550447128
 30
0.0
 10
5.7014921474
 20
2.7527530605
 30
0.0
 10
5.6980211773
 20
2.7504157845
 30
0.0
 10
5.6955536298
 20
2.7491262679
 30
0.0
 10
5.6942935852
 20
2.7485485302
 30
0.0
  0
LINE
  5
312
100
AcDbEntity
  8
0
100
AcDbLine
 62
7
  6
CONTINUOUS
 10
5.732518572
 20
2.7485485302
 11
5.7323064473
 21
2.7745599315
  0
SPLINE
  5
313
100
AcDbEntity
  8
0
100
AcDbSpline
 62
7
  6
CONTINUOUS
 70
0
 71
3
 72
19
 73
15
 74
0
 42
0.0000001
 43
0.0000001
 44
0.0000000001
 40
0.0
 40
0.0
 40
0.0
 40
0.0
 40
0.0629194147
 40
0.1258523647
 40
0.1887328764
 40
0.2515620925
 40
0.3143380593
 40
0.3770425777
 40
0.4396759406
 40
0.5022298295
 40
0.6270433421
 40
0.7515817911
 40
0.8758983816
 40
1.0
 40
1.0
 40
1.0
 40
1.0
 10
5.7516317086
 20
2.7745599315
 30
0.0
 10
5.7516317086
 20
2.7738440112
 30
0.0
 10
5.7515669343
 20
2.7724111964
 30
0.0
 10
5.7512782793
 20
2.7702804784
 30
0.0
 10
5.7508021417
 20
2.7681846308
 30
0.0
 10
5.7501467671
 20
2.7661398233
 30
0.0
 10
5.7493223282
 20
2.7641594469
 30
0.0
 10
5.748340136
 20
2.762255119
 30
0.0
 10
5.7472130481
 20
2.760435883
 30
0.0
 10
5.745535835
 20
2.7581355863
 30
0.0
 10
5.7431398546
 20
2.7555006946
 30
0.0
 10
5.739883681
 20
2.7527498938
 30
0.0
 10
5.7363304508
 20
2.7504133018
 30
0.0
 10
5.7338072993
 20
2.7491257087
 30
0.0
 10
5.732518572
 20
2.7485485302
 30
0.0
  0
SPLINE
  5
314
100
AcDbEntity
  8
0
100
AcDbSpline
 62
7
  6
CONTINUOUS
 70
0
 71
3
 72
19
 73
15
 74
0
 42
0.0000001
 43
0.0000001
 44
0.0000000001
 40
0.0
 40
0.0
 40
0.0
 40
0.0
 40
0.0625929791
 40
0.1252130771
 40
0.1878074424
 40
0.2503882717
 40
0.3129624797
 40
0.3755184306
 40
0.4380604318
 40
0.5005820853
 40
0.6255067707
 40
0.7503764511
 40
0.8752162909
 40
1.0
 40
1.0
 40
1.0
 40
1.0
 10
5.787153298
 20
2.7745599315
 30
0.0
 10
5.787153298
 20
2.7738439913
 30
0.0
 10
5.7870876277
 20
2.7724109586
 30
0.0
 10
5.7867949934
 20
2.7702800296
 30
0.0
 10
5.786312302
 20
2.768184006
 30
0.0
 10
5.7856479249
 20
2.7661390729
 30
0.0
 10
5.7848121856
 20
2.7641586206
 30
0.0
 10
5.7838165618
 20
2.7622542669
 30
0.0
 10
5.7826740935
 20
2.7604350439
 30
0.0
 10
5.7809732385
 20
2.7581337335
 30
0.0
 10
5.7785434111
 20
2.755498079
 30
0.0
 10
5.7752431373
 20
2.7527479414
 30
0.0
 10
5.7716419656
 20
2.7504119464
 30
0.0
 10
5.7690862589
 20
2.7491253951
 30
0.0
 10
5.7677807501
 20
2.7485485302
 30
0.0
  0
SPLINE
  5
315
100
AcDbEntity
  8
0
100
AcDbSpline
 62
7
  6
CONTINUOUS
 70
0
 71
3
 72
19
 73
15
 74
0
 42
0.0000001
 43
0.0000001
 44
0.0000000001
 40
0.0
 40
0.0
 40
0.0
 40
0.0
 40
0.0625016022
 40
0.1250341445
 40
0.1875484626
 40
0.2500598545
 40
0.3125777157
 40
0.3750922376
 40
0.4376088355
 40
0.5001216299
 40
0.6250776695
 40
0.7500400613
 40
0.8750260385
 40
1.0
 40
1.0
 40
1.0
 40
1.0
 10
5.8191859163
 20
2.7745599315
 30
0.0
 10
5.8191859163
 20
2.7738439857
 30
0.0
 10
5.8191199943
 20
2.7724108912
 30
0.0
 10
5.8188262422
 20
2.7702799027
 30
0.0
 10
5.8183417099
 20
2.7681838294
 30
0.0
 10
5.8176748043
 20
2.7661388612
 30
0.0
 10
5.8168358913
 20
2.764158388
 30
0.0
 10
5.8158364957
 20
2.7622540276
 30
0.0
 10
5.8146897086
 20
2.7604348088
 30
0.0
 10
5.8129822122
 20
2.7581332158
 30
0.0
 10
5.8105428795
 20
2.7554973517
 30
0.0
 10
5.8072302259
 20
2.7527474009
 30
0.0
 10
5.8036155948
 20
2.7504115724
 30
0.0
 10
5.801050747
 20
2.7491253088
 30
0.0
 10
5.7997405255
 20
2.7485485302
 30
0.0
  0
SPLINE
  5
316
100
AcDbEntity
  8
0
100
AcDbSpline
 62
7
  6
CONTINUOUS
 70
0
 71
3
 72
19
 73
15
 74
0
 42
0.0000001
 43
0.0000001
 44
0.0000000001
 40
0.0
 40
0.0
 40
0.0
 40
0.0
 40
0.0626451999
 40
0.1253153388
 40
0.1879554604
 40
0.2505759904
 40
0.3131824256
 40
0.3757620838
 40
0.4383186363
 40
0.5008453849
 40
0.6257521976
 40
0.7505688926
 40
0.8753251514
 40
1.0
 40
1.0
 40
1.0
 40
1.0
 10
5.847421072
 20
2.7745599315
 30
0.0
 10
5.847421072
 20
2.7738439945
 30
0.0
 10
5.8473555453
 20
2.7724109969
 30
0.0
 10
5.8470635491
 20
2.7702801019
 30
0.0
 10
5.8465819085
 20
2.7681841065
 30
0.0
 10
5.8459189747
 20
2.7661391936
 30
0.0
 10
5.845085047
 20
2.7641587533
 30
0.0
 10
5.8440915764
 20
2.7622544035
 30
0.0
 10
5.8429515736
 20
2.7604351782
 30
0.0
 10
5.8412545094
 20
2.7581340296
 30
0.0
 10
5.8388301081
 20
2.7554984956
 30
0.0
 10
5.8355369023
 20
2.7527482515
 30
0.0
 10
5.8319434146
 20
2.7504121612
 30
0.0
 10
5.8293929264
 20
2.7491254448
 30
0.0
 10
5.8280901078
 20
2.7485485302
 30
0.0
  0
SPLINE
  5
317
100
AcDbEntity
  8
0
100
AcDbSpline
 62
7
  6
CONTINUOUS
 70
0
 71
3
 72
19
 73
15
 74
0
 42
0.0000001
 43
0.0000001
 44
0.0000000001
 40
0.0
 40
0.0
 40
0.0
 40
0.0
 40
0.0630238971
 40
0.1260570038
 40
0.1890291634
 40
0.2519379887
 40
0.3147786856
 40
0.3775309427
 40
0.4401937496
 40
0.5027581503
 40
0.6275363584
 40
0.751968783
 40
0.8761175051
 40
1.0
 40
1.0
 40
1.0
 40
1.0
 10
5.871586845
 20
2.7745599315
 30
0.0
 10
5.871586845
 20
2.7738440174
 30
0.0
 10
5.8715223563
 20
2.7724112716
 30
0.0
 10
5.8712349704
 20
2.7702806204
 30
0.0
 10
5.8707609232
 20
2.7681848289
 30
0.0
 10
5.8701084203
 20
2.7661400616
 30
0.0
 10
5.8692875863
 20
2.7641597099
 30
0.0
 10
5.8683096793
 20
2.7622553909
 30
0.0
 10
5.8671874986
 20
2.7604361513
 30
0.0
 10
5.8655178254
 20
2.7581361804
 30
0.0
 10
5.8631326428
 20
2.7555015374
 30
0.0
 10
5.8598905437
 20
2.7527505258
 30
0.0
 10
5.8563526129
 20
2.7504137422
 30
0.0
 10
5.853839849
 20
2.7491258108
 30
0.0
 10
5.8525564753
 20
2.7485485302
 30
0.0
  0
SPLINE
  5
318
100
AcDbEntity
  8
0
100
AcDbSpline
 62
7
  6
CONTINUOUS
 70
0
 71
3
 72
20
 73
16
 74
0
 42
0.0000001
 43
0.0000001
 44
0.0000000001
 40
0.0
 40
0.0
 40
0.0
 40
0.0
 40
0.0636331596
 40
0.1272503237
 40
0.1907569287
 40
0.2541299293
 40
0.317347826
 40
0.3803777917
 40
0.4432109783
 40
0.5058344657
 40
0.568256102
 40
0.6304722111
 40
0.7542725447
 40
0.8774220225
 40
1.0
 40
1.0
 40
1.0
 40
1.0
 10
5.8914505058
 20
2.7745599315
 30
0.0
 10
5.8914505058
 20
2.7738440536
 30
0.0
 10
5.8913876861
 20
2.772411705
 30
0.0
 10
5.8911077148
 20
2.7702814398
 30
0.0
 10
5.8906458819
 20
2.7681859742
 30
0.0
 10
5.8900101595
 20
2.7661414429
 30
0.0
 10
5.8892103992
 20
2.7641612426
 30
0.0
 10
5.888257526
 20
2.7622569697
 30
0.0
 10
5.8871640877
 20
2.7604377596
 30
0.0
 10
5.8859423082
 20
2.7587107332
 30
0.0
 10
5.8846048087
 20
2.7570807592
 30
0.0
 10
5.8826866653
 20
2.7550454565
 30
0.0
 10
5.8800563674
 20
2.7527540395
 30
0.0
 10
5.8766081719
 20
2.7504164726
 30
0.0
 10
5.8741560844
 20
2.7491264286
 30
0.0
 10
5.8729040035
 20
2.7485485302
 30
0.0
  0
SPLINE
  5
319
100
AcDbEntity
  8
0
100
AcDbSpline
 62
7
  6
CONTINUOUS
 70
0
 71
3
 72
18
 73
14
 74
0
 42
0.0000001
 43
0.0000001
 44
0.0000000001
 40
0.0
 40
0.0
 40
0.0
 40
0.0
 40
0.12882424
 40
0.1930897128
 40
0.2571256621
 40
0.3208874523
 40
0.3843246533
 40
0.4474170899
 40
0.5101457437
 40
0.6344584014
 40
0.7574205869
 40
0.8792131783
 40
1.0
 40
1.0
 40
1.0
 40
1.0
 10
5.9068207564
 20
2.7745599315
 30
0.0
 10
5.9068207564
 20
2.7731300864
 30
0.0
 10
5.9066390277
 20
2.7709813199
 30
0.0
 10
5.9060452647
 20
2.7681876916
 30
0.0
 10
5.9054324918
 20
2.7661432537
 30
0.0
 10
5.9046615623
 20
2.7641633271
 30
0.0
 10
5.9037429888
 20
2.7622591445
 30
0.0
 10
5.9026887712
 20
2.7604398942
 30
0.0
 10
5.9011233595
 20
2.7581445472
 30
0.0
 10
5.8988876455
 20
2.7555136292
 30
0.0
 10
5.8958406941
 20
2.7527597449
 30
0.0
 10
5.892514837
 20
2.7504202597
 30
0.0
 10
5.8901459861
 20
2.7491273357
 30
0.0
 10
5.8889367344
 20
2.7485485302
 30
0.0
  0
SPLINE
  5
31A
100
AcDbEntity
  8
0
100
AcDbSpline
 62
7
  6
CONTINUOUS
 70
0
 71
3
 72
15
 73
11
 74
0
 42
0.0000001
 43
0.0000001
 44
0.0000000001
 40
0.0
 40
0.0
 40
0.0
 40
0.0
 40
0.1309881372
 40
0.2610130822
 40
0.3893519288
 40
0.5155783417
 40
0.6395873395
 40
0.7614850344
 40
0.8815328799
 40
1.0
 40
1.0
 40
1.0
 40
1.0
 10
5.9175495729
 20
2.7745599315
 30
0.0
 10
5.9175495729
 20
2.7731305457
 30
0.0
 10
5.9173200895
 20
2.7702770231
 30
0.0
 10
5.916308853
 20
2.7661332253
 30
0.0
 10
5.9146933125
 20
2.7622422823
 30
0.0
 10
5.9125583134
 20
2.7586890724
 30
0.0
 10
5.9099954933
 20
2.7555231511
 30
0.0
 10
5.9070907383
 20
2.7527669714
 30
0.0
 10
5.9039195674
 20
2.7504255544
 30
0.0
 10
5.9016555734
 20
2.7491285897
 30
0.0
 10
5.9005002641
 20
2.7485485302
 30
0.0
  0
SPLINE
  5
31B
100
AcDbEntity
  8
0
100
AcDbSpline
 62
7
  6
CONTINUOUS
 70
0
 71
3
 72
15
 73
11
 74
0
 42
0.0000001
 43
0.0000001
 44
0.0000000001
 40
0.0
 40
0.0
 40
0.0
 40
0.0
 40
0.133563723
 40
0.2657710307
 40
0.3955856413
 40
0.5223897852
 40
0.6460096848
 40
0.7665781019
 40
0.8844442768
 40
1.0
 40
1.0
 40
1.0
 40
1.0
 10
5.923533631
 20
2.7745599315
 30
0.0
 10
5.923533631
 20
2.7731310667
 30
0.0
 10
5.923318321
 20
2.7702831682
 30
0.0
 10
5.9223687425
 20
2.7661438386
 30
0.0
 10
5.9208507881
 20
2.7622552246
 30
0.0
 10
5.9188433998
 20
2.7587021273
 30
0.0
 10
5.9164323008
 20
2.7555347827
 30
0.0
 10
5.9136982064
 20
2.7527763719
 30
0.0
 10
5.9107123739
 20
2.7504325292
 30
0.0
 10
5.9085740096
 20
2.7491302748
 30
0.0
 10
5.9074832296
 20
2.7485485302
 30
0.0
  0
SPLINE
  5
31C
100
AcDbEntity
  8
0
100
AcDbSpline
 62
7
  6
CONTINUOUS
 70
0
 71
3
 72
19
 73
15
 74
0
 42
0.0000001
 43
0.0000001
 44
0.0000000001
 40
0.0
 40
0.0
 40
0.0
 40
0.0
 40
0.0642777419
 40
0.1285135996
 40
0.1925878378
 40
0.2564560273
 40
0.3200792356
 40
0.3834114044
 40
0.4464351961
 40
0.5091331575
 40
0.6334985133
 40
0.7566586334
 40
0.8787780727
 40
1.0
 40
1.0
 40
1.0
 40
1.0
 10
5.1782228584
 20
3.6445599315
 30
0.0
 10
5.1782228584
 20
3.6452757732
 30
0.0
 10
5.1782839555
 20
3.6467077219
 30
0.0
 10
5.1785562712
 20
3.6488375964
 30
0.0
 10
5.1790054916
 20
3.6509327291
 30
0.0
 10
5.1796238793
 20
3.6529770125
 30
0.0
 10
5.1804018756
 20
3.6549570551
 30
0.0
 10
5.1813288496
 20
3.656861246
 30
0.0
 10
5.1823926922
 20
3.6586805023
 30
0.0
 10
5.1839728501
 20
3.6609765154
 30
0.0
 10
5.1862297218
 20
3.6636079939
 30
0.0
 10
5.1893043355
 20
3.666361478
 30
0.0
 10
5.1926602485
 20
3.6687005758
 30
0.0
 10
5.1950494873
 20
3.6699927565
 30
0.0
 10
5.1962692336
 20
3.6705713329
 30
0.0
  0
SPLINE
  5
31D
100
AcDbEntity
  8
0
100
AcDbSpline
 62
7
  6
CONTINUOUS
 70
0
 71
3
 72
18
 73
14
 74
0
 42
0.0000001
 43
0.0000001
 44
0.0000000001
 40
0.0
 40
0.0
 40
0.0
 40
0.0
 40
0.0377064945
 40
0.0787864633
 40
0.123326091
 40
0.1713978274
 40
0.2230624068
 40
0.2783558876
 40
0.3997288802
 40
0.5348752037
 40
0.6821350185
 40
0.83856478
 40
1.0
 40
1.0
 40
1.0
 40
1.0
 10
5.1962692336
 20
3.6705713329
 30
0.0
 10
5.1964101913
 20
3.6702698033
 30
0.0
 10
5.1966876466
 20
3.669631705
 30
0.0
 10
5.1970761508
 20
3.6686144169
 30
0.0
 10
5.1974527567
 20
3.6674956699
 30
0.0
 10
5.1978156411
 20
3.6662746304
 30
0.0
 10
5.1981629089
 20
3.664950686
 30
0.0
 10
5.198616555
 20
3.6629865812
 30
0.0
 10
5.1991236864
 20
3.6602798652
 30
0.0
 10
5.1996153517
 20
3.6567485093
 30
0.0
 10
5.1999865784
 20
3.6528914493
 30
0.0
 10
5.2002185255
 20
3.6487912016
 30
0.0
 10
5.20027089
 20
3.6459849837
 30
0.0
 10
5.20027089
 20
3.6445599315
 30
0.0
  0
SPLINE
  5
31E
100
AcDbEntity
  8
0
100
AcDbSpline
 62
7
  6
CONTINUOUS
 70
0
 71
3
 72
15
 73
11
 74
0
 42
0.0000001
 43
0.0000001
 44
0.0000000001
 40
0.0
 40
0.0
 40
0.0
 40
0.0
 40
0.1304763057
 40
0.2600688224
 40
0.3881172894
 40
0.5142326044
 40
0.6383218523
 40
0.7604841402
 40
0.8809621613
 40
1.0
 40
1.0
 40
1.0
 40
1.0
 10
5.2220411686
 20
3.6445599315
 30
0.0
 10
5.2220411686
 20
3.6459894255
 30
0.0
 10
5.2222735064
 20
3.6488441126
 30
0.0
 10
5.2232971353
 20
3.6529888128
 30
0.0
 10
5.2249322528
 20
3.6568801922
 30
0.0
 10
5.2270928092
 20
3.6604333766
 30
0.0
 10
5.2296859838
 20
3.6635989718
 30
0.0
 10
5.2326248692
 20
3.6663546843
 30
0.0
 10
5.2358331089
 20
3.6686956165
 30
0.0
 10
5.2381222358
 20
3.6699915858
 30
0.0
 10
5.2392904672
 20
3.6705713329
 30
0.0
  0
SPLINE
  5
31F
100
AcDbEntity
  8
0
100
AcDbSpline
 62
7
  6
CONTINUOUS
 70
0
 71
3
 72
15
 73
11
 74
0
 42
0.0000001
 43
0.0000001
 44
0.0000000001
 40
0.0
 40
0.0
 40
0.0
 40
0.0
 40
0.0833308843
 40
0.1787840954
 40
0.2870847702
 40
0.4084960289
 40
0.5425515998
 40
0.6878050566
 40
0.841572582
 40
1.0
 40
1.0
 40
1.0
 40
1.0
 10
5.2392904672
 20
3.6705713329
 30
0.0
 10
5.2397133612
 20
3.6699522792
 30
0.0
 10
5.2405317366
 20
3.6685626228
 30
0.0
 10
5.2416082748
 20
3.6662110885
 30
0.0
 10
5.2425922839
 20
3.6634526459
 30
0.0
 10
5.2434585404
 20
3.6602938636
 30
0.0
 10
5.2441784932
 20
3.6567587937
 30
0.0
 10
5.2447219809
 20
3.6528982752
 30
0.0
 10
5.2450614911
 20
3.6487946594
 30
0.0
 10
5.2451381569
 20
3.645985271
 30
0.0
 10
5.2451381569
 20
3.6445599315
 30
0.0
  0
SPLINE
  5
320
100
AcDbEntity
  8
0
100
AcDbSpline
 62
7
  6
CONTINUOUS
 70
0
 71
3
 72
15
 73
11
 74
0
 42
0.0000001
 43
0.0000001
 44
0.0000000001
 40
0.0
 40
0.0
 40
0.0
 40
0.0
 40
0.1329534004
 40
0.2646425909
 40
0.3941052795
 40
0.520769683
 40
0.6444795259
 40
0.7653625767
 40
0.8837483068
 40
1.0
 40
1.0
 40
1.0
 40
1.0
 10
5.2678128466
 20
3.6445599315
 30
0.0
 10
5.2678128466
 20
3.6459889166
 30
0.0
 10
5.2680314886
 20
3.6488381135
 30
0.0
 10
5.2689955803
 20
3.6529784907
 30
0.0
 10
5.2705365306
 20
3.6568676753
 30
0.0
 10
5.2725740214
 20
3.660420835
 30
0.0
 10
5.2750209351
 20
3.6635878758
 30
0.0
 10
5.2777953261
 20
3.6663457774
 30
0.0
 10
5.28082492
 20
3.6686890484
 30
0.0
 10
5.2829929439
 20
3.6699900054
 30
0.0
 10
5.2840989484
 20
3.6705713329
 30
0.0
  0
SPLINE
  5
321
100
AcDbEntity
  8
0
100
AcDbSpline
 62
7
  6
CONTINUOUS
 70
0
 71
3
 72
15
 73
11
 74
0
 42
0.0000001
 43
0.0000001
 44
0.0000000001
 40
0.0
 40
0.0
 40
0.0
 40
0.0
 40
0.0886238743
 40
0.1875020162
 40
0.2974936357
 40
0.419022705
 40
0.5518159535
 40
0.6946722229
 40
0.8452229793
 40
1.0
 40
1.0
 40
1.0
 40
1.0
 10
5.2840989484
 20
3.6705713329
 30
0.0
 10
5.2846424323
 20
3.6699621862
 30
0.0
 10
5.2857013623
 20
3.6685907626
 30
0.0
 10
5.2871131075
 20
3.6662361383
 30
0.0
 10
5.2884027277
 20
3.6634739737
 30
0.0
 10
5.2895374138
 20
3.6603112175
 30
0.0
 10
5.2904801162
 20
3.6567720243
 30
0.0
 10
5.2911915876
 20
3.652907208
 30
0.0
 10
5.2916359758
 20
3.6487992427
 30
0.0
 10
5.291736355
 20
3.6459856523
 30
0.0
 10
5.291736355
 20
3.6445599315
 30
0.0
  0
SPLINE
  5
322
100
AcDbEntity
  8
0
100
AcDbSpline
 62
7
  6
CONTINUOUS
 70
0
 71
3
 72
15
 73
11
 74
0
 42
0.0000001
 43
0.0000001
 44
0.0000000001
 40
0.0
 40
0.0
 40
0.0
 40
0.0
 40
0.1358651299
 40
0.2700313094
 40
0.4011849979
 40
0.5285319737
 40
0.6518257958
 40
0.7712104382
 40
0.8871033114
 40
1.0
 40
1.0
 40
1.0
 40
1.0
 10
5.315097086
 20
3.6445599315
 30
0.0
 10
5.315097086
 20
3.6459883613
 30
0.0
 10
5.3152999595
 20
3.6488315492
 30
0.0
 10
5.3161952785
 20
3.6529669949
 30
0.0
 10
5.3176271296
 20
3.6568533623
 30
0.0
 10
5.319521637
 20
3.6604060279
 30
0.0
 10
5.3217982945
 20
3.6635743223
 30
0.0
 10
5.3243810464
 20
3.6663345285
 30
0.0
 10
5.3272025166
 20
3.6686804959
 30
0.0
 10
5.3292294836
 20
3.6699879047
 30
0.0
 10
5.3302631469
 20
3.6705713329
 30
0.0
  0
SPLINE
  5
323
100
AcDbEntity
  8
0
100
AcDbSpline
 62
7
  6
CONTINUOUS
 70
0
 71
3
 72
15
 73
11
 74
0
 42
0.0000001
 43
0.0000001
 44
0.0000000001
 40
0.0
 40
0.0
 40
0.0
 40
0.0
 40
0.1963809977
 40
0.2511529791
 40
0.3083529174
 40
0.4301420303
 40
0.561685331
 40
0.702029176
 40
0.8491464335
 40
1.0
 40
1.0
 40
1.0
 40
1.0
 10
5.3302631469
 20
3.6705713329
 30
0.0
 10
5.331632766
 20
3.6693178931
 30
0.0
 10
5.3331547508
 20
3.6674511912
 30
0.0
 10
5.3346796401
 20
3.6649677393
 30
0.0
 10
5.3357315315
 20
3.6630225196
 30
0.0
 10
5.3369164469
 20
3.6603305052
 30
0.0
 10
5.3380741038
 20
3.6567873929
 30
0.0
 10
5.3389477611
 20
3.6529178124
 30
0.0
 10
5.3394934127
 20
3.6488047694
 30
0.0
 10
5.339616718
 20
3.6459861128
 30
0.0
 10
5.339616718
 20
3.6445599315
 30
0.0
  0
SPLINE
  5
324
100
AcDbEntity
  8
0
100
AcDbSpline
 62
7
  6
CONTINUOUS
 70
0
 71
3
 72
17
 73
13
 74
0
 42
0.0000001
 43
0.0000001
 44
0.0000000001
 40
0.0
 40
0.0
 40
0.0
 40
0.0
 40
0.1391604639
 40
0.2080834494
 40
0.2762159813
 40
0.4093133729
 40
0.537469404
 40
0.5995906646
 40
0.6603771216
 40
0.7780504627
 40
0.8910473859
 40
1.0
 40
1.0
 40
1.0
 40
1.0
 10
5.3634385137
 20
3.6445599315
 30
0.0
 10
5.3634385137
 20
3.645987781
 30
0.0
 10
5.3635782296
 20
3.6481262911
 30
0.0
 10
5.3640396565
 20
3.6509240363
 30
0.0
 10
5.3646681239
 20
3.6536255598
 30
0.0
 10
5.365750913
 20
3.6568376067
 30
0.0
 10
5.3672104661
 20
3.6598281246
 30
0.0
 10
5.3685595116
 20
3.6620244935
 30
0.0
 10
5.3699832165
 20
3.6640427218
 30
0.0
 10
5.371933968
 20
3.6663207617
 30
0.0
 10
5.3745195117
 20
3.6686694608
 30
0.0
 10
5.3763865979
 20
3.6699851287
 30
0.0
 10
5.3773384762
 20
3.6705713329
 30
0.0
  0
SPLINE
  5
325
100
AcDbEntity
  8
0
100
AcDbSpline
 62
7
  6
CONTINUOUS
 70
0
 71
3
 72
15
 73
11
 74
0
 42
0.0000001
 43
0.0000001
 44
0.0000000001
 40
0.0
 40
0.0
 40
0.0
 40
0.0
 40
0.0994941171
 40
0.205749883
 40
0.3196240171
 40
0.441683578
 40
0.571948897
 40
0.7096952596
 40
0.8532404513
 40
1.0
 40
1.0
 40
1.0
 40
1.0
 10
5.3773384762
 20
3.6705713329
 30
0.0
 10
5.3781012647
 20
3.6699766348
 30
0.0
 10
5.3795962905
 20
3.6686379252
 30
0.0
 10
5.3816357059
 20
3.6662838081
 30
0.0
 10
5.3834994501
 20
3.6635189076
 30
0.0
 10
5.3851395258
 20
3.6603507412
 30
0.0
 10
5.3865021418
 20
3.6568039444
 30
0.0
 10
5.3875305432
 20
3.6529296233
 30
0.0
 10
5.3881728982
 20
3.6488110122
 30
0.0
 10
5.3883181318
 20
3.6459866348
 30
0.0
 10
5.3883181318
 20
3.6445599315
 30
0.0
  0
SPLINE
  5
326
100
AcDbEntity
  8
0
100
AcDbSpline
 62
7
  6
CONTINUOUS
 70
0
 71
3
 72
15
 73
11
 74
0
 42
0.0000001
 43
0.0000001
 44
0.0000000001
 40
0.0
 40
0.0
 40
0.0
 40
0.0
 40
0.142840322
 40
0.2829920215
 40
0.4183192895
 40
0.547467548
 40
0.6699084791
 40
0.7857420381
 40
0.8955194522
 40
1.0
 40
1.0
 40
1.0
 40
1.0
 10
5.4123715753
 20
3.6445599315
 30
0.0
 10
5.4123715753
 20
3.6459871979
 30
0.0
 10
5.4125375266
 20
3.6488177328
 30
0.0
 10
5.4132710409
 20
3.6529420923
 30
0.0
 10
5.4144451304
 20
3.6568209424
 30
0.0
 10
5.4160002968
 20
3.6603705249
 30
0.0
 10
5.4178713954
 20
3.6635396637
 30
0.0
 10
5.4199966133
 20
3.6663037571
 30
0.0
 10
5.4223208016
 20
3.6686555058
 30
0.0
 10
5.4240102174
 20
3.6699814649
 30
0.0
 10
5.4248715753
 20
3.6705713329
 30
0.0
  0
SPLINE
  5
327
100
AcDbEntity
  8
0
100
AcDbSpline
 62
7
  6
CONTINUOUS
 70
0
 71
3
 72
15
 73
11
 74
0
 42
0.0000001
 43
0.0000001
 44
0.0000000001
 40
0.0
 40
0.0
 40
0.0
 40
0.0
 40
0.1044805383
 40
0.2142579537
 40
0.3300914884
 40
0.4525324018
 40
0.5816806342
 40
0.7170079198
 40
0.8571596583
 40
1.0
 40
1.0
 40
1.0
 40
1.0
 10
5.4248715753
 20
3.6705713329
 30
0.0
 10
5.4257329332
 20
3.669981465
 30
0.0
 10
5.427422349
 20
3.668655506
 30
0.0
 10
5.429746537
 20
3.6663037574
 30
0.0
 10
5.4318717549
 20
3.6635396645
 30
0.0
 10
5.433742853
 20
3.6603705263
 30
0.0
 10
5.4352980198
 20
3.6568209442
 30
0.0
 10
5.4364721094
 20
3.6529420938
 30
0.0
 10
5.4372056241
 20
3.6488177336
 30
0.0
 10
5.4373715753
 20
3.6459871981
 30
0.0
 10
5.4373715753
 20
3.6445599315
 30
0.0
  0
SPLINE
  5
328
100
AcDbEntity
  8
0
100
AcDbSpline
 62
7
  6
CONTINUOUS
 70
0
 71
3
 72
15
 73
11
 74
0
 42
0.0000001
 43
0.0000001
 44
0.0000000001
 40
0.0
 40
0.0
 40
0.0
 40
0.0
 40
0.1467595285
 40
0.2903046804
 40
0.4280510255
 40
0.5583163717
 40
0.6803759506
 40
0.7942501091
 40
0.9005058736
 40
1.0
 40
1.0
 40
1.0
 40
1.0
 10
5.4614250189
 20
3.6445599315
 30
0.0
 10
5.4614250189
 20
3.6459866346
 30
0.0
 10
5.4615702525
 20
3.6488110114
 30
0.0
 10
5.4622126072
 20
3.6529296218
 30
0.0
 10
5.4632410085
 20
3.6568039426
 30
0.0
 10
5.4646036242
 20
3.6603507399
 30
0.0
 10
5.4662437002
 20
3.6635189068
 30
0.0
 10
5.4681074444
 20
3.6662838078
 30
0.0
 10
5.4701468601
 20
3.6686379251
 30
0.0
 10
5.4716418859
 20
3.6699766347
 30
0.0
 10
5.4724046744
 20
3.6705713329
 30
0.0
  0
SPLINE
  5
329
100
AcDbEntity
  8
0
100
AcDbSpline
 62
7
  6
CONTINUOUS
 70
0
 71
3
 72
15
 73
11
 74
0
 42
0.0000001
 43
0.0000001
 44
0.0000000001
 40
0.0
 40
0.0
 40
0.0
 40
0.0
 40
0.1155557164
 40
0.2334218885
 40
0.3539902928
 40
0.477610178
 40
0.6044142998
 40
0.7342289082
 40
0.8664362401
 40
1.0
 40
1.0
 40
1.0
 40
1.0
 10
4.9422599211
 20
2.7485485302
 30
0.0
 10
4.9411691411
 20
2.7491302748
 30
0.0
 10
4.9390307769
 20
2.750432529
 30
0.0
 10
4.9360449447
 20
2.7527763717
 30
0.0
 10
4.9333108504
 20
2.7555347821
 30
0.0
 10
4.9308997516
 20
2.7587021263
 30
0.0
 10
4.9288923632
 20
2.762255223
 30
0.0
 10
4.9273744087
 20
2.766143837
 30
0.0
 10
4.9264248297
 20
2.7702831672
 30
0.0
 10
4.9262095197
 20
2.7731310663
 30
0.0
 10
4.9262095197
 20
2.7745599315
 30
0.0
  0
SPLINE
  5
32A
100
AcDbEntity
  8
0
100
AcDbSpline
 62
7
  6
CONTINUOUS
 70
0
 71
3
 72
15
 73
11
 74
0
 42
0.0000001
 43
0.0000001
 44
0.0000000001
 40
0.0
 40
0.0
 40
0.0
 40
0.0
 40
0.1184671131
 40
0.2385149558
 40
0.360412638
 40
0.4844216215
 40
0.6106480128
 40
0.7389868576
 40
0.8690118266
 40
1.0
 40
1.0
 40
1.0
 40
1.0
 10
4.9492428866
 20
2.7485485302
 30
0.0
 10
4.9480875774
 20
2.7491285897
 30
0.0
 10
4.9458235835
 20
2.7504255543
 30
0.0
 10
4.9426524127
 20
2.7527669712
 30
0.0
 10
4.9397476578
 20
2.7555231506
 30
0.0
 10
4.9371848381
 20
2.7586890714
 30
0.0
 10
4.9350498389
 20
2.7622422808
 30
0.0
 10
4.9334342983
 20
2.7661332237
 30
0.0
 10
4.9324230612
 20
2.770277022
 30
0.0
 10
4.9321935778
 20
2.7731305453
 30
0.0
 10
4.9321935778
 20
2.7745599315
 30
0.0
  0
SPLINE
  5
32B
100
AcDbEntity
  8
0
100
AcDbSpline
 62
7
  6
CONTINUOUS
 70
0
 71
3
 72
18
 73
14
 74
0
 42
0.0000001
 43
0.0000001
 44
0.0000000001
 40
0.0
 40
0.0
 40
0.0
 40
0.0
 40
0.1207868147
 40
0.2425794033
 40
0.3655415762
 40
0.4898542197
 40
0.5525828664
 40
0.6156752889
 40
0.6791124852
 40
0.7428742784
 40
0.8069102359
 40
0.8711757243
 40
1.0
 40
1.0
 40
1.0
 40
1.0
 10
4.9608064163
 20
2.7485485302
 30
0.0
 10
4.9595971646
 20
2.7491273356
 30
0.0
 10
4.9572283138
 20
2.7504202596
 30
0.0
 10
4.953902457
 20
2.7527597447
 30
0.0
 10
4.9508555057
 20
2.7555136286
 30
0.0
 10
4.9486197919
 20
2.7581445463
 30
0.0
 10
4.9470543803
 20
2.7604398929
 30
0.0
 10
4.9460001626
 20
2.7622591428
 30
0.0
 10
4.9450815894
 20
2.7641633253
 30
0.0
 10
4.9443106594
 20
2.7661432518
 30
0.0
 10
4.9436978865
 20
2.7681876901
 30
0.0
 10
4.943104123
 20
2.7709813189
 30
0.0
 10
4.9429223943
 20
2.773130086
 30
0.0
 10
4.9429223943
 20
2.7745599315
 30
0.0
  0
SPLINE
  5
32C
100
AcDbEntity
  8
0
100
AcDbSpline
 62
7
  6
CONTINUOUS
 70
0
 71
3
 72
20
 73
16
 74
0
 42
0.0000001
 43
0.0000001
 44
0.0000000001
 40
0.0
 40
0.0
 40
0.0
 40
0.0
 40
0.1225779704
 40
0.2457274454
 40
0.3695277665
 40
0.4317438675
 40
0.4941654977
 40
0.5567889781
 40
0.619622151
 40
0.6826521119
 40
0.7458700119
 40
0.8092430206
 40
0.8727496412
 40
0.9363668304
 40
1.0
 40
1.0
 40
1.0
 40
1.0
 10
4.9768391472
 20
2.7485485302
 30
0.0
 10
4.9755870664
 20
2.7491264285
 30
0.0
 10
4.973134979
 20
2.7504164724
 30
0.0
 10
4.9696867837
 20
2.7527540393
 30
0.0
 10
4.9670564859
 20
2.755045456
 30
0.0
 10
4.9651383426
 20
2.7570807584
 30
0.0
 10
4.9638008432
 20
2.7587107322
 30
0.0
 10
4.9625790639
 20
2.7604377583
 30
0.0
 10
4.9614856254
 20
2.762256968
 30
0.0
 10
4.9605327524
 20
2.7641612409
 30
0.0
 10
4.9597329918
 20
2.766141441
 30
0.0
 10
4.9590972693
 20
2.7681859727
 30
0.0
 10
4.9586354359
 20
2.7702814388
 30
0.0
 10
4.9583554648
 20
2.7724117045
 30
0.0
 10
4.9582926449
 20
2.7738440534
 30
0.0
 10
4.9582926449
 20
2.7745599315
 30
0.0
  0
SPLINE
  5
32D
100
AcDbEntity
  8
0
100
AcDbSpline
 62
7
  6
CONTINUOUS
 70
0
 71
3
 72
19
 73
15
 74
0
 42
0.0000001
 43
0.0000001
 44
0.0000000001
 40
0.0
 40
0.0
 40
0.0
 40
0.0
 40
0.1238824877
 40
0.248031207
 40
0.3724636191
 40
0.4972418132
 40
0.559806207
 40
0.6224690003
 40
0.6852212528
 40
0.7480619529
 40
0.8109707863
 40
0.8739429614
 40
0.936976093
 40
1.0
 40
1.0
 40
1.0
 40
1.0
 10
4.9971866753
 20
2.7485485302
 30
0.0
 10
4.9959033018
 20
2.7491258108
 30
0.0
 10
4.9933905379
 20
2.7504137421
 30
0.0
 10
4.9898526074
 20
2.7527505256
 30
0.0
 10
4.9866105085
 20
2.7555015369
 30
0.0
 10
4.984225326
 20
2.7581361795
 30
0.0
 10
4.982555653
 20
2.76043615
 30
0.0
 10
4.9814334722
 20
2.7622553892
 30
0.0
 10
4.9804555653
 20
2.7641597081
 30
0.0
 10
4.979634731
 20
2.7661400598
 30
0.0
 10
4.978982228
 20
2.7681848273
 30
0.0
 10
4.9785081803
 20
2.7702806193
 30
0.0
 10
4.9782207945
 20
2.7724112711
 30
0.0
 10
4.9781563057
 20
2.7738440173
 30
0.0
 10
4.9781563057
 20
2.7745599315
 30
0.0
  0
SPLINE
  5
32E
100
AcDbEntity
  8
0
100
AcDbSpline
 62
7
  6
CONTINUOUS
 70
0
 71
3
 72
19
 73
15
 74
0
 42
0.0000001
 43
0.0000001
 44
0.0000000001
 40
0.0
 40
0.0
 40
0.0
 40
0.0
 40
0.1246748415
 40
0.2494310973
 40
0.3742477799
 40
0.4991545786
 40
0.5616813204
 40
0.6242378593
 40
0.6868175129
 40
0.7494239515
 40
0.8120444896
 40
0.8746846266
 40
0.9373547903
 40
1.0
 40
1.0
 40
1.0
 40
1.0
 10
5.0216530428
 20
2.7485485302
 30
0.0
 10
5.0203502244
 20
2.7491254447
 30
0.0
 10
5.0177997362
 20
2.750412161
 30
0.0
 10
5.0142062488
 20
2.7527482513
 30
0.0
 10
5.0109130432
 20
2.7554984951
 30
0.0
 10
5.008488642
 20
2.7581340287
 30
0.0
 10
5.006791578
 20
2.7604351769
 30
0.0
 10
5.0056515751
 20
2.7622544018
 30
0.0
 10
5.0046581047
 20
2.7641587515
 30
0.0
 10
5.0038241766
 20
2.7661391917
 30
0.0
 10
5.0031612427
 20
2.768184105
 30
0.0
 10
5.0026796017
 20
2.7702801008
 30
0.0
 10
5.0023876055
 20
2.7724109964
 30
0.0
 10
5.0023220787
 20
2.7738439944
 30
0.0
 10
5.0023220787
 20
2.7745599315
 30
0.0
  0
SPLINE
  5
32F
100
AcDbEntity
  8
0
100
AcDbSpline
 62
7
  6
CONTINUOUS
 70
0
 71
3
 72
19
 73
15
 74
0
 42
0.0000001
 43
0.0000001
 44
0.0000000001
 40
0.0
 40
0.0
 40
0.0
 40
0.0
 40
0.1249739543
 40
0.2499599286
 40
0.374922308
 40
0.4998783336
 40
0.5623911211
 40
0.6249077056
 40
0.6874222229
 40
0.7499400874
 40
0.8124514875
 40
0.874965821
 40
0.937498388
 40
1.0
 40
1.0
 40
1.0
 40
1.0
 10
5.0500026252
 20
2.7485485302
 30
0.0
 10
5.0486924037
 20
2.7491253088
 30
0.0
 10
5.046127556
 20
2.7504115723
 30
0.0
 10
5.0425129252
 20
2.7527474006
 30
0.0
 10
5.0392002717
 20
2.7554973511
 30
0.0
 10
5.0367609392
 20
2.7581332149
 30
0.0
 10
5.035053443
 20
2.7604348075
 30
0.0
 10
5.0339066558
 20
2.7622540259
 30
0.0
 10
5.0329072604
 20
2.7641583863
 30
0.0
 10
5.032068347
 20
2.7661388594
 30
0.0
 10
5.0314014413
 20
2.7681838278
 30
0.0
 10
5.0309169086
 20
2.7702799016
 30
0.0
 10
5.0306231566
 20
2.7724108907
 30
0.0
 10
5.0305572344
 20
2.7738439856
 30
0.0
 10
5.0305572344
 20
2.7745599315
 30
0.0
  0
SPLINE
  5
330
100
AcDbEntity
  8
0
100
AcDbSpline
 62
7
  6
CONTINUOUS
 70
0
 71
3
 72
19
 73
15
 74
0
 42
0.0000001
 43
0.0000001
 44
0.0000000001
 40
0.0
 40
0.0
 40
0.0
 40
0.0
 40
0.1247837019
 40
0.2496235389
 40
0.3744932067
 40
0.4994178782
 40
0.5619395248
 40
0.6244815126
 40
0.6870374588
 40
0.7496116702
 40
0.8121925076
 40
0.8747868883
 40
0.9374070111
 40
1.0
 40
1.0
 40
1.0
 40
1.0
 10
5.0819624005
 20
2.7485485302
 30
0.0
 10
5.0806568918
 20
2.7491253951
 30
0.0
 10
5.0781011852
 20
2.7504119463
 30
0.0
 10
5.0745000138
 20
2.7527479412
 30
0.0
 10
5.0711997401
 20
2.7554980785
 30
0.0
 10
5.068769913
 20
2.7581337326
 30
0.0
 10
5.0670690581
 20
2.7604350426
 30
0.0
 10
5.0659265897
 20
2.7622542652
 30
0.0
 10
5.0649309662
 20
2.7641586188
 30
0.0
 10
5.0640952264
 20
2.766139071
 30
0.0
 10
5.0634308492
 20
2.7681840044
 30
0.0
 10
5.0629481574
 20
2.7702800285
 30
0.0
 10
5.0626555232
 20
2.7724109581
 30
0.0
 10
5.0625898527
 20
2.7738439912
 30
0.0
 10
5.0625898527
 20
2.7745599315
 30
0.0
  0
SPLINE
  5
331
100
AcDbEntity
  8
0
100
AcDbSpline
 62
7
  6
CONTINUOUS
 70
0
 71
3
 72
19
 73
15
 74
0
 42
0.0000001
 43
0.0000001
 44
0.0000000001
 40
0.0
 40
0.0
 40
0.0
 40
0.0
 40
0.1241016113
 40
0.2484181989
 40
0.3729566354
 40
0.497770134
 40
0.5603240159
 40
0.6229573653
 40
0.685661879
 40
0.7484378491
 40
0.8112670734
 40
0.8741476006
 40
0.9370805755
 40
1.0
 40
1.0
 40
1.0
 40
1.0
 10
5.1172245786
 20
2.7485485302
 30
0.0
 10
5.1159358514
 20
2.7491257087
 30
0.0
 10
5.1134127
 20
2.7504133017
 30
0.0
 10
5.1098594701
 20
2.7527498936
 30
0.0
 10
5.1066032967
 20
2.755500694
 30
0.0
 10
5.1042073164
 20
2.7581355854
 30
0.0
 10
5.1025301035
 20
2.7604358817
 30
0.0
 10
5.1014030155
 20
2.7622551174
 30
0.0
 10
5.1004208235
 20
2.7641594451
 30
0.0
 10
5.0995963841
 20
2.7661398215
 30
0.0
 10
5.0989410095
 20
2.7681846292
 30
0.0
 10
5.0984648715
 20
2.7702804773
 30
0.0
 10
5.0981762166
 20
2.7724111959
 30
0.0
 10
5.098111442
 20
2.7738440111
 30
0.0
 10
5.098111442
 20
2.7745599315
 30
0.0
  0
LINE
  5
332
100
AcDbEntity
  8
0
100
AcDbLine
 62
7
  6
CONTINUOUS
 10
5.1174367034
 20
2.7745599315
 11
5.1172245786
 21
2.7485485302
  0
SPLINE
  5
333
100
AcDbEntity
  8
0
100
AcDbSpline
 62
7
  6
CONTINUOUS
 70
0
 71
3
 72
20
 73
16
 74
0
 42
0.0000001
 43
0.0000001
 44
0.0000000001
 40
0.0
 40
0.0
 40
0.0
 40
0.0
 40
0.1229100108
 40
0.2463128966
 40
0.3702722567
 40
0.4325283208
 40
0.4949619205
 40
0.5575688215
 40
0.6203569875
 40
0.6833145619
 40
0.7464347256
 40
0.8096878615
 40
0.8730567405
 40
0.9365235806
 40
1.0
 40
1.0
 40
1.0
 40
1.0
 10
5.1554495655
 20
2.7485485302
 30
0.0
 10
5.154189521
 20
2.7491262679
 30
0.0
 10
5.1517219735
 20
2.7504157844
 30
0.0
 10
5.1482510037
 20
2.7527530602
 30
0.0
 10
5.145602688
 20
2.7550447123
 30
0.0
 10
5.1436713803
 20
2.7570804024
 30
0.0
 10
5.1423249791
 20
2.7587103484
 30
0.0
 10
5.1410950559
 20
2.7604373567
 30
0.0
 10
5.1399943159
 20
2.7622565641
 30
0.0
 10
5.1390350682
 20
2.7641608525
 30
0.0
 10
5.1382299457
 20
2.7661410911
 30
0.0
 10
5.1375899531
 20
2.7681856833
 30
0.0
 10
5.1371250121
 20
2.770281232
 30
0.0
 10
5.1368431545
 20
2.7724115953
 30
0.0
 10
5.1367799101
 20
2.7738440443
 30
0.0
 10
5.1367799101
 20
2.7745599315
 30
0.0
  0
SPLINE
  5
334
100
AcDbEntity
  8
0
100
AcDbSpline
 62
7
  6
CONTINUOUS
 70
0
 71
3
 72
18
 73
14
 74
0
 42
0.0000001
 43
0.0000001
 44
0.0000000001
 40
0.0
 40
0.0
 40
0.0
 40
0.0
 40
0.1634939106
 40
0.3217530717
 40
0.4704059311
 40
0.5401048308
 40
0.6063352379
 40
0.72772595
 40
0.8337858803
 40
0.8810228048
 40
0.9244390699
 40
0.964080074
 40
1.0
 40
1.0
 40
1.0
 40
1.0
 10
5.1575666504
 20
2.7745599315
 30
0.0
 10
5.1575666504
 20
2.773135062
 30
0.0
 10
5.1575389821
 20
2.7703308584
 30
0.0
 10
5.1574163917
 20
2.7662327853
 30
0.0
 10
5.1572495925
 20
2.7629545238
 30
0.0
 10
5.1570805
 20
2.7604800723
 30
0.0
 10
5.1569006497
 20
2.7582446754
 30
0.0
 10
5.1566482424
 20
2.7556973786
 30
0.0
 10
5.1563426161
 20
2.7533225502
 30
0.0
 10
5.1560764939
 20
2.751628854
 30
0.0
 10
5.1558774745
 20
2.7505108075
 30
0.0
 10
5.1556722446
 20
2.7494943222
 30
0.0
 10
5.1555247234
 20
2.7488524207
 30
0.0
 10
5.1554495655
 20
2.7485485302
 30
0.0
  0
SPLINE
  5
335
100
AcDbEntity
  8
0
100
AcDbSpline
 62
7
  6
CONTINUOUS
 70
0
 71
3
 72
19
 73
15
 74
0
 42
0.0000001
 43
0.0000001
 44
0.0000000001
 40
0.0
 40
0.0
 40
0.0
 40
0.0
 40
0.1212219203
 40
0.2433413588
 40
0.3665014652
 40
0.4908668082
 40
0.553564764
 40
0.6165885429
 40
0.6799207101
 40
0.7435439287
 40
0.8074121308
 40
0.8714863819
 40
0.9357222535
 40
1.0
 40
1.0
 40
1.0
 40
1.0
 10
5.1962692336
 20
2.7485485302
 30
0.0
 10
5.1950494873
 20
2.7491271065
 30
0.0
 10
5.1926602486
 20
2.7504192871
 30
0.0
 10
5.1893043358
 20
2.7527583848
 30
0.0
 10
5.1862297222
 20
2.7555118686
 30
0.0
 10
5.1839728508
 20
2.7581433468
 30
0.0
 10
5.182392693
 20
2.7604393595
 30
0.0
 10
5.1813288503
 20
2.7622586155
 30
0.0
 10
5.1804018764
 20
2.7641628064
 30
0.0
 10
5.1796238798
 20
2.7661428491
 30
0.0
 10
5.1790054919
 20
2.7681871329
 30
0.0
 10
5.1785562712
 20
2.770282266
 30
0.0
 10
5.1782839556
 20
2.7724121409
 30
0.0
 10
5.1782228584
 20
2.7738440898
 30
0.0
 10
5.1782228584
 20
2.7745599315
 30
0.0
  0
SPLINE
  5
336
100
AcDbEntity
  8
0
100
AcDbSpline
 62
7
  6
CONTINUOUS
 70
0
 71
3
 72
18
 73
14
 74
0
 42
0.0000001
 43
0.0000001
 44
0.0000000001
 40
0.0
 40
0.0
 40
0.0
 40
0.0
 40
0.1614351765
 40
0.3178648979
 40
0.4651247083
 40
0.6002710666
 40
0.7216440797
 40
0.7769375792
 40
0.8286021643
 40
0.8766739
 40
0.9212135287
 40
0.9622935025
 40
1.0
 40
1.0
 40
1.0
 40
1.0
 10
5.20027089
 20
2.7745599315
 30
0.0
 10
5.20027089
 20
2.7731348797
 30
0.0
 10
5.2002185255
 20
2.7703286625
 30
0.0
 10
5.1999865786
 20
2.7662284156
 30
0.0
 10
5.1996153519
 20
2.7623713557
 30
0.0
 10
5.1991236867
 20
2.7588399993
 30
0.0
 10
5.1986165552
 20
2.7561332827
 30
0.0
 10
5.198162909
 20
2.7541691775
 30
0.0
 10
5.1978156412
 20
2.7528452328
 30
0.0
 10
5.1974527568
 20
2.7516241933
 30
0.0
 10
5.1970761509
 20
2.7505054463
 30
0.0
 10
5.1966876467
 20
2.7494881581
 30
0.0
 10
5.1964101913
 20
2.7488500598
 30
0.0
 10
5.1962692336
 20
2.7485485302
 30
0.0
  0
SPLINE
  5
337
100
AcDbEntity
  8
0
100
AcDbSpline
 62
7
  6
CONTINUOUS
 70
0
 71
3
 72
15
 73
11
 74
0
 42
0.0000001
 43
0.0000001
 44
0.0000000001
 40
0.0
 40
0.0
 40
0.0
 40
0.0
 40
0.1190378318
 40
0.239515852
 40
0.3616781261
 40
0.4857673611
 40
0.6118826574
 40
0.7399311332
 40
0.8695236755
 40
1.0
 40
1.0
 40
1.0
 40
1.0
 10
5.2392904672
 20
2.7485485302
 30
0.0
 10
5.2381222359
 20
2.7491282772
 30
0.0
 10
5.235833109
 20
2.7504242464
 30
0.0
 10
5.2326248695
 20
2.7527651785
 30
0.0
 10
5.2296859842
 20
2.7555208906
 30
0.0
 10
5.22709281
 20
2.7586864855
 30
0.0
 10
5.2249322533
 20
2.7622396694
 30
0.0
 10
5.2232971358
 20
2.766131049
 30
0.0
 10
5.2222735065
 20
2.7702757497
 30
0.0
 10
5.2220411686
 20
2.7731304373
 30
0.0
 10
5.2220411686
 20
2.7745599315
 30
0.0
  0
SPLINE
  5
338
100
AcDbEntity
  8
0
100
AcDbSpline
 62
7
  6
CONTINUOUS
 70
0
 71
3
 72
15
 73
11
 74
0
 42
0.0000001
 43
0.0000001
 44
0.0000000001
 40
0.0
 40
0.0
 40
0.0
 40
0.0
 40
0.1584273752
 40
0.3121948612
 40
0.4574483133
 40
0.5915039181
 40
0.712915197
 40
0.821215896
 40
0.9166691074
 40
1.0
 40
1.0
 40
1.0
 40
1.0
 10
5.2451381569
 20
2.7745599315
 30
0.0
 10
5.2451381569
 20
2.7731345924
 30
0.0
 10
5.2450614911
 20
2.7703252047
 30
0.0
 10
5.2447219812
 20
2.7662215897
 30
0.0
 10
5.2441784934
 20
2.7623610713
 30
0.0
 10
5.2434585408
 20
2.7588260009
 30
0.0
 10
5.2425922841
 20
2.7556672179
 30
0.0
 10
5.241608275
 20
2.752908775
 30
0.0
 10
5.2405317366
 20
2.7505572404
 30
0.0
 10
5.2397133613
 20
2.7491675839
 30
0.0
 10
5.2392904672
 20
2.7485485302
 30
0.0
  0
SPLINE
  5
339
100
AcDbEntity
  8
0
100
AcDbSpline
 62
7
  6
CONTINUOUS
 70
0
 71
3
 72
15
 73
11
 74
0
 42
0.0000001
 43
0.0000001
 44
0.0000000001
 40
0.0
 40
0.0
 40
0.0
 40
0.0
 40
0.1162516864
 40
0.2346374157
 40
0.3555204526
 40
0.4792302825
 40
0.6058946668
 40
0.735357364
 40
0.8670465804
 40
1.0
 40
1.0
 40
1.0
 40
1.0
 10
5.2840989484
 20
2.7485485302
 30
0.0
 10
5.282992944
 20
2.7491298576
 30
0.0
 10
5.2808249201
 20
2.7504308145
 30
0.0
 10
5.2777953264
 20
2.7527740854
 30
0.0
 10
5.2750209355
 20
2.7555319866
 30
0.0
 10
5.2725740221
 20
2.7586990271
 30
0.0
 10
5.2705365311
 20
2.7622521864
 30
0.0
 10
5.2689955807
 20
2.7661413711
 30
0.0
 10
5.2680314887
 20
2.7702817488
 30
0.0
 10
5.2678128466
 20
2.7731309462
 30
0.0
 10
5.2678128466
 20
2.7745599315
 30
0.0
  0
SPLINE
  5
33A
100
AcDbEntity
  8
0
100
AcDbSpline
 62
7
  6
CONTINUOUS
 70
0
 71
3
 72
15
 73
11
 74
0
 42
0.0000001
 43
0.0000001
 44
0.0000000001
 40
0.0
 40
0.0
 40
0.0
 40
0.0
 40
0.154776979
 40
0.3053276965
 40
0.4481839609
 40
0.5809772421
 40
0.7025063315
 40
0.8124979748
 40
0.9113761171
 40
1.0
 40
1.0
 40
1.0
 40
1.0
 10
5.291736355
 20
2.7745599315
 30
0.0
 10
5.291736355
 20
2.7731342111
 30
0.0
 10
5.2916359758
 20
2.7703206214
 30
0.0
 10
5.2911915879
 20
2.7662126569
 30
0.0
 10
5.2904801166
 20
2.7623478407
 30
0.0
 10
5.2895374144
 20
2.758808647
 30
0.0
 10
5.2884027279
 20
2.7556458902
 30
0.0
 10
5.2871131078
 20
2.7528837251
 30
0.0
 10
5.2857013624
 20
2.7505291005
 30
0.0
 10
5.2846424323
 20
2.7491576769
 30
0.0
 10
5.2840989484
 20
2.7485485302
 30
0.0
  0
SPLINE
  5
33B
100
AcDbEntity
  8
0
100
AcDbSpline
 62
7
  6
CONTINUOUS
 70
0
 71
3
 72
15
 73
11
 74
0
 42
0.0000001
 43
0.0000001
 44
0.0000000001
 40
0.0
 40
0.0
 40
0.0
 40
0.0
 40
0.112896682
 40
0.2287895544
 40
0.3481741828
 40
0.4714679918
 40
0.5988149477
 40
0.7299686448
 40
0.8641348505
 40
1.0
 40
1.0
 40
1.0
 40
1.0
 10
5.3302631469
 20
2.7485485302
 30
0.0
 10
5.3292294837
 20
2.7491319583
 30
0.0
 10
5.3272025167
 20
2.750439367
 30
0.0
 10
5.3243810467
 20
2.7527853343
 30
0.0
 10
5.3217982949
 20
2.7555455402
 30
0.0
 10
5.3195216377
 20
2.7587138342
 30
0.0
 10
5.31762713
 20
2.7622664994
 30
0.0
 10
5.3161952789
 20
2.7661528669
 30
0.0
 10
5.3152999595
 20
2.7702883131
 30
0.0
 10
5.315097086
 20
2.7731315015
 30
0.0
 10
5.315097086
 20
2.7745599315
 30
0.0
  0
SPLINE
  5
33C
100
AcDbEntity
  8
0
100
AcDbSpline
 62
7
  6
CONTINUOUS
 70
0
 71
3
 72
15
 73
11
 74
0
 42
0.0000001
 43
0.0000001
 44
0.0000000001
 40
0.0
 40
0.0
 40
0.0
 40
0.0
 40
0.1508535258
 40
0.297970745
 40
0.4383145848
 40
0.5698579169
 40
0.6916470496
 40
0.7488470062
 40
0.8036189928
 40
1.0
 40
1.0
 40
1.0
 40
1.0
 10
5.339616718
 20
2.7745599315
 30
0.0
 10
5.339616718
 20
2.7731337506
 30
0.0
 10
5.3394934127
 20
2.7703150948
 30
0.0
 10
5.3389477614
 20
2.7662020525
 30
0.0
 10
5.3380741042
 20
2.7623324721
 30
0.0
 10
5.3369164475
 20
2.7587893593
 30
0.0
 10
5.3357315319
 20
2.7560973443
 30
0.0
 10
5.3346796403
 20
2.7541521242
 30
0.0
 10
5.3331547509
 20
2.7516686719
 30
0.0
 10
5.331632766
 20
2.74980197
 30
0.0
 10
5.3302631469
 20
2.7485485302
 30
0.0
  0
SPLINE
  5
33D
100
AcDbEntity
  8
0
100
AcDbSpline
 62
7
  6
CONTINUOUS
 70
0
 71
3
 72
17
 73
13
 74
0
 42
0.0000001
 43
0.0000001
 44
0.0000000001
 40
0.0
 40
0.0
 40
0.0
 40
0.0
 40
0.1089526076
 40
0.2219495301
 40
0.3396228571
 40
0.4004093059
 40
0.4625305615
 40
0.590686572
 40
0.723783972
 40
0.791916517
 40
0.8608395161
 40
1.0
 40
1.0
 40
1.0
 40
1.0
 10
5.3773384762
 20
2.7485485302
 30
0.0
 10
5.376386598
 20
2.7491347343
 30
0.0
 10
5.3745195118
 20
2.7504504021
 30
0.0
 10
5.3719339683
 20
2.7527991012
 30
0.0
 10
5.3699832168
 20
2.7550771407
 30
0.0
 10
5.3685595121
 20
2.7570953687
 30
0.0
 10
5.3672104667
 20
2.7592917374
 30
0.0
 10
5.3657509134
 20
2.762282255
 30
0.0
 10
5.3646681243
 20
2.7654943019
 30
0.0
 10
5.3640396567
 20
2.7681958257
 30
0.0
 10
5.3635782296
 20
2.7709935713
 30
0.0
 10
5.3634385137
 20
2.7731320818
 30
0.0
 10
5.3634385137
 20
2.7745599315
 30
0.0
  0
SPLINE
  5
33E
100
AcDbEntity
  8
0
100
AcDbSpline
 62
7
  6
CONTINUOUS
 70
0
 71
3
 72
15
 73
11
 74
0
 42
0.0000001
 43
0.0000001
 44
0.0000000001
 40
0.0
 40
0.0
 40
0.0
 40
0.0
 40
0.1467595091
 40
0.2903046633
 40
0.4280510203
 40
0.5583163694
 40
0.6803759498
 40
0.7942501072
 40
0.9005058736
 40
1.0
 40
1.0
 40
1.0
 40
1.0
 10
5.3883181318
 20
2.7745599315
 30
0.0
 10
5.3883181318
 20
2.7731332286
 30
0.0
 10
5.3881728982
 20
2.7703088519
 30
0.0
 10
5.3875305436
 20
2.7661902416
 30
0.0
 10
5.3865021423
 20
2.7623159206
 30
0.0
 10
5.3851395266
 20
2.7587691232
 30
0.0
 10
5.3834994505
 20
2.7556009563
 30
0.0
 10
5.3816357063
 20
2.7528360553
 30
0.0
 10
5.3795962906
 20
2.750481938
 30
0.0
 10
5.3781012648
 20
2.7491432283
 30
0.0
 10
5.3773384762
 20
2.7485485302
 30
0.0
  0
SPLINE
  5
33F
100
AcDbEntity
  8
0
100
AcDbSpline
 62
7
  6
CONTINUOUS
 70
0
 71
3
 72
15
 73
11
 74
0
 42
0.0000001
 43
0.0000001
 44
0.0000000001
 40
0.0
 40
0.0
 40
0.0
 40
0.0
 40
0.1044805416
 40
0.214257955
 40
0.3300914997
 40
0.4525324175
 40
0.5816806546
 40
0.7170079309
 40
0.8571596574
 40
1.0
 40
1.0
 40
1.0
 40
1.0
 10
5.4248715753
 20
2.7485485302
 30
0.0
 10
5.4240102174
 20
2.749138398
 30
0.0
 10
5.4223208016
 20
2.7504643571
 30
0.0
 10
5.4199966136
 20
2.7528161057
 30
0.0
 10
5.4178713957
 20
2.7555801988
 30
0.0
 10
5.4160002974
 20
2.7587493372
 30
0.0
 10
5.4144451307
 20
2.7622989193
 30
0.0
 10
5.4132710412
 20
2.7661777696
 30
0.0
 10
5.4125375266
 20
2.7703021295
 30
0.0
 10
5.4123715753
 20
2.7731326649
 30
0.0
 10
5.4123715753
 20
2.7745599315
 30
0.0
  0
SPLINE
  5
340
100
AcDbEntity
  8
0
100
AcDbSpline
 62
7
  6
CONTINUOUS
 70
0
 71
3
 72
17
 73
13
 74
0
 42
0.0000001
 43
0.0000001
 44
0.0000000001
 40
0.0
 40
0.0
 40
0.0
 40
0.0
 40
0.1089526043
 40
0.2219495287
 40
0.3396228459
 40
0.4004092899
 40
0.4625305458
 40
0.5906865519
 40
0.7237839611
 40
0.7919165138
 40
0.8608395169
 40
1.0
 40
1.0
 40
1.0
 40
1.0
 10
5.4724046744
 20
3.6705713329
 30
0.0
 10
5.4733565527
 20
3.6699851287
 30
0.0
 10
5.4752236388
 20
3.668669461
 30
0.0
 10
5.4778091822
 20
3.6663207619
 30
0.0
 10
5.4797599338
 20
3.6640427225
 30
0.0
 10
5.4811836383
 20
3.6620244946
 30
0.0
 10
5.4825326837
 20
3.6598281261
 30
0.0
 10
5.4839922371
 20
3.6568376085
 30
0.0
 10
5.4850750262
 20
3.6536255614
 30
0.0
 10
5.485703494
 20
3.6509240374
 30
0.0
 10
5.4861649211
 20
3.6481262917
 30
0.0
 10
5.486304637
 20
3.6459877812
 30
0.0
 10
5.486304637
 20
3.6445599315
 30
0.0
  0
SPLINE
  5
341
100
AcDbEntity
  8
0
100
AcDbSpline
 62
7
  6
CONTINUOUS
 70
0
 71
3
 72
15
 73
11
 74
0
 42
0.0000001
 43
0.0000001
 44
0.0000000001
 40
0.0
 40
0.0
 40
0.0
 40
0.0
 40
0.1508535457
 40
0.2979707626
 40
0.4383145901
 40
0.5698579192
 40
0.6916470504
 40
0.7488470079
 40
0.8036189947
 40
1.0
 40
1.0
 40
1.0
 40
1.0
 10
5.5101264327
 20
3.6445599315
 30
0.0
 10
5.5101264327
 20
3.6459861126
 30
0.0
 10
5.510249738
 20
3.6488047686
 30
0.0
 10
5.5107953893
 20
3.652917811
 30
0.0
 10
5.5116690466
 20
3.6567873911
 30
0.0
 10
5.5128267032
 20
3.6603305038
 30
0.0
 10
5.5140116188
 20
3.6630225188
 30
0.0
 10
5.5150635104
 20
3.6649677388
 30
0.0
 10
5.5165883998
 20
3.6674511911
 30
0.0
 10
5.5181103847
 20
3.669317893
 30
0.0
 10
5.5194800038
 20
3.6705713329
 30
0.0
  0
SPLINE
  5
342
100
AcDbEntity
  8
0
100
AcDbSpline
 62
7
  6
CONTINUOUS
 70
0
 71
3
 72
15
 73
11
 74
0
 42
0.0000001
 43
0.0000001
 44
0.0000000001
 40
0.0
 40
0.0
 40
0.0
 40
0.0
 40
0.1128966785
 40
0.228789553
 40
0.3481741714
 40
0.4714679761
 40
0.5988149279
 40
0.7299686341
 40
0.8641348513
 40
1.0
 40
1.0
 40
1.0
 40
1.0
 10
5.5194800038
 20
3.6705713329
 30
0.0
 10
5.520513667
 20
3.6699879047
 30
0.0
 10
5.5225406339
 20
3.668680496
 30
0.0
 10
5.5253621038
 20
3.6663345288
 30
0.0
 10
5.5279448556
 20
3.6635743231
 30
0.0
 10
5.5302215127
 20
3.6604060292
 30
0.0
 10
5.5321160205
 20
3.6568533641
 30
0.0
 10
5.5335478717
 20
3.6529669964
 30
0.0
 10
5.5344431912
 20
3.64883155
 30
0.0
 10
5.5346460647
 20
3.6459883615
 30
0.0
 10
5.5346460647
 20
3.6445599315
 30
0.0
  0
SPLINE
  5
343
100
AcDbEntity
  8
0
100
AcDbSpline
 62
7
  6
CONTINUOUS
 70
0
 71
3
 72
15
 73
11
 74
0
 42
0.0000001
 43
0.0000001
 44
0.0000000001
 40
0.0
 40
0.0
 40
0.0
 40
0.0
 40
0.1547769994
 40
0.3053277145
 40
0.4481839663
 40
0.5809772445
 40
0.7025063322
 40
0.8124979767
 40
0.9113761171
 40
1.0
 40
1.0
 40
1.0
 40
1.0
 10
5.5580067957
 20
3.6445599315
 30
0.0
 10
5.5580067957
 20
3.6459856521
 30
0.0
 10
5.5581071749
 20
3.6487992419
 30
0.0
 10
5.5585515629
 20
3.6529072065
 30
0.0
 10
5.5592630342
 20
3.6567720226
 30
0.0
 10
5.5602057363
 20
3.660311216
 30
0.0
 10
5.5613404228
 20
3.6634739729
 30
0.0
 10
5.5626300429
 20
3.666236138
 30
0.0
 10
5.5640417883
 20
3.6685907625
 30
0.0
 10
5.5651007184
 20
3.6699621861
 30
0.0
 10
5.5656442023
 20
3.6705713329
 30
0.0
  0
SPLINE
  5
344
100
AcDbEntity
  8
0
100
AcDbSpline
 62
7
  6
CONTINUOUS
 70
0
 71
3
 72
15
 73
11
 74
0
 42
0.0000001
 43
0.0000001
 44
0.0000000001
 40
0.0
 40
0.0
 40
0.0
 40
0.0
 40
0.1162516829
 40
0.2346374142
 40
0.3555204413
 40
0.4792302668
 40
0.6058946472
 40
0.7353573534
 40
0.8670465812
 40
1.0
 40
1.0
 40
1.0
 40
1.0
 10
5.5656442023
 20
3.6705713329
 30
0.0
 10
5.5667502067
 20
3.6699900054
 30
0.0
 10
5.5689182306
 20
3.6686890486
 30
0.0
 10
5.5719478241
 20
3.6663457777
 30
0.0
 10
5.574722215
 20
3.6635878767
 30
0.0
 10
5.5771691282
 20
3.6604208363
 30
0.0
 10
5.5792066195
 20
3.6568676771
 30
0.0
 10
5.5807475699
 20
3.6529784922
 30
0.0
 10
5.581711662
 20
3.6488381143
 30
0.0
 10
5.5819303041
 20
3.6459889168
 30
0.0
 10
5.5819303041
 20
3.6445599315
 30
0.0
  0
SPLINE
  5
345
100
AcDbEntity
  8
0
100
AcDbSpline
 62
7
  6
CONTINUOUS
 70
0
 71
3
 72
15
 73
11
 74
0
 42
0.0000001
 43
0.0000001
 44
0.0000000001
 40
0.0
 40
0.0
 40
0.0
 40
0.0
 40
0.1584273961
 40
0.3121948796
 40
0.4574483187
 40
0.5915039205
 40
0.7129151977
 40
0.8212158978
 40
0.9166691074
 40
1.0
 40
1.0
 40
1.0
 40
1.0
 10
5.6046049937
 20
3.6445599315
 30
0.0
 10
5.6046049937
 20
3.6459852708
 30
0.0
 10
5.6046816596
 20
3.6487946587
 30
0.0
 10
5.6050211695
 20
3.6528982737
 30
0.0
 10
5.6055646573
 20
3.656758792
 30
0.0
 10
5.6062846099
 20
3.6602938622
 30
0.0
 10
5.6071508666
 20
3.6634526451
 30
0.0
 10
5.6081348757
 20
3.6662110881
 30
0.0
 10
5.6092114141
 20
3.6685626227
 30
0.0
 10
5.6100297894
 20
3.6699522791
 30
0.0
 10
5.6104526835
 20
3.6705713329
 30
0.0
  0
SPLINE
  5
346
100
AcDbEntity
  8
0
100
AcDbSpline
 62
7
  6
CONTINUOUS
 70
0
 71
3
 72
15
 73
11
 74
0
 42
0.0000001
 43
0.0000001
 44
0.0000000001
 40
0.0
 40
0.0
 40
0.0
 40
0.0
 40
0.1190378282
 40
0.2395158504
 40
0.3616781147
 40
0.4857673454
 40
0.611882638
 40
0.7399311227
 40
0.8695236763
 40
1.0
 40
1.0
 40
1.0
 40
1.0
 10
5.6104526835
 20
3.6705713329
 30
0.0
 10
5.6116209148
 20
3.6699915858
 30
0.0
 10
5.6139100417
 20
3.6686956167
 30
0.0
 10
5.617118281
 20
3.6663546846
 30
0.0
 10
5.6200571663
 20
3.6635989727
 30
0.0
 10
5.6226503403
 20
3.6604333779
 30
0.0
 10
5.6248108972
 20
3.6568801941
 30
0.0
 10
5.6264460148
 20
3.6529888143
 30
0.0
 10
5.6274696442
 20
3.6488441135
 30
0.0
 10
5.627701982
 20
3.6459894257
 30
0.0
 10
5.627701982
 20
3.6445599315
 30
0.0
  0
SPLINE
  5
347
100
AcDbEntity
  8
0
100
AcDbSpline
 62
7
  6
CONTINUOUS
 70
0
 71
3
 72
18
 73
14
 74
0
 42
0.0000001
 43
0.0000001
 44
0.0000000001
 40
0.0
 40
0.0
 40
0.0
 40
0.0
 40
0.1614351978
 40
0.3178649166
 40
0.4651247137
 40
0.600271069
 40
0.7216440804
 40
0.7769375808
 40
0.8286021661
 40
0.8766739007
 40
0.9212135287
 40
0.9622935024
 40
1.0
 40
1.0
 40
1.0
 40
1.0
 10
5.6494722607
 20
3.6445599315
 30
0.0
 10
5.6494722607
 20
3.6459849835
 30
0.0
 10
5.6495246252
 20
3.6487912009
 30
0.0
 10
5.6497565721
 20
3.6528914478
 30
0.0
 10
5.6501277988
 20
3.6567485075
 30
0.0
 10
5.650619464
 20
3.6602798637
 30
0.0
 10
5.6511265955
 20
3.6629865804
 30
0.0
 10
5.6515802417
 20
3.6649506856
 30
0.0
 10
5.6519275095
 20
3.6662746302
 30
0.0
 10
5.6522903939
 20
3.6674956697
 30
0.0
 10
5.6526669998
 20
3.6686144167
 30
0.0
 10
5.653055504
 20
3.6696317049
 30
0.0
 10
5.6533329594
 20
3.6702698032
 30
0.0
 10
5.6534739171
 20
3.6705713329
 30
0.0
  0
SPLINE
  5
348
100
AcDbEntity
  8
0
100
AcDbSpline
 62
7
  6
CONTINUOUS
 70
0
 71
3
 72
19
 73
15
 74
0
 42
0.0000001
 43
0.0000001
 44
0.0000000001
 40
0.0
 40
0.0
 40
0.0
 40
0.0
 40
0.1212219167
 40
0.2433413572
 40
0.3665014538
 40
0.4908667925
 40
0.5535647486
 40
0.6165885237
 40
0.6799206918
 40
0.7435439184
 40
0.8074121278
 40
0.8714863826
 40
0.9357222542
 40
1.0
 40
1.0
 40
1.0
 40
1.0
 10
5.6534739171
 20
3.6705713329
 30
0.0
 10
5.6546936633
 20
3.6699927566
 30
0.0
 10
5.657082902
 20
3.668700576
 30
0.0
 10
5.6604388147
 20
3.6663614783
 30
0.0
 10
5.6635134283
 20
3.6636079947
 30
0.0
 10
5.6657702996
 20
3.6609765166
 30
0.0
 10
5.6673504573
 20
3.658680504
 30
0.0
 10
5.6684143002
 20
3.6568612481
 30
0.0
 10
5.669341274
 20
3.6549570571
 30
0.0
 10
5.6701192708
 20
3.6529770142
 30
0.0
 10
5.6707376587
 20
3.6509327303
 30
0.0
 10
5.6711868794
 20
3.648837597
 30
0.0
 10
5.6714591951
 20
3.6467077221
 30
0.0
 10
5.6715202923
 20
3.6452757732
 30
0.0
 10
5.6715202923
 20
3.6445599315
 30
0.0
  0
SPLINE
  5
349
100
AcDbEntity
  8
0
100
AcDbSpline
 62
7
  6
CONTINUOUS
 70
0
 71
3
 72
18
 73
14
 74
0
 42
0.0000001
 43
0.0000001
 44
0.0000000001
 40
0.0
 40
0.0
 40
0.0
 40
0.0
 40
0.1634939321
 40
0.3217530906
 40
0.4704059365
 40
0.5401048348
 40
0.6063352404
 40
0.7277259506
 40
0.8337858821
 40
0.8810228055
 40
0.9244390699
 40
0.9640800739
 40
1.0
 40
1.0
 40
1.0
 40
1.0
 10
5.6921765003
 20
3.6445599315
 30
0.0
 10
5.6921765003
 20
3.6459848012
 30
0.0
 10
5.6922041686
 20
3.648789005
 30
0.0
 10
5.692326759
 20
3.6528870781
 30
0.0
 10
5.6924935582
 20
3.6561653395
 30
0.0
 10
5.6926626507
 20
3.6586397908
 30
0.0
 10
5.692842501
 20
3.6608751877
 30
0.0
 10
5.6930949083
 20
3.6634224844
 30
0.0
 10
5.6934005346
 20
3.6657973128
 30
0.0
 10
5.6936666567
 20
3.667491009
 30
0.0
 10
5.6938656761
 20
3.6686090556
 30
0.0
 10
5.6940709061
 20
3.6696255408
 30
0.0
 10
5.6942184273
 20
3.6702674423
 30
0.0
 10
5.6942935852
 20
3.6705713329
 30
0.0
  0
SPLINE
  5
34A
100
AcDbEntity
  8
0
100
AcDbSpline
 62
7
  6
CONTINUOUS
 70
0
 71
3
 72
20
 73
16
 74
0
 42
0.0000001
 43
0.0000001
 44
0.0000000001
 40
0.0
 40
0.0
 40
0.0
 40
0.0
 40
0.1229100071
 40
0.246312895
 40
0.3702722453
 40
0.4325283046
 40
0.4949619048
 40
0.5575688062
 40
0.6203569684
 40
0.6833145437
 40
0.7464347153
 40
0.8096878584
 40
0.8730567412
 40
0.9365235813
 40
1.0
 40
1.0
 40
1.0
 40
1.0
 10
5.6942935852
 20
3.6705713329
 30
0.0
 10
5.6955536297
 20
3.6699935952
 30
0.0
 10
5.6980211771
 20
3.6687040787
 30
0.0
 10
5.7014921468
 20
3.6663668028
 30
0.0
 10
5.7041404625
 20
3.664075151
 30
0.0
 10
5.70607177
 20
3.662039461
 30
0.0
 10
5.7074181712
 20
3.660409515
 30
0.0
 10
5.7086480945
 20
3.6586825067
 30
0.0
 10
5.7097488345
 20
3.6568632995
 30
0.0
 10
5.7107080823
 20
3.654959011
 30
0.0
 10
5.7115132049
 20
3.6529787722
 30
0.0
 10
5.7121531976
 20
3.6509341799
 30
0.0
 10
5.7126181386
 20
3.6488386311
 30
0.0
 10
5.7128999962
 20
3.6467082677
 30
0.0
 10
5.7129632406
 20
3.6452758187
 30
0.0
 10
5.7129632406
 20
3.6445599315
 30
0.0
  0
LINE
  5
34B
100
AcDbEntity
  8
0
100
AcDbLine
 62
7
  6
CONTINUOUS
 10
5.7323064473
 20
3.6445599315
 11
5.732518572
 21
3.6705713329
  0
SPLINE
  5
34C
100
AcDbEntity
  8
0
100
AcDbSpline
 62
7
  6
CONTINUOUS
 70
0
 71
3
 72
19
 73
15
 74
0
 42
0.0000001
 43
0.0000001
 44
0.0000000001
 40
0.0
 40
0.0
 40
0.0
 40
0.0
 40
0.1241016076
 40
0.2484181973
 40
0.3729566239
 40
0.4977701183
 40
0.5603240007
 40
0.6229573463
 40
0.685661861
 40
0.7484378389
 40
0.8112670704
 40
0.8741476013
 40
0.9370805762
 40
1.0
 40
1.0
 40
1.0
 40
1.0
 10
5.732518572
 20
3.6705713329
 30
0.0
 10
5.7338072992
 20
3.6699941544
 30
0.0
 10
5.7363304506
 20
3.6687065614
 30
0.0
 10
5.7398836804
 20
3.6663699695
 30
0.0
 10
5.7431398538
 20
3.6636191693
 30
0.0
 10
5.7455358339
 20
3.6609842779
 30
0.0
 10
5.7472130468
 20
3.6586839818
 30
0.0
 10
5.748340135
 20
3.6568647462
 30
0.0
 10
5.7493223269
 20
3.6549604183
 30
0.0
 10
5.7501467664
 20
3.6529800419
 30
0.0
 10
5.7508021411
 20
3.6509352339
 30
0.0
 10
5.7512782792
 20
3.6488393857
 30
0.0
 10
5.7515669341
 20
3.6467086671
 30
0.0
 10
5.7516317086
 20
3.6452758519
 30
0.0
 10
5.7516317086
 20
3.6445599315
 30
0.0
  0
SPLINE
  5
34D
100
AcDbEntity
  8
0
100
AcDbSpline
 62
7
  6
CONTINUOUS
 70
0
 71
3
 72
19
 73
15
 74
0
 42
0.0000001
 43
0.0000001
 44
0.0000000001
 40
0.0
 40
0.0
 40
0.0
 40
0.0
 40
0.1247836982
 40
0.2496235372
 40
0.3744931953
 40
0.4994178625
 40
0.5619395096
 40
0.6244814936
 40
0.6870374408
 40
0.74961166
 40
0.8121925046
 40
0.874786889
 40
0.9374070118
 40
1.0
 40
1.0
 40
1.0
 40
1.0
 10
5.7677807501
 20
3.6705713329
 30
0.0
 10
5.7690862588
 20
3.6699944679
 30
0.0
 10
5.7716419654
 20
3.6687079168
 30
0.0
 10
5.7752431367
 20
3.6663719219
 30
0.0
 10
5.7785434103
 20
3.6636217848
 30
0.0
 10
5.7809732374
 20
3.6609861307
 30
0.0
 10
5.7826740922
 20
3.6586848209
 30
0.0
 10
5.7838165607
 20
3.6568655983
 30
0.0
 10
5.7848121843
 20
3.6549612446
 30
0.0
 10
5.7856479242
 20
3.6529807923
 30
0.0
 10
5.7863123014
 20
3.6509358588
 30
0.0
 10
5.7867949933
 20
3.6488398345
 30
0.0
 10
5.7870876275
 20
3.6467089049
 30
0.0
 10
5.787153298
 20
3.6452758718
 30
0.0
 10
5.787153298
 20
3.6445599315
 30
0.0
  0
SPLINE
  5
34E
100
AcDbEntity
  8
0
100
AcDbSpline
 62
7
  6
CONTINUOUS
 70
0
 71
3
 72
19
 73
15
 74
0
 42
0.0000001
 43
0.0000001
 44
0.0000000001
 40
0.0
 40
0.0
 40
0.0
 40
0.0
 40
0.1249739506
 40
0.2499599269
 40
0.3749222965
 40
0.4998783179
 40
0.5623911058
 40
0.6249076867
 40
0.6874222049
 40
0.7499400772
 40
0.8124514845
 40
0.8749658217
 40
0.9374983887
 40
1.0
 40
1.0
 40
1.0
 40
1.0
 10
5.7997405255
 20
3.6705713329
 30
0.0
 10
5.8010507469
 20
3.6699945542
 30
0.0
 10
5.8036155946
 20
3.6687082907
 30
0.0
 10
5.8072302253
 20
3.6663724624
 30
0.0
 10
5.8105428787
 20
3.6636225121
 30
0.0
 10
5.8129822111
 20
3.6609866485
 30
0.0
 10
5.8146897073
 20
3.6586850559
 30
0.0
 10
5.8158364946
 20
3.6568658376
 30
0.0
 10
5.81683589
 20
3.6549614772
 30
0.0
 10
5.8176748036
 20
3.652981004
 30
0.0
 10
5.8183417093
 20
3.6509360353
 30
0.0
 10
5.8188262421
 20
3.6488399615
 30
0.0
 10
5.8191199941
 20
3.6467089723
 30
0.0
 10
5.8191859163
 20
3.6452758774
 30
0.0
 10
5.8191859163
 20
3.6445599315
 30
0.0
  0
SPLINE
  5
34F
100
AcDbEntity
  8
0
100
AcDbSpline
 62
7
  6
CONTINUOUS
 70
0
 71
3
 72
19
 73
15
 74
0
 42
0.0000001
 43
0.0000001
 44
0.0000000001
 40
0.0
 40
0.0
 40
0.0
 40
0.0
 40
0.1246748377
 40
0.2494310957
 40
0.3742477684
 40
0.4991545629
 40
0.5616813051
 40
0.6242378404
 40
0.6868174949
 40
0.7494239413
 40
0.8120444866
 40
0.8746846273
 40
0.937354791
 40
1.0
 40
1.0
 40
1.0
 40
1.0
 10
5.8280901078
 20
3.6705713329
 30
0.0
 10
5.8293929262
 20
3.6699944183
 30
0.0
 10
5.8319434144
 20
3.668707702
 30
0.0
 10
5.8355369017
 20
3.6663716118
 30
0.0
 10
5.8388301073
 20
3.6636213682
 30
0.0
 10
5.8412545083
 20
3.6609858347
 30
0.0
 10
5.8429515723
 20
3.6586846866
 30
0.0
 10
5.8440915753
 20
3.6568654617
 30
0.0
 10
5.8450850457
 20
3.654961112
 30
0.0
 10
5.845918974
 20
3.6529806717
 30
0.0
 10
5.8465819079
 20
3.6509357582
 30
0.0
 10
5.847063549
 20
3.6488397622
 30
0.0
 10
5.8473555451
 20
3.6467088666
 30
0.0
 10
5.847421072
 20
3.6452758686
 30
0.0
 10
5.847421072
 20
3.6445599315
 30
0.0
  0
SPLINE
  5
350
100
AcDbEntity
  8
0
100
AcDbSpline
 62
7
  6
CONTINUOUS
 70
0
 71
3
 72
19
 73
15
 74
0
 42
0.0000001
 43
0.0000001
 44
0.0000000001
 40
0.0
 40
0.0
 40
0.0
 40
0.0
 40
0.123882484
 40
0.2480312054
 40
0.3724636077
 40
0.4972417975
 40
0.5598061917
 40
0.6224689813
 40
0.6852212347
 40
0.7480619426
 40
0.8109707833
 40
0.8739429621
 40
0.9369760937
 40
1.0
 40
1.0
 40
1.0
 40
1.0
 10
5.8525564753
 20
3.6705713329
 30
0.0
 10
5.8538398489
 20
3.6699940523
 30
0.0
 10
5.8563526127
 20
3.668706121
 30
0.0
 10
5.8598905431
 20
3.6663693375
 30
0.0
 10
5.863132642
 20
3.6636183264
 30
0.0
 10
5.8655178244
 20
3.6609836838
 30
0.0
 10
5.8671874973
 20
3.6586837135
 30
0.0
 10
5.8683096783
 20
3.6568644744
 30
0.0
 10
5.8692875851
 20
3.6549601554
 30
0.0
 10
5.8701084196
 20
3.6529798036
 30
0.0
 10
5.8707609227
 20
3.6509350359
 30
0.0
 10
5.8712349704
 20
3.6488392437
 30
0.0
 10
5.8715223562
 20
3.6467085919
 30
0.0
 10
5.871586845
 20
3.6452758457
 30
0.0
 10
5.871586845
 20
3.6445599315
 30
0.0
  0
SPLINE
  5
351
100
AcDbEntity
  8
0
100
AcDbSpline
 62
7
  6
CONTINUOUS
 70
0
 71
3
 72
20
 73
16
 74
0
 42
0.0000001
 43
0.0000001
 44
0.0000000001
 40
0.0
 40
0.0
 40
0.0
 40
0.0
 40
0.1225779668
 40
0.2457274437
 40
0.3695277551
 40
0.4317438513
 40
0.494165482
 40
0.5567889628
 40
0.6196221319
 40
0.6826520938
 40
0.7458700016
 40
0.8092430175
 40
0.8727496419
 40
0.9363668311
 40
1.0
 40
1.0
 40
1.0
 40
1.0
 10
5.8729040035
 20
3.6705713329
 30
0.0
 10
5.8741560843
 20
3.6699934345
 30
0.0
 10
5.8766081717
 20
3.6687033906
 30
0.0
 10
5.8800563668
 20
3.6663658238
 30
0.0
 10
5.8826866646
 20
3.6640744073
 30
0.0
 10
5.8846048077
 20
3.662039105
 30
0.0
 10
5.8859423071
 20
3.6604091312
 30
0.0
 10
5.8871640865
 20
3.6586821051
 30
0.0
 10
5.888257525
 20
3.6568628956
 30
0.0
 10
5.889210398
 20
3.6549586226
 30
0.0
 10
5.8900101588
 20
3.6529784223
 30
0.0
 10
5.8906458814
 20
3.6509338905
 30
0.0
 10
5.8911077147
 20
3.6488384243
 30
0.0
 10
5.8913876859
 20
3.6467081585
 30
0.0
 10
5.8914505058
 20
3.6452758096
 30
0.0
 10
5.8914505058
 20
3.6445599315
 30
0.0
  0
SPLINE
  5
352
100
AcDbEntity
  8
0
100
AcDbSpline
 62
7
  6
CONTINUOUS
 70
0
 71
3
 72
18
 73
14
 74
0
 42
0.0000001
 43
0.0000001
 44
0.0000000001
 40
0.0
 40
0.0
 40
0.0
 40
0.0
 40
0.1207868111
 40
0.2425794017
 40
0.3655415648
 40
0.4898542041
 40
0.5525828511
 40
0.6156752697
 40
0.6791124669
 40
0.742874268
 40
0.8069102328
 40
0.8711757251
 40
1.0
 40
1.0
 40
1.0
 40
1.0
 10
5.8889367344
 20
3.6705713329
 30
0.0
 10
5.890145986
 20
3.6699925274
 30
0.0
 10
5.8925148368
 20
3.6686996035
 30
0.0
 10
5.8958406935
 20
3.6663601184
 30
0.0
 10
5.8988876448
 20
3.6636062347
 30
0.0
 10
5.9011233585
 20
3.6609753171
 30
0.0
 10
5.90268877
 20
3.6586799706
 30
0.0
 10
5.9037429879
 20
3.6568607208
 30
0.0
 10
5.9046615611
 20
3.6549565382
 30
0.0
 10
5.9054324912
 20
3.6529766115
 30
0.0
 10
5.9060452642
 20
3.6509321731
 30
0.0
 10
5.9066390277
 20
3.6481385442
 30
0.0
 10
5.9068207564
 20
3.645989777
 30
0.0
 10
5.9068207564
 20
3.6445599315
 30
0.0
  0
SPLINE
  5
353
100
AcDbEntity
  8
0
100
AcDbSpline
 62
7
  6
CONTINUOUS
 70
0
 71
3
 72
15
 73
11
 74
0
 42
0.0000001
 43
0.0000001
 44
0.0000000001
 40
0.0
 40
0.0
 40
0.0
 40
0.0
 40
0.1184671095
 40
0.2385149543
 40
0.3604126266
 40
0.4844216058
 40
0.6106479934
 40
0.7389868472
 40
0.8690118274
 40
1.0
 40
1.0
 40
1.0
 40
1.0
 10
5.9005002641
 20
3.6705713329
 30
0.0
 10
5.9016555733
 20
3.6699912733
 30
0.0
 10
5.9039195672
 20
3.6686943088
 30
0.0
 10
5.9070907378
 20
3.6663528919
 30
0.0
 10
5.9099954927
 20
3.6635967127
 30
0.0
 10
5.9125583122
 20
3.660430792
 30
0.0
 10
5.9146933116
 20
3.6568775827
 30
0.0
 10
5.9163088523
 20
3.6529866396
 30
0.0
 10
5.9173200895
 20
3.6488428411
 30
0.0
 10
5.9175495729
 20
3.6459893177
 30
0.0
 10
5.9175495729
 20
3.6445599315
 30
0.0
  0
SPLINE
  5
354
100
AcDbEntity
  8
0
100
AcDbSpline
 62
7
  6
CONTINUOUS
 70
0
 71
3
 72
15
 73
11
 74
0
 42
0.0000001
 43
0.0000001
 44
0.0000000001
 40
0.0
 40
0.0
 40
0.0
 40
0.0
 40
0.1155557129
 40
0.2334218869
 40
0.3539902814
 40
0.4776101623
 40
0.6044142802
 40
0.7342288976
 40
0.8664362409
 40
1.0
 40
1.0
 40
1.0
 40
1.0
 10
5.9074832296
 20
3.6705713329
 30
0.0
 10
5.9085740095
 20
3.6699895882
 30
0.0
 10
5.9107123737
 20
3.668687334
 30
0.0
 10
5.9136982059
 20
3.6663434914
 30
0.0
 10
5.9164323002
 20
3.6635850812
 30
0.0
 10
5.9188433987
 20
3.6604177371
 30
0.0
 10
5.9208507873
 20
3.6568646405
 30
0.0
 10
5.9223687419
 20
3.6529760263
 30
0.0
 10
5.923318321
 20
3.648836696
 30
0.0
 10
5.923533631
 20
3.6459887967
 30
0.0
 10
5.923533631
 20
3.6445599315
 30
0.0
  0
ENDSEC
  0
SECTION
  2
OBJECTS
  0
DICTIONARY
  5
C
100
AcDbDictionary
280
0
281
1
  3
ACAD_GROUP
350
D
  3
ACAD_MLINESTYLE
350
17
  3
ACAD_LAYOUT
350
1A
  3
ACAD_PLOTSETTINGS
350
19
  3
ACAD_PLOTSTYLENAME
350
E
  0
DICTIONARY
  5
D
102
{ACAD_REACTORS
330
C
102
}
100
AcDbDictionary
280
0
281
1
  0
ACDBDICTIONARYWDFLT
  5
E
102
{ACAD_REACTORS
330
C
102
}
100
AcDbDictionary
281
1
  3
Normal
350
F
100
AcDbDictionaryWithDefault
340
F
  0
DICTIONARY
  5
17
102
{ACAD_REACTORS
330
C
102
}
100
AcDbDictionary
280
0
281
1
  3
Standard
350
18
  0
DICTIONARY
  5
19
102
{ACAD_REACTORS
330
C
102
}
100
AcDbDictionary
281
1
  0
DICTIONARY
  5
1A
102
{ACAD_REACTORS
330
C
102
}
100
AcDbDictionary
281
1
  3
Model
350
355
  3
Layout1
350
356
  0
ACDBPLACEHOLDER
  5
F
102
{ACAD_REACTORS
330
E
102
}
  0
MLINESTYLE
  5
18
102
{ACAD_REACTORS
330
17
102
}
100
AcDbMlineStyle
  2
STANDARD
 70
0
  3

 62
256
 51
90.0
 52
90.0
 71
2
 49
0.5
 62
256
  6
BYLAYER
 49
-0.5
 62
256
  6
BYLAYER
  0
LAYOUT
  5
355
102
{ACAD_REACTORS
330
1A
102
}
100
AcDbPlotSettings
  1

  2
none_device
  4
ANSI_A_(11.00_x_8.50_Inches)
  6

 40
0.0
 41
0.0
 42
0.0
 43
0.0
 44
279.4
 45
215.9
 46
0.0
 47
0.0
 48
0.0
 49
0.0
140
0.0
141
0.0
142
1.0
143
1.0
 70
1024
 72
0
 73
0
 74
0
  7

 75
0
147
1.0
148
0.0
149
0.0
100
AcDbLayout
  1
Model
 70
0
 71
0
 10
0.0
 20
0.0
 11
11.0
 21
8.5
 12
0.0
 22
0.0
 32
0.0
 14
0.0
 24
0.0
 34
0.0
 15
0.0
 25
0.0
 35
0.0
146
0.0
 13
0.0
 23
0.0
 33
0.0
 16
1.0
 26
0.0
 36
0.0
 17
0.0
 27
1.0
 37
0.0
 76
0
330
203
345
0
346
0
  0
LAYOUT
  5
356
102
{ACAD_REACTORS
330
1A
102
}
100
AcDbPlotSettings
  1

  2
none_device
  4
ANSI_A_(11.00_x_8.50_Inches)
  6

 40
0.0
 41
0.0
 42
0.0
 43
0.0
 44
279.4
 45
215.9
 46
0.0
 47
0.0
 48
0.0
 49
0.0
140
0.0
141
0.0
142
1.0
143
1.0
 70
0
 72
0
 73
0
 74
0
  7

 75
0
147
1.0
148
0.0
149
0.0
100
AcDbLayout
  1
Layout1
 70
0
 71
1
 10
0.0
 20
0.0
 11
11.0
 21
8.5
 12
0.0
 22
0.0
 32
0.0
 14
0.0
 24
0.0
 34
0.0
 15
0.0
 25
0.0
 35
0.0
146
0.0
 13
0.0
 23
0.0
 33
0.0
 16
1.0
 26
0.0
 36
0.0
 17
0.0
 27
1.0
 37
0.0
 76
0
330
204
345
0
346
0
  0
ENDSEC
  0
EOF
