999
DXF file: 5-3242bp_front.dxf
999
Pro/ENGINEER 2023134 by Parametric Technology Corporation
  0
SECTION
  2
HEADER
  9
$ACADVER
  1
AC1032
  9
$DWGCODEPAGE
  3
ANSI_1252
  9
$EXTMAX
 10
11.0
 20
8.5
 30
0.0
  9
$EXTMIN
 10
0.0
 20
0.0
 30
0.0
  9
$LIMMIN
 10
0.0
 20
0.0
  9
$LIMMAX
 10
11.0
 20
8.5
  9
$VIEWCTR
 10
5.5
 20
4.25
  9
$VIEWSIZE
 40
8.5
  9
$CLAYER
  8
0
  9
$LTSCALE
 40
0.605
  9
$CELTYPE
  6
BYLAYER
  9
$DIMSCALE
 40
1.0
  9
$DIMASZ
 40
0.1
  9
$DIMEXO
 40
0.0625
  9
$DIMDLI
 40
0.418
  9
$DIMEXE
 40
0.125
  9
$DIMCEN
 40
0.099
  9
$DIMLFAC
 40
1.0
  9
$DIMBLK
  1
_FILLED
  9
$DIMALT
 70
1
  9
$DIMALTD
 70
2
  9
$DIMALTTD
 70
2
  9
$DIMALTF
 40
25.4
  9
$DIMTXT
 40
0.08
  9
$DIMTOL
 70
1
  9
$DIMLIM
 70
0
  9
$DIMTFAC
 40
1.0
  9
$DIMTP
 40
0.001
  9
$DIMTM
 40
0.001
  9
$DIMGAP
 40
0.09
  9
$DIMDSEP
 70
46
  9
$AUNITS
 70
0
  9
$PDMODE
 70
3
  9
$PDSIZE
 40
0.3125
  9
$HANDSEED
  5
3D1
  9
$TILEMODE
 70
1
  9
$MEASUREMENT
 70
0
  9
$INSUNITS
 70
1
  0
ENDSEC
  0
SECTION
  2
CLASSES
  0
CLASS
  1
ACDBDICTIONARYWDFLT
  2
AcDbDictionaryWithDefault
  3
AutoCAD 2000
 90
0
 91
1
280
0
281
0
  0
CLASS
  1
ACDBPLACEHOLDER
  2
AcDbPlaceHolder
  3
AutoCAD 2000
 90
0
 91
1
280
0
281
0
  0
CLASS
  1
LAYOUT
  2
AcDbLayout
  3
AutoCAD 2000
 90
0
 91
0
280
0
281
0
  0
ENDSEC
  0
SECTION
  2
TABLES
  0
TABLE
  2
VPORT
  5
8
100
AcDbSymbolTable
 70
2
  0
VPORT
  5
1F4
100
AcDbSymbolTableRecord
100
AcDbViewportTableRecord
  2
*ACTIVE
 70
0
 10
0.0
 20
0.0
 11
1.0
 21
1.0
 12
5.5
 22
4.25
 13
0.0
 23
0.0
 14
1.0
 24
1.0
 15
0.0
 25
0.0
 16
0.0
 26
0.0
 36
1.0
 17
0.0
 27
0.0
 37
0.0
 40
8.5
 41
1.2941176471
 42
50.0
 43
0.0
 44
0.0
 50
0.0
 51
0.0
 71
0
 72
100
 73
1
 74
1
 75
0
 76
0
 77
0
 78
0
  0
ENDTAB
  0
TABLE
  2
LTYPE
  5
5
100
AcDbSymbolTable
 70
6
  0
LTYPE
  5
14
100
AcDbSymbolTableRecord
100
AcDbLinetypeTableRecord
  2
BYBLOCK
 70
0
  3

 72
65
 73
0
 40
0.0
  0
LTYPE
  5
15
100
AcDbSymbolTableRecord
100
AcDbLinetypeTableRecord
  2
BYLAYER
 70
0
  3

 72
65
 73
0
 40
0.0
  0
LTYPE
  5
16
100
AcDbSymbolTableRecord
100
AcDbLinetypeTableRecord
  2
CONTINUOUS
 70
64
  3
Solid line
 72
65
 73
0
 40
0.0
  0
LTYPE
  5
1F5
100
AcDbSymbolTableRecord
100
AcDbLinetypeTableRecord
  2
CENTER
 70
64
  3
____ _ ____ _ ____ _ ____ _ ____ _ ____ _ ____
 72
65
 73
4
 40
0.6
 49
0.375
 74
0
 49
-0.075
 74
0
 49
0.075
 74
0
 49
-0.075
 74
0
  0
LTYPE
  5
1F6
100
AcDbSymbolTableRecord
100
AcDbLinetypeTableRecord
  2
HIDDEN
 70
64
  3
- - - - - - - - - - - - - - - - - - - -
 72
65
 73
2
 40
0.2
 49
0.1
 74
0
 49
-0.1
 74
0
  0
LTYPE
  5
1F7
100
AcDbSymbolTableRecord
100
AcDbLinetypeTableRecord
  2
PHANTOM
 70
64
  3
_____ _ _ _____ _ _ _____ _ _ _____
 72
65
 73
6
 40
0.8
 49
0.45
 74
0
 49
-0.05
 74
0
 49
0.1
 74
0
 49
-0.05
 74
0
 49
0.1
 74
0
 49
-0.05
 74
0
  0
LTYPE
  5
1F8
100
AcDbSymbolTableRecord
100
AcDbLinetypeTableRecord
  2
DOT
 70
64
  3
. . . . . . . . . . . . . . . . . . . .
 72
65
 73
2
 40
0.2
 49
0.1
 74
0
 49
-0.1
 74
0
  0
LTYPE
  5
1F9
100
AcDbSymbolTableRecord
100
AcDbLinetypeTableRecord
  2
DASHED
 70
64
  3
- - - - - - - - - - - - - - - - - - - -
 72
65
 73
2
 40
0.2
 49
0.1
 74
0
 49
-0.1
 74
0
  0
ENDTAB
  0
TABLE
  2
LAYER
  5
2
100
AcDbSymbolTable
 70
36
  0
LAYER
  5
10
100
AcDbSymbolTableRecord
100
AcDbLayerTableRecord
  2
0
 70
0
 62
7
  6
CONTINUOUS
370
-3
390
F
  0
LAYER
  5
1FA
100
AcDbSymbolTableRecord
100
AcDbLayerTableRecord
  2
DEFAULT_1
 70
0
 62
7
  6
CENTER
370
-3
390
F
  0
LAYER
  5
1FB
100
AcDbSymbolTableRecord
100
AcDbLayerTableRecord
  2
DEFAULT_2
 70
0
 62
8
  6
HIDDEN
370
-3
390
F
  0
LAYER
  5
1FC
100
AcDbSymbolTableRecord
100
AcDbLayerTableRecord
  2
DEFAULT_3
 70
0
 62
7
  6
PHANTOM
370
-3
390
F
  0
LAYER
  5
1FD
100
AcDbSymbolTableRecord
100
AcDbLayerTableRecord
  2
DEFAULT_COORDINATE_SYSTEM
 70
0
 62
7
  6
CONTINUOUS
370
-3
390
F
  0
LAYER
  5
1FE
100
AcDbSymbolTableRecord
100
AcDbLayerTableRecord
  2
DEFAULT_DATUM_AXES
 70
0
 62
7
  6
CONTINUOUS
370
-3
390
F
  0
LAYER
  5
1FF
100
AcDbSymbolTableRecord
100
AcDbLayerTableRecord
  2
DEFAULT_DATUM_CURVES
 70
0
 62
7
  6
CONTINUOUS
370
-3
390
F
  0
LAYER
  5
200
100
AcDbSymbolTableRecord
100
AcDbLayerTableRecord
  2
DEFAULT_DATUM_PLANES
 70
0
 62
7
  6
CONTINUOUS
370
-3
390
F
  0
ENDTAB
  0
TABLE
  2
STYLE
  5
3
100
AcDbSymbolTable
 70
1
  0
STYLE
  5
11
100
AcDbSymbolTableRecord
100
AcDbTextStyleTableRecord
  2
STANDARD
 70
0
 40
0.0
 41
0.8
 50
0.0
 71
0
 42
0.2
  3
txt
  4

  0
STYLE
  5
201
100
AcDbSymbolTableRecord
100
AcDbTextStyleTableRecord
  2
TEXTSTYLE_1
 70
0
 40
0.0
 41
0.8
 50
0.0
 71
0
 42
0.2
  3
gdt
  4

  0
ENDTAB
  0
TABLE
  2
VIEW
  5
6
100
AcDbSymbolTable
 70
0
  0
ENDTAB
  0
TABLE
  2
UCS
  5
7
100
AcDbSymbolTable
 70
0
  0
ENDTAB
  0
TABLE
  2
APPID
  5
9
100
AcDbSymbolTable
 70
1
  0
APPID
  5
202
100
AcDbSymbolTableRecord
100
AcDbRegAppTableRecord
  2
ACAD
 70
0
  0
ENDTAB
  0
TABLE
  2
BLOCK_RECORD
  5
1
100
AcDbSymbolTable
 70
0
  0
BLOCK_RECORD
  5
203
100
AcDbSymbolTableRecord
100
AcDbBlockTableRecord
  2
*Model_Space
  0
BLOCK_RECORD
  5
204
100
AcDbSymbolTableRecord
100
AcDbBlockTableRecord
  2
*Paper_Space
  0
BLOCK_RECORD
  5
205
100
AcDbSymbolTableRecord
100
AcDbBlockTableRecord
  2
_FILLED
  0
ENDTAB
  0
TABLE
  2
DIMSTYLE
  5
A
100
AcDbSymbolTable
 70
1
100
AcDbDimStyleTable
 71
0
  0
DIMSTYLE
105
206
100
AcDbSymbolTableRecord
100
AcDbDimStyleTableRecord
  2
STANDARD
 70
0
  3

  4

 40
1.0
 41
0.1
 42
0.0625
 43
0.38
 44
0.125
 45
0.0
 46
0.0
 47
0.001
 48
0.001
140
0.08
141
0.09
142
0.0
143
25.4
144
1.0
145
0.0
146
1.0
147
0.09
 71
1
 72
0
 73
1
 74
1
 75
0
 76
0
 77
0
 78
4
 79
1
170
1
171
2
172
0
173
0
174
0
175
0
176
0
177
0
178
0
270
2
179
3
271
3
272
3
273
2
274
2
275
0
280
0
281
0
282
0
283
1
284
4
285
0
286
0
287
3
288
0
340
11
278
46
341
205
342
205
343
205
344
205
  0
ENDTAB
  0
ENDSEC
  0
SECTION
  2
BLOCKS
  0
BLOCK
  5
20
100
AcDbEntity
  8
0
100
AcDbBlockBegin
  2
*Model_Space
 70
0
 10
0.0
 20
0.0
 30
0.0
  3
*Model_Space
  1

  0
ENDBLK
  5
21
100
AcDbEntity
  8
0
100
AcDbBlockEnd
  0
BLOCK
  5
1C
100
AcDbEntity
  8
0
100
AcDbBlockBegin
  2
*Paper_Space
 70
0
 10
0.0
 20
0.0
 30
0.0
  3
*Paper_Space
  1

  0
ENDBLK
  5
1D
100
AcDbEntity
  8
0
100
AcDbBlockEnd
  0
BLOCK
  5
207
100
AcDbEntity
  8
0
100
AcDbBlockBegin
  2
_FILLED
 70
64
 10
0.0
 20
0.0
  3
_FILLED
  1

  0
SOLID
  5
208
100
AcDbEntity
  8
0
  6
BYBLOCK
 62
0
100
AcDbTrace
 10
0.0
 20
0.0
 11
-1.0
 21
0.2
 12
-1.0
 22
-0.2
 13
-1.0
 23
-0.2
  0
ENDBLK
  5
209
100
AcDbEntity
  8
0
  6
BYBLOCK
 62
0
100
AcDbBlockEnd
  0
ENDSEC
  0
SECTION
  2
ENTITIES
  0
MTEXT
  5
20A
100
AcDbEntity
  8
0
100
AcDbMText
 62
2
  6
CONTINUOUS
  7
STANDARD
 71
3
 72
1
 10
5.6560359589
 20
0.6495633562
 30
0.0
 11
1.0
 21
0.0
 31
0.0
 73
2
 44
0.9
  1
SCALE 1.000
 40
0.08
 41
0.704
  0
LINE
  5
20B
100
AcDbEntity
  8
0
100
AcDbLine
 62
7
  6
CONTINUOUS
 10
0.0
 20
0.0
 11
0.0
 21
8.5
  0
LINE
  5
20C
100
AcDbEntity
  8
0
100
AcDbLine
 62
7
  6
CONTINUOUS
 10
0.0
 20
0.0
 11
11.0
 21
0.0
  0
LINE
  5
20D
100
AcDbEntity
  8
0
100
AcDbLine
 62
7
  6
CONTINUOUS
 10
0.0
 20
8.5
 11
11.0
 21
8.5
  0
LINE
  5
20E
100
AcDbEntity
  8
0
100
AcDbLine
 62
7
  6
CONTINUOUS
 10
11.0
 20
0.0
 11
11.0
 21
8.5
  0
LINE
  5
20F
100
AcDbEntity
  8
0
100
AcDbLine
 62
7
  6
CONTINUOUS
 10
5.1490100087
 20
6.7543746397
 11
5.1652635376
 21
6.7591618731
  0
LINE
  5
210
100
AcDbEntity
  8
0
100
AcDbLine
 62
7
  6
CONTINUOUS
 10
5.1368198678
 20
6.7448001727
 11
5.1490100087
 21
6.7543746397
  0
LINE
  5
211
100
AcDbEntity
  8
0
100
AcDbLine
 62
7
  6
CONTINUOUS
 10
5.1449466207
 20
6.7830980405
 11
5.128693115
 21
6.7735235736
  0
LINE
  5
212
100
AcDbEntity
  8
0
100
AcDbLine
 62
7
  6
CONTINUOUS
 10
5.2140241009
 20
6.5963959116
 11
5.1977705721
 21
6.5916086782
  0
LINE
  5
213
100
AcDbEntity
  8
0
100
AcDbLine
 62
7
  6
CONTINUOUS
 10
6.9728221497
 20
2.862885274
 11
6.9929023789
 21
2.8676725079
  0
LINE
  5
214
100
AcDbEntity
  8
0
100
AcDbLine
 62
7
  6
CONTINUOUS
 10
6.6033462216
 20
2.862885274
 11
6.6234264508
 21
2.8676725079
  0
LINE
  5
215
100
AcDbEntity
  8
0
100
AcDbLine
 62
7
  6
CONTINUOUS
 10
6.4186082575
 20
2.862885274
 11
6.4386884752
 21
2.8676725079
  0
LINE
  5
216
100
AcDbEntity
  8
0
100
AcDbLine
 62
7
  6
CONTINUOUS
 10
3.6937071918
 20
4.580385274
 11
3.6937071918
 21
4.370385274
  0
LINE
  5
217
100
AcDbEntity
  8
0
100
AcDbLine
 62
7
  6
CONTINUOUS
 10
5.128693115
 20
6.7735235736
 11
5.1124395861
 21
6.7543746397
  0
LINE
  5
218
100
AcDbEntity
  8
0
100
AcDbLine
 62
7
  6
CONTINUOUS
 10
5.2262142418
 20
6.6059703819
 11
5.2140241009
 21
6.5963959116
  0
LINE
  5
219
100
AcDbEntity
  8
0
100
AcDbLine
 62
7
  6
CONTINUOUS
 10
5.2180874657
 20
6.5676725079
 11
5.2343409946
 21
6.5772469761
  0
LINE
  5
21A
100
AcDbEntity
  8
0
100
AcDbLine
 62
7
  6
CONTINUOUS
 10
6.571217887
 20
3.087885274
 11
6.5511376807
 21
3.0830980405
  0
LINE
  5
21B
100
AcDbEntity
  8
0
100
AcDbLine
 62
7
  6
CONTINUOUS
 10
6.3824638782
 20
3.087885274
 11
6.3623836633
 21
3.0830980405
  0
LINE
  5
21C
100
AcDbEntity
  8
0
100
AcDbLine
 62
7
  6
CONTINUOUS
 10
6.3824638782
 20
2.862885274
 11
6.4186082575
 21
2.862885274
  0
LINE
  5
21D
100
AcDbEntity
  8
0
100
AcDbLine
 62
7
  6
CONTINUOUS
 10
6.571217887
 20
2.862885274
 11
6.6033462216
 21
2.862885274
  0
LINE
  5
21E
100
AcDbEntity
  8
0
100
AcDbLine
 62
7
  6
CONTINUOUS
 10
6.6997312483
 20
2.862885274
 11
6.8443088114
 21
2.862885274
  0
LINE
  5
21F
100
AcDbEntity
  8
0
100
AcDbLine
 62
7
  6
CONTINUOUS
 10
6.876437123
 20
2.862885274
 11
6.9728221497
 21
2.862885274
  0
LINE
  5
220
100
AcDbEntity
  8
0
100
AcDbLine
 62
7
  6
CONTINUOUS
 10
6.9728221497
 20
2.8916086782
 11
6.9005333797
 21
2.8916086782
  0
LINE
  5
221
100
AcDbEntity
  8
0
100
AcDbLine
 62
7
  6
CONTINUOUS
 10
6.8443088114
 20
2.8916086782
 11
6.723827528
 21
2.8916086782
  0
LINE
  5
222
100
AcDbEntity
  8
0
100
AcDbLine
 62
7
  6
CONTINUOUS
 10
6.6033462216
 20
2.8916086782
 11
6.571217887
 21
2.8916086782
  0
LINE
  5
223
100
AcDbEntity
  8
0
100
AcDbLine
 62
7
  6
CONTINUOUS
 10
6.4186082575
 20
2.8916086782
 11
6.3824638782
 21
2.8916086782
  0
LINE
  5
224
100
AcDbEntity
  8
0
100
AcDbLine
 62
7
  6
CONTINUOUS
 10
6.4748328602
 20
2.9203320823
 11
6.4507366035
 21
2.9203320823
  0
LINE
  5
225
100
AcDbEntity
  8
0
100
AcDbLine
 62
7
  6
CONTINUOUS
 10
5.0887071918
 20
2.975385274
 11
5.2987071918
 21
2.975385274
  0
LINE
  5
226
100
AcDbEntity
  8
0
100
AcDbLine
 62
7
  6
CONTINUOUS
 10
3.7137071918
 20
4.350385274
 11
3.7137071918
 21
4.600385274
  0
LINE
  5
227
100
AcDbEntity
  8
0
100
AcDbLine
 62
7
  6
CONTINUOUS
 10
5.2343409946
 20
6.5772469761
 11
5.2505945235
 21
6.5963959116
  0
LINE
  5
228
100
AcDbEntity
  8
0
100
AcDbLine
 62
7
  6
CONTINUOUS
 10
5.0687071918
 20
2.995385274
 11
5.3187071918
 21
2.995385274
  0
LINE
  5
229
100
AcDbEntity
  8
0
100
AcDbLine
 62
7
  6
CONTINUOUS
 10
6.4507366035
 20
3.0304384589
 11
6.4748328602
 21
3.0304384589
  0
LINE
  5
22A
100
AcDbEntity
  8
0
100
AcDbLine
 62
7
  6
CONTINUOUS
 10
6.3824638782
 20
3.0591618731
 11
6.4186082575
 21
3.0591618731
  0
LINE
  5
22B
100
AcDbEntity
  8
0
100
AcDbLine
 62
7
  6
CONTINUOUS
 10
6.571217887
 20
3.0591618731
 11
6.6033462216
 21
3.0591618731
  0
LINE
  5
22C
100
AcDbEntity
  8
0
100
AcDbLine
 62
7
  6
CONTINUOUS
 10
6.9005333797
 20
3.0591618731
 11
6.9728221497
 21
3.0591618731
  0
LINE
  5
22D
100
AcDbEntity
  8
0
100
AcDbLine
 62
7
  6
CONTINUOUS
 10
6.9728221497
 20
3.087885274
 11
6.876437123
 21
3.087885274
  0
LINE
  5
22E
100
AcDbEntity
  8
0
100
AcDbLine
 62
7
  6
CONTINUOUS
 10
6.723827528
 20
3.087885274
 11
6.6997312483
 21
3.087885274
  0
LINE
  5
22F
100
AcDbEntity
  8
0
100
AcDbLine
 62
7
  6
CONTINUOUS
 10
6.6033462216
 20
3.087885274
 11
6.571217887
 21
3.087885274
  0
LINE
  5
230
100
AcDbEntity
  8
0
100
AcDbLine
 62
7
  6
CONTINUOUS
 10
6.4186082575
 20
3.087885274
 11
6.3824638782
 21
3.087885274
  0
LINE
  5
231
100
AcDbEntity
  8
0
100
AcDbLine
 62
7
  6
CONTINUOUS
 10
6.3623836633
 20
2.8676725079
 11
6.3824638782
 21
2.862885274
  0
LINE
  5
232
100
AcDbEntity
  8
0
100
AcDbLine
 62
7
  6
CONTINUOUS
 10
6.5511376807
 20
2.8676725079
 11
6.571217887
 21
2.862885274
  0
LINE
  5
233
100
AcDbEntity
  8
0
100
AcDbLine
 62
7
  6
CONTINUOUS
 10
5.1124395861
 20
6.7543746397
 11
5.1043128333
 21
6.7352257058
  0
LINE
  5
234
100
AcDbEntity
  8
0
100
AcDbLine
 62
7
  6
CONTINUOUS
 10
5.128693115
 20
6.7304384589
 11
5.1368198678
 21
6.7448001727
  0
LINE
  5
235
100
AcDbEntity
  8
0
100
AcDbLine
 62
7
  6
CONTINUOUS
 10
5.2343409946
 20
6.6203320823
 11
5.2262142418
 21
6.6059703819
  0
LINE
  5
236
100
AcDbEntity
  8
0
100
AcDbLine
 62
7
  6
CONTINUOUS
 10
6.8251926287
 20
5.9969278246
 11
6.8115906869
 21
5.9921405911
  0
LINE
  5
237
100
AcDbEntity
  8
0
100
AcDbLine
 62
7
  6
CONTINUOUS
 10
6.4386884752
 20
3.0830980405
 11
6.4186082575
 21
3.087885274
  0
LINE
  5
238
100
AcDbEntity
  8
0
100
AcDbLine
 62
7
  6
CONTINUOUS
 10
6.6234264508
 20
3.0830980405
 11
6.6033462216
 21
3.087885274
  0
LINE
  5
239
100
AcDbEntity
  8
0
100
AcDbLine
 62
7
  6
CONTINUOUS
 10
6.9929023789
 20
3.0830980405
 11
6.9728221497
 21
3.087885274
  0
LINE
  5
23A
100
AcDbEntity
  8
0
100
AcDbLine
 62
7
  6
CONTINUOUS
 10
6.3824638782
 20
2.8916086782
 11
6.3663997051
 21
2.8963959116
  0
LINE
  5
23B
100
AcDbEntity
  8
0
100
AcDbLine
 62
7
  6
CONTINUOUS
 10
6.571217887
 20
2.8916086782
 11
6.5551537082
 21
2.8963959116
  0
LINE
  5
23C
100
AcDbEntity
  8
0
100
AcDbLine
 62
7
  6
CONTINUOUS
 10
6.4186082575
 20
3.0591618731
 11
6.4346724363
 21
3.0543746397
  0
LINE
  5
23D
100
AcDbEntity
  8
0
100
AcDbLine
 62
7
  6
CONTINUOUS
 10
6.6033462216
 20
3.0591618731
 11
6.6194104003
 21
3.0543746397
  0
LINE
  5
23E
100
AcDbEntity
  8
0
100
AcDbLine
 62
7
  6
CONTINUOUS
 10
5.2505945235
 20
6.5963959116
 11
5.2587212763
 21
6.6155448489
  0
LINE
  5
23F
100
AcDbEntity
  8
0
100
AcDbLine
 62
7
  6
CONTINUOUS
 10
6.9728221497
 20
3.0591618731
 11
6.9888863515
 21
3.0543746397
  0
LINE
  5
240
100
AcDbEntity
  8
0
100
AcDbLine
 62
7
  6
CONTINUOUS
 10
6.3463194903
 20
2.8772469761
 11
6.3623836633
 21
2.8676725079
  0
LINE
  5
241
100
AcDbEntity
  8
0
100
AcDbLine
 62
7
  6
CONTINUOUS
 10
6.5350735019
 20
2.8772469761
 11
6.5511376807
 21
2.8676725079
  0
LINE
  5
242
100
AcDbEntity
  8
0
100
AcDbLine
 62
7
  6
CONTINUOUS
 10
4.924285182
 20
4.0721667415
 11
4.9264022668
 21
4.0528357773
  0
LINE
  5
243
100
AcDbEntity
  8
0
100
AcDbLine
 62
7
  6
CONTINUOUS
 10
4.8491031387
 20
4.8376669966
 11
4.850798017
 21
4.8182944488
  0
LINE
  5
244
100
AcDbEntity
  8
0
100
AcDbLine
 62
7
  6
CONTINUOUS
 10
4.8860601951
 20
4.1005163239
 11
4.8862723198
 21
4.081070933
  0
LINE
  5
245
100
AcDbEntity
  8
0
100
AcDbLine
 62
7
  6
CONTINUOUS
 10
4.9052071918
 20
6.787885274
 11
4.9052071918
 21
6.562885274
  0
LINE
  5
246
100
AcDbEntity
  8
0
100
AcDbLine
 62
7
  6
CONTINUOUS
 10
4.8862723198
 20
4.8696996149
 11
4.8860601951
 21
4.8502542241
  0
LINE
  5
247
100
AcDbEntity
  8
0
100
AcDbLine
 62
7
  6
CONTINUOUS
 10
4.850798017
 20
4.1324760992
 11
4.8491031387
 21
4.1131035513
  0
LINE
  5
248
100
AcDbEntity
  8
0
100
AcDbLine
 62
7
  6
CONTINUOUS
 10
4.9264022668
 20
4.8979347706
 11
4.924285182
 21
4.8786038065
  0
LINE
  5
249
100
AcDbEntity
  8
0
100
AcDbLine
 62
7
  6
CONTINUOUS
 10
5.1043128333
 20
6.7352257058
 11
5.1002494453
 21
6.711289525
  0
LINE
  5
24A
100
AcDbEntity
  8
0
100
AcDbLine
 62
7
  6
CONTINUOUS
 10
5.2587212763
 20
6.6155448489
 11
5.2627846643
 21
6.6394810162
  0
LINE
  5
24B
100
AcDbEntity
  8
0
100
AcDbLine
 62
7
  6
CONTINUOUS
 10
4.8188382417
 20
4.1677382773
 11
4.8152526829
 21
4.1486251407
  0
LINE
  5
24C
100
AcDbEntity
  8
0
100
AcDbLine
 62
7
  6
CONTINUOUS
 10
4.9691065064
 20
4.9221005436
 11
4.9651048501
 21
4.903070174
  0
LINE
  5
24D
100
AcDbEntity
  8
0
100
AcDbLine
 62
7
  6
CONTINUOUS
 10
5.124629727
 20
6.711289525
 11
5.128693115
 21
6.7304384589
  0
LINE
  5
24E
100
AcDbEntity
  8
0
100
AcDbLine
 62
7
  6
CONTINUOUS
 10
5.2384043826
 20
6.6394810162
 11
5.2343409946
 21
6.6203320823
  0
LINE
  5
24F
100
AcDbEntity
  8
0
100
AcDbLine
 62
7
  6
CONTINUOUS
 10
4.7904886593
 20
4.2059632641
 11
4.785046951
 21
4.1872936087
  0
LINE
  5
250
100
AcDbEntity
  8
0
100
AcDbLine
 62
7
  6
CONTINUOUS
 10
5.0139737734
 20
4.9419642044
 11
5.0081260837
 21
4.9234177021
  0
LINE
  5
251
100
AcDbEntity
  8
0
100
AcDbLine
 62
7
  6
CONTINUOUS
 10
4.7660222918
 20
4.2467829322
 11
4.7587768406
 21
4.228736557
  0
LINE
  5
252
100
AcDbEntity
  8
0
100
AcDbLine
 62
7
  6
CONTINUOUS
 10
5.0605719714
 20
4.957334455
 11
5.0529345648
 21
4.939450433
  0
LINE
  5
253
100
AcDbEntity
  8
0
100
AcDbLine
 62
7
  6
CONTINUOUS
 10
4.7456747637
 20
4.2898041659
 11
4.7366953472
 21
4.2725548673
  0
LINE
  5
254
100
AcDbEntity
  8
0
100
AcDbLine
 62
7
  6
CONTINUOUS
 10
5.1084523344
 20
4.9680632715
 11
5.0990987633
 21
4.9510139628
  0
LINE
  5
255
100
AcDbEntity
  8
0
100
AcDbLine
 62
7
  6
CONTINUOUS
 10
4.7296420327
 20
4.334612647
 11
4.7190151277
 21
4.3183265452
  0
LINE
  5
256
100
AcDbEntity
  8
0
100
AcDbLine
 62
7
  6
CONTINUOUS
 10
5.1571537483
 20
4.9740473296
 11
5.1461740927
 21
4.9579969282
  0
LINE
  5
257
100
AcDbEntity
  8
0
100
AcDbLine
 62
7
  6
CONTINUOUS
 10
4.718078503
 20
4.3807768455
 11
4.7059064523
 21
4.3656107846
  0
LINE
  5
258
100
AcDbEntity
  8
0
100
AcDbLine
 62
7
  6
CONTINUOUS
 10
5.2062071918
 20
4.9752289996
 11
5.1937071918
 21
4.9603320796
  0
LINE
  5
259
100
AcDbEntity
  8
0
100
AcDbLine
 62
7
  6
CONTINUOUS
 10
4.7110955375
 20
4.4278521749
 11
4.6974955646
 21
4.4139522123
  0
LINE
  5
25A
100
AcDbEntity
  8
0
100
AcDbLine
 62
7
  6
CONTINUOUS
 10
5.2551402535
 20
4.9715969011
 11
5.2412402909
 21
4.9579969282
  0
LINE
  5
25B
100
AcDbEntity
  8
0
100
AcDbLine
 62
7
  6
CONTINUOUS
 10
4.7087603861
 20
4.475385274
 11
4.6938634662
 21
4.462885274
  0
LINE
  5
25C
100
AcDbEntity
  8
0
100
AcDbLine
 62
7
  6
CONTINUOUS
 10
5.3034816812
 20
4.9631860135
 11
5.2883156203
 21
4.9510139628
  0
LINE
  5
25D
100
AcDbEntity
  8
0
100
AcDbLine
 62
7
  6
CONTINUOUS
 10
4.7110955375
 20
4.5229183731
 11
4.6950451361
 21
4.5119387175
  0
LINE
  5
25E
100
AcDbEntity
  8
0
100
AcDbLine
 62
7
  6
CONTINUOUS
 10
5.3507659205
 20
4.9500773381
 11
5.3344798188
 21
4.939450433
  0
LINE
  5
25F
100
AcDbEntity
  8
0
100
AcDbLine
 62
7
  6
CONTINUOUS
 10
4.718078503
 20
4.5699937025
 11
4.7010291942
 21
4.5606401313
  0
LINE
  5
260
100
AcDbEntity
  8
0
100
AcDbLine
 62
7
  6
CONTINUOUS
 10
6.829726592
 20
5.9729916572
 11
6.8478625489
 21
5.9825661242
  0
LINE
  5
261
100
AcDbEntity
  8
0
100
AcDbLine
 62
7
  6
CONTINUOUS
 10
5.3965375985
 20
4.9323971186
 11
5.3792882999
 21
4.9234177021
  0
LINE
  5
262
100
AcDbEntity
  8
0
100
AcDbLine
 62
7
  6
CONTINUOUS
 10
4.7296420327
 20
4.6161579009
 11
4.7117580107
 21
4.6085204943
  0
LINE
  5
263
100
AcDbEntity
  8
0
100
AcDbLine
 62
7
  6
CONTINUOUS
 10
5.4403559087
 20
4.9103156252
 11
5.4223095335
 21
4.903070174
  0
LINE
  5
264
100
AcDbEntity
  8
0
100
AcDbLine
 62
7
  6
CONTINUOUS
 10
4.7456747637
 20
4.6609663821
 11
4.7271282614
 21
4.6551186924
  0
LINE
  5
265
100
AcDbEntity
  8
0
100
AcDbLine
 62
7
  6
CONTINUOUS
 10
5.481798857
 20
4.8840455148
 11
5.4631292016
 21
4.8786038065
  0
LINE
  5
266
100
AcDbEntity
  8
0
100
AcDbLine
 62
7
  6
CONTINUOUS
 10
5.6213920918
 20
4.2467829322
 11
5.6404224614
 21
4.2507845886
  0
LINE
  5
267
100
AcDbEntity
  8
0
100
AcDbLine
 62
7
  6
CONTINUOUS
 10
4.8669470585
 20
4.0969307651
 11
4.8860601951
 21
4.1005163239
  0
LINE
  5
268
100
AcDbEntity
  8
0
100
AcDbLine
 62
7
  6
CONTINUOUS
 10
5.5969257243
 20
4.2059632641
 11
5.6162566884
 21
4.208080349
  0
LINE
  5
269
100
AcDbEntity
  8
0
100
AcDbLine
 62
7
  6
CONTINUOUS
 10
4.8314254691
 20
4.1307812208
 11
4.850798017
 21
4.1324760992
  0
LINE
  5
26A
100
AcDbEntity
  8
0
100
AcDbLine
 62
7
  6
CONTINUOUS
 10
5.5685761419
 20
4.1677382773
 11
5.5880215328
 21
4.167950402
  0
LINE
  5
26B
100
AcDbEntity
  8
0
100
AcDbLine
 62
7
  6
CONTINUOUS
 10
4.7993928508
 20
4.167950402
 11
4.8188382417
 21
4.1677382773
  0
LINE
  5
26C
100
AcDbEntity
  8
0
100
AcDbLine
 62
7
  6
CONTINUOUS
 10
5.5366163666
 20
4.1324760992
 11
5.5559889144
 21
4.1307812208
  0
LINE
  5
26D
100
AcDbEntity
  8
0
100
AcDbLine
 62
7
  6
CONTINUOUS
 10
4.7711576951
 20
4.208080349
 11
4.7904886593
 21
4.2059632641
  0
LINE
  5
26E
100
AcDbEntity
  8
0
100
AcDbLine
 62
7
  6
CONTINUOUS
 10
5.5013541885
 20
4.1005163239
 11
5.5204673251
 21
4.0969307651
  0
LINE
  5
26F
100
AcDbEntity
  8
0
100
AcDbLine
 62
7
  6
CONTINUOUS
 10
4.7469919221
 20
4.2507845886
 11
4.7660222918
 21
4.2467829322
  0
LINE
  5
270
100
AcDbEntity
  8
0
100
AcDbLine
 62
7
  6
CONTINUOUS
 10
5.4631292016
 20
4.0721667415
 11
5.481798857
 21
4.0667250332
  0
LINE
  5
271
100
AcDbEntity
  8
0
100
AcDbLine
 62
7
  6
CONTINUOUS
 10
4.7271282614
 20
4.2956518556
 11
4.7456747637
 21
4.2898041659
  0
LINE
  5
272
100
AcDbEntity
  8
0
100
AcDbLine
 62
7
  6
CONTINUOUS
 10
5.4223095335
 20
4.047700374
 11
5.4403559087
 21
4.0404549227
  0
LINE
  5
273
100
AcDbEntity
  8
0
100
AcDbLine
 62
7
  6
CONTINUOUS
 10
4.7117580107
 20
4.3422500536
 11
4.7296420327
 21
4.334612647
  0
LINE
  5
274
100
AcDbEntity
  8
0
100
AcDbLine
 62
7
  6
CONTINUOUS
 10
5.3792882999
 20
4.0273528459
 11
5.3965375985
 21
4.0183734294
  0
LINE
  5
275
100
AcDbEntity
  8
0
100
AcDbLine
 62
7
  6
CONTINUOUS
 10
4.7010291942
 20
4.3901304166
 11
4.718078503
 21
4.3807768455
  0
LINE
  5
276
100
AcDbEntity
  8
0
100
AcDbLine
 62
7
  6
CONTINUOUS
 10
6.4547526425
 20
3.0735235736
 11
6.4386884752
 21
3.0830980405
  0
LINE
  5
277
100
AcDbEntity
  8
0
100
AcDbLine
 62
7
  6
CONTINUOUS
 10
6.6394906066
 20
3.0735235736
 11
6.6234264508
 21
3.0830980405
  0
LINE
  5
278
100
AcDbEntity
  8
0
100
AcDbLine
 62
7
  6
CONTINUOUS
 10
7.0089665347
 20
3.0735235736
 11
6.9929023789
 21
3.0830980405
  0
LINE
  5
279
100
AcDbEntity
  8
0
100
AcDbLine
 62
7
  6
CONTINUOUS
 10
5.3344798188
 20
4.0113201149
 11
5.3507659205
 21
4.0006932099
  0
LINE
  5
27A
100
AcDbEntity
  8
0
100
AcDbLine
 62
7
  6
CONTINUOUS
 10
4.6950451361
 20
4.4388318305
 11
4.7110955375
 21
4.4278521749
  0
LINE
  5
27B
100
AcDbEntity
  8
0
100
AcDbLine
 62
7
  6
CONTINUOUS
 10
6.3663997051
 20
2.8963959116
 11
6.3543515768
 21
2.9059703819
  0
LINE
  5
27C
100
AcDbEntity
  8
0
100
AcDbLine
 62
7
  6
CONTINUOUS
 10
6.5551537082
 20
2.8963959116
 11
6.5431055798
 21
2.9059703819
  0
LINE
  5
27D
100
AcDbEntity
  8
0
100
AcDbLine
 62
7
  6
CONTINUOUS
 10
6.4346724363
 20
3.0543746397
 11
6.4467205646
 21
3.0448001727
  0
LINE
  5
27E
100
AcDbEntity
  8
0
100
AcDbLine
 62
7
  6
CONTINUOUS
 10
5.2883156203
 20
3.9997565852
 11
5.3034816812
 21
3.9875845344
  0
LINE
  5
27F
100
AcDbEntity
  8
0
100
AcDbLine
 62
7
  6
CONTINUOUS
 10
4.6938634662
 20
4.487885274
 11
4.7087603861
 21
4.475385274
  0
LINE
  5
280
100
AcDbEntity
  8
0
100
AcDbLine
 62
7
  6
CONTINUOUS
 10
5.2412402909
 20
3.9927736197
 11
5.2551402535
 21
3.9791736468
  0
LINE
  5
281
100
AcDbEntity
  8
0
100
AcDbLine
 62
7
  6
CONTINUOUS
 10
4.6974955646
 20
4.5368183356
 11
4.7110955375
 21
4.5229183731
  0
LINE
  5
282
100
AcDbEntity
  8
0
100
AcDbLine
 62
7
  6
CONTINUOUS
 10
5.1937071918
 20
3.9904384683
 11
5.2062071918
 21
3.9755415484
  0
LINE
  5
283
100
AcDbEntity
  8
0
100
AcDbLine
 62
7
  6
CONTINUOUS
 10
4.7059064523
 20
4.5851597634
 11
4.718078503
 21
4.5699937025
  0
LINE
  5
284
100
AcDbEntity
  8
0
100
AcDbLine
 62
7
  6
CONTINUOUS
 10
5.1461740927
 20
3.9927736197
 11
5.1571537483
 21
3.9767232183
  0
LINE
  5
285
100
AcDbEntity
  8
0
100
AcDbLine
 62
7
  6
CONTINUOUS
 10
4.7190151277
 20
4.6324440027
 11
4.7296420327
 21
4.6161579009
  0
LINE
  5
286
100
AcDbEntity
  8
0
100
AcDbLine
 62
7
  6
CONTINUOUS
 10
5.0990987633
 20
3.9997565852
 11
5.1084523344
 21
3.9827072764
  0
LINE
  5
287
100
AcDbEntity
  8
0
100
AcDbLine
 62
7
  6
CONTINUOUS
 10
4.7366953472
 20
4.6782156807
 11
4.7456747637
 21
4.6609663821
  0
LINE
  5
288
100
AcDbEntity
  8
0
100
AcDbLine
 62
7
  6
CONTINUOUS
 10
5.0529345648
 20
4.0113201149
 11
5.0605719714
 21
3.9934360929
  0
LINE
  5
289
100
AcDbEntity
  8
0
100
AcDbLine
 62
7
  6
CONTINUOUS
 10
4.7587768406
 20
4.7220339909
 11
4.7660222918
 21
4.7039876157
  0
LINE
  5
28A
100
AcDbEntity
  8
0
100
AcDbLine
 62
7
  6
CONTINUOUS
 10
5.0081260837
 20
4.0273528459
 11
5.0139737734
 21
4.0088063436
  0
LINE
  5
28B
100
AcDbEntity
  8
0
100
AcDbLine
 62
7
  6
CONTINUOUS
 10
4.785046951
 20
4.7634769392
 11
4.7904886593
 21
4.7448072838
  0
LINE
  5
28C
100
AcDbEntity
  8
0
100
AcDbLine
 62
7
  6
CONTINUOUS
 10
4.9651048501
 20
4.047700374
 11
4.9691065064
 21
4.0286700043
  0
LINE
  5
28D
100
AcDbEntity
  8
0
100
AcDbLine
 62
7
  6
CONTINUOUS
 10
4.8152526829
 20
4.8021454073
 11
4.8188382417
 21
4.7830322707
  0
LINE
  5
28E
100
AcDbEntity
  8
0
100
AcDbLine
 62
7
  6
CONTINUOUS
 10
4.9295874735
 20
6.562885274
 11
4.9295874735
 21
6.6682044238
  0
LINE
  5
28F
100
AcDbEntity
  8
0
100
AcDbLine
 62
7
  6
CONTINUOUS
 10
4.9295874735
 20
6.6969278246
 11
4.9295874735
 21
6.787885274
  0
LINE
  5
290
100
AcDbEntity
  8
0
100
AcDbLine
 62
7
  6
CONTINUOUS
 10
5.0433621175
 20
6.787885274
 11
5.0433621175
 21
6.6969278246
  0
LINE
  5
291
100
AcDbEntity
  8
0
100
AcDbLine
 62
7
  6
CONTINUOUS
 10
5.0433621175
 20
6.6682044238
 11
5.0433621175
 21
6.562885274
  0
LINE
  5
292
100
AcDbEntity
  8
0
100
AcDbLine
 62
7
  6
CONTINUOUS
 10
5.0677423992
 20
6.562885274
 11
5.0677423992
 21
6.787885274
  0
LINE
  5
293
100
AcDbEntity
  8
0
100
AcDbLine
 62
7
  6
CONTINUOUS
 10
5.0687071918
 20
5.955385274
 11
5.0687071918
 21
4.9595081922
  0
LINE
  5
294
100
AcDbEntity
  8
0
100
AcDbLine
 62
7
  6
CONTINUOUS
 10
5.0687071918
 20
3.9912623557
 11
5.0687071918
 21
2.995385274
  0
LINE
  5
295
100
AcDbEntity
  8
0
100
AcDbLine
 62
7
  6
CONTINUOUS
 10
5.0887071918
 20
3.9914164673
 11
5.0887071918
 21
2.975385274
  0
LINE
  5
296
100
AcDbEntity
  8
0
100
AcDbLine
 62
7
  6
CONTINUOUS
 10
5.0887071918
 20
4.9593540806
 11
5.0887071918
 21
5.975385274
  0
LINE
  5
297
100
AcDbEntity
  8
0
100
AcDbLine
 62
7
  6
CONTINUOUS
 10
5.1002494453
 20
6.711289525
 11
5.1002494453
 21
6.6394810162
  0
LINE
  5
298
100
AcDbEntity
  8
0
100
AcDbLine
 62
7
  6
CONTINUOUS
 10
5.124629727
 20
6.6394810162
 11
5.124629727
 21
6.711289525
  0
LINE
  5
299
100
AcDbEntity
  8
0
100
AcDbLine
 62
7
  6
CONTINUOUS
 10
3.7137071918
 20
4.350385274
 11
4.7095842735
 21
4.350385274
  0
LINE
  5
29A
100
AcDbEntity
  8
0
100
AcDbLine
 62
7
  6
CONTINUOUS
 10
5.6778301101
 20
4.350385274
 11
6.6737071918
 21
4.350385274
  0
LINE
  5
29B
100
AcDbEntity
  8
0
100
AcDbLine
 62
7
  6
CONTINUOUS
 10
3.6937071918
 20
4.370385274
 11
4.7097383851
 21
4.370385274
  0
LINE
  5
29C
100
AcDbEntity
  8
0
100
AcDbLine
 62
7
  6
CONTINUOUS
 10
5.6776759984
 20
4.370385274
 11
6.6937071918
 21
4.370385274
  0
LINE
  5
29D
100
AcDbEntity
  8
0
100
AcDbLine
 62
7
  6
CONTINUOUS
 10
6.6194104003
 20
3.0543746397
 11
6.6314585287
 21
3.0448001727
  0
LINE
  5
29E
100
AcDbEntity
  8
0
100
AcDbLine
 62
7
  6
CONTINUOUS
 10
6.9888863515
 20
3.0543746397
 11
7.0009344798
 21
3.0448001727
  0
LINE
  5
29F
100
AcDbEntity
  8
0
100
AcDbLine
 62
7
  6
CONTINUOUS
 10
6.3302553201
 20
2.8963959116
 11
6.3463194903
 21
2.8772469761
  0
LINE
  5
2A0
100
AcDbEntity
  8
0
100
AcDbLine
 62
7
  6
CONTINUOUS
 10
6.5190093232
 20
2.8963959116
 11
6.5350735019
 21
2.8772469761
  0
LINE
  5
2A1
100
AcDbEntity
  8
0
100
AcDbLine
 62
7
  6
CONTINUOUS
 10
5.4631292016
 20
4.8786038065
 11
5.4610121167
 21
4.8979347706
  0
LINE
  5
2A2
100
AcDbEntity
  8
0
100
AcDbLine
 62
7
  6
CONTINUOUS
 10
5.5383112449
 20
4.1131035513
 11
5.5366163666
 21
4.1324760992
  0
LINE
  5
2A3
100
AcDbEntity
  8
0
100
AcDbLine
 62
7
  6
CONTINUOUS
 10
5.5013541885
 20
4.8502542241
 11
5.5011420638
 21
4.8696996149
  0
LINE
  5
2A4
100
AcDbEntity
  8
0
100
AcDbLine
 62
7
  6
CONTINUOUS
 10
5.2384043826
 20
6.711289525
 11
5.2384043826
 21
6.6394810162
  0
LINE
  5
2A5
100
AcDbEntity
  8
0
100
AcDbLine
 62
7
  6
CONTINUOUS
 10
5.2627846643
 20
6.6394810162
 11
5.2627846643
 21
6.711289525
  0
LINE
  5
2A6
100
AcDbEntity
  8
0
100
AcDbLine
 62
7
  6
CONTINUOUS
 10
5.2952916988
 20
6.787885274
 11
5.2952916988
 21
6.7639491066
  0
LINE
  5
2A7
100
AcDbEntity
  8
0
100
AcDbLine
 62
7
  6
CONTINUOUS
 10
5.2987071918
 20
2.975385274
 11
5.2987071918
 21
3.9914164673
  0
LINE
  5
2A8
100
AcDbEntity
  8
0
100
AcDbLine
 62
7
  6
CONTINUOUS
 10
5.2987071918
 20
4.9593540806
 11
5.2987071918
 21
5.975385274
  0
LINE
  5
2A9
100
AcDbEntity
  8
0
100
AcDbLine
 62
7
  6
CONTINUOUS
 10
5.3187071918
 20
2.995385274
 11
5.3187071918
 21
3.9912623557
  0
LINE
  5
2AA
100
AcDbEntity
  8
0
100
AcDbLine
 62
7
  6
CONTINUOUS
 10
5.3187071918
 20
4.9595081922
 11
5.3187071918
 21
5.955385274
  0
LINE
  5
2AB
100
AcDbEntity
  8
0
100
AcDbLine
 62
7
  6
CONTINUOUS
 10
5.3603057678
 20
6.7639491066
 11
5.3603057678
 21
6.562885274
  0
LINE
  5
2AC
100
AcDbEntity
  8
0
100
AcDbLine
 62
7
  6
CONTINUOUS
 10
5.3846860495
 20
6.562885274
 11
5.3846860495
 21
6.7639491066
  0
LINE
  5
2AD
100
AcDbEntity
  8
0
100
AcDbLine
 62
7
  6
CONTINUOUS
 10
5.449700165
 20
6.7639491066
 11
5.449700165
 21
6.787885274
  0
LINE
  5
2AE
100
AcDbEntity
  8
0
100
AcDbLine
 62
7
  6
CONTINUOUS
 10
5.5011420638
 20
4.081070933
 11
5.5013541885
 21
4.1005163239
  0
LINE
  5
2AF
100
AcDbEntity
  8
0
100
AcDbLine
 62
7
  6
CONTINUOUS
 10
5.5366163666
 20
4.8182944488
 11
5.5383112449
 21
4.8376669966
  0
LINE
  5
2B0
100
AcDbEntity
  8
0
100
AcDbLine
 62
7
  6
CONTINUOUS
 10
5.4610121167
 20
4.0528357773
 11
5.4631292016
 21
4.0721667415
  0
LINE
  5
2B1
100
AcDbEntity
  8
0
100
AcDbLine
 62
7
  6
CONTINUOUS
 10
5.5685761419
 20
4.7830322707
 11
5.5721617006
 21
4.8021454073
  0
LINE
  5
2B2
100
AcDbEntity
  8
0
100
AcDbLine
 62
7
  6
CONTINUOUS
 10
5.4183078771
 20
4.0286700043
 11
5.4223095335
 21
4.047700374
  0
LINE
  5
2B3
100
AcDbEntity
  8
0
100
AcDbLine
 62
7
  6
CONTINUOUS
 10
5.5969257243
 20
4.7448072838
 11
5.6023674326
 21
4.7634769392
  0
LINE
  5
2B4
100
AcDbEntity
  8
0
100
AcDbLine
 62
7
  6
CONTINUOUS
 10
5.3734406102
 20
4.0088063436
 11
5.3792882999
 21
4.0273528459
  0
LINE
  5
2B5
100
AcDbEntity
  8
0
100
AcDbLine
 62
7
  6
CONTINUOUS
 10
5.6213920918
 20
4.7039876157
 11
5.628637543
 21
4.7220339909
  0
LINE
  5
2B6
100
AcDbEntity
  8
0
100
AcDbLine
 62
7
  6
CONTINUOUS
 10
5.3268424121
 20
3.9934360929
 11
5.3344798188
 21
4.0113201149
  0
LINE
  5
2B7
100
AcDbEntity
  8
0
100
AcDbLine
 62
7
  6
CONTINUOUS
 10
5.6417396199
 20
4.6609663821
 11
5.6507190364
 21
4.6782156807
  0
LINE
  5
2B8
100
AcDbEntity
  8
0
100
AcDbLine
 62
7
  6
CONTINUOUS
 10
5.2789620492
 20
3.9827072764
 11
5.2883156203
 21
3.9997565852
  0
LINE
  5
2B9
100
AcDbEntity
  8
0
100
AcDbLine
 62
7
  6
CONTINUOUS
 10
5.6577723508
 20
4.6161579009
 11
5.6683992559
 21
4.6324440027
  0
LINE
  5
2BA
100
AcDbEntity
  8
0
100
AcDbLine
 62
7
  6
CONTINUOUS
 10
5.2302606353
 20
3.9767232183
 11
5.2412402909
 21
3.9927736197
  0
LINE
  5
2BB
100
AcDbEntity
  8
0
100
AcDbLine
 62
7
  6
CONTINUOUS
 10
5.6693358806
 20
4.5699937025
 11
5.6815079313
 21
4.5851597634
  0
LINE
  5
2BC
100
AcDbEntity
  8
0
100
AcDbLine
 62
7
  6
CONTINUOUS
 10
5.1812071918
 20
3.9755415484
 11
5.1937071918
 21
3.9904384683
  0
LINE
  5
2BD
100
AcDbEntity
  8
0
100
AcDbLine
 62
7
  6
CONTINUOUS
 10
6.8342606071
 20
6.0065022915
 11
6.8251926287
 21
5.9969278246
  0
LINE
  5
2BE
100
AcDbEntity
  8
0
100
AcDbLine
 62
7
  6
CONTINUOUS
 10
5.676318846
 20
4.5229183731
 11
5.6899188189
 21
4.5368183356
  0
LINE
  5
2BF
100
AcDbEntity
  8
0
100
AcDbLine
 62
7
  6
CONTINUOUS
 10
5.1322741301
 20
3.9791736468
 11
5.1461740927
 21
3.9927736197
  0
LINE
  5
2C0
100
AcDbEntity
  8
0
100
AcDbLine
 62
7
  6
CONTINUOUS
 10
5.6786539975
 20
4.475385274
 11
5.6935509174
 21
4.487885274
  0
LINE
  5
2C1
100
AcDbEntity
  8
0
100
AcDbLine
 62
7
  6
CONTINUOUS
 10
5.0839327024
 20
3.9875845344
 11
5.0990987633
 21
3.9997565852
  0
LINE
  5
2C2
100
AcDbEntity
  8
0
100
AcDbLine
 62
7
  6
CONTINUOUS
 10
5.676318846
 20
4.4278521749
 11
5.6923692475
 21
4.4388318305
  0
LINE
  5
2C3
100
AcDbEntity
  8
0
100
AcDbLine
 62
7
  6
CONTINUOUS
 10
5.036648463
 20
4.0006932099
 11
5.0529345648
 21
4.0113201149
  0
LINE
  5
2C4
100
AcDbEntity
  8
0
100
AcDbLine
 62
7
  6
CONTINUOUS
 10
5.6693358806
 20
4.3807768455
 11
5.6863851894
 21
4.3901304166
  0
LINE
  5
2C5
100
AcDbEntity
  8
0
100
AcDbLine
 62
7
  6
CONTINUOUS
 10
4.9908767851
 20
4.0183734294
 11
5.0081260837
 21
4.0273528459
  0
LINE
  5
2C6
100
AcDbEntity
  8
0
100
AcDbLine
 62
7
  6
CONTINUOUS
 10
5.6577723508
 20
4.334612647
 11
5.6756563728
 21
4.3422500536
  0
LINE
  5
2C7
100
AcDbEntity
  8
0
100
AcDbLine
 62
7
  6
CONTINUOUS
 10
4.9470584748
 20
4.0404549227
 11
4.9651048501
 21
4.047700374
  0
LINE
  5
2C8
100
AcDbEntity
  8
0
100
AcDbLine
 62
7
  6
CONTINUOUS
 10
5.6417396199
 20
4.2898041659
 11
5.6602861222
 21
4.2956518556
  0
LINE
  5
2C9
100
AcDbEntity
  8
0
100
AcDbLine
 62
7
  6
CONTINUOUS
 10
4.9056155265
 20
4.0667250332
 11
4.924285182
 21
4.0721667415
  0
LINE
  5
2CA
100
AcDbEntity
  8
0
100
AcDbLine
 62
7
  6
CONTINUOUS
 10
4.7660222918
 20
4.7039876157
 11
4.7469919221
 21
4.6999859593
  0
LINE
  5
2CB
100
AcDbEntity
  8
0
100
AcDbLine
 62
7
  6
CONTINUOUS
 10
5.5204673251
 20
4.8538397828
 11
5.5013541885
 21
4.8502542241
  0
LINE
  5
2CC
100
AcDbEntity
  8
0
100
AcDbLine
 62
7
  6
CONTINUOUS
 10
4.7904886593
 20
4.7448072838
 11
4.7711576951
 21
4.7426901989
  0
LINE
  5
2CD
100
AcDbEntity
  8
0
100
AcDbLine
 62
7
  6
CONTINUOUS
 10
5.5559889144
 20
4.8199893271
 11
5.5366163666
 21
4.8182944488
  0
LINE
  5
2CE
100
AcDbEntity
  8
0
100
AcDbLine
 62
7
  6
CONTINUOUS
 10
4.8188382417
 20
4.7830322707
 11
4.7993928508
 21
4.7828201459
  0
LINE
  5
2CF
100
AcDbEntity
  8
0
100
AcDbLine
 62
7
  6
CONTINUOUS
 10
4.7097383851
 20
4.580385274
 11
3.6937071918
 21
4.580385274
  0
LINE
  5
2D0
100
AcDbEntity
  8
0
100
AcDbLine
 62
7
  6
CONTINUOUS
 10
5.6776759984
 20
4.580385274
 11
6.6937071918
 21
4.580385274
  0
LINE
  5
2D1
100
AcDbEntity
  8
0
100
AcDbLine
 62
7
  6
CONTINUOUS
 10
6.6737071918
 20
4.600385274
 11
5.6778301101
 21
4.600385274
  0
LINE
  5
2D2
100
AcDbEntity
  8
0
100
AcDbLine
 62
7
  6
CONTINUOUS
 10
4.7095842735
 20
4.600385274
 11
3.7137071918
 21
4.600385274
  0
LINE
  5
2D3
100
AcDbEntity
  8
0
100
AcDbLine
 62
7
  6
CONTINUOUS
 10
5.5880215328
 20
4.7828201459
 11
5.5685761419
 21
4.7830322707
  0
LINE
  5
2D4
100
AcDbEntity
  8
0
100
AcDbLine
 62
7
  6
CONTINUOUS
 10
4.850798017
 20
4.8182944488
 11
4.8314254691
 21
4.8199893271
  0
LINE
  5
2D5
100
AcDbEntity
  8
0
100
AcDbLine
 62
7
  6
CONTINUOUS
 10
5.6162566884
 20
4.7426901989
 11
5.5969257243
 21
4.7448072838
  0
LINE
  5
2D6
100
AcDbEntity
  8
0
100
AcDbLine
 62
7
  6
CONTINUOUS
 10
4.8860601951
 20
4.8502542241
 11
4.8669470585
 21
4.8538397828
  0
LINE
  5
2D7
100
AcDbEntity
  8
0
100
AcDbLine
 62
7
  6
CONTINUOUS
 10
5.6404224614
 20
4.6999859593
 11
5.6213920918
 21
4.7039876157
  0
LINE
  5
2D8
100
AcDbEntity
  8
0
100
AcDbLine
 62
7
  6
CONTINUOUS
 10
4.924285182
 20
4.8786038065
 11
4.9056155265
 21
4.8840455148
  0
LINE
  5
2D9
100
AcDbEntity
  8
0
100
AcDbLine
 62
7
  6
CONTINUOUS
 10
5.6602861222
 20
4.6551186924
 11
5.6417396199
 21
4.6609663821
  0
LINE
  5
2DA
100
AcDbEntity
  8
0
100
AcDbLine
 62
7
  6
CONTINUOUS
 10
4.9651048501
 20
4.903070174
 11
4.9470584748
 21
4.9103156252
  0
LINE
  5
2DB
100
AcDbEntity
  8
0
100
AcDbLine
 62
7
  6
CONTINUOUS
 10
5.6756563728
 20
4.6085204943
 11
5.6577723508
 21
4.6161579009
  0
LINE
  5
2DC
100
AcDbEntity
  8
0
100
AcDbLine
 62
7
  6
CONTINUOUS
 10
5.0081260837
 20
4.9234177021
 11
4.9908767851
 21
4.9323971186
  0
LINE
  5
2DD
100
AcDbEntity
  8
0
100
AcDbLine
 62
7
  6
CONTINUOUS
 10
5.6863851894
 20
4.5606401313
 11
5.6693358806
 21
4.5699937025
  0
LINE
  5
2DE
100
AcDbEntity
  8
0
100
AcDbLine
 62
7
  6
CONTINUOUS
 10
5.0529345648
 20
4.939450433
 11
5.036648463
 21
4.9500773381
  0
LINE
  5
2DF
100
AcDbEntity
  8
0
100
AcDbLine
 62
7
  6
CONTINUOUS
 10
5.6923692475
 20
4.5119387175
 11
5.676318846
 21
4.5229183731
  0
LINE
  5
2E0
100
AcDbEntity
  8
0
100
AcDbLine
 62
7
  6
CONTINUOUS
 10
5.0990987633
 20
4.9510139628
 11
5.0839327024
 21
4.9631860135
  0
LINE
  5
2E1
100
AcDbEntity
  8
0
100
AcDbLine
 62
7
  6
CONTINUOUS
 10
5.6935509174
 20
4.462885274
 11
5.6786539975
 21
4.475385274
  0
LINE
  5
2E2
100
AcDbEntity
  8
0
100
AcDbLine
 62
7
  6
CONTINUOUS
 10
5.1461740927
 20
4.9579969282
 11
5.1322741301
 21
4.9715969011
  0
LINE
  5
2E3
100
AcDbEntity
  8
0
100
AcDbLine
 62
7
  6
CONTINUOUS
 10
5.6899188189
 20
4.4139522123
 11
5.676318846
 21
4.4278521749
  0
LINE
  5
2E4
100
AcDbEntity
  8
0
100
AcDbLine
 62
7
  6
CONTINUOUS
 10
5.1937071918
 20
4.9603320796
 11
5.1812071918
 21
4.9752289996
  0
LINE
  5
2E5
100
AcDbEntity
  8
0
100
AcDbLine
 62
7
  6
CONTINUOUS
 10
6.4708168213
 20
3.0543746397
 11
6.4547526425
 21
3.0735235736
  0
LINE
  5
2E6
100
AcDbEntity
  8
0
100
AcDbLine
 62
7
  6
CONTINUOUS
 10
6.6555547854
 20
3.0543746397
 11
6.6394906066
 21
3.0735235736
  0
LINE
  5
2E7
100
AcDbEntity
  8
0
100
AcDbLine
 62
7
  6
CONTINUOUS
 10
5.6815079313
 20
4.3656107846
 11
5.6693358806
 21
4.3807768455
  0
LINE
  5
2E8
100
AcDbEntity
  8
0
100
AcDbLine
 62
7
  6
CONTINUOUS
 10
5.2412402909
 20
4.9579969282
 11
5.2302606353
 21
4.9740473296
  0
LINE
  5
2E9
100
AcDbEntity
  8
0
100
AcDbLine
 62
7
  6
CONTINUOUS
 10
5.6683992559
 20
4.3183265452
 11
5.6577723508
 21
4.334612647
  0
LINE
  5
2EA
100
AcDbEntity
  8
0
100
AcDbLine
 62
7
  6
CONTINUOUS
 10
6.3543515768
 20
2.9059703819
 11
6.3463194903
 21
2.9203320823
  0
LINE
  5
2EB
100
AcDbEntity
  8
0
100
AcDbLine
 62
7
  6
CONTINUOUS
 10
5.2883156203
 20
4.9510139628
 11
5.2789620492
 21
4.9680632715
  0
LINE
  5
2EC
100
AcDbEntity
  8
0
100
AcDbLine
 62
7
  6
CONTINUOUS
 10
5.6507190364
 20
4.2725548673
 11
5.6417396199
 21
4.2898041659
  0
LINE
  5
2ED
100
AcDbEntity
  8
0
100
AcDbLine
 62
7
  6
CONTINUOUS
 10
5.3344798188
 20
4.939450433
 11
5.3268424121
 21
4.957334455
  0
LINE
  5
2EE
100
AcDbEntity
  8
0
100
AcDbLine
 62
7
  6
CONTINUOUS
 10
5.628637543
 20
4.228736557
 11
5.6213920918
 21
4.2467829322
  0
LINE
  5
2EF
100
AcDbEntity
  8
0
100
AcDbLine
 62
7
  6
CONTINUOUS
 10
5.3792882999
 20
4.9234177021
 11
5.3734406102
 21
4.9419642044
  0
LINE
  5
2F0
100
AcDbEntity
  8
0
100
AcDbLine
 62
7
  6
CONTINUOUS
 10
5.6023674326
 20
4.1872936087
 11
5.5969257243
 21
4.2059632641
  0
LINE
  5
2F1
100
AcDbEntity
  8
0
100
AcDbLine
 62
7
  6
CONTINUOUS
 10
5.4223095335
 20
4.903070174
 11
5.4183078771
 21
4.9221005436
  0
LINE
  5
2F2
100
AcDbEntity
  8
0
100
AcDbLine
 62
7
  6
CONTINUOUS
 10
5.5721617006
 20
4.1486251407
 11
5.5685761419
 21
4.1677382773
  0
LINE
  5
2F3
100
AcDbEntity
  8
0
100
AcDbLine
 62
7
  6
CONTINUOUS
 10
5.1002494453
 20
6.6394810162
 11
5.1043128333
 21
6.6155448489
  0
LINE
  5
2F4
100
AcDbEntity
  8
0
100
AcDbLine
 62
7
  6
CONTINUOUS
 10
6.8478625489
 20
5.9825661242
 11
6.8614644906
 21
6.0017150581
  0
LINE
  5
2F5
100
AcDbEntity
  8
0
100
AcDbLine
 62
7
  6
CONTINUOUS
 10
7.0250307365
 20
3.0543746397
 11
7.0089665347
 21
3.0735235736
  0
LINE
  5
2F6
100
AcDbEntity
  8
0
100
AcDbLine
 62
7
  6
CONTINUOUS
 10
6.5431055798
 20
2.9059703819
 11
6.5350735019
 21
2.9203320823
  0
LINE
  5
2F7
100
AcDbEntity
  8
0
100
AcDbLine
 62
7
  6
CONTINUOUS
 10
6.6314585287
 20
3.0448001727
 11
6.6394906066
 21
3.0304384589
  0
LINE
  5
2F8
100
AcDbEntity
  8
0
100
AcDbLine
 62
7
  6
CONTINUOUS
 10
6.3222232347
 20
2.9155448489
 11
6.3302553201
 21
2.8963959116
  0
LINE
  5
2F9
100
AcDbEntity
  8
0
100
AcDbLine
 62
7
  6
CONTINUOUS
 10
6.5109772453
 20
2.9155448489
 11
6.5190093232
 21
2.8963959116
  0
LINE
  5
2FA
100
AcDbEntity
  8
0
100
AcDbLine
 62
7
  6
CONTINUOUS
 10
5.128693115
 20
6.6203320823
 11
5.124629727
 21
6.6394810162
  0
LINE
  5
2FB
100
AcDbEntity
  8
0
100
AcDbLine
 62
7
  6
CONTINUOUS
 10
5.2343409946
 20
6.7304384589
 11
5.2384043826
 21
6.711289525
  0
LINE
  5
2FC
100
AcDbEntity
  8
0
100
AcDbLine
 62
7
  6
CONTINUOUS
 10
5.2627846643
 20
6.711289525
 11
5.2587212763
 21
6.7352257058
  0
LINE
  5
2FD
100
AcDbEntity
  8
0
100
AcDbLine
 62
7
  6
CONTINUOUS
 10
6.4171343762
 20
6.087885274
 11
6.3899304928
 21
5.9155448489
  0
LINE
  5
2FE
100
AcDbEntity
  8
0
100
AcDbLine
 62
7
  6
CONTINUOUS
 10
6.2992508833
 20
5.862885274
 11
6.3355227258
 21
6.0448001727
  0
LINE
  5
2FF
100
AcDbEntity
  8
0
100
AcDbLine
 62
7
  6
CONTINUOUS
 10
6.3173868013
 20
6.087885274
 11
6.2811149588
 21
5.9155448489
  0
LINE
  5
300
100
AcDbEntity
  8
0
100
AcDbLine
 62
7
  6
CONTINUOUS
 10
6.5304838995
 20
5.9394810162
 11
6.5712897247
 21
6.0687363401
  0
LINE
  5
301
100
AcDbEntity
  8
0
100
AcDbLine
 62
7
  6
CONTINUOUS
 10
6.5078139792
 20
5.862885274
 11
6.5259499102
 21
5.9203320823
  0
LINE
  5
302
100
AcDbEntity
  8
0
100
AcDbLine
 62
7
  6
CONTINUOUS
 10
6.5531537937
 20
6.087885274
 11
6.4806100958
 21
5.862885274
  0
LINE
  5
303
100
AcDbEntity
  8
0
100
AcDbLine
 62
7
  6
CONTINUOUS
 10
7.0009344798
 20
3.0448001727
 11
7.0089665347
 21
3.0304384589
  0
LINE
  5
304
100
AcDbEntity
  8
0
100
AcDbLine
 62
7
  6
CONTINUOUS
 10
5.1043128333
 20
6.6155448489
 11
5.1124395861
 21
6.5963959116
  0
LINE
  5
305
100
AcDbEntity
  8
0
100
AcDbLine
 62
7
  6
CONTINUOUS
 10
5.2587212763
 20
6.7352257058
 11
5.2505945235
 21
6.7543746397
  0
LINE
  5
306
100
AcDbEntity
  8
0
100
AcDbLine
 62
7
  6
CONTINUOUS
 10
6.6635868633
 20
3.0352257058
 11
6.6555547854
 21
3.0543746397
  0
LINE
  5
307
100
AcDbEntity
  8
0
100
AcDbLine
 62
7
  6
CONTINUOUS
 10
6.4467205646
 20
3.0448001727
 11
6.4507366035
 21
3.0304384589
  0
LINE
  5
308
100
AcDbEntity
  8
0
100
AcDbLine
 62
7
  6
CONTINUOUS
 10
6.3463194903
 20
2.9203320823
 11
6.3423034485
 21
2.9394810162
  0
LINE
  5
309
100
AcDbEntity
  8
0
100
AcDbLine
 62
7
  6
CONTINUOUS
 10
6.3182071918
 20
2.9394810162
 11
6.3222232347
 21
2.9155448489
  0
LINE
  5
30A
100
AcDbEntity
  8
0
100
AcDbLine
 62
7
  6
CONTINUOUS
 10
6.3182071918
 20
3.011289525
 11
6.3182071918
 21
2.9394810162
  0
LINE
  5
30B
100
AcDbEntity
  8
0
100
AcDbLine
 62
7
  6
CONTINUOUS
 10
6.3423034485
 20
2.9394810162
 11
6.3423034485
 21
3.011289525
  0
LINE
  5
30C
100
AcDbEntity
  8
0
100
AcDbLine
 62
7
  6
CONTINUOUS
 10
6.4080664108
 20
5.862885274
 11
6.4443382597
 21
6.087885274
  0
LINE
  5
30D
100
AcDbEntity
  8
0
100
AcDbLine
 62
7
  6
CONTINUOUS
 10
6.8387945704
 20
6.020863992
 11
6.8342606071
 21
6.0065022915
  0
LINE
  5
30E
100
AcDbEntity
  8
0
100
AcDbLine
 62
7
  6
CONTINUOUS
 10
6.8614644906
 20
6.0017150581
 11
6.8659984539
 21
6.0160767585
  0
LINE
  5
30F
100
AcDbEntity
  8
0
100
AcDbLine
 62
7
  6
CONTINUOUS
 10
7.0337557182
 20
5.862885274
 11
7.0972314636
 21
6.0400129393
  0
LINE
  5
310
100
AcDbEntity
  8
0
100
AcDbLine
 62
7
  6
CONTINUOUS
 10
5.1368198678
 20
6.6059703819
 11
5.128693115
 21
6.6203320823
  0
LINE
  5
311
100
AcDbEntity
  8
0
100
AcDbLine
 62
7
  6
CONTINUOUS
 10
5.2262142418
 20
6.7448001727
 11
5.2343409946
 21
6.7304384589
  0
LINE
  5
312
100
AcDbEntity
  8
0
100
AcDbLine
 62
7
  6
CONTINUOUS
 10
7.0330627914
 20
3.0352257058
 11
7.0250307365
 21
3.0543746397
  0
LINE
  5
313
100
AcDbEntity
  8
0
100
AcDbLine
 62
7
  6
CONTINUOUS
 10
6.5350735019
 20
2.9203320823
 11
6.5310574515
 21
2.9394810162
  0
LINE
  5
314
100
AcDbEntity
  8
0
100
AcDbLine
 62
7
  6
CONTINUOUS
 10
6.6394906066
 20
3.0304384589
 11
6.643506657
 21
3.011289525
  0
LINE
  5
315
100
AcDbEntity
  8
0
100
AcDbLine
 62
7
  6
CONTINUOUS
 10
6.4748328602
 20
3.0304384589
 11
6.4708168213
 21
3.0543746397
  0
LINE
  5
316
100
AcDbEntity
  8
0
100
AcDbLine
 62
7
  6
CONTINUOUS
 10
6.5069612063
 20
2.9394810162
 11
6.5109772453
 21
2.9155448489
  0
LINE
  5
317
100
AcDbEntity
  8
0
100
AcDbLine
 62
7
  6
CONTINUOUS
 10
6.6676029137
 20
3.011289525
 11
6.6635868633
 21
3.0352257058
  0
LINE
  5
318
100
AcDbEntity
  8
0
100
AcDbLine
 62
7
  6
CONTINUOUS
 10
6.5069612063
 20
3.011289525
 11
6.5069612063
 21
2.9394810162
  0
LINE
  5
319
100
AcDbEntity
  8
0
100
AcDbLine
 62
7
  6
CONTINUOUS
 10
6.5310574515
 20
2.9394810162
 11
6.5310574515
 21
3.011289525
  0
LINE
  5
31A
100
AcDbEntity
  8
0
100
AcDbLine
 62
7
  6
CONTINUOUS
 10
6.643506657
 20
3.011289525
 11
6.643506657
 21
2.9394810162
  0
LINE
  5
31B
100
AcDbEntity
  8
0
100
AcDbLine
 62
7
  6
CONTINUOUS
 10
6.6676029137
 20
2.9394810162
 11
6.6676029137
 21
3.011289525
  0
LINE
  5
31C
100
AcDbEntity
  8
0
100
AcDbLine
 62
7
  6
CONTINUOUS
 10
6.6737071918
 20
4.350385274
 11
6.6737071918
 21
4.600385274
  0
LINE
  5
31D
100
AcDbEntity
  8
0
100
AcDbLine
 62
7
  6
CONTINUOUS
 10
6.6937071918
 20
4.370385274
 11
6.6937071918
 21
4.580385274
  0
LINE
  5
31E
100
AcDbEntity
  8
0
100
AcDbLine
 62
7
  6
CONTINUOUS
 10
6.6982411897
 20
6.087885274
 11
6.6982411897
 21
5.862885274
  0
LINE
  5
31F
100
AcDbEntity
  8
0
100
AcDbLine
 62
7
  6
CONTINUOUS
 10
6.6997312483
 20
3.087885274
 11
6.6997312483
 21
2.862885274
  0
LINE
  5
320
100
AcDbEntity
  8
0
100
AcDbLine
 62
7
  6
CONTINUOUS
 10
6.723827528
 20
2.8916086782
 11
6.723827528
 21
3.087885274
  0
LINE
  5
321
100
AcDbEntity
  8
0
100
AcDbLine
 62
7
  6
CONTINUOUS
 10
6.7254450732
 20
5.862885274
 11
6.7254450732
 21
5.9634171903
  0
LINE
  5
322
100
AcDbEntity
  8
0
100
AcDbLine
 62
7
  6
CONTINUOUS
 10
6.7254450732
 20
5.9921405911
 11
6.7254450732
 21
6.0639491066
  0
LINE
  5
323
100
AcDbEntity
  8
0
100
AcDbLine
 62
7
  6
CONTINUOUS
 10
6.3222232347
 20
3.0352257058
 11
6.3182071918
 21
3.011289525
  0
LINE
  5
324
100
AcDbEntity
  8
0
100
AcDbLine
 62
7
  6
CONTINUOUS
 10
6.4708168213
 20
2.8963959116
 11
6.4748328602
 21
2.9203320823
  0
LINE
  5
325
100
AcDbEntity
  8
0
100
AcDbLine
 62
7
  6
CONTINUOUS
 10
6.5109772453
 20
3.0352257058
 11
6.5069612063
 21
3.011289525
  0
LINE
  5
326
100
AcDbEntity
  8
0
100
AcDbLine
 62
7
  6
CONTINUOUS
 10
6.3423034485
 20
3.011289525
 11
6.3463194903
 21
3.0304384589
  0
LINE
  5
327
100
AcDbEntity
  8
0
100
AcDbLine
 62
7
  6
CONTINUOUS
 10
7.0836295219
 20
6.087885274
 11
7.0156198131
 21
5.8868214447
  0
LINE
  5
328
100
AcDbEntity
  8
0
100
AcDbLine
 62
7
  6
CONTINUOUS
 10
6.2629790375
 20
5.862885274
 11
6.2992508833
 21
5.862885274
  0
LINE
  5
329
100
AcDbEntity
  8
0
100
AcDbLine
 62
7
  6
CONTINUOUS
 10
6.3717945747
 20
5.862885274
 11
6.4080664108
 21
5.862885274
  0
LINE
  5
32A
100
AcDbEntity
  8
0
100
AcDbLine
 62
7
  6
CONTINUOUS
 10
6.4806100958
 20
5.862885274
 11
6.5078139792
 21
5.862885274
  0
LINE
  5
32B
100
AcDbEntity
  8
0
100
AcDbLine
 62
7
  6
CONTINUOUS
 10
6.6347654442
 20
5.862885274
 11
6.6619693277
 21
5.862885274
  0
LINE
  5
32C
100
AcDbEntity
  8
0
100
AcDbLine
 62
7
  6
CONTINUOUS
 10
6.6982411897
 20
5.862885274
 11
6.7254450732
 21
5.862885274
  0
LINE
  5
32D
100
AcDbEntity
  8
0
100
AcDbLine
 62
7
  6
CONTINUOUS
 10
6.8387945704
 20
5.862885274
 11
6.8705324172
 21
5.862885274
  0
LINE
  5
32E
100
AcDbEntity
  8
0
100
AcDbLine
 62
7
  6
CONTINUOUS
 10
6.9068042792
 20
5.862885274
 11
6.9340081627
 21
5.862885274
  0
LINE
  5
32F
100
AcDbEntity
  8
0
100
AcDbLine
 62
7
  6
CONTINUOUS
 10
6.9974839081
 20
5.862885274
 11
7.0337557182
 21
5.862885274
  0
LINE
  5
330
100
AcDbEntity
  8
0
100
AcDbLine
 62
7
  6
CONTINUOUS
 10
7.0972314636
 20
5.862885274
 11
7.1244353471
 21
5.862885274
  0
LINE
  5
331
100
AcDbEntity
  8
0
100
AcDbLine
 62
7
  6
CONTINUOUS
 10
6.5259499102
 20
5.9203320823
 11
6.6166295132
 21
5.9203320823
  0
LINE
  5
332
100
AcDbEntity
  8
0
100
AcDbLine
 62
7
  6
CONTINUOUS
 10
6.6120955499
 20
5.9394810162
 11
6.5304838995
 21
5.9394810162
  0
LINE
  5
333
100
AcDbEntity
  8
0
100
AcDbLine
 62
7
  6
CONTINUOUS
 10
5.0687071918
 20
5.955385274
 11
5.3187071918
 21
5.955385274
  0
LINE
  5
334
100
AcDbEntity
  8
0
100
AcDbLine
 62
7
  6
CONTINUOUS
 10
6.7254450732
 20
5.9634171903
 11
6.8025227085
 21
5.9634171903
  0
LINE
  5
335
100
AcDbEntity
  8
0
100
AcDbLine
 62
7
  6
CONTINUOUS
 10
5.2987071918
 20
5.975385274
 11
5.0887071918
 21
5.975385274
  0
LINE
  5
336
100
AcDbEntity
  8
0
100
AcDbLine
 62
7
  6
CONTINUOUS
 10
6.8115906869
 20
5.9921405911
 11
6.7254450732
 21
5.9921405911
  0
LINE
  5
337
100
AcDbEntity
  8
0
100
AcDbLine
 62
7
  6
CONTINUOUS
 10
5.1124395861
 20
6.5963959116
 11
5.128693115
 21
6.5772469761
  0
LINE
  5
338
100
AcDbEntity
  8
0
100
AcDbLine
 62
7
  6
CONTINUOUS
 10
5.2505945235
 20
6.7543746397
 11
5.2343409946
 21
6.7735235736
  0
LINE
  5
339
100
AcDbEntity
  8
0
100
AcDbLine
 62
7
  6
CONTINUOUS
 10
6.3899304928
 20
5.9155448489
 11
6.3536586438
 21
6.087885274
  0
LINE
  5
33A
100
AcDbEntity
  8
0
100
AcDbLine
 62
7
  6
CONTINUOUS
 10
7.0089665347
 20
3.0304384589
 11
7.0129826082
 21
3.011289525
  0
LINE
  5
33B
100
AcDbEntity
  8
0
100
AcDbLine
 62
7
  6
CONTINUOUS
 10
6.3355227258
 20
6.0448001727
 11
6.3717945747
 21
5.862885274
  0
LINE
  5
33C
100
AcDbEntity
  8
0
100
AcDbLine
 62
7
  6
CONTINUOUS
 10
6.2267071918
 20
6.087885274
 11
6.2629790375
 21
5.862885274
  0
LINE
  5
33D
100
AcDbEntity
  8
0
100
AcDbLine
 62
7
  6
CONTINUOUS
 10
6.2811149588
 20
5.9155448489
 11
6.2539110753
 21
6.087885274
  0
LINE
  5
33E
100
AcDbEntity
  8
0
100
AcDbLine
 62
7
  6
CONTINUOUS
 10
6.8387945704
 20
6.0352257058
 11
6.8387945704
 21
6.020863992
  0
LINE
  5
33F
100
AcDbEntity
  8
0
100
AcDbLine
 62
7
  6
CONTINUOUS
 10
6.8443088114
 20
2.862885274
 11
6.8443088114
 21
2.8916086782
  0
LINE
  5
340
100
AcDbEntity
  8
0
100
AcDbLine
 62
7
  6
CONTINUOUS
 10
6.8659984539
 20
6.0160767585
 11
6.8659984539
 21
6.0352257058
  0
LINE
  5
341
100
AcDbEntity
  8
0
100
AcDbLine
 62
7
  6
CONTINUOUS
 10
6.876437123
 20
3.087885274
 11
6.876437123
 21
2.862885274
  0
LINE
  5
342
100
AcDbEntity
  8
0
100
AcDbLine
 62
7
  6
CONTINUOUS
 10
6.9005333797
 20
2.8916086782
 11
6.9005333797
 21
3.0591618731
  0
LINE
  5
343
100
AcDbEntity
  8
0
100
AcDbLine
 62
7
  6
CONTINUOUS
 10
6.9068042792
 20
6.087885274
 11
6.9068042792
 21
5.862885274
  0
LINE
  5
344
100
AcDbEntity
  8
0
100
AcDbLine
 62
7
  6
CONTINUOUS
 10
6.9340081627
 20
5.862885274
 11
6.9340081627
 21
6.0400129393
  0
LINE
  5
345
100
AcDbEntity
  8
0
100
AcDbLine
 62
7
  6
CONTINUOUS
 10
7.0129826082
 20
3.011289525
 11
7.0129826082
 21
2.9394810162
  0
LINE
  5
346
100
AcDbEntity
  8
0
100
AcDbLine
 62
7
  6
CONTINUOUS
 10
7.0370788649
 20
2.9394810162
 11
7.0370788649
 21
3.011289525
  0
LINE
  5
347
100
AcDbEntity
  8
0
100
AcDbLine
 62
7
  6
CONTINUOUS
 10
6.6635868633
 20
2.9155448489
 11
6.6676029137
 21
2.9394810162
  0
LINE
  5
348
100
AcDbEntity
  8
0
100
AcDbLine
 62
7
  6
CONTINUOUS
 10
6.5310574515
 20
3.011289525
 11
6.5350735019
 21
3.0304384589
  0
LINE
  5
349
100
AcDbEntity
  8
0
100
AcDbLine
 62
7
  6
CONTINUOUS
 10
6.643506657
 20
2.9394810162
 11
6.6394906066
 21
2.9203320823
  0
LINE
  5
34A
100
AcDbEntity
  8
0
100
AcDbLine
 62
7
  6
CONTINUOUS
 10
6.4507366035
 20
2.9203320823
 11
6.4467205646
 21
2.9059703819
  0
LINE
  5
34B
100
AcDbEntity
  8
0
100
AcDbLine
 62
7
  6
CONTINUOUS
 10
6.3302553201
 20
3.0543746397
 11
6.3222232347
 21
3.0352257058
  0
LINE
  5
34C
100
AcDbEntity
  8
0
100
AcDbLine
 62
7
  6
CONTINUOUS
 10
6.5190093232
 20
3.0543746397
 11
6.5109772453
 21
3.0352257058
  0
LINE
  5
34D
100
AcDbEntity
  8
0
100
AcDbLine
 62
7
  6
CONTINUOUS
 10
6.3463194903
 20
3.0304384589
 11
6.3543515768
 21
3.0448001727
  0
LINE
  5
34E
100
AcDbEntity
  8
0
100
AcDbLine
 62
7
  6
CONTINUOUS
 10
6.5350735019
 20
3.0304384589
 11
6.5431055798
 21
3.0448001727
  0
LINE
  5
34F
100
AcDbEntity
  8
0
100
AcDbLine
 62
7
  6
CONTINUOUS
 10
6.3463194903
 20
3.0735235736
 11
6.3302553201
 21
3.0543746397
  0
LINE
  5
350
100
AcDbEntity
  8
0
100
AcDbLine
 62
7
  6
CONTINUOUS
 10
6.3543515768
 20
3.0448001727
 11
6.3663997051
 21
3.0543746397
  0
LINE
  5
351
100
AcDbEntity
  8
0
100
AcDbLine
 62
7
  6
CONTINUOUS
 10
6.3623836633
 20
3.0830980405
 11
6.3463194903
 21
3.0735235736
  0
LINE
  5
352
100
AcDbEntity
  8
0
100
AcDbLine
 62
7
  6
CONTINUOUS
 10
6.3663997051
 20
3.0543746397
 11
6.3824638782
 21
3.0591618731
  0
LINE
  5
353
100
AcDbEntity
  8
0
100
AcDbLine
 62
7
  6
CONTINUOUS
 10
6.5551537082
 20
3.0543746397
 11
6.571217887
 21
3.0591618731
  0
LINE
  5
354
100
AcDbEntity
  8
0
100
AcDbLine
 62
7
  6
CONTINUOUS
 10
6.4346724363
 20
2.8963959116
 11
6.4186082575
 21
2.8916086782
  0
LINE
  5
355
100
AcDbEntity
  8
0
100
AcDbLine
 62
7
  6
CONTINUOUS
 10
6.7254450732
 20
6.0639491066
 11
6.8115906869
 21
6.0639491066
  0
LINE
  5
356
100
AcDbEntity
  8
0
100
AcDbLine
 62
7
  6
CONTINUOUS
 10
7.1244353471
 20
6.087885274
 11
7.0836295219
 21
6.087885274
  0
LINE
  5
357
100
AcDbEntity
  8
0
100
AcDbLine
 62
7
  6
CONTINUOUS
 10
6.9476101044
 20
6.087885274
 11
6.9068042792
 21
6.087885274
  0
LINE
  5
358
100
AcDbEntity
  8
0
100
AcDbLine
 62
7
  6
CONTINUOUS
 10
6.8070567236
 20
6.087885274
 11
6.6982411897
 21
6.087885274
  0
LINE
  5
359
100
AcDbEntity
  8
0
100
AcDbLine
 62
7
  6
CONTINUOUS
 10
6.5894256297
 20
6.087885274
 11
6.5531537937
 21
6.087885274
  0
LINE
  5
35A
100
AcDbEntity
  8
0
100
AcDbLine
 62
7
  6
CONTINUOUS
 10
6.4443382597
 20
6.087885274
 11
6.4171343762
 21
6.087885274
  0
LINE
  5
35B
100
AcDbEntity
  8
0
100
AcDbLine
 62
7
  6
CONTINUOUS
 10
6.3536586438
 20
6.087885274
 11
6.3173868013
 21
6.087885274
  0
LINE
  5
35C
100
AcDbEntity
  8
0
100
AcDbLine
 62
7
  6
CONTINUOUS
 10
6.2539110753
 20
6.087885274
 11
6.2267071918
 21
6.087885274
  0
LINE
  5
35D
100
AcDbEntity
  8
0
100
AcDbLine
 62
7
  6
CONTINUOUS
 10
5.128693115
 20
6.5772469761
 11
5.1449466207
 21
6.5676725079
  0
LINE
  5
35E
100
AcDbEntity
  8
0
100
AcDbLine
 62
7
  6
CONTINUOUS
 10
5.1490100087
 20
6.5963959116
 11
5.1368198678
 21
6.6059703819
  0
LINE
  5
35F
100
AcDbEntity
  8
0
100
AcDbLine
 62
7
  6
CONTINUOUS
 10
5.2140241009
 20
6.7543746397
 11
5.2262142418
 21
6.7448001727
  0
LINE
  5
360
100
AcDbEntity
  8
0
100
AcDbLine
 62
7
  6
CONTINUOUS
 10
6.6619693277
 20
5.862885274
 11
6.5894256297
 21
6.087885274
  0
LINE
  5
361
100
AcDbEntity
  8
0
100
AcDbLine
 62
7
  6
CONTINUOUS
 10
6.6166295132
 20
5.9203320823
 11
6.6347654442
 21
5.862885274
  0
LINE
  5
362
100
AcDbEntity
  8
0
100
AcDbLine
 62
7
  6
CONTINUOUS
 10
6.5712897247
 20
6.0687363401
 11
6.6120955499
 21
5.9394810162
  0
LINE
  5
363
100
AcDbEntity
  8
0
100
AcDbLine
 62
7
  6
CONTINUOUS
 10
7.0370788649
 20
3.011289525
 11
7.0330627914
 21
3.0352257058
  0
LINE
  5
364
100
AcDbEntity
  8
0
100
AcDbLine
 62
7
  6
CONTINUOUS
 10
7.0972314636
 20
6.0400129393
 11
7.0972314636
 21
5.862885274
  0
LINE
  5
365
100
AcDbEntity
  8
0
100
AcDbLine
 62
7
  6
CONTINUOUS
 10
7.1244353471
 20
5.862885274
 11
7.1244353471
 21
6.087885274
  0
LINE
  5
366
100
AcDbEntity
  8
0
100
AcDbLine
 62
7
  6
CONTINUOUS
 10
7.0330627914
 20
2.9155448489
 11
7.0370788649
 21
2.9394810162
  0
LINE
  5
367
100
AcDbEntity
  8
0
100
AcDbLine
 62
7
  6
CONTINUOUS
 10
7.0129826082
 20
2.9394810162
 11
7.0089665347
 21
2.9203320823
  0
LINE
  5
368
100
AcDbEntity
  8
0
100
AcDbLine
 62
7
  6
CONTINUOUS
 10
6.6555547854
 20
2.8963959116
 11
6.6635868633
 21
2.9155448489
  0
LINE
  5
369
100
AcDbEntity
  8
0
100
AcDbLine
 62
7
  6
CONTINUOUS
 10
6.6394906066
 20
2.9203320823
 11
6.6314585287
 21
2.9059703819
  0
LINE
  5
36A
100
AcDbEntity
  8
0
100
AcDbLine
 62
7
  6
CONTINUOUS
 10
6.5350735019
 20
3.0735235736
 11
6.5190093232
 21
3.0543746397
  0
LINE
  5
36B
100
AcDbEntity
  8
0
100
AcDbLine
 62
7
  6
CONTINUOUS
 10
6.4547526425
 20
2.8772469761
 11
6.4708168213
 21
2.8963959116
  0
LINE
  5
36C
100
AcDbEntity
  8
0
100
AcDbLine
 62
7
  6
CONTINUOUS
 10
6.6394906066
 20
2.8772469761
 11
6.6555547854
 21
2.8963959116
  0
LINE
  5
36D
100
AcDbEntity
  8
0
100
AcDbLine
 62
7
  6
CONTINUOUS
 10
6.5431055798
 20
3.0448001727
 11
6.5551537082
 21
3.0543746397
  0
LINE
  5
36E
100
AcDbEntity
  8
0
100
AcDbLine
 62
7
  6
CONTINUOUS
 10
6.4467205646
 20
2.9059703819
 11
6.4346724363
 21
2.8963959116
  0
LINE
  5
36F
100
AcDbEntity
  8
0
100
AcDbLine
 62
7
  6
CONTINUOUS
 10
6.6314585287
 20
2.9059703819
 11
6.6194104003
 21
2.8963959116
  0
LINE
  5
370
100
AcDbEntity
  8
0
100
AcDbLine
 62
7
  6
CONTINUOUS
 10
6.5511376807
 20
3.0830980405
 11
6.5350735019
 21
3.0735235736
  0
LINE
  5
371
100
AcDbEntity
  8
0
100
AcDbLine
 62
7
  6
CONTINUOUS
 10
6.4386884752
 20
2.8676725079
 11
6.4547526425
 21
2.8772469761
  0
LINE
  5
372
100
AcDbEntity
  8
0
100
AcDbLine
 62
7
  6
CONTINUOUS
 10
6.6234264508
 20
2.8676725079
 11
6.6394906066
 21
2.8772469761
  0
LINE
  5
373
100
AcDbEntity
  8
0
100
AcDbLine
 62
7
  6
CONTINUOUS
 10
6.6194104003
 20
2.8963959116
 11
6.6033462216
 21
2.8916086782
  0
LINE
  5
374
100
AcDbEntity
  8
0
100
AcDbLine
 62
7
  6
CONTINUOUS
 10
6.9888863515
 20
2.8963959116
 11
6.9728221497
 21
2.8916086782
  0
LINE
  5
375
100
AcDbEntity
  8
0
100
AcDbLine
 62
7
  6
CONTINUOUS
 10
5.1977705721
 20
6.562885274
 11
5.2180874657
 21
6.5676725079
  0
LINE
  5
376
100
AcDbEntity
  8
0
100
AcDbLine
 62
7
  6
CONTINUOUS
 10
4.9052071918
 20
6.562885274
 11
4.9295874735
 21
6.562885274
  0
LINE
  5
377
100
AcDbEntity
  8
0
100
AcDbLine
 62
7
  6
CONTINUOUS
 10
5.0433621175
 20
6.562885274
 11
5.0677423992
 21
6.562885274
  0
LINE
  5
378
100
AcDbEntity
  8
0
100
AcDbLine
 62
7
  6
CONTINUOUS
 10
5.1652635376
 20
6.562885274
 11
5.1977705721
 21
6.562885274
  0
LINE
  5
379
100
AcDbEntity
  8
0
100
AcDbLine
 62
7
  6
CONTINUOUS
 10
5.3603057678
 20
6.562885274
 11
5.3846860495
 21
6.562885274
  0
LINE
  5
37A
100
AcDbEntity
  8
0
100
AcDbLine
 62
7
  6
CONTINUOUS
 10
5.1977705721
 20
6.5916086782
 11
5.1652635376
 21
6.5916086782
  0
LINE
  5
37B
100
AcDbEntity
  8
0
100
AcDbLine
 62
7
  6
CONTINUOUS
 10
6.829726592
 20
6.0830980405
 11
6.8070567236
 21
6.087885274
  0
LINE
  5
37C
100
AcDbEntity
  8
0
100
AcDbLine
 62
7
  6
CONTINUOUS
 10
5.1449466207
 20
6.5676725079
 11
5.1652635376
 21
6.562885274
  0
LINE
  5
37D
100
AcDbEntity
  8
0
100
AcDbLine
 62
7
  6
CONTINUOUS
 10
5.1652635376
 20
6.5916086782
 11
5.1490100087
 21
6.5963959116
  0
LINE
  5
37E
100
AcDbEntity
  8
0
100
AcDbLine
 62
7
  6
CONTINUOUS
 10
6.8115906869
 20
6.0639491066
 11
6.8251926287
 21
6.0591618731
  0
LINE
  5
37F
100
AcDbEntity
  8
0
100
AcDbLine
 62
7
  6
CONTINUOUS
 10
5.2343409946
 20
6.7735235736
 11
5.2180874657
 21
6.7830980405
  0
LINE
  5
380
100
AcDbEntity
  8
0
100
AcDbLine
 62
7
  6
CONTINUOUS
 10
6.8705324172
 20
5.862885274
 11
6.829726592
 21
5.9729916572
  0
LINE
  5
381
100
AcDbEntity
  8
0
100
AcDbLine
 62
7
  6
CONTINUOUS
 10
6.8025227085
 20
5.9634171903
 11
6.8387945704
 21
5.862885274
  0
LINE
  5
382
100
AcDbEntity
  8
0
100
AcDbLine
 62
7
  6
CONTINUOUS
 10
6.9340081627
 20
6.0400129393
 11
6.9974839081
 21
5.862885274
  0
LINE
  5
383
100
AcDbEntity
  8
0
100
AcDbLine
 62
7
  6
CONTINUOUS
 10
7.0156198131
 20
5.8868214447
 11
6.9476101044
 21
6.087885274
  0
LINE
  5
384
100
AcDbEntity
  8
0
100
AcDbLine
 62
7
  6
CONTINUOUS
 10
6.8342606071
 20
6.0495874062
 11
6.8387945704
 21
6.0352257058
  0
LINE
  5
385
100
AcDbEntity
  8
0
100
AcDbLine
 62
7
  6
CONTINUOUS
 10
6.8659984539
 20
6.0352257058
 11
6.8614644906
 21
6.0495874062
  0
LINE
  5
386
100
AcDbEntity
  8
0
100
AcDbLine
 62
7
  6
CONTINUOUS
 10
7.0250307365
 20
2.8963959116
 11
7.0330627914
 21
2.9155448489
  0
LINE
  5
387
100
AcDbEntity
  8
0
100
AcDbLine
 62
7
  6
CONTINUOUS
 10
7.0089665347
 20
2.9203320823
 11
7.0009344798
 21
2.9059703819
  0
LINE
  5
388
100
AcDbEntity
  8
0
100
AcDbLine
 62
7
  6
CONTINUOUS
 10
7.0089665347
 20
2.8772469761
 11
7.0250307365
 21
2.8963959116
  0
LINE
  5
389
100
AcDbEntity
  8
0
100
AcDbLine
 62
7
  6
CONTINUOUS
 10
7.0009344798
 20
2.9059703819
 11
6.9888863515
 21
2.8963959116
  0
LINE
  5
38A
100
AcDbEntity
  8
0
100
AcDbLine
 62
7
  6
CONTINUOUS
 10
6.9929023789
 20
2.8676725079
 11
7.0089665347
 21
2.8772469761
  0
LINE
  5
38B
100
AcDbEntity
  8
0
100
AcDbLine
 62
7
  6
CONTINUOUS
 10
5.1652635376
 20
6.787885274
 11
5.1449466207
 21
6.7830980405
  0
LINE
  5
38C
100
AcDbEntity
  8
0
100
AcDbLine
 62
7
  6
CONTINUOUS
 10
4.9295874735
 20
6.6682044238
 11
5.0433621175
 21
6.6682044238
  0
LINE
  5
38D
100
AcDbEntity
  8
0
100
AcDbLine
 62
7
  6
CONTINUOUS
 10
5.0433621175
 20
6.6969278246
 11
4.9295874735
 21
6.6969278246
  0
LINE
  5
38E
100
AcDbEntity
  8
0
100
AcDbLine
 62
7
  6
CONTINUOUS
 10
5.1652635376
 20
6.7591618731
 11
5.1977705721
 21
6.7591618731
  0
LINE
  5
38F
100
AcDbEntity
  8
0
100
AcDbLine
 62
7
  6
CONTINUOUS
 10
5.2952916988
 20
6.7639491066
 11
5.3603057678
 21
6.7639491066
  0
LINE
  5
390
100
AcDbEntity
  8
0
100
AcDbLine
 62
7
  6
CONTINUOUS
 10
5.3846860495
 20
6.7639491066
 11
5.449700165
 21
6.7639491066
  0
LINE
  5
391
100
AcDbEntity
  8
0
100
AcDbLine
 62
7
  6
CONTINUOUS
 10
5.449700165
 20
6.787885274
 11
5.2952916988
 21
6.787885274
  0
LINE
  5
392
100
AcDbEntity
  8
0
100
AcDbLine
 62
7
  6
CONTINUOUS
 10
5.1977705721
 20
6.787885274
 11
5.1652635376
 21
6.787885274
  0
LINE
  5
393
100
AcDbEntity
  8
0
100
AcDbLine
 62
7
  6
CONTINUOUS
 10
5.0677423992
 20
6.787885274
 11
5.0433621175
 21
6.787885274
  0
LINE
  5
394
100
AcDbEntity
  8
0
100
AcDbLine
 62
7
  6
CONTINUOUS
 10
4.9295874735
 20
6.787885274
 11
4.9052071918
 21
6.787885274
  0
LINE
  5
395
100
AcDbEntity
  8
0
100
AcDbLine
 62
7
  6
CONTINUOUS
 10
5.2180874657
 20
6.7830980405
 11
5.1977705721
 21
6.787885274
  0
LINE
  5
396
100
AcDbEntity
  8
0
100
AcDbLine
 62
7
  6
CONTINUOUS
 10
5.1977705721
 20
6.7591618731
 11
5.2140241009
 21
6.7543746397
  0
LINE
  5
397
100
AcDbEntity
  8
0
100
AcDbLine
 62
7
  6
CONTINUOUS
 10
6.8478625489
 20
6.0687363401
 11
6.829726592
 21
6.0830980405
  0
LINE
  5
398
100
AcDbEntity
  8
0
100
AcDbLine
 62
7
  6
CONTINUOUS
 10
6.8251926287
 20
6.0591618731
 11
6.8342606071
 21
6.0495874062
  0
LINE
  5
399
100
AcDbEntity
  8
0
100
AcDbLine
 62
7
  6
CONTINUOUS
 10
6.8614644906
 20
6.0495874062
 11
6.8478625489
 21
6.0687363401
  0
ARC
  5
39A
100
AcDbEntity
  8
0
100
AcDbCircle
 62
7
  6
CONTINUOUS
 10
5.0887071918
 20
2.995385274
 40
0.02
100
AcDbArc
 50
180.0
 51
270.0
  0
ARC
  5
39B
100
AcDbEntity
  8
0
100
AcDbCircle
 62
7
  6
CONTINUOUS
 10
3.7137071918
 20
4.580385274
 40
0.02
100
AcDbArc
 50
90.0
 51
180.0
  0
ARC
  5
39C
100
AcDbEntity
  8
0
100
AcDbCircle
 62
7
  6
CONTINUOUS
 10
3.7137071918
 20
4.370385274
 40
0.02
100
AcDbArc
 50
180.0
 51
270.0
  0
ARC
  5
39D
100
AcDbEntity
  8
0
100
AcDbCircle
 62
7
  6
CONTINUOUS
 10
5.0887071918
 20
5.955385274
 40
0.02
100
AcDbArc
 50
90.0
 51
180.0
  0
CIRCLE
  5
39E
100
AcDbEntity
  8
0
100
AcDbCircle
 62
7
  6
CONTINUOUS
 10
5.1937071918
 20
2.305385274
 40
0.45
  0
CIRCLE
  5
39F
100
AcDbEntity
  8
0
100
AcDbCircle
 62
7
  6
CONTINUOUS
 10
5.1937071918
 20
2.305385274
 40
0.4492005033
  0
CIRCLE
  5
3A0
100
AcDbEntity
  8
0
100
AcDbCircle
 62
7
  6
CONTINUOUS
 10
5.1937071918
 20
2.305385274
 40
0.4177005033
  0
CIRCLE
  5
3A1
100
AcDbEntity
  8
0
100
AcDbCircle
 62
7
  6
CONTINUOUS
 10
5.1937071918
 20
2.305385274
 40
0.3875
  0
ARC
  5
3A2
100
AcDbEntity
  8
0
100
AcDbCircle
 62
7
  6
CONTINUOUS
 10
5.2987071918
 20
2.995385274
 40
0.02
100
AcDbArc
 50
270.0
 51
360.0
  0
CIRCLE
  5
3A3
100
AcDbEntity
  8
0
100
AcDbCircle
 62
7
  6
CONTINUOUS
 10
5.1937071918
 20
4.475385274
 40
3.25
  0
CIRCLE
  5
3A4
100
AcDbEntity
  8
0
100
AcDbCircle
 62
7
  6
CONTINUOUS
 10
5.1937071918
 20
4.475385274
 40
3.2115516844
  0
CIRCLE
  5
3A5
100
AcDbEntity
  8
0
100
AcDbCircle
 62
7
  6
CONTINUOUS
 10
5.1937071918
 20
4.475385274
 40
3.1422181513
  0
CIRCLE
  5
3A6
100
AcDbEntity
  8
0
100
AcDbCircle
 62
7
  6
CONTINUOUS
 10
5.1937071918
 20
4.475385274
 40
3.0828434898
  0
ARC
  5
3A7
100
AcDbEntity
  8
0
100
AcDbCircle
 62
7
  6
CONTINUOUS
 10
5.1937071918
 20
4.475385274
 40
1.125
100
AcDbArc
 50
276.3797028819
 51
353.6205382878
  0
ARC
  5
3A8
100
AcDbEntity
  8
0
100
AcDbCircle
 62
7
  6
CONTINUOUS
 10
5.1937071918
 20
4.475385274
 40
1.125
100
AcDbArc
 50
6.3794617122
 51
83.6202971181
  0
ARC
  5
3A9
100
AcDbEntity
  8
0
100
AcDbCircle
 62
7
  6
CONTINUOUS
 10
5.1937071918
 20
4.475385274
 40
1.125
100
AcDbArc
 50
96.3797028819
 51
173.6205382878
  0
ARC
  5
3AA
100
AcDbEntity
  8
0
100
AcDbCircle
 62
7
  6
CONTINUOUS
 10
5.1937071918
 20
4.475385274
 40
1.125
100
AcDbArc
 50
186.3794617122
 51
263.6202971181
  0
ARC
  5
3AB
100
AcDbEntity
  8
0
100
AcDbCircle
 62
7
  6
CONTINUOUS
 10
5.1937071918
 20
4.475385274
 40
1.0971773741
100
AcDbArc
 50
96.5421770798
 51
173.458078575
  0
ARC
  5
3AC
100
AcDbEntity
  8
0
100
AcDbCircle
 62
7
  6
CONTINUOUS
 10
5.1937071918
 20
4.475385274
 40
1.0971773741
100
AcDbArc
 50
186.541921425
 51
263.4578229202
  0
ARC
  5
3AD
100
AcDbEntity
  8
0
100
AcDbCircle
 62
7
  6
CONTINUOUS
 10
5.1937071918
 20
4.475385274
 40
1.0971773741
100
AcDbArc
 50
276.5421770798
 51
353.458078575
  0
ARC
  5
3AE
100
AcDbEntity
  8
0
100
AcDbCircle
 62
7
  6
CONTINUOUS
 10
5.1937071918
 20
4.475385274
 40
1.0971773741
100
AcDbArc
 50
6.541921425
 51
83.4578229202
  0
ARC
  5
3AF
100
AcDbEntity
  8
0
100
AcDbCircle
 62
7
  6
CONTINUOUS
 10
5.1937071918
 20
4.475385274
 40
0.6295658437
100
AcDbArc
 50
101.452907342
 51
168.5475842556
  0
ARC
  5
3B0
100
AcDbEntity
  8
0
100
AcDbCircle
 62
7
  6
CONTINUOUS
 10
5.1937071918
 20
4.475385274
 40
0.6295658437
100
AcDbArc
 50
191.4524157444
 51
258.547092658
  0
ARC
  5
3B1
100
AcDbEntity
  8
0
100
AcDbCircle
 62
7
  6
CONTINUOUS
 10
5.1937071918
 20
4.475385274
 40
0.6295658437
100
AcDbArc
 50
11.4524157444
 51
78.547092658
  0
ARC
  5
3B2
100
AcDbEntity
  8
0
100
AcDbCircle
 62
7
  6
CONTINUOUS
 10
5.1937071918
 20
4.475385274
 40
0.6295658437
100
AcDbArc
 50
281.452907342
 51
348.5475842556
  0
ARC
  5
3B3
100
AcDbEntity
  8
0
100
AcDbCircle
 62
7
  6
CONTINUOUS
 10
5.1937071918
 20
4.475385274
 40
0.5018840262
100
AcDbArc
 50
104.4223915335
 51
165.5776084665
  0
ARC
  5
3B4
100
AcDbEntity
  8
0
100
AcDbCircle
 62
7
  6
CONTINUOUS
 10
5.1937071918
 20
4.475385274
 40
0.5018840262
100
AcDbArc
 50
194.4223915335
 51
255.5776084665
  0
ARC
  5
3B5
100
AcDbEntity
  8
0
100
AcDbCircle
 62
7
  6
CONTINUOUS
 10
5.1937071918
 20
4.475385274
 40
0.5018840262
100
AcDbArc
 50
284.4223915335
 51
345.5776084665
  0
ARC
  5
3B6
100
AcDbEntity
  8
0
100
AcDbCircle
 62
7
  6
CONTINUOUS
 10
5.1937071918
 20
4.475385274
 40
0.5018840262
100
AcDbArc
 50
14.4223915335
 51
75.5776084665
  0
ARC
  5
3B7
100
AcDbEntity
  8
0
100
AcDbCircle
 62
7
  6
CONTINUOUS
 10
5.1937071918
 20
4.475385274
 40
0.5
100
AcDbArc
 50
175.8075437376
 51
178.5674562624
  0
ARC
  5
3B8
100
AcDbEntity
  8
0
100
AcDbCircle
 62
7
  6
CONTINUOUS
 10
5.1937071918
 20
4.475385274
 40
0.5
100
AcDbArc
 50
170.1825437376
 51
172.9424562624
  0
ARC
  5
3B9
100
AcDbEntity
  8
0
100
AcDbCircle
 62
7
  6
CONTINUOUS
 10
5.1937071918
 20
4.475385274
 40
0.5
100
AcDbArc
 50
97.0575437376
 51
99.8174562624
  0
ARC
  5
3BA
100
AcDbEntity
  8
0
100
AcDbCircle
 62
7
  6
CONTINUOUS
 10
5.1937071918
 20
4.475385274
 40
0.5
100
AcDbArc
 50
91.4325437376
 51
94.1924562624
  0
ARC
  5
3BB
100
AcDbEntity
  8
0
100
AcDbCircle
 62
7
  6
CONTINUOUS
 10
5.1937071918
 20
4.475385274
 40
0.5
100
AcDbArc
 50
85.8075437376
 51
88.5674562624
  0
ARC
  5
3BC
100
AcDbEntity
  8
0
100
AcDbCircle
 62
7
  6
CONTINUOUS
 10
5.1937071918
 20
4.475385274
 40
0.5
100
AcDbArc
 50
80.1825437376
 51
82.9424562624
  0
ARC
  5
3BD
100
AcDbEntity
  8
0
100
AcDbCircle
 62
7
  6
CONTINUOUS
 10
5.1937071918
 20
4.475385274
 40
0.5
100
AcDbArc
 50
7.0575437376
 51
9.8174562624
  0
ARC
  5
3BE
100
AcDbEntity
  8
0
100
AcDbCircle
 62
7
  6
CONTINUOUS
 10
5.1937071918
 20
4.475385274
 40
0.5
100
AcDbArc
 50
1.4325437376
 51
4.1924562624
  0
ARC
  5
3BF
100
AcDbEntity
  8
0
100
AcDbCircle
 62
7
  6
CONTINUOUS
 10
5.1937071918
 20
4.475385274
 40
0.5
100
AcDbArc
 50
355.8075437376
 51
358.5674562624
  0
ARC
  5
3C0
100
AcDbEntity
  8
0
100
AcDbCircle
 62
7
  6
CONTINUOUS
 10
5.1937071918
 20
4.475385274
 40
0.5
100
AcDbArc
 50
350.1825437376
 51
352.9424562624
  0
ARC
  5
3C1
100
AcDbEntity
  8
0
100
AcDbCircle
 62
7
  6
CONTINUOUS
 10
5.1937071918
 20
4.475385274
 40
0.5
100
AcDbArc
 50
277.0575437376
 51
279.8174562624
  0
ARC
  5
3C2
100
AcDbEntity
  8
0
100
AcDbCircle
 62
7
  6
CONTINUOUS
 10
5.1937071918
 20
4.475385274
 40
0.5
100
AcDbArc
 50
271.4325437376
 51
274.1924562624
  0
ARC
  5
3C3
100
AcDbEntity
  8
0
100
AcDbCircle
 62
7
  6
CONTINUOUS
 10
5.1937071918
 20
4.475385274
 40
0.5
100
AcDbArc
 50
265.8075437376
 51
268.5674562624
  0
ARC
  5
3C4
100
AcDbEntity
  8
0
100
AcDbCircle
 62
7
  6
CONTINUOUS
 10
5.1937071918
 20
4.475385274
 40
0.5
100
AcDbArc
 50
260.1825437376
 51
262.9424562624
  0
ARC
  5
3C5
100
AcDbEntity
  8
0
100
AcDbCircle
 62
7
  6
CONTINUOUS
 10
5.1937071918
 20
4.475385274
 40
0.5
100
AcDbArc
 50
187.0575437376
 51
189.8174562624
  0
ARC
  5
3C6
100
AcDbEntity
  8
0
100
AcDbCircle
 62
7
  6
CONTINUOUS
 10
5.1937071918
 20
4.475385274
 40
0.5
100
AcDbArc
 50
181.4325437376
 51
184.1924562624
  0
ARC
  5
3C7
100
AcDbEntity
  8
0
100
AcDbCircle
 62
7
  6
CONTINUOUS
 10
5.1937071918
 20
4.475385274
 40
0.5
100
AcDbArc
 50
192.6825437376
 51
257.3174562624
  0
ARC
  5
3C8
100
AcDbEntity
  8
0
100
AcDbCircle
 62
7
  6
CONTINUOUS
 10
5.1937071918
 20
4.475385274
 40
0.5
100
AcDbArc
 50
102.6825437376
 51
167.3174562624
  0
ARC
  5
3C9
100
AcDbEntity
  8
0
100
AcDbCircle
 62
7
  6
CONTINUOUS
 10
5.1937071918
 20
4.475385274
 40
0.5
100
AcDbArc
 50
12.6825437376
 51
77.3174562624
  0
ARC
  5
3CA
100
AcDbEntity
  8
0
100
AcDbCircle
 62
7
  6
CONTINUOUS
 10
5.1937071918
 20
4.475385274
 40
0.5
100
AcDbArc
 50
282.6825437376
 51
347.3174562624
  0
CIRCLE
  5
3CB
100
AcDbEntity
  8
0
100
AcDbCircle
 62
7
  6
CONTINUOUS
 10
5.1937071918
 20
4.475385274
 40
0.47
  0
ARC
  5
3CC
100
AcDbEntity
  8
0
100
AcDbCircle
 62
7
  6
CONTINUOUS
 10
5.2987071918
 20
5.955385274
 40
0.02
100
AcDbArc
 50
0.0
 51
90.0
  0
ARC
  5
3CD
100
AcDbEntity
  8
0
100
AcDbCircle
 62
7
  6
CONTINUOUS
 10
6.6737071918
 20
4.370385274
 40
0.02
100
AcDbArc
 50
270.0
 51
360.0
  0
ARC
  5
3CE
100
AcDbEntity
  8
0
100
AcDbCircle
 62
7
  6
CONTINUOUS
 10
6.6737071918
 20
4.580385274
 40
0.02
100
AcDbArc
 50
0.0
 51
90.0
  0
ENDSEC
  0
SECTION
  2
OBJECTS
  0
DICTIONARY
  5
C
100
AcDbDictionary
280
0
281
1
  3
ACAD_GROUP
350
D
  3
ACAD_MLINESTYLE
350
17
  3
ACAD_LAYOUT
350
1A
  3
ACAD_PLOTSETTINGS
350
19
  3
ACAD_PLOTSTYLENAME
350
E
  0
DICTIONARY
  5
D
102
{ACAD_REACTORS
330
C
102
}
100
AcDbDictionary
280
0
281
1
  0
ACDBDICTIONARYWDFLT
  5
E
102
{ACAD_REACTORS
330
C
102
}
100
AcDbDictionary
281
1
  3
Normal
350
F
100
AcDbDictionaryWithDefault
340
F
  0
DICTIONARY
  5
17
102
{ACAD_REACTORS
330
C
102
}
100
AcDbDictionary
280
0
281
1
  3
Standard
350
18
  0
DICTIONARY
  5
19
102
{ACAD_REACTORS
330
C
102
}
100
AcDbDictionary
281
1
  0
DICTIONARY
  5
1A
102
{ACAD_REACTORS
330
C
102
}
100
AcDbDictionary
281
1
  3
Model
350
3CF
  3
Layout1
350
3D0
  0
ACDBPLACEHOLDER
  5
F
102
{ACAD_REACTORS
330
E
102
}
  0
MLINESTYLE
  5
18
102
{ACAD_REACTORS
330
17
102
}
100
AcDbMlineStyle
  2
STANDARD
 70
0
  3

 62
256
 51
90.0
 52
90.0
 71
2
 49
0.5
 62
256
  6
BYLAYER
 49
-0.5
 62
256
  6
BYLAYER
  0
LAYOUT
  5
3CF
102
{ACAD_REACTORS
330
1A
102
}
100
AcDbPlotSettings
  1

  2
none_device
  4
ANSI_A_(11.00_x_8.50_Inches)
  6

 40
0.0
 41
0.0
 42
0.0
 43
0.0
 44
279.4
 45
215.9
 46
0.0
 47
0.0
 48
0.0
 49
0.0
140
0.0
141
0.0
142
1.0
143
1.0
 70
1024
 72
0
 73
0
 74
0
  7

 75
0
147
1.0
148
0.0
149
0.0
100
AcDbLayout
  1
Model
 70
0
 71
0
 10
0.0
 20
0.0
 11
11.0
 21
8.5
 12
0.0
 22
0.0
 32
0.0
 14
0.0
 24
0.0
 34
0.0
 15
0.0
 25
0.0
 35
0.0
146
0.0
 13
0.0
 23
0.0
 33
0.0
 16
1.0
 26
0.0
 36
0.0
 17
0.0
 27
1.0
 37
0.0
 76
0
330
203
345
0
346
0
  0
LAYOUT
  5
3D0
102
{ACAD_REACTORS
330
1A
102
}
100
AcDbPlotSettings
  1

  2
none_device
  4
ANSI_A_(11.00_x_8.50_Inches)
  6

 40
0.0
 41
0.0
 42
0.0
 43
0.0
 44
279.4
 45
215.9
 46
0.0
 47
0.0
 48
0.0
 49
0.0
140
0.0
141
0.0
142
1.0
143
1.0
 70
0
 72
0
 73
0
 74
0
  7

 75
0
147
1.0
148
0.0
149
0.0
100
AcDbLayout
  1
Layout1
 70
0
 71
1
 10
0.0
 20
0.0
 11
11.0
 21
8.5
 12
0.0
 22
0.0
 32
0.0
 14
0.0
 24
0.0
 34
0.0
 15
0.0
 25
0.0
 35
0.0
146
0.0
 13
0.0
 23
0.0
 33
0.0
 16
1.0
 26
0.0
 36
0.0
 17
0.0
 27
1.0
 37
0.0
 76
0
330
204
345
0
346
0
  0
ENDSEC
  0
EOF
