999
DXF file: 5-3242bp_right.dxf
999
Pro/ENGINEER 2023134 by Parametric Technology Corporation
  0
SECTION
  2
HEADER
  9
$ACADVER
  1
AC1032
  9
$DWGCODEPAGE
  3
ANSI_1252
  9
$EXTMAX
 10
11.0
 20
8.5
 30
0.0
  9
$EXTMIN
 10
0.0
 20
0.0
 30
0.0
  9
$LIMMIN
 10
0.0
 20
0.0
  9
$LIMMAX
 10
11.0
 20
8.5
  9
$VIEWCTR
 10
5.5
 20
4.25
  9
$VIEWSIZE
 40
8.5
  9
$CLAYER
  8
0
  9
$LTSCALE
 40
0.605
  9
$CELTYPE
  6
BYLAYER
  9
$DIMSCALE
 40
1.0
  9
$DIMASZ
 40
0.1
  9
$DIMEXO
 40
0.0625
  9
$DIMDLI
 40
0.418
  9
$DIMEXE
 40
0.125
  9
$DIMCEN
 40
0.099
  9
$DIMLFAC
 40
1.0
  9
$DIMBLK
  1
_FILLED
  9
$DIMALT
 70
1
  9
$DIMALTD
 70
2
  9
$DIMALTTD
 70
2
  9
$DIMALTF
 40
25.4
  9
$DIMTXT
 40
0.08
  9
$DIMTOL
 70
1
  9
$DIMLIM
 70
0
  9
$DIMTFAC
 40
1.0
  9
$DIMTP
 40
0.001
  9
$DIMTM
 40
0.001
  9
$DIMGAP
 40
0.09
  9
$DIMDSEP
 70
46
  9
$AUNITS
 70
0
  9
$PDMODE
 70
3
  9
$PDSIZE
 40
0.3125
  9
$HANDSEED
  5
3AC
  9
$TILEMODE
 70
1
  9
$MEASUREMENT
 70
0
  9
$INSUNITS
 70
1
  0
ENDSEC
  0
SECTION
  2
CLASSES
  0
CLASS
  1
ACDBDICTIONARYWDFLT
  2
AcDbDictionaryWithDefault
  3
AutoCAD 2000
 90
0
 91
1
280
0
281
0
  0
CLASS
  1
ACDBPLACEHOLDER
  2
AcDbPlaceHolder
  3
AutoCAD 2000
 90
0
 91
1
280
0
281
0
  0
CLASS
  1
LAYOUT
  2
AcDbLayout
  3
AutoCAD 2000
 90
0
 91
0
280
0
281
0
  0
ENDSEC
  0
SECTION
  2
TABLES
  0
TABLE
  2
VPORT
  5
8
100
AcDbSymbolTable
 70
2
  0
VPORT
  5
1F4
100
AcDbSymbolTableRecord
100
AcDbViewportTableRecord
  2
*ACTIVE
 70
0
 10
0.0
 20
0.0
 11
1.0
 21
1.0
 12
5.5
 22
4.25
 13
0.0
 23
0.0
 14
1.0
 24
1.0
 15
0.0
 25
0.0
 16
0.0
 26
0.0
 36
1.0
 17
0.0
 27
0.0
 37
0.0
 40
8.5
 41
1.2941176471
 42
50.0
 43
0.0
 44
0.0
 50
0.0
 51
0.0
 71
0
 72
100
 73
1
 74
1
 75
0
 76
0
 77
0
 78
0
  0
ENDTAB
  0
TABLE
  2
LTYPE
  5
5
100
AcDbSymbolTable
 70
6
  0
LTYPE
  5
14
100
AcDbSymbolTableRecord
100
AcDbLinetypeTableRecord
  2
BYBLOCK
 70
0
  3

 72
65
 73
0
 40
0.0
  0
LTYPE
  5
15
100
AcDbSymbolTableRecord
100
AcDbLinetypeTableRecord
  2
BYLAYER
 70
0
  3

 72
65
 73
0
 40
0.0
  0
LTYPE
  5
16
100
AcDbSymbolTableRecord
100
AcDbLinetypeTableRecord
  2
CONTINUOUS
 70
64
  3
Solid line
 72
65
 73
0
 40
0.0
  0
LTYPE
  5
1F5
100
AcDbSymbolTableRecord
100
AcDbLinetypeTableRecord
  2
CENTER
 70
64
  3
____ _ ____ _ ____ _ ____ _ ____ _ ____ _ ____
 72
65
 73
4
 40
0.6
 49
0.375
 74
0
 49
-0.075
 74
0
 49
0.075
 74
0
 49
-0.075
 74
0
  0
LTYPE
  5
1F6
100
AcDbSymbolTableRecord
100
AcDbLinetypeTableRecord
  2
HIDDEN
 70
64
  3
- - - - - - - - - - - - - - - - - - - -
 72
65
 73
2
 40
0.2
 49
0.1
 74
0
 49
-0.1
 74
0
  0
LTYPE
  5
1F7
100
AcDbSymbolTableRecord
100
AcDbLinetypeTableRecord
  2
PHANTOM
 70
64
  3
_____ _ _ _____ _ _ _____ _ _ _____
 72
65
 73
6
 40
0.8
 49
0.45
 74
0
 49
-0.05
 74
0
 49
0.1
 74
0
 49
-0.05
 74
0
 49
0.1
 74
0
 49
-0.05
 74
0
  0
LTYPE
  5
1F8
100
AcDbSymbolTableRecord
100
AcDbLinetypeTableRecord
  2
DOT
 70
64
  3
. . . . . . . . . . . . . . . . . . . .
 72
65
 73
2
 40
0.2
 49
0.1
 74
0
 49
-0.1
 74
0
  0
LTYPE
  5
1F9
100
AcDbSymbolTableRecord
100
AcDbLinetypeTableRecord
  2
DASHED
 70
64
  3
- - - - - - - - - - - - - - - - - - - -
 72
65
 73
2
 40
0.2
 49
0.1
 74
0
 49
-0.1
 74
0
  0
ENDTAB
  0
TABLE
  2
LAYER
  5
2
100
AcDbSymbolTable
 70
36
  0
LAYER
  5
10
100
AcDbSymbolTableRecord
100
AcDbLayerTableRecord
  2
0
 70
0
 62
7
  6
CONTINUOUS
370
-3
390
F
  0
LAYER
  5
1FA
100
AcDbSymbolTableRecord
100
AcDbLayerTableRecord
  2
DEFAULT_1
 70
0
 62
7
  6
CENTER
370
-3
390
F
  0
LAYER
  5
1FB
100
AcDbSymbolTableRecord
100
AcDbLayerTableRecord
  2
DEFAULT_2
 70
0
 62
8
  6
HIDDEN
370
-3
390
F
  0
LAYER
  5
1FC
100
AcDbSymbolTableRecord
100
AcDbLayerTableRecord
  2
DEFAULT_3
 70
0
 62
7
  6
PHANTOM
370
-3
390
F
  0
LAYER
  5
1FD
100
AcDbSymbolTableRecord
100
AcDbLayerTableRecord
  2
DEFAULT_COORDINATE_SYSTEM
 70
0
 62
7
  6
CONTINUOUS
370
-3
390
F
  0
LAYER
  5
1FE
100
AcDbSymbolTableRecord
100
AcDbLayerTableRecord
  2
DEFAULT_DATUM_AXES
 70
0
 62
7
  6
CONTINUOUS
370
-3
390
F
  0
LAYER
  5
1FF
100
AcDbSymbolTableRecord
100
AcDbLayerTableRecord
  2
DEFAULT_DATUM_CURVES
 70
0
 62
7
  6
CONTINUOUS
370
-3
390
F
  0
LAYER
  5
200
100
AcDbSymbolTableRecord
100
AcDbLayerTableRecord
  2
DEFAULT_DATUM_PLANES
 70
0
 62
7
  6
CONTINUOUS
370
-3
390
F
  0
ENDTAB
  0
TABLE
  2
STYLE
  5
3
100
AcDbSymbolTable
 70
1
  0
STYLE
  5
11
100
AcDbSymbolTableRecord
100
AcDbTextStyleTableRecord
  2
STANDARD
 70
0
 40
0.0
 41
0.8
 50
0.0
 71
0
 42
0.2
  3
txt
  4

  0
STYLE
  5
201
100
AcDbSymbolTableRecord
100
AcDbTextStyleTableRecord
  2
TEXTSTYLE_1
 70
0
 40
0.0
 41
0.8
 50
0.0
 71
0
 42
0.2
  3
gdt
  4

  0
ENDTAB
  0
TABLE
  2
VIEW
  5
6
100
AcDbSymbolTable
 70
0
  0
ENDTAB
  0
TABLE
  2
UCS
  5
7
100
AcDbSymbolTable
 70
0
  0
ENDTAB
  0
TABLE
  2
APPID
  5
9
100
AcDbSymbolTable
 70
1
  0
APPID
  5
202
100
AcDbSymbolTableRecord
100
AcDbRegAppTableRecord
  2
ACAD
 70
0
  0
ENDTAB
  0
TABLE
  2
BLOCK_RECORD
  5
1
100
AcDbSymbolTable
 70
0
  0
BLOCK_RECORD
  5
203
100
AcDbSymbolTableRecord
100
AcDbBlockTableRecord
  2
*Model_Space
  0
BLOCK_RECORD
  5
204
100
AcDbSymbolTableRecord
100
AcDbBlockTableRecord
  2
*Paper_Space
  0
BLOCK_RECORD
  5
205
100
AcDbSymbolTableRecord
100
AcDbBlockTableRecord
  2
_FILLED
  0
ENDTAB
  0
TABLE
  2
DIMSTYLE
  5
A
100
AcDbSymbolTable
 70
1
100
AcDbDimStyleTable
 71
0
  0
DIMSTYLE
105
206
100
AcDbSymbolTableRecord
100
AcDbDimStyleTableRecord
  2
STANDARD
 70
0
  3

  4

 40
1.0
 41
0.1
 42
0.0625
 43
0.38
 44
0.125
 45
0.0
 46
0.0
 47
0.001
 48
0.001
140
0.08
141
0.09
142
0.0
143
25.4
144
1.0
145
0.0
146
1.0
147
0.09
 71
1
 72
0
 73
1
 74
1
 75
0
 76
0
 77
0
 78
4
 79
1
170
1
171
2
172
0
173
0
174
0
175
0
176
0
177
0
178
0
270
2
179
3
271
3
272
3
273
2
274
2
275
0
280
0
281
0
282
0
283
1
284
4
285
0
286
0
287
3
288
0
340
11
278
46
341
205
342
205
343
205
344
205
  0
ENDTAB
  0
ENDSEC
  0
SECTION
  2
BLOCKS
  0
BLOCK
  5
20
100
AcDbEntity
  8
0
100
AcDbBlockBegin
  2
*Model_Space
 70
0
 10
0.0
 20
0.0
 30
0.0
  3
*Model_Space
  1

  0
ENDBLK
  5
21
100
AcDbEntity
  8
0
100
AcDbBlockEnd
  0
BLOCK
  5
1C
100
AcDbEntity
  8
0
100
AcDbBlockBegin
  2
*Paper_Space
 70
0
 10
0.0
 20
0.0
 30
0.0
  3
*Paper_Space
  1

  0
ENDBLK
  5
1D
100
AcDbEntity
  8
0
100
AcDbBlockEnd
  0
BLOCK
  5
207
100
AcDbEntity
  8
0
100
AcDbBlockBegin
  2
_FILLED
 70
64
 10
0.0
 20
0.0
  3
_FILLED
  1

  0
SOLID
  5
208
100
AcDbEntity
  8
0
  6
BYBLOCK
 62
0
100
AcDbTrace
 10
0.0
 20
0.0
 11
-1.0
 21
0.2
 12
-1.0
 22
-0.2
 13
-1.0
 23
-0.2
  0
ENDBLK
  5
209
100
AcDbEntity
  8
0
  6
BYBLOCK
 62
0
100
AcDbBlockEnd
  0
ENDSEC
  0
SECTION
  2
ENTITIES
  0
MTEXT
  5
20A
100
AcDbEntity
  8
0
100
AcDbMText
 62
2
  6
CONTINUOUS
  7
STANDARD
 71
3
 72
1
 10
5.4449274278
 20
0.6495633562
 30
0.0
 11
1.0
 21
0.0
 31
0.0
 73
2
 44
0.9
  1
SCALE 1.000
 40
0.08
 41
0.704
  0
LINE
  5
20B
100
AcDbEntity
  8
0
100
AcDbLine
 62
7
  6
CONTINUOUS
 10
0.0
 20
0.0
 11
0.0
 21
8.5
  0
LINE
  5
20C
100
AcDbEntity
  8
0
100
AcDbLine
 62
7
  6
CONTINUOUS
 10
0.0
 20
0.0
 11
11.0
 21
0.0
  0
LINE
  5
20D
100
AcDbEntity
  8
0
100
AcDbLine
 62
7
  6
CONTINUOUS
 10
0.0
 20
8.5
 11
11.0
 21
8.5
  0
LINE
  5
20E
100
AcDbEntity
  8
0
100
AcDbLine
 62
7
  6
CONTINUOUS
 10
11.0
 20
0.0
 11
11.0
 21
8.5
  0
LINE
  5
20F
100
AcDbEntity
  8
0
100
AcDbLine
 62
7
  6
CONTINUOUS
 10
6.9422071918
 20
1.225385274
 11
6.8027439314
 21
1.225385274
  0
LINE
  5
210
100
AcDbEntity
  8
0
100
AcDbLine
 62
7
  6
CONTINUOUS
 10
5.6342071918
 20
1.855385274
 11
5.5442071918
 21
1.855385274
  0
LINE
  5
211
100
AcDbEntity
  8
0
100
AcDbLine
 62
7
  6
CONTINUOUS
 10
5.5372122223
 20
1.8561847706
 11
5.4012122223
 21
1.8876847706
  0
LINE
  5
212
100
AcDbEntity
  8
0
100
AcDbLine
 62
7
  6
CONTINUOUS
 10
6.5342071918
 20
2.069385274
 11
6.4612071918
 21
2.069385274
  0
LINE
  5
213
100
AcDbEntity
  8
0
100
AcDbLine
 62
7
  6
CONTINUOUS
 10
6.9422071918
 20
2.117885274
 11
6.9592071918
 21
2.117885274
  0
LINE
  5
214
100
AcDbEntity
  8
0
100
AcDbLine
 62
7
  6
CONTINUOUS
 10
5.8702071918
 20
2.128385274
 11
6.4492071918
 21
2.128385274
  0
LINE
  5
215
100
AcDbEntity
  8
0
100
AcDbLine
 62
7
  6
CONTINUOUS
 10
5.8702071918
 20
2.482385274
 11
6.4492071918
 21
2.482385274
  0
LINE
  5
216
100
AcDbEntity
  8
0
100
AcDbLine
 62
7
  6
CONTINUOUS
 10
6.9422071918
 20
2.492885274
 11
6.9592071918
 21
2.492885274
  0
LINE
  5
217
100
AcDbEntity
  8
0
100
AcDbLine
 62
7
  6
CONTINUOUS
 10
3.4282071918
 20
4.005385274
 11
3.4282071918
 21
4.945385274
  0
LINE
  5
218
100
AcDbEntity
  8
0
100
AcDbLine
 62
7
  6
CONTINUOUS
 10
3.4582071918
 20
3.9791736468
 11
3.4582071918
 21
3.9827072764
  0
LINE
  5
219
100
AcDbEntity
  8
0
100
AcDbLine
 62
7
  6
CONTINUOUS
 10
3.4582071918
 20
3.9755415484
 11
3.4582071918
 21
3.9767232183
  0
LINE
  5
21A
100
AcDbEntity
  8
0
100
AcDbLine
 62
7
  6
CONTINUOUS
 10
3.4582071918
 20
3.9875845344
 11
3.4582071918
 21
3.9934360929
  0
LINE
  5
21B
100
AcDbEntity
  8
0
100
AcDbLine
 62
7
  6
CONTINUOUS
 10
3.4582071918
 20
4.0006932099
 11
3.4582071918
 21
4.0088063436
  0
LINE
  5
21C
100
AcDbEntity
  8
0
100
AcDbLine
 62
7
  6
CONTINUOUS
 10
3.4582071918
 20
4.0183734294
 11
3.4582071918
 21
4.0286700043
  0
LINE
  5
21D
100
AcDbEntity
  8
0
100
AcDbLine
 62
7
  6
CONTINUOUS
 10
3.4582071918
 20
4.0404549227
 11
3.4582071918
 21
4.0528357773
  0
LINE
  5
21E
100
AcDbEntity
  8
0
100
AcDbLine
 62
7
  6
CONTINUOUS
 10
3.4582071918
 20
4.0667250332
 11
3.4582071918
 21
4.081070933
  0
LINE
  5
21F
100
AcDbEntity
  8
0
100
AcDbLine
 62
7
  6
CONTINUOUS
 10
3.4582071918
 20
4.0969307651
 11
3.4582071918
 21
4.1131035513
  0
LINE
  5
220
100
AcDbEntity
  8
0
100
AcDbLine
 62
7
  6
CONTINUOUS
 10
3.4582071918
 20
4.1307812208
 11
3.4582071918
 21
4.1486251407
  0
LINE
  5
221
100
AcDbEntity
  8
0
100
AcDbLine
 62
7
  6
CONTINUOUS
 10
3.4582071918
 20
4.167950402
 11
3.4582071918
 21
4.1872936087
  0
LINE
  5
222
100
AcDbEntity
  8
0
100
AcDbLine
 62
7
  6
CONTINUOUS
 10
3.4582071918
 20
4.208080349
 11
3.4582071918
 21
4.228736557
  0
LINE
  5
223
100
AcDbEntity
  8
0
100
AcDbLine
 62
7
  6
CONTINUOUS
 10
3.4582071918
 20
4.2507845886
 11
3.4582071918
 21
4.2725548673
  0
LINE
  5
224
100
AcDbEntity
  8
0
100
AcDbLine
 62
7
  6
CONTINUOUS
 10
3.4582071918
 20
4.2956518556
 11
3.4582071918
 21
4.3183265452
  0
LINE
  5
225
100
AcDbEntity
  8
0
100
AcDbLine
 62
7
  6
CONTINUOUS
 10
3.4582071918
 20
4.3422500536
 11
3.4582071918
 21
4.3656107846
  0
LINE
  5
226
100
AcDbEntity
  8
0
100
AcDbLine
 62
7
  6
CONTINUOUS
 10
3.4582071918
 20
4.3901304166
 11
3.4582071918
 21
4.4139522123
  0
LINE
  5
227
100
AcDbEntity
  8
0
100
AcDbLine
 62
7
  6
CONTINUOUS
 10
3.4582071918
 20
4.4388318305
 11
3.4582071918
 21
4.462885274
  0
LINE
  5
228
100
AcDbEntity
  8
0
100
AcDbLine
 62
7
  6
CONTINUOUS
 10
3.4582071918
 20
4.487885274
 11
3.4582071918
 21
4.5119387175
  0
LINE
  5
229
100
AcDbEntity
  8
0
100
AcDbLine
 62
7
  6
CONTINUOUS
 10
3.4582071918
 20
4.5368183356
 11
3.4582071918
 21
4.5606401313
  0
LINE
  5
22A
100
AcDbEntity
  8
0
100
AcDbLine
 62
7
  6
CONTINUOUS
 10
3.4582071918
 20
4.5851597634
 11
3.4582071918
 21
4.6085204943
  0
LINE
  5
22B
100
AcDbEntity
  8
0
100
AcDbLine
 62
7
  6
CONTINUOUS
 10
3.4582071918
 20
4.6324440027
 11
3.4582071918
 21
4.6551186924
  0
LINE
  5
22C
100
AcDbEntity
  8
0
100
AcDbLine
 62
7
  6
CONTINUOUS
 10
3.4582071918
 20
4.6782156807
 11
3.4582071918
 21
4.6999859593
  0
LINE
  5
22D
100
AcDbEntity
  8
0
100
AcDbLine
 62
7
  6
CONTINUOUS
 10
3.4582071918
 20
4.7220339909
 11
3.4582071918
 21
4.7426901989
  0
LINE
  5
22E
100
AcDbEntity
  8
0
100
AcDbLine
 62
7
  6
CONTINUOUS
 10
3.4582071918
 20
4.7634769392
 11
3.4582071918
 21
4.7828201459
  0
LINE
  5
22F
100
AcDbEntity
  8
0
100
AcDbLine
 62
7
  6
CONTINUOUS
 10
3.4582071918
 20
4.8021454073
 11
3.4582071918
 21
4.8199893271
  0
LINE
  5
230
100
AcDbEntity
  8
0
100
AcDbLine
 62
7
  6
CONTINUOUS
 10
3.4582071918
 20
4.8376669966
 11
3.4582071918
 21
4.8538397828
  0
LINE
  5
231
100
AcDbEntity
  8
0
100
AcDbLine
 62
7
  6
CONTINUOUS
 10
3.4582071918
 20
4.8696996149
 11
3.4582071918
 21
4.8840455148
  0
LINE
  5
232
100
AcDbEntity
  8
0
100
AcDbLine
 62
7
  6
CONTINUOUS
 10
3.4582071918
 20
4.8979347706
 11
3.4582071918
 21
4.9103156252
  0
LINE
  5
233
100
AcDbEntity
  8
0
100
AcDbLine
 62
7
  6
CONTINUOUS
 10
3.4582071918
 20
4.9221005436
 11
3.4582071918
 21
4.9323971186
  0
LINE
  5
234
100
AcDbEntity
  8
0
100
AcDbLine
 62
7
  6
CONTINUOUS
 10
3.4582071918
 20
4.9419642044
 11
3.4582071918
 21
4.9500773381
  0
LINE
  5
235
100
AcDbEntity
  8
0
100
AcDbLine
 62
7
  6
CONTINUOUS
 10
3.4582071918
 20
4.957334455
 11
3.4582071918
 21
4.9631860135
  0
LINE
  5
236
100
AcDbEntity
  8
0
100
AcDbLine
 62
7
  6
CONTINUOUS
 10
3.4582071918
 20
4.9740473296
 11
3.4582071918
 21
4.9752289996
  0
LINE
  5
237
100
AcDbEntity
  8
0
100
AcDbLine
 62
7
  6
CONTINUOUS
 10
3.4582071918
 20
4.9680632715
 11
3.4582071918
 21
4.9715969011
  0
LINE
  5
238
100
AcDbEntity
  8
0
100
AcDbLine
 62
7
  6
CONTINUOUS
 10
3.4832071918
 20
2.995385274
 11
3.4832071918
 21
3.9875845344
  0
LINE
  5
239
100
AcDbEntity
  8
0
100
AcDbLine
 62
7
  6
CONTINUOUS
 10
3.4832071918
 20
4.370385274
 11
3.4832071918
 21
4.580385274
  0
LINE
  5
23A
100
AcDbEntity
  8
0
100
AcDbLine
 62
7
  6
CONTINUOUS
 10
3.4832071918
 20
4.9631860135
 11
3.4832071918
 21
5.955385274
  0
LINE
  5
23B
100
AcDbEntity
  8
0
100
AcDbLine
 62
7
  6
CONTINUOUS
 10
5.5372122223
 20
2.7545857773
 11
5.4012122223
 21
2.7230857773
  0
LINE
  5
23C
100
AcDbEntity
  8
0
100
AcDbLine
 62
7
  6
CONTINUOUS
 10
6.5342071918
 20
2.541385274
 11
6.4612071918
 21
2.541385274
  0
LINE
  5
23D
100
AcDbEntity
  8
0
100
AcDbLine
 62
7
  6
CONTINUOUS
 10
5.6342071918
 20
2.755385274
 11
5.5442071918
 21
2.755385274
  0
LINE
  5
23E
100
AcDbEntity
  8
0
100
AcDbLine
 62
7
  6
CONTINUOUS
 10
3.5032071918
 20
2.975385274
 11
3.5032071918
 21
3.9912623557
  0
LINE
  5
23F
100
AcDbEntity
  8
0
100
AcDbLine
 62
7
  6
CONTINUOUS
 10
3.5032071918
 20
4.350385274
 11
3.5032071918
 21
4.600385274
  0
LINE
  5
240
100
AcDbEntity
  8
0
100
AcDbLine
 62
7
  6
CONTINUOUS
 10
3.5032071918
 20
4.9595081922
 11
3.5032071918
 21
5.975385274
  0
LINE
  5
241
100
AcDbEntity
  8
0
100
AcDbLine
 62
7
  6
CONTINUOUS
 10
3.5032071918
 20
2.975385274
 11
4.1132071918
 21
2.975385274
  0
LINE
  5
242
100
AcDbEntity
  8
0
100
AcDbLine
 62
7
  6
CONTINUOUS
 10
3.4832071918
 20
2.995385274
 11
4.1332071918
 21
2.995385274
  0
LINE
  5
243
100
AcDbEntity
  8
0
100
AcDbLine
 62
7
  6
CONTINUOUS
 10
4.1132071918
 20
5.975385274
 11
4.1132071918
 21
4.9595081922
  0
LINE
  5
244
100
AcDbEntity
  8
0
100
AcDbLine
 62
7
  6
CONTINUOUS
 10
4.1132071918
 20
4.600385274
 11
4.1132071918
 21
4.350385274
  0
LINE
  5
245
100
AcDbEntity
  8
0
100
AcDbLine
 62
7
  6
CONTINUOUS
 10
4.1132071918
 20
3.9912623557
 11
4.1132071918
 21
2.975385274
  0
LINE
  5
246
100
AcDbEntity
  8
0
100
AcDbLine
 62
7
  6
CONTINUOUS
 10
4.1332071918
 20
5.955385274
 11
4.1332071918
 21
4.9631860135
  0
LINE
  5
247
100
AcDbEntity
  8
0
100
AcDbLine
 62
7
  6
CONTINUOUS
 10
4.1332071918
 20
4.580385274
 11
4.1332071918
 21
4.370385274
  0
LINE
  5
248
100
AcDbEntity
  8
0
100
AcDbLine
 62
7
  6
CONTINUOUS
 10
4.1332071918
 20
3.9875845344
 11
4.1332071918
 21
2.995385274
  0
LINE
  5
249
100
AcDbEntity
  8
0
100
AcDbLine
 62
7
  6
CONTINUOUS
 10
6.6292071918
 20
3.350385274
 11
6.4072593189
 21
3.350385274
  0
LINE
  5
24A
100
AcDbEntity
  8
0
100
AcDbLine
 62
7
  6
CONTINUOUS
 10
4.3282071918
 20
4.9752289996
 11
4.3282071918
 21
4.9740473296
  0
LINE
  5
24B
100
AcDbEntity
  8
0
100
AcDbLine
 62
7
  6
CONTINUOUS
 10
4.3282071918
 20
4.9715969011
 11
4.3282071918
 21
4.9680632715
  0
LINE
  5
24C
100
AcDbEntity
  8
0
100
AcDbLine
 62
7
  6
CONTINUOUS
 10
4.3282071918
 20
4.9631860135
 11
4.3282071918
 21
4.957334455
  0
LINE
  5
24D
100
AcDbEntity
  8
0
100
AcDbLine
 62
7
  6
CONTINUOUS
 10
4.3282071918
 20
4.9500773381
 11
4.3282071918
 21
4.9419642044
  0
LINE
  5
24E
100
AcDbEntity
  8
0
100
AcDbLine
 62
7
  6
CONTINUOUS
 10
4.3282071918
 20
4.9323971186
 11
4.3282071918
 21
4.9221005436
  0
LINE
  5
24F
100
AcDbEntity
  8
0
100
AcDbLine
 62
7
  6
CONTINUOUS
 10
4.3282071918
 20
4.9103156252
 11
4.3282071918
 21
4.8979347706
  0
LINE
  5
250
100
AcDbEntity
  8
0
100
AcDbLine
 62
7
  6
CONTINUOUS
 10
4.3282071918
 20
4.8840455148
 11
4.3282071918
 21
4.8696996149
  0
LINE
  5
251
100
AcDbEntity
  8
0
100
AcDbLine
 62
7
  6
CONTINUOUS
 10
4.3282071918
 20
4.8538397828
 11
4.3282071918
 21
4.8376669966
  0
LINE
  5
252
100
AcDbEntity
  8
0
100
AcDbLine
 62
7
  6
CONTINUOUS
 10
4.3282071918
 20
4.8199893271
 11
4.3282071918
 21
4.8021454073
  0
LINE
  5
253
100
AcDbEntity
  8
0
100
AcDbLine
 62
7
  6
CONTINUOUS
 10
4.3282071918
 20
4.7828201459
 11
4.3282071918
 21
4.7634769392
  0
LINE
  5
254
100
AcDbEntity
  8
0
100
AcDbLine
 62
7
  6
CONTINUOUS
 10
4.3282071918
 20
4.7426901989
 11
4.3282071918
 21
4.7220339909
  0
LINE
  5
255
100
AcDbEntity
  8
0
100
AcDbLine
 62
7
  6
CONTINUOUS
 10
4.3282071918
 20
4.6999859593
 11
4.3282071918
 21
4.6782156807
  0
LINE
  5
256
100
AcDbEntity
  8
0
100
AcDbLine
 62
7
  6
CONTINUOUS
 10
4.3282071918
 20
4.6551186924
 11
4.3282071918
 21
4.6324440027
  0
LINE
  5
257
100
AcDbEntity
  8
0
100
AcDbLine
 62
7
  6
CONTINUOUS
 10
4.3282071918
 20
4.6085204943
 11
4.3282071918
 21
4.5851597634
  0
LINE
  5
258
100
AcDbEntity
  8
0
100
AcDbLine
 62
7
  6
CONTINUOUS
 10
4.3282071918
 20
4.5606401313
 11
4.3282071918
 21
4.5368183356
  0
LINE
  5
259
100
AcDbEntity
  8
0
100
AcDbLine
 62
7
  6
CONTINUOUS
 10
4.3282071918
 20
4.5119387175
 11
4.3282071918
 21
4.487885274
  0
LINE
  5
25A
100
AcDbEntity
  8
0
100
AcDbLine
 62
7
  6
CONTINUOUS
 10
4.3282071918
 20
4.462885274
 11
4.3282071918
 21
4.4388318305
  0
LINE
  5
25B
100
AcDbEntity
  8
0
100
AcDbLine
 62
7
  6
CONTINUOUS
 10
4.3282071918
 20
4.4139522123
 11
4.3282071918
 21
4.3901304166
  0
LINE
  5
25C
100
AcDbEntity
  8
0
100
AcDbLine
 62
7
  6
CONTINUOUS
 10
4.3282071918
 20
4.3656107846
 11
4.3282071918
 21
4.3422500536
  0
LINE
  5
25D
100
AcDbEntity
  8
0
100
AcDbLine
 62
7
  6
CONTINUOUS
 10
4.3282071918
 20
4.3183265452
 11
4.3282071918
 21
4.2956518556
  0
LINE
  5
25E
100
AcDbEntity
  8
0
100
AcDbLine
 62
7
  6
CONTINUOUS
 10
4.3282071918
 20
4.2725548673
 11
4.3282071918
 21
4.2507845886
  0
LINE
  5
25F
100
AcDbEntity
  8
0
100
AcDbLine
 62
7
  6
CONTINUOUS
 10
4.3282071918
 20
4.228736557
 11
4.3282071918
 21
4.208080349
  0
LINE
  5
260
100
AcDbEntity
  8
0
100
AcDbLine
 62
7
  6
CONTINUOUS
 10
4.3282071918
 20
4.1872936087
 11
4.3282071918
 21
4.167950402
  0
LINE
  5
261
100
AcDbEntity
  8
0
100
AcDbLine
 62
7
  6
CONTINUOUS
 10
4.3282071918
 20
4.1486251407
 11
4.3282071918
 21
4.1307812208
  0
LINE
  5
262
100
AcDbEntity
  8
0
100
AcDbLine
 62
7
  6
CONTINUOUS
 10
4.3282071918
 20
4.1131035513
 11
4.3282071918
 21
4.0969307651
  0
LINE
  5
263
100
AcDbEntity
  8
0
100
AcDbLine
 62
7
  6
CONTINUOUS
 10
4.3282071918
 20
4.081070933
 11
4.3282071918
 21
4.0667250332
  0
LINE
  5
264
100
AcDbEntity
  8
0
100
AcDbLine
 62
7
  6
CONTINUOUS
 10
4.3282071918
 20
4.0528357773
 11
4.3282071918
 21
4.0404549227
  0
LINE
  5
265
100
AcDbEntity
  8
0
100
AcDbLine
 62
7
  6
CONTINUOUS
 10
4.3282071918
 20
4.0286700043
 11
4.3282071918
 21
4.0183734294
  0
LINE
  5
266
100
AcDbEntity
  8
0
100
AcDbLine
 62
7
  6
CONTINUOUS
 10
4.3282071918
 20
4.0088063436
 11
4.3282071918
 21
4.0006932099
  0
LINE
  5
267
100
AcDbEntity
  8
0
100
AcDbLine
 62
7
  6
CONTINUOUS
 10
4.3282071918
 20
3.9934360929
 11
4.3282071918
 21
3.9875845344
  0
LINE
  5
268
100
AcDbEntity
  8
0
100
AcDbLine
 62
7
  6
CONTINUOUS
 10
4.3282071918
 20
3.9827072764
 11
4.3282071918
 21
3.9791736468
  0
LINE
  5
269
100
AcDbEntity
  8
0
100
AcDbLine
 62
7
  6
CONTINUOUS
 10
4.3282071918
 20
3.9767232183
 11
4.3282071918
 21
3.9755415484
  0
LINE
  5
26A
100
AcDbEntity
  8
0
100
AcDbLine
 62
7
  6
CONTINUOUS
 10
4.3582071918
 20
4.945385274
 11
4.3582071918
 21
4.005385274
  0
LINE
  5
26B
100
AcDbEntity
  8
0
100
AcDbLine
 62
7
  6
CONTINUOUS
 10
4.3892071918
 20
4.005385274
 11
4.3892071918
 21
4.945385274
  0
LINE
  5
26C
100
AcDbEntity
  8
0
100
AcDbLine
 62
7
  6
CONTINUOUS
 10
4.4192071918
 20
3.975385274
 11
4.4192071918
 21
4.975385274
  0
LINE
  5
26D
100
AcDbEntity
  8
0
100
AcDbLine
 62
7
  6
CONTINUOUS
 10
5.8702071918
 20
2.530385274
 11
5.6562211509
 21
2.7462115335
  0
LINE
  5
26E
100
AcDbEntity
  8
0
100
AcDbLine
 62
7
  6
CONTINUOUS
 10
6.0892071918
 20
3.975385274
 11
4.4192071918
 21
3.975385274
  0
LINE
  5
26F
100
AcDbEntity
  8
0
100
AcDbLine
 62
7
  6
CONTINUOUS
 10
4.3282071918
 20
3.9755415484
 11
4.1332071918
 21
3.9755415484
  0
LINE
  5
270
100
AcDbEntity
  8
0
100
AcDbLine
 62
7
  6
CONTINUOUS
 10
3.4832071918
 20
3.9755415484
 11
3.4582071918
 21
3.9755415484
  0
LINE
  5
271
100
AcDbEntity
  8
0
100
AcDbLine
 62
7
  6
CONTINUOUS
 10
4.3282071918
 20
3.9767232183
 11
4.1332071918
 21
3.9767232183
  0
LINE
  5
272
100
AcDbEntity
  8
0
100
AcDbLine
 62
7
  6
CONTINUOUS
 10
3.4832071918
 20
3.9767232183
 11
3.4582071918
 21
3.9767232183
  0
LINE
  5
273
100
AcDbEntity
  8
0
100
AcDbLine
 62
7
  6
CONTINUOUS
 10
4.3282071918
 20
3.9791736468
 11
4.1332071918
 21
3.9791736468
  0
LINE
  5
274
100
AcDbEntity
  8
0
100
AcDbLine
 62
7
  6
CONTINUOUS
 10
3.4832071918
 20
3.9791736468
 11
3.4582071918
 21
3.9791736468
  0
LINE
  5
275
100
AcDbEntity
  8
0
100
AcDbLine
 62
7
  6
CONTINUOUS
 10
4.3282071918
 20
3.9827072764
 11
4.1332071918
 21
3.9827072764
  0
LINE
  5
276
100
AcDbEntity
  8
0
100
AcDbLine
 62
7
  6
CONTINUOUS
 10
3.4832071918
 20
3.9827072764
 11
3.4582071918
 21
3.9827072764
  0
LINE
  5
277
100
AcDbEntity
  8
0
100
AcDbLine
 62
7
  6
CONTINUOUS
 10
4.3282071918
 20
3.9875845344
 11
4.1326289386
 21
3.9875845344
  0
LINE
  5
278
100
AcDbEntity
  8
0
100
AcDbLine
 62
7
  6
CONTINUOUS
 10
3.4837854449
 20
3.9875845344
 11
3.4582071918
 21
3.9875845344
  0
LINE
  5
279
100
AcDbEntity
  8
0
100
AcDbLine
 62
7
  6
CONTINUOUS
 10
4.1132071918
 20
3.9912623557
 11
3.5032071918
 21
3.9912623557
  0
LINE
  5
27A
100
AcDbEntity
  8
0
100
AcDbLine
 62
7
  6
CONTINUOUS
 10
4.3282071918
 20
3.9934360929
 11
3.4582071918
 21
3.9934360929
  0
LINE
  5
27B
100
AcDbEntity
  8
0
100
AcDbLine
 62
7
  6
CONTINUOUS
 10
4.3282071918
 20
4.0006932099
 11
3.4582071918
 21
4.0006932099
  0
LINE
  5
27C
100
AcDbEntity
  8
0
100
AcDbLine
 62
7
  6
CONTINUOUS
 10
4.3282071918
 20
4.0088063436
 11
3.4582071918
 21
4.0088063436
  0
LINE
  5
27D
100
AcDbEntity
  8
0
100
AcDbLine
 62
7
  6
CONTINUOUS
 10
4.3282071918
 20
4.0183734294
 11
3.4582071918
 21
4.0183734294
  0
LINE
  5
27E
100
AcDbEntity
  8
0
100
AcDbLine
 62
7
  6
CONTINUOUS
 10
4.3282071918
 20
4.0286700043
 11
3.4582071918
 21
4.0286700043
  0
LINE
  5
27F
100
AcDbEntity
  8
0
100
AcDbLine
 62
7
  6
CONTINUOUS
 10
4.3282071918
 20
4.0404549227
 11
3.4582071918
 21
4.0404549227
  0
LINE
  5
280
100
AcDbEntity
  8
0
100
AcDbLine
 62
7
  6
CONTINUOUS
 10
6.1192071918
 20
4.050385274
 11
6.1292071918
 21
4.050385274
  0
LINE
  5
281
100
AcDbEntity
  8
0
100
AcDbLine
 62
7
  6
CONTINUOUS
 10
4.3282071918
 20
4.0528357773
 11
3.4582071918
 21
4.0528357773
  0
LINE
  5
282
100
AcDbEntity
  8
0
100
AcDbLine
 62
7
  6
CONTINUOUS
 10
4.3282071918
 20
4.0667250332
 11
3.4582071918
 21
4.0667250332
  0
LINE
  5
283
100
AcDbEntity
  8
0
100
AcDbLine
 62
7
  6
CONTINUOUS
 10
4.3282071918
 20
4.081070933
 11
3.4582071918
 21
4.081070933
  0
LINE
  5
284
100
AcDbEntity
  8
0
100
AcDbLine
 62
7
  6
CONTINUOUS
 10
4.3282071918
 20
4.0969307651
 11
3.4582071918
 21
4.0969307651
  0
LINE
  5
285
100
AcDbEntity
  8
0
100
AcDbLine
 62
7
  6
CONTINUOUS
 10
4.3282071918
 20
4.1131035513
 11
3.4582071918
 21
4.1131035513
  0
LINE
  5
286
100
AcDbEntity
  8
0
100
AcDbLine
 62
7
  6
CONTINUOUS
 10
4.3282071918
 20
4.1307812208
 11
3.4582071918
 21
4.1307812208
  0
LINE
  5
287
100
AcDbEntity
  8
0
100
AcDbLine
 62
7
  6
CONTINUOUS
 10
4.3282071918
 20
4.1486251407
 11
3.4582071918
 21
4.1486251407
  0
LINE
  5
288
100
AcDbEntity
  8
0
100
AcDbLine
 62
7
  6
CONTINUOUS
 10
4.3542185931
 20
4.1677382773
 11
3.4321957904
 21
4.1677382773
  0
LINE
  5
289
100
AcDbEntity
  8
0
100
AcDbLine
 62
7
  6
CONTINUOUS
 10
4.3282071918
 20
4.167950402
 11
3.4582071918
 21
4.167950402
  0
LINE
  5
28A
100
AcDbEntity
  8
0
100
AcDbLine
 62
7
  6
CONTINUOUS
 10
4.3282071918
 20
4.1872936087
 11
3.4582071918
 21
4.1872936087
  0
LINE
  5
28B
100
AcDbEntity
  8
0
100
AcDbLine
 62
7
  6
CONTINUOUS
 10
4.3542185931
 20
4.2059632641
 11
3.4321957904
 21
4.2059632641
  0
LINE
  5
28C
100
AcDbEntity
  8
0
100
AcDbLine
 62
7
  6
CONTINUOUS
 10
4.3282071918
 20
4.208080349
 11
3.4582071918
 21
4.208080349
  0
LINE
  5
28D
100
AcDbEntity
  8
0
100
AcDbLine
 62
7
  6
CONTINUOUS
 10
4.3582071918
 20
4.215385274
 11
4.3892071918
 21
4.215385274
  0
LINE
  5
28E
100
AcDbEntity
  8
0
100
AcDbLine
 62
7
  6
CONTINUOUS
 10
4.3282071918
 20
4.228736557
 11
3.4582071918
 21
4.228736557
  0
LINE
  5
28F
100
AcDbEntity
  8
0
100
AcDbLine
 62
7
  6
CONTINUOUS
 10
4.3542185931
 20
4.2467829322
 11
3.4321957904
 21
4.2467829322
  0
LINE
  5
290
100
AcDbEntity
  8
0
100
AcDbLine
 62
7
  6
CONTINUOUS
 10
4.3282071918
 20
4.2507845886
 11
3.4582071918
 21
4.2507845886
  0
LINE
  5
291
100
AcDbEntity
  8
0
100
AcDbLine
 62
7
  6
CONTINUOUS
 10
4.3282071918
 20
4.2725548673
 11
3.4582071918
 21
4.2725548673
  0
LINE
  5
292
100
AcDbEntity
  8
0
100
AcDbLine
 62
7
  6
CONTINUOUS
 10
4.3542185931
 20
4.2898041659
 11
3.4321957904
 21
4.2898041659
  0
LINE
  5
293
100
AcDbEntity
  8
0
100
AcDbLine
 62
7
  6
CONTINUOUS
 10
4.3282071918
 20
4.2956518556
 11
3.4582071918
 21
4.2956518556
  0
LINE
  5
294
100
AcDbEntity
  8
0
100
AcDbLine
 62
7
  6
CONTINUOUS
 10
4.3282071918
 20
4.3183265452
 11
3.4582071918
 21
4.3183265452
  0
LINE
  5
295
100
AcDbEntity
  8
0
100
AcDbLine
 62
7
  6
CONTINUOUS
 10
4.3542185931
 20
4.334612647
 11
3.4321957904
 21
4.334612647
  0
LINE
  5
296
100
AcDbEntity
  8
0
100
AcDbLine
 62
7
  6
CONTINUOUS
 10
4.3282071918
 20
4.3422500536
 11
3.4582071918
 21
4.3422500536
  0
LINE
  5
297
100
AcDbEntity
  8
0
100
AcDbLine
 62
7
  6
CONTINUOUS
 10
3.5032071918
 20
4.350385274
 11
4.1132071918
 21
4.350385274
  0
LINE
  5
298
100
AcDbEntity
  8
0
100
AcDbLine
 62
7
  6
CONTINUOUS
 10
4.3282071918
 20
4.3656107846
 11
4.1326289386
 21
4.3656107846
  0
LINE
  5
299
100
AcDbEntity
  8
0
100
AcDbLine
 62
7
  6
CONTINUOUS
 10
3.4837854449
 20
4.3656107846
 11
3.4582071918
 21
4.3656107846
  0
LINE
  5
29A
100
AcDbEntity
  8
0
100
AcDbLine
 62
7
  6
CONTINUOUS
 10
3.4832071918
 20
4.370385274
 11
4.1332071918
 21
4.370385274
  0
LINE
  5
29B
100
AcDbEntity
  8
0
100
AcDbLine
 62
7
  6
CONTINUOUS
 10
4.3542185931
 20
4.3807768455
 11
4.1332071918
 21
4.3807768455
  0
LINE
  5
29C
100
AcDbEntity
  8
0
100
AcDbLine
 62
7
  6
CONTINUOUS
 10
3.4832071918
 20
4.3807768455
 11
3.4321957904
 21
4.3807768455
  0
LINE
  5
29D
100
AcDbEntity
  8
0
100
AcDbLine
 62
7
  6
CONTINUOUS
 10
4.3282071918
 20
4.3901304166
 11
4.1332071918
 21
4.3901304166
  0
LINE
  5
29E
100
AcDbEntity
  8
0
100
AcDbLine
 62
7
  6
CONTINUOUS
 10
3.4832071918
 20
4.3901304166
 11
3.4582071918
 21
4.3901304166
  0
LINE
  5
29F
100
AcDbEntity
  8
0
100
AcDbLine
 62
7
  6
CONTINUOUS
 10
4.3282071918
 20
4.4139522123
 11
4.1332071918
 21
4.4139522123
  0
LINE
  5
2A0
100
AcDbEntity
  8
0
100
AcDbLine
 62
7
  6
CONTINUOUS
 10
3.4832071918
 20
4.4139522123
 11
3.4582071918
 21
4.4139522123
  0
LINE
  5
2A1
100
AcDbEntity
  8
0
100
AcDbLine
 62
7
  6
CONTINUOUS
 10
4.3542185931
 20
4.4278521749
 11
4.1332071918
 21
4.4278521749
  0
LINE
  5
2A2
100
AcDbEntity
  8
0
100
AcDbLine
 62
7
  6
CONTINUOUS
 10
3.4832071918
 20
4.4278521749
 11
3.4321957904
 21
4.4278521749
  0
LINE
  5
2A3
100
AcDbEntity
  8
0
100
AcDbLine
 62
7
  6
CONTINUOUS
 10
4.3282071918
 20
4.4388318305
 11
4.1332071918
 21
4.4388318305
  0
LINE
  5
2A4
100
AcDbEntity
  8
0
100
AcDbLine
 62
7
  6
CONTINUOUS
 10
3.4832071918
 20
4.4388318305
 11
3.4582071918
 21
4.4388318305
  0
LINE
  5
2A5
100
AcDbEntity
  8
0
100
AcDbLine
 62
7
  6
CONTINUOUS
 10
4.3282071918
 20
4.462885274
 11
4.1332071918
 21
4.462885274
  0
LINE
  5
2A6
100
AcDbEntity
  8
0
100
AcDbLine
 62
7
  6
CONTINUOUS
 10
3.4832071918
 20
4.462885274
 11
3.4582071918
 21
4.462885274
  0
LINE
  5
2A7
100
AcDbEntity
  8
0
100
AcDbLine
 62
7
  6
CONTINUOUS
 10
4.3542185931
 20
4.475385274
 11
4.1332071918
 21
4.475385274
  0
LINE
  5
2A8
100
AcDbEntity
  8
0
100
AcDbLine
 62
7
  6
CONTINUOUS
 10
3.4832071918
 20
4.475385274
 11
3.4321957904
 21
4.475385274
  0
LINE
  5
2A9
100
AcDbEntity
  8
0
100
AcDbLine
 62
7
  6
CONTINUOUS
 10
4.3282071918
 20
4.487885274
 11
4.1332071918
 21
4.487885274
  0
LINE
  5
2AA
100
AcDbEntity
  8
0
100
AcDbLine
 62
7
  6
CONTINUOUS
 10
3.4832071918
 20
4.487885274
 11
3.4582071918
 21
4.487885274
  0
LINE
  5
2AB
100
AcDbEntity
  8
0
100
AcDbLine
 62
7
  6
CONTINUOUS
 10
5.3772071918
 20
1.917885274
 11
5.3772071918
 21
2.692885274
  0
LINE
  5
2AC
100
AcDbEntity
  8
0
100
AcDbLine
 62
7
  6
CONTINUOUS
 10
5.4012122223
 20
1.8876847706
 11
5.4012122223
 21
2.7230857773
  0
LINE
  5
2AD
100
AcDbEntity
  8
0
100
AcDbLine
 62
7
  6
CONTINUOUS
 10
4.3282071918
 20
4.5119387175
 11
4.1332071918
 21
4.5119387175
  0
LINE
  5
2AE
100
AcDbEntity
  8
0
100
AcDbLine
 62
7
  6
CONTINUOUS
 10
3.4832071918
 20
4.5119387175
 11
3.4582071918
 21
4.5119387175
  0
LINE
  5
2AF
100
AcDbEntity
  8
0
100
AcDbLine
 62
7
  6
CONTINUOUS
 10
4.3542185931
 20
4.5229183731
 11
4.1332071918
 21
4.5229183731
  0
LINE
  5
2B0
100
AcDbEntity
  8
0
100
AcDbLine
 62
7
  6
CONTINUOUS
 10
3.4832071918
 20
4.5229183731
 11
3.4321957904
 21
4.5229183731
  0
LINE
  5
2B1
100
AcDbEntity
  8
0
100
AcDbLine
 62
7
  6
CONTINUOUS
 10
4.3282071918
 20
4.5368183356
 11
4.1332071918
 21
4.5368183356
  0
LINE
  5
2B2
100
AcDbEntity
  8
0
100
AcDbLine
 62
7
  6
CONTINUOUS
 10
3.4832071918
 20
4.5368183356
 11
3.4582071918
 21
4.5368183356
  0
LINE
  5
2B3
100
AcDbEntity
  8
0
100
AcDbLine
 62
7
  6
CONTINUOUS
 10
4.3282071918
 20
4.5606401313
 11
4.1332071918
 21
4.5606401313
  0
LINE
  5
2B4
100
AcDbEntity
  8
0
100
AcDbLine
 62
7
  6
CONTINUOUS
 10
3.4832071918
 20
4.5606401313
 11
3.4582071918
 21
4.5606401313
  0
LINE
  5
2B5
100
AcDbEntity
  8
0
100
AcDbLine
 62
7
  6
CONTINUOUS
 10
4.3542185931
 20
4.5699937025
 11
4.1332071918
 21
4.5699937025
  0
LINE
  5
2B6
100
AcDbEntity
  8
0
100
AcDbLine
 62
7
  6
CONTINUOUS
 10
3.4832071918
 20
4.5699937025
 11
3.4321957904
 21
4.5699937025
  0
LINE
  5
2B7
100
AcDbEntity
  8
0
100
AcDbLine
 62
7
  6
CONTINUOUS
 10
3.4832071918
 20
4.580385274
 11
4.1332071918
 21
4.580385274
  0
LINE
  5
2B8
100
AcDbEntity
  8
0
100
AcDbLine
 62
7
  6
CONTINUOUS
 10
4.3282071918
 20
4.5851597634
 11
4.1326289386
 21
4.5851597634
  0
LINE
  5
2B9
100
AcDbEntity
  8
0
100
AcDbLine
 62
7
  6
CONTINUOUS
 10
3.4837854449
 20
4.5851597634
 11
3.4582071918
 21
4.5851597634
  0
LINE
  5
2BA
100
AcDbEntity
  8
0
100
AcDbLine
 62
7
  6
CONTINUOUS
 10
3.5032071918
 20
4.600385274
 11
4.1132071918
 21
4.600385274
  0
LINE
  5
2BB
100
AcDbEntity
  8
0
100
AcDbLine
 62
7
  6
CONTINUOUS
 10
4.3282071918
 20
4.6085204943
 11
3.4582071918
 21
4.6085204943
  0
LINE
  5
2BC
100
AcDbEntity
  8
0
100
AcDbLine
 62
7
  6
CONTINUOUS
 10
4.3542185931
 20
4.6161579009
 11
3.4321957904
 21
4.6161579009
  0
LINE
  5
2BD
100
AcDbEntity
  8
0
100
AcDbLine
 62
7
  6
CONTINUOUS
 10
4.3282071918
 20
4.6324440027
 11
3.4582071918
 21
4.6324440027
  0
LINE
  5
2BE
100
AcDbEntity
  8
0
100
AcDbLine
 62
7
  6
CONTINUOUS
 10
4.3282071918
 20
4.6551186924
 11
3.4582071918
 21
4.6551186924
  0
LINE
  5
2BF
100
AcDbEntity
  8
0
100
AcDbLine
 62
7
  6
CONTINUOUS
 10
4.3542185931
 20
4.6609663821
 11
3.4321957904
 21
4.6609663821
  0
LINE
  5
2C0
100
AcDbEntity
  8
0
100
AcDbLine
 62
7
  6
CONTINUOUS
 10
4.3282071918
 20
4.6782156807
 11
3.4582071918
 21
4.6782156807
  0
LINE
  5
2C1
100
AcDbEntity
  8
0
100
AcDbLine
 62
7
  6
CONTINUOUS
 10
4.3282071918
 20
4.6999859593
 11
3.4582071918
 21
4.6999859593
  0
LINE
  5
2C2
100
AcDbEntity
  8
0
100
AcDbLine
 62
7
  6
CONTINUOUS
 10
4.3542185931
 20
4.7039876157
 11
3.4321957904
 21
4.7039876157
  0
LINE
  5
2C3
100
AcDbEntity
  8
0
100
AcDbLine
 62
7
  6
CONTINUOUS
 10
4.3282071918
 20
4.7220339909
 11
3.4582071918
 21
4.7220339909
  0
LINE
  5
2C4
100
AcDbEntity
  8
0
100
AcDbLine
 62
7
  6
CONTINUOUS
 10
4.3582071918
 20
4.735385274
 11
4.3892071918
 21
4.735385274
  0
LINE
  5
2C5
100
AcDbEntity
  8
0
100
AcDbLine
 62
7
  6
CONTINUOUS
 10
4.3282071918
 20
4.7426901989
 11
3.4582071918
 21
4.7426901989
  0
LINE
  5
2C6
100
AcDbEntity
  8
0
100
AcDbLine
 62
7
  6
CONTINUOUS
 10
4.3542185931
 20
4.7448072838
 11
3.4321957904
 21
4.7448072838
  0
LINE
  5
2C7
100
AcDbEntity
  8
0
100
AcDbLine
 62
7
  6
CONTINUOUS
 10
5.5372122223
 20
1.8561847706
 11
5.5372122223
 21
2.7545857773
  0
LINE
  5
2C8
100
AcDbEntity
  8
0
100
AcDbLine
 62
7
  6
CONTINUOUS
 10
5.5442071918
 20
1.855385274
 11
5.5442071918
 21
2.755385274
  0
LINE
  5
2C9
100
AcDbEntity
  8
0
100
AcDbLine
 62
7
  6
CONTINUOUS
 10
5.6342071918
 20
1.855385274
 11
5.6342071918
 21
2.755385274
  0
LINE
  5
2CA
100
AcDbEntity
  8
0
100
AcDbLine
 62
7
  6
CONTINUOUS
 10
5.6562211509
 20
1.8645590144
 11
5.6562211509
 21
2.7462115335
  0
LINE
  5
2CB
100
AcDbEntity
  8
0
100
AcDbLine
 62
7
  6
CONTINUOUS
 10
4.3282071918
 20
4.7634769392
 11
3.4582071918
 21
4.7634769392
  0
LINE
  5
2CC
100
AcDbEntity
  8
0
100
AcDbLine
 62
7
  6
CONTINUOUS
 10
4.3282071918
 20
4.7828201459
 11
3.4582071918
 21
4.7828201459
  0
LINE
  5
2CD
100
AcDbEntity
  8
0
100
AcDbLine
 62
7
  6
CONTINUOUS
 10
4.3542185931
 20
4.7830322707
 11
3.4321957904
 21
4.7830322707
  0
LINE
  5
2CE
100
AcDbEntity
  8
0
100
AcDbLine
 62
7
  6
CONTINUOUS
 10
4.3282071918
 20
4.8021454073
 11
3.4582071918
 21
4.8021454073
  0
LINE
  5
2CF
100
AcDbEntity
  8
0
100
AcDbLine
 62
7
  6
CONTINUOUS
 10
4.3282071918
 20
4.8199893271
 11
3.4582071918
 21
4.8199893271
  0
LINE
  5
2D0
100
AcDbEntity
  8
0
100
AcDbLine
 62
7
  6
CONTINUOUS
 10
4.3282071918
 20
4.8376669966
 11
3.4582071918
 21
4.8376669966
  0
LINE
  5
2D1
100
AcDbEntity
  8
0
100
AcDbLine
 62
7
  6
CONTINUOUS
 10
4.3282071918
 20
4.8538397828
 11
3.4582071918
 21
4.8538397828
  0
LINE
  5
2D2
100
AcDbEntity
  8
0
100
AcDbLine
 62
7
  6
CONTINUOUS
 10
4.3282071918
 20
4.8696996149
 11
3.4582071918
 21
4.8696996149
  0
LINE
  5
2D3
100
AcDbEntity
  8
0
100
AcDbLine
 62
7
  6
CONTINUOUS
 10
4.3282071918
 20
4.8840455148
 11
3.4582071918
 21
4.8840455148
  0
LINE
  5
2D4
100
AcDbEntity
  8
0
100
AcDbLine
 62
7
  6
CONTINUOUS
 10
4.3282071918
 20
4.8979347706
 11
3.4582071918
 21
4.8979347706
  0
LINE
  5
2D5
100
AcDbEntity
  8
0
100
AcDbLine
 62
7
  6
CONTINUOUS
 10
6.1192071918
 20
4.900385274
 11
6.1292071918
 21
4.900385274
  0
LINE
  5
2D6
100
AcDbEntity
  8
0
100
AcDbLine
 62
7
  6
CONTINUOUS
 10
4.3282071918
 20
4.9103156252
 11
3.4582071918
 21
4.9103156252
  0
LINE
  5
2D7
100
AcDbEntity
  8
0
100
AcDbLine
 62
7
  6
CONTINUOUS
 10
4.3282071918
 20
4.9221005436
 11
3.4582071918
 21
4.9221005436
  0
LINE
  5
2D8
100
AcDbEntity
  8
0
100
AcDbLine
 62
7
  6
CONTINUOUS
 10
4.3282071918
 20
4.9323971186
 11
3.4582071918
 21
4.9323971186
  0
LINE
  5
2D9
100
AcDbEntity
  8
0
100
AcDbLine
 62
7
  6
CONTINUOUS
 10
4.3282071918
 20
4.9419642044
 11
3.4582071918
 21
4.9419642044
  0
LINE
  5
2DA
100
AcDbEntity
  8
0
100
AcDbLine
 62
7
  6
CONTINUOUS
 10
4.3282071918
 20
4.9500773381
 11
3.4582071918
 21
4.9500773381
  0
LINE
  5
2DB
100
AcDbEntity
  8
0
100
AcDbLine
 62
7
  6
CONTINUOUS
 10
4.3282071918
 20
4.957334455
 11
3.4582071918
 21
4.957334455
  0
LINE
  5
2DC
100
AcDbEntity
  8
0
100
AcDbLine
 62
7
  6
CONTINUOUS
 10
4.1132071918
 20
4.9595081922
 11
3.5032071918
 21
4.9595081922
  0
LINE
  5
2DD
100
AcDbEntity
  8
0
100
AcDbLine
 62
7
  6
CONTINUOUS
 10
4.3282071918
 20
4.9631860135
 11
4.1326289386
 21
4.9631860135
  0
LINE
  5
2DE
100
AcDbEntity
  8
0
100
AcDbLine
 62
7
  6
CONTINUOUS
 10
3.4837854449
 20
4.9631860135
 11
3.4582071918
 21
4.9631860135
  0
LINE
  5
2DF
100
AcDbEntity
  8
0
100
AcDbLine
 62
7
  6
CONTINUOUS
 10
4.3282071918
 20
4.9680632715
 11
4.1332071918
 21
4.9680632715
  0
LINE
  5
2E0
100
AcDbEntity
  8
0
100
AcDbLine
 62
7
  6
CONTINUOUS
 10
3.4832071918
 20
4.9680632715
 11
3.4582071918
 21
4.9680632715
  0
LINE
  5
2E1
100
AcDbEntity
  8
0
100
AcDbLine
 62
7
  6
CONTINUOUS
 10
4.3282071918
 20
4.9715969011
 11
4.1332071918
 21
4.9715969011
  0
LINE
  5
2E2
100
AcDbEntity
  8
0
100
AcDbLine
 62
7
  6
CONTINUOUS
 10
3.4832071918
 20
4.9715969011
 11
3.4582071918
 21
4.9715969011
  0
LINE
  5
2E3
100
AcDbEntity
  8
0
100
AcDbLine
 62
7
  6
CONTINUOUS
 10
4.3282071918
 20
4.9740473296
 11
4.1332071918
 21
4.9740473296
  0
LINE
  5
2E4
100
AcDbEntity
  8
0
100
AcDbLine
 62
7
  6
CONTINUOUS
 10
3.4832071918
 20
4.9740473296
 11
3.4582071918
 21
4.9740473296
  0
LINE
  5
2E5
100
AcDbEntity
  8
0
100
AcDbLine
 62
7
  6
CONTINUOUS
 10
4.3282071918
 20
4.9752289996
 11
4.1332071918
 21
4.9752289996
  0
LINE
  5
2E6
100
AcDbEntity
  8
0
100
AcDbLine
 62
7
  6
CONTINUOUS
 10
3.4832071918
 20
4.9752289996
 11
3.4582071918
 21
4.9752289996
  0
LINE
  5
2E7
100
AcDbEntity
  8
0
100
AcDbLine
 62
7
  6
CONTINUOUS
 10
6.0892071918
 20
4.975385274
 11
4.4192071918
 21
4.975385274
  0
LINE
  5
2E8
100
AcDbEntity
  8
0
100
AcDbLine
 62
7
  6
CONTINUOUS
 10
5.8702071918
 20
2.080385274
 11
5.8702071918
 21
2.530385274
  0
LINE
  5
2E9
100
AcDbEntity
  8
0
100
AcDbLine
 62
7
  6
CONTINUOUS
 10
6.0892071918
 20
4.975385274
 11
6.0892071918
 21
3.975385274
  0
LINE
  5
2EA
100
AcDbEntity
  8
0
100
AcDbLine
 62
7
  6
CONTINUOUS
 10
6.1192071918
 20
4.945385274
 11
6.1192071918
 21
4.005385274
  0
LINE
  5
2EB
100
AcDbEntity
  8
0
100
AcDbLine
 62
7
  6
CONTINUOUS
 10
6.1292071918
 20
4.0031782719
 11
6.1292071918
 21
4.9475922761
  0
LINE
  5
2EC
100
AcDbEntity
  8
0
100
AcDbLine
 62
7
  6
CONTINUOUS
 10
6.1548169479
 20
3.9735012478
 11
6.1548169479
 21
4.9772693001
  0
LINE
  5
2ED
100
AcDbEntity
  8
0
100
AcDbLine
 62
7
  6
CONTINUOUS
 10
6.298206415
 20
5.1049511177
 11
6.298206415
 21
3.8458194302
  0
LINE
  5
2EE
100
AcDbEntity
  8
0
100
AcDbLine
 62
7
  6
CONTINUOUS
 10
6.3773384392
 20
3.3782078998
 11
6.3773384392
 21
5.5725626481
  0
LINE
  5
2EF
100
AcDbEntity
  8
0
100
AcDbLine
 62
7
  6
CONTINUOUS
 10
6.4072593189
 20
3.350385274
 11
6.4072593189
 21
5.600385274
  0
LINE
  5
2F0
100
AcDbEntity
  8
0
100
AcDbLine
 62
7
  6
CONTINUOUS
 10
6.4492071918
 20
2.081385274
 11
6.4492071918
 21
2.529385274
  0
LINE
  5
2F1
100
AcDbEntity
  8
0
100
AcDbLine
 62
7
  6
CONTINUOUS
 10
6.6292071918
 20
5.600385274
 11
6.4072593189
 21
5.600385274
  0
LINE
  5
2F2
100
AcDbEntity
  8
0
100
AcDbLine
 62
7
  6
CONTINUOUS
 10
6.4612071918
 20
2.069385274
 11
6.4612071918
 21
2.541385274
  0
LINE
  5
2F3
100
AcDbEntity
  8
0
100
AcDbLine
 62
7
  6
CONTINUOUS
 10
6.5342071918
 20
2.585385274
 11
6.5342071918
 21
2.025385274
  0
LINE
  5
2F4
100
AcDbEntity
  8
0
100
AcDbLine
 62
7
  6
CONTINUOUS
 10
6.6292071918
 20
1.3925417842
 11
6.6292071918
 21
7.5582287637
  0
LINE
  5
2F5
100
AcDbEntity
  8
0
100
AcDbLine
 62
7
  6
CONTINUOUS
 10
6.6711442015
 20
1.3331671226
 11
6.6711442015
 21
7.6176034253
  0
LINE
  5
2F6
100
AcDbEntity
  8
0
100
AcDbLine
 62
7
  6
CONTINUOUS
 10
3.4832071918
 20
5.955385274
 11
4.1332071918
 21
5.955385274
  0
LINE
  5
2F7
100
AcDbEntity
  8
0
100
AcDbLine
 62
7
  6
CONTINUOUS
 10
3.5032071918
 20
5.975385274
 11
4.1132071918
 21
5.975385274
  0
LINE
  5
2F8
100
AcDbEntity
  8
0
100
AcDbLine
 62
7
  6
CONTINUOUS
 10
6.7447248415
 20
1.2638335896
 11
6.7447248415
 21
7.6869369583
  0
LINE
  5
2F9
100
AcDbEntity
  8
0
100
AcDbLine
 62
7
  6
CONTINUOUS
 10
6.8027439314
 20
1.225385274
 11
6.8027439314
 21
7.725385274
  0
LINE
  5
2FA
100
AcDbEntity
  8
0
100
AcDbLine
 62
7
  6
CONTINUOUS
 10
6.9422071918
 20
7.725385274
 11
6.9422071918
 21
1.225385274
  0
LINE
  5
2FB
100
AcDbEntity
  8
0
100
AcDbLine
 62
7
  6
CONTINUOUS
 10
6.9592071918
 20
2.492885274
 11
6.9592071918
 21
2.117885274
  0
LINE
  5
2FC
100
AcDbEntity
  8
0
100
AcDbLine
 62
7
  6
CONTINUOUS
 10
5.8702071918
 20
2.080385274
 11
5.6562211509
 21
1.8645590144
  0
LINE
  5
2FD
100
AcDbEntity
  8
0
100
AcDbLine
 62
7
  6
CONTINUOUS
 10
6.9422071918
 20
7.725385274
 11
6.8027439314
 21
7.725385274
  0
ARC
  5
2FE
100
AcDbEntity
  8
0
100
AcDbCircle
 62
7
  6
CONTINUOUS
 10
3.8839317977
 20
3.1967600551
 40
2.5
100
AcDbArc
 50
4.1621379224
 51
15.0477379833
  0
ARC
  5
2FF
100
AcDbEntity
  8
0
100
AcDbCircle
 62
7
  6
CONTINUOUS
 10
4.4192071918
 20
4.005385274
 40
0.03
100
AcDbArc
 50
180.0
 51
270.0
  0
ARC
  5
300
100
AcDbEntity
  8
0
100
AcDbCircle
 62
7
  6
CONTINUOUS
 10
3.4582071918
 20
4.005385274
 40
0.03
100
AcDbArc
 50
180.0
 51
209.8827589639
  0
ARC
  5
301
100
AcDbEntity
  8
0
100
AcDbCircle
 62
7
  6
CONTINUOUS
 10
4.3282071918
 20
4.005385274
 40
0.03
100
AcDbArc
 50
330.1172410133
 51
360.0
  0
ARC
  5
302
100
AcDbEntity
  8
0
100
AcDbCircle
 62
7
  6
CONTINUOUS
 10
4.1132071918
 20
4.370385274
 40
0.02
100
AcDbArc
 50
270.0
 51
360.0
  0
ARC
  5
303
100
AcDbEntity
  8
0
100
AcDbCircle
 62
7
  6
CONTINUOUS
 10
3.5032071918
 20
4.370385274
 40
0.02
100
AcDbArc
 50
180.0
 51
270.0
  0
ARC
  5
304
100
AcDbEntity
  8
0
100
AcDbCircle
 62
7
  6
CONTINUOUS
 10
4.1132071918
 20
2.995385274
 40
0.02
100
AcDbArc
 50
270.0
 51
360.0
  0
ARC
  5
305
100
AcDbEntity
  8
0
100
AcDbCircle
 62
7
  6
CONTINUOUS
 10
3.5032071918
 20
2.995385274
 40
0.02
100
AcDbArc
 50
180.0
 51
270.0
  0
ARC
  5
306
100
AcDbEntity
  8
0
100
AcDbCircle
 62
7
  6
CONTINUOUS
 10
3.8839317977
 20
5.7540104929
 40
2.5
100
AcDbArc
 50
344.9522620167
 51
355.8378620776
  0
ARC
  5
307
100
AcDbEntity
  8
0
100
AcDbCircle
 62
7
  6
CONTINUOUS
 10
4.4192071918
 20
4.945385274
 40
0.03
100
AcDbArc
 50
90.0
 51
180.0
  0
ARC
  5
308
100
AcDbEntity
  8
0
100
AcDbCircle
 62
7
  6
CONTINUOUS
 10
3.4582071918
 20
4.945385274
 40
0.03
100
AcDbArc
 50
150.1172410361
 51
180.0
  0
ARC
  5
309
100
AcDbEntity
  8
0
100
AcDbCircle
 62
7
  6
CONTINUOUS
 10
4.3282071918
 20
4.945385274
 40
0.03
100
AcDbArc
 50
0.0
 51
29.8827589867
  0
ARC
  5
30A
100
AcDbEntity
  8
0
100
AcDbCircle
 62
7
  6
CONTINUOUS
 10
4.1132071918
 20
5.955385274
 40
0.02
100
AcDbArc
 50
0.0
 51
90.0
  0
ARC
  5
30B
100
AcDbEntity
  8
0
100
AcDbCircle
 62
7
  6
CONTINUOUS
 10
3.5032071918
 20
5.955385274
 40
0.02
100
AcDbArc
 50
90.0
 51
180.0
  0
ARC
  5
30C
100
AcDbEntity
  8
0
100
AcDbCircle
 62
7
  6
CONTINUOUS
 10
4.1132071918
 20
4.580385274
 40
0.02
100
AcDbArc
 50
0.0
 51
90.0
  0
ARC
  5
30D
100
AcDbEntity
  8
0
100
AcDbCircle
 62
7
  6
CONTINUOUS
 10
3.5032071918
 20
4.580385274
 40
0.02
100
AcDbArc
 50
90.0
 51
180.0
  0
ARC
  5
30E
100
AcDbEntity
  8
0
100
AcDbCircle
 62
7
  6
CONTINUOUS
 10
6.1292071918
 20
3.800385274
 40
0.175
100
AcDbArc
 50
15.0477379833
 51
81.5850319153
  0
ARC
  5
30F
100
AcDbEntity
  8
0
100
AcDbCircle
 62
7
  6
CONTINUOUS
 10
6.6292071918
 20
1.2149504914
 40
0.1254347826
100
AcDbArc
 50
22.9364108859
 51
70.4680059554
  0
ARC
  5
310
100
AcDbEntity
  8
0
100
AcDbCircle
 62
7
  6
CONTINUOUS
 10
6.6292071918
 20
2.025385274
 40
0.095
100
AcDbArc
 50
180.0
 51
270.0
  0
ARC
  5
311
100
AcDbEntity
  8
0
100
AcDbCircle
 62
7
  6
CONTINUOUS
 10
6.6292071918
 20
2.585385274
 40
0.095
100
AcDbArc
 50
90.0
 51
180.0
  0
ARC
  5
312
100
AcDbEntity
  8
0
100
AcDbCircle
 62
7
  6
CONTINUOUS
 10
6.6922071918
 20
1.3925417842
 40
0.063
100
AcDbArc
 50
180.0
 51
250.4680059544
  0
ARC
  5
313
100
AcDbEntity
  8
0
100
AcDbCircle
 62
7
  6
CONTINUOUS
 10
6.8027439314
 20
1.288385274
 40
0.063
100
AcDbArc
 50
202.9364108859
 51
270.0
  0
ARC
  5
314
100
AcDbEntity
  8
0
100
AcDbCircle
 62
7
  6
CONTINUOUS
 10
5.6342071918
 20
2.724385274
 40
0.031
100
AcDbArc
 50
44.7546926505
 51
90.0
  0
ARC
  5
315
100
AcDbEntity
  8
0
100
AcDbCircle
 62
7
  6
CONTINUOUS
 10
5.5442071918
 20
2.724385274
 40
0.031
100
AcDbArc
 50
90.0
 51
103.0407610339
  0
ARC
  5
316
100
AcDbEntity
  8
0
100
AcDbCircle
 62
7
  6
CONTINUOUS
 10
5.6342071918
 20
1.886385274
 40
0.031
100
AcDbArc
 50
270.0
 51
315.2453073495
  0
ARC
  5
317
100
AcDbEntity
  8
0
100
AcDbCircle
 62
7
  6
CONTINUOUS
 10
5.5442071918
 20
1.886385274
 40
0.031
100
AcDbArc
 50
256.9592389661
 51
270.0
  0
ARC
  5
318
100
AcDbEntity
  8
0
100
AcDbCircle
 62
7
  6
CONTINUOUS
 10
5.4082071918
 20
2.692885274
 40
0.031
100
AcDbArc
 50
103.0407610339
 51
180.0
  0
ARC
  5
319
100
AcDbEntity
  8
0
100
AcDbCircle
 62
7
  6
CONTINUOUS
 10
5.4082071918
 20
1.917885274
 40
0.031
100
AcDbArc
 50
180.0
 51
256.9592389661
  0
ARC
  5
31A
100
AcDbEntity
  8
0
100
AcDbCircle
 62
7
  6
CONTINUOUS
 10
6.4072593189
 20
3.380385274
 40
0.03
100
AcDbArc
 50
184.1621379224
 51
270.0
  0
ARC
  5
31B
100
AcDbEntity
  8
0
100
AcDbCircle
 62
7
  6
CONTINUOUS
 10
6.1592071918
 20
4.0031782719
 40
0.03
100
AcDbArc
 50
180.0
 51
261.5850319153
  0
ARC
  5
31C
100
AcDbEntity
  8
0
100
AcDbCircle
 62
7
  6
CONTINUOUS
 10
6.0892071918
 20
4.005385274
 40
0.03
100
AcDbArc
 50
270.0
 51
360.0
  0
ARC
  5
31D
100
AcDbEntity
  8
0
100
AcDbCircle
 62
7
  6
CONTINUOUS
 10
6.4612071918
 20
2.529385274
 40
0.012
100
AcDbArc
 50
90.0
 51
180.0
  0
ARC
  5
31E
100
AcDbEntity
  8
0
100
AcDbCircle
 62
7
  6
CONTINUOUS
 10
6.4612071918
 20
2.081385274
 40
0.012
100
AcDbArc
 50
180.0
 51
270.0
  0
ARC
  5
31F
100
AcDbEntity
  8
0
100
AcDbCircle
 62
7
  6
CONTINUOUS
 10
6.1292071918
 20
5.150385274
 40
0.175
100
AcDbArc
 50
278.4149680847
 51
344.9522620167
  0
ARC
  5
320
100
AcDbEntity
  8
0
100
AcDbCircle
 62
7
  6
CONTINUOUS
 10
6.6292071918
 20
7.7358200566
 40
0.1254347826
100
AcDbArc
 50
289.5319940446
 51
337.0635891141
  0
ARC
  5
321
100
AcDbEntity
  8
0
100
AcDbCircle
 62
7
  6
CONTINUOUS
 10
6.6922071918
 20
7.5582287637
 40
0.063
100
AcDbArc
 50
109.5319940456
 51
180.0
  0
ARC
  5
322
100
AcDbEntity
  8
0
100
AcDbCircle
 62
7
  6
CONTINUOUS
 10
6.8027439314
 20
7.662385274
 40
0.063
100
AcDbArc
 50
90.0
 51
157.0635891141
  0
ARC
  5
323
100
AcDbEntity
  8
0
100
AcDbCircle
 62
7
  6
CONTINUOUS
 10
6.4072593189
 20
5.570385274
 40
0.03
100
AcDbArc
 50
90.0
 51
175.8378620776
  0
ARC
  5
324
100
AcDbEntity
  8
0
100
AcDbCircle
 62
7
  6
CONTINUOUS
 10
6.1592071918
 20
4.9475922761
 40
0.03
100
AcDbArc
 50
98.4149680847
 51
180.0
  0
ARC
  5
325
100
AcDbEntity
  8
0
100
AcDbCircle
 62
7
  6
CONTINUOUS
 10
6.0892071918
 20
4.945385274
 40
0.03
100
AcDbArc
 50
0.0
 51
90.0
  0
SPLINE
  5
326
100
AcDbEntity
  8
0
100
AcDbSpline
 62
7
  6
CONTINUOUS
 70
0
 71
3
 72
15
 73
11
 74
0
 42
0.0000001
 43
0.0000001
 44
0.0000000001
 40
0.0
 40
0.0
 40
0.0
 40
0.0
 40
0.1120729818
 40
0.2273584295
 40
0.3463822913
 40
0.4695806928
 40
0.5970985677
 40
0.7286652423
 40
0.8634316312
 40
1.0
 40
1.0
 40
1.0
 40
1.0
 10
3.4321957904
 20
3.9904384683
 30
0.0
 10
3.4327797706
 20
3.9894221881
 30
0.0
 10
3.4340888415
 20
3.9874291662
 30
0.0
 10
3.4364354446
 20
3.9846577742
 30
0.0
 10
3.4391961559
 20
3.9821211281
 30
0.0
 10
3.4423646765
 20
3.9798854036
 30
0.0
 10
3.4459171495
 20
3.978025226
 30
0.0
 10
3.4498028033
 20
3.9766195225
 30
0.0
 10
3.4539370843
 20
3.9757406568
 30
0.0
 10
3.4567788894
 20
3.9755415484
 30
0.0
 10
3.4582071918
 20
3.9755415484
 30
0.0
  0
SPLINE
  5
327
100
AcDbEntity
  8
0
100
AcDbSpline
 62
7
  6
CONTINUOUS
 70
0
 71
3
 72
15
 73
11
 74
0
 42
0.0000001
 43
0.0000001
 44
0.0000000001
 40
0.0
 40
0.0
 40
0.0
 40
0.0
 40
0.1365683311
 40
0.2713346956
 40
0.4029013727
 40
0.5304192704
 40
0.6536176865
 40
0.7726415612
 40
0.8879270116
 40
1.0
 40
1.0
 40
1.0
 40
1.0
 10
3.4582071918
 20
4.9752289996
 30
0.0
 10
3.4567788898
 20
4.9752289996
 30
0.0
 10
3.4539370853
 20
4.9750298912
 30
0.0
 10
3.449802805
 20
4.9741510259
 30
0.0
 10
3.445917151
 20
4.9727453226
 30
0.0
 10
3.4423646776
 20
4.970885145
 30
0.0
 10
3.4391961565
 20
4.9686494203
 30
0.0
 10
3.4364354448
 20
4.9661127741
 30
0.0
 10
3.4340888416
 20
4.9633413818
 30
0.0
 10
3.4327797706
 20
4.9613483599
 30
0.0
 10
3.4321957904
 20
4.9603320796
 30
0.0
  0
SPLINE
  5
328
100
AcDbEntity
  8
0
100
AcDbSpline
 62
7
  6
CONTINUOUS
 70
0
 71
3
 72
15
 73
11
 74
0
 42
0.0000001
 43
0.0000001
 44
0.0000000001
 40
0.0
 40
0.0
 40
0.0
 40
0.0
 40
0.1399653329
 40
0.2776413853
 40
0.4112277497
 40
0.5396048861
 40
0.6623715799
 40
0.7796606286
 40
0.8919828161
 40
1.0
 40
1.0
 40
1.0
 40
1.0
 10
3.4582071918
 20
4.9715969011
 30
0.0
 10
3.4567794726
 20
4.9715969011
 30
0.0
 10
3.4539440015
 20
4.9714158142
 30
0.0
 10
3.4498152022
 20
4.9706158552
 30
0.0
 10
3.4459331471
 20
4.9693357617
 30
0.0
 10
3.442381985
 20
4.9676408065
 30
0.0
 10
3.4392128079
 20
4.9656023855
 30
0.0
 10
3.4364499892
 20
4.963288193
 30
0.0
 10
3.4341004534
 20
4.9607585019
 30
0.0
 10
3.4327827233
 20
4.9589294208
 30
0.0
 10
3.4321957904
 20
4.9579969282
 30
0.0
  0
SPLINE
  5
329
100
AcDbEntity
  8
0
100
AcDbSpline
 62
7
  6
CONTINUOUS
 70
0
 71
3
 72
15
 73
11
 74
0
 42
0.0000001
 43
0.0000001
 44
0.0000000001
 40
0.0
 40
0.0
 40
0.0
 40
0.0
 40
0.1436928627
 40
0.2845809527
 40
0.4204299909
 40
0.5498147506
 40
0.6721664101
 40
0.7875710751
 40
0.8965874956
 40
1.0
 40
1.0
 40
1.0
 40
1.0
 10
3.4582071918
 20
4.9631860135
 30
0.0
 10
3.4567800532
 20
4.9631860135
 30
0.0
 10
3.4539509123
 20
4.9630245503
 30
0.0
 10
3.4498278336
 20
4.9623107647
 30
0.0
 10
3.4459499554
 20
4.961168183
 30
0.0
 10
3.4424009189
 20
4.9596546208
 30
0.0
 10
3.4392318998
 20
4.9578333878
 30
0.0
 10
3.4364675327
 20
4.9557645523
 30
0.0
 10
3.4341151945
 20
4.9535017227
 30
0.0
 10
3.4327866198
 20
4.9518540893
 30
0.0
 10
3.4321957904
 20
4.9510139628
 30
0.0
  0
SPLINE
  5
32A
100
AcDbEntity
  8
0
100
AcDbSpline
 62
7
  6
CONTINUOUS
 70
0
 71
3
 72
15
 73
11
 74
0
 42
0.0000001
 43
0.0000001
 44
0.0000000001
 40
0.0
 40
0.0
 40
0.0
 40
0.0
 40
0.1476530237
 40
0.2919747527
 40
0.4302799313
 40
0.5608107278
 40
0.6827940391
 40
0.796226282
 40
0.9016709792
 40
1.0
 40
1.0
 40
1.0
 40
1.0
 10
3.4582071918
 20
4.9500773381
 30
0.0
 10
3.4567806092
 20
4.9500773381
 30
0.0
 10
3.4539575502
 20
4.9499368806
 30
0.0
 10
3.4498402008
 20
4.9493155706
 30
0.0
 10
3.44596693
 20
4.9483208336
 30
0.0
 10
3.4424208615
 20
4.9470027677
 30
0.0
 10
3.4392530685
 20
4.9454162228
 30
0.0
 10
3.4364881571
 20
4.9436131604
 30
0.0
 10
3.4341336438
 20
4.9416399234
 30
0.0
 10
3.4327917533
 20
4.940190285
 30
0.0
 10
3.4321957904
 20
4.939450433
 30
0.0
  0
SPLINE
  5
32B
100
AcDbEntity
  8
0
100
AcDbSpline
 62
7
  6
CONTINUOUS
 70
0
 71
3
 72
16
 73
12
 74
0
 42
0.0000001
 43
0.0000001
 44
0.0000000001
 40
0.0
 40
0.0
 40
0.0
 40
0.0
 40
0.1516933861
 40
0.2995392431
 40
0.4404030594
 40
0.572181491
 40
0.6938671684
 40
0.7508761222
 40
0.8053611886
 40
0.9070926743
 40
1.0
 40
1.0
 40
1.0
 40
1.0
 10
3.4582071918
 20
4.9323971186
 30
0.0
 10
3.4567811192
 20
4.9323971186
 30
0.0
 10
3.453963652
 20
4.9322788285
 30
0.0
 10
3.4498517959
 20
4.9317553235
 30
0.0
 10
3.4459832652
 20
4.9309171105
 30
0.0
 10
3.4424410806
 20
4.9298064786
 30
0.0
 10
3.4397474195
 20
4.9286686965
 30
0.0
 10
3.4378008999
 20
4.9276584047
 30
0.0
 10
3.4360733622
 20
4.9266400443
 30
0.0
 10
3.4341561077
 20
4.9252856601
 30
0.0
 10
3.4327984586
 20
4.9240498887
 30
0.0
 10
3.4321957904
 20
4.9234177021
 30
0.0
  0
SPLINE
  5
32C
100
AcDbEntity
  8
0
100
AcDbSpline
 62
7
  6
CONTINUOUS
 70
0
 71
3
 72
15
 73
11
 74
0
 42
0.0000001
 43
0.0000001
 44
0.0000000001
 40
0.0
 40
0.0
 40
0.0
 40
0.0
 40
0.1556264302
 40
0.306924211
 40
0.4503343819
 40
0.5834150659
 40
0.7049093929
 40
0.8145025087
 40
0.9125868661
 40
1.0
 40
1.0
 40
1.0
 40
1.0
 10
3.4582071918
 20
4.9103156252
 30
0.0
 10
3.4567815636
 20
4.9103156252
 30
0.0
 10
3.4539689886
 20
4.9102204547
 30
0.0
 10
3.4498620638
 20
4.9097990939
 30
0.0
 10
3.4459982533
 20
4.909124506
 30
0.0
 10
3.4424599884
 20
4.9082307126
 30
0.0
 10
3.4392980739
 20
4.907154964
 30
0.0
 10
3.4365366196
 20
4.905932431
 30
0.0
 10
3.4341824729
 20
4.9045942328
 30
0.0
 10
3.4328069965
 20
4.9035875091
 30
0.0
 10
3.4321957904
 20
4.903070174
 30
0.0
  0
SPLINE
  5
32D
100
AcDbEntity
  8
0
100
AcDbSpline
 62
7
  6
CONTINUOUS
 70
0
 71
3
 72
18
 73
14
 74
0
 42
0.0000001
 43
0.0000001
 44
0.0000000001
 40
0.0
 40
0.0
 40
0.0
 40
0.0
 40
0.1591519453
 40
0.3135588568
 40
0.4592903257
 40
0.5935991692
 40
0.7149877097
 40
0.7706579458
 40
0.8229662115
 40
0.8719672381
 40
0.9177415531
 40
0.9603828213
 40
1.0
 40
1.0
 40
1.0
 40
1.0
 10
3.4582071918
 20
4.8840455148
 30
0.0
 10
3.4567819251
 20
4.8840455148
 30
0.0
 10
3.4539733338
 20
4.8839742056
 30
0.0
 10
3.4498705707
 20
4.8836583973
 30
0.0
 10
3.4460108712
 20
4.8831528762
 30
0.0
 10
3.4424767992
 20
4.8824832372
 30
0.0
 10
3.4397726316
 20
4.8817935026
 30
0.0
 10
3.4378126094
 20
4.8811776698
 30
0.0
 10
3.4364882058
 20
4.8807050916
 30
0.0
 10
3.4352666803
 20
4.8802111951
 30
0.0
 10
3.4341474108
 20
4.8796985364
 30
0.0
 10
3.4331295856
 20
4.8791695811
 30
0.0
 10
3.4324952002
 20
4.8787941421
 30
0.0
 10
3.4321957904
 20
4.8786038065
 30
0.0
  0
SPLINE
  5
32E
100
AcDbEntity
  8
0
100
AcDbSpline
 62
7
  6
CONTINUOUS
 70
0
 71
3
 72
18
 73
14
 74
0
 42
0.0000001
 43
0.0000001
 44
0.0000000001
 40
0.0
 40
0.0
 40
0.0
 40
0.0
 40
0.1619868969
 40
0.3189063749
 40
0.4665381042
 40
0.6018912308
 40
0.7232659474
 40
0.7784709077
 40
0.8299817544
 40
0.8778293868
 40
0.9220688348
 40
0.9627661037
 40
1.0
 40
1.0
 40
1.0
 40
1.0
 10
3.4582071918
 20
4.8538397828
 30
0.0
 10
3.4567821899
 20
4.8538397828
 30
0.0
 10
3.4539765243
 20
4.8537928787
 30
0.0
 10
3.4498768671
 20
4.8535851101
 30
0.0
 10
3.4460204384
 20
4.8532525938
 30
0.0
 10
3.4424897498
 20
4.8528122173
 30
0.0
 10
3.4397824639
 20
4.8523578424
 30
0.0
 10
3.43781738
 20
4.8519511997
 30
0.0
 10
3.4364935644
 20
4.8516401004
 30
0.0
 10
3.4352726685
 20
4.851315025
 30
0.0
 10
3.4341540854
 20
4.850977677
 30
0.0
 10
3.4331369783
 20
4.8506296947
 30
0.0
 10
3.4324979053
 20
4.8503807699
 30
0.0
 10
3.4321957904
 20
4.8502542241
 30
0.0
  0
SPLINE
  5
32F
100
AcDbEntity
  8
0
100
AcDbSpline
 62
7
  6
CONTINUOUS
 70
0
 71
3
 72
17
 73
13
 74
0
 42
0.0000001
 43
0.0000001
 44
0.0000000001
 40
0.0
 40
0.0
 40
0.0
 40
0.0
 40
0.163791549
 40
0.3223156624
 40
0.4711711931
 40
0.5409395711
 40
0.6072146567
 40
0.7286108035
 40
0.8345452578
 40
0.9249125003
 40
0.9643433316
 40
1.0
 40
1.0
 40
1.0
 40
1.0
 10
3.4582071918
 20
4.8199893271
 30
0.0
 10
3.4567823477
 20
4.8199893271
 30
0.0
 10
3.4539784265
 20
4.8199671803
 30
0.0
 10
3.4498806541
 20
4.8198690526
 30
0.0
 10
3.4466023257
 20
4.8197355258
 30
0.0
 10
3.4441276166
 20
4.8196001472
 30
0.0
 10
3.4418927229
 20
4.8194561915
 30
0.0
 10
3.4393463777
 20
4.8192542768
 30
0.0
 10
3.4365969846
 20
4.8189708706
 30
0.0
 10
3.4345635234
 20
4.8187024773
 30
0.0
 10
3.4331425537
 20
4.8184728956
 30
0.0
 10
3.4325000656
 20
4.8183546942
 30
0.0
 10
3.4321957904
 20
4.8182944488
 30
0.0
  0
SPLINE
  5
330
100
AcDbEntity
  8
0
100
AcDbSpline
 62
7
  6
CONTINUOUS
 70
0
 71
3
 72
17
 73
13
 74
0
 42
0.0000001
 43
0.0000001
 44
0.0000000001
 40
0.0
 40
0.0
 40
0.0
 40
0.0
 40
0.0356566666
 40
0.0750874946
 40
0.1654547349
 40
0.271389175
 40
0.3927853057
 40
0.4590603818
 40
0.5288287404
 40
0.6776842654
 40
0.8362084058
 40
1.0
 40
1.0
 40
1.0
 40
1.0
 10
3.4321957904
 20
4.1324760992
 30
0.0
 10
3.4325000656
 20
4.1324158538
 30
0.0
 10
3.4331425537
 20
4.1322976523
 30
0.0
 10
3.4345635232
 20
4.1320680707
 30
0.0
 10
3.4365969843
 20
4.1317996774
 30
0.0
 10
3.4393463771
 20
4.1315162712
 30
0.0
 10
3.441892722
 20
4.1313143565
 30
0.0
 10
3.4441276153
 20
4.1311704009
 30
0.0
 10
3.4466023241
 20
4.1310350222
 30
0.0
 10
3.4498806525
 20
4.1309014954
 30
0.0
 10
3.4539784255
 20
4.1308033677
 30
0.0
 10
3.4567823473
 20
4.1307812208
 30
0.0
 10
3.4582071918
 20
4.1307812208
 30
0.0
  0
SPLINE
  5
331
100
AcDbEntity
  8
0
100
AcDbSpline
 62
7
  6
CONTINUOUS
 70
0
 71
3
 72
18
 73
14
 74
0
 42
0.0000001
 43
0.0000001
 44
0.0000000001
 40
0.0
 40
0.0
 40
0.0
 40
0.0
 40
0.0372338944
 40
0.07793116
 40
0.1221706064
 40
0.1700182382
 40
0.2215290815
 40
0.2767340311
 40
0.3981087317
 40
0.5334618297
 40
0.6810935536
 40
0.8380130584
 40
1.0
 40
1.0
 40
1.0
 40
1.0
 10
3.4321957904
 20
4.1005163239
 30
0.0
 10
3.4324979053
 20
4.100389778
 30
0.0
 10
3.4331369782
 20
4.1001408532
 30
0.0
 10
3.4341540853
 20
4.0997928709
 30
0.0
 10
3.4352726683
 20
4.099455523
 30
0.0
 10
3.4364935642
 20
4.0991304476
 30
0.0
 10
3.4378173797
 20
4.0988193484
 30
0.0
 10
3.4397824633
 20
4.0984127057
 30
0.0
 10
3.4424897487
 20
4.0979583308
 30
0.0
 10
3.4460204369
 20
4.0975179543
 30
0.0
 10
3.4498768655
 20
4.0971854379
 30
0.0
 10
3.4539765233
 20
4.0969776693
 30
0.0
 10
3.4567821895
 20
4.0969307651
 30
0.0
 10
3.4582071918
 20
4.0969307651
 30
0.0
  0
SPLINE
  5
332
100
AcDbEntity
  8
0
100
AcDbSpline
 62
7
  6
CONTINUOUS
 70
0
 71
3
 72
18
 73
14
 74
0
 42
0.0000001
 43
0.0000001
 44
0.0000000001
 40
0.0
 40
0.0
 40
0.0
 40
0.0
 40
0.0396171768
 40
0.0822584415
 40
0.1280327549
 40
0.1770337809
 40
0.2293420433
 40
0.2850122688
 40
0.4064007934
 40
0.5407096091
 40
0.6864410727
 40
0.8408480108
 40
1.0
 40
1.0
 40
1.0
 40
1.0
 10
3.4321957904
 20
4.0721667415
 30
0.0
 10
3.4324952001
 20
4.0719764059
 30
0.0
 10
3.4331295856
 20
4.0716009669
 30
0.0
 10
3.4341474106
 20
4.0710720116
 30
0.0
 10
3.4352666801
 20
4.0705593529
 30
0.0
 10
3.4364882056
 20
4.0700654564
 30
0.0
 10
3.437812609
 20
4.0695928783
 30
0.0
 10
3.439772631
 20
4.0689770455
 30
0.0
 10
3.4424767981
 20
4.0682873111
 30
0.0
 10
3.4460108697
 20
4.067617672
 30
0.0
 10
3.4498705691
 20
4.0671121508
 30
0.0
 10
3.4539733328
 20
4.0667963423
 30
0.0
 10
3.4567819247
 20
4.0667250332
 30
0.0
 10
3.4582071918
 20
4.0667250332
 30
0.0
  0
SPLINE
  5
333
100
AcDbEntity
  8
0
100
AcDbSpline
 62
7
  6
CONTINUOUS
 70
0
 71
3
 72
15
 73
11
 74
0
 42
0.0000001
 43
0.0000001
 44
0.0000000001
 40
0.0
 40
0.0
 40
0.0
 40
0.0
 40
0.0874131284
 40
0.1854974834
 40
0.2950905855
 40
0.4165848969
 40
0.5496655538
 40
0.6930757199
 40
0.8443735268
 40
1.0
 40
1.0
 40
1.0
 40
1.0
 10
3.4321957904
 20
4.047700374
 30
0.0
 10
3.4328069964
 20
4.0471830389
 30
0.0
 10
3.4341824728
 20
4.0461763152
 30
0.0
 10
3.4365366193
 20
4.0448381171
 30
0.0
 10
3.4392980734
 20
4.0436155841
 30
0.0
 10
3.4424599873
 20
4.0425398357
 30
0.0
 10
3.4459982518
 20
4.0416460422
 30
0.0
 10
3.4498620622
 20
4.0409714542
 30
0.0
 10
3.4539689875
 20
4.0405500932
 30
0.0
 10
3.4567815632
 20
4.0404549227
 30
0.0
 10
3.4582071918
 20
4.0404549227
 30
0.0
  0
SPLINE
  5
334
100
AcDbEntity
  8
0
100
AcDbSpline
 62
7
  6
CONTINUOUS
 70
0
 71
3
 72
16
 73
12
 74
0
 42
0.0000001
 43
0.0000001
 44
0.0000000001
 40
0.0
 40
0.0
 40
0.0
 40
0.0
 40
0.0929073199
 40
0.1946388032
 40
0.2491238665
 40
0.3061328099
 40
0.4278184719
 40
0.5595968774
 40
0.7004606892
 40
0.8483065721
 40
1.0
 40
1.0
 40
1.0
 40
1.0
 10
3.4321957904
 20
4.0273528459
 30
0.0
 10
3.4327984586
 20
4.0267206593
 30
0.0
 10
3.4341561075
 20
4.0254848879
 30
0.0
 10
3.436073362
 20
4.0241305038
 30
0.0
 10
3.4378008996
 20
4.0231121435
 30
0.0
 10
3.4397474189
 20
4.0221018517
 30
0.0
 10
3.4424410796
 20
4.0209640698
 30
0.0
 10
3.4459832636
 20
4.0198534378
 30
0.0
 10
3.4498517943
 20
4.0190152247
 30
0.0
 10
3.4539636509
 20
4.0184917195
 30
0.0
 10
3.4567811188
 20
4.0183734294
 30
0.0
 10
3.4582071918
 20
4.0183734294
 30
0.0
  0
SPLINE
  5
335
100
AcDbEntity
  8
0
100
AcDbSpline
 62
7
  6
CONTINUOUS
 70
0
 71
3
 72
15
 73
11
 74
0
 42
0.0000001
 43
0.0000001
 44
0.0000000001
 40
0.0
 40
0.0
 40
0.0
 40
0.0
 40
0.0983290147
 40
0.2037737094
 40
0.317205939
 40
0.4391892353
 40
0.5697200064
 40
0.7080251812
 40
0.8523469356
 40
1.0
 40
1.0
 40
1.0
 40
1.0
 10
3.4321957904
 20
4.0113201149
 30
0.0
 10
3.4327917532
 20
4.010580263
 30
0.0
 10
3.4341336437
 20
4.0091306247
 30
0.0
 10
3.4364881569
 20
4.0071573878
 30
0.0
 10
3.439253068
 20
4.0053543254
 30
0.0
 10
3.4424208604
 20
4.0037677808
 30
0.0
 10
3.4459669284
 20
4.0024497148
 30
0.0
 10
3.4498401992
 20
4.0014549777
 30
0.0
 10
3.4539575492
 20
4.0008336674
 30
0.0
 10
3.4567806088
 20
4.0006932099
 30
0.0
 10
3.4582071918
 20
4.0006932099
 30
0.0
  0
SPLINE
  5
336
100
AcDbEntity
  8
0
100
AcDbSpline
 62
7
  6
CONTINUOUS
 70
0
 71
3
 72
15
 73
11
 74
0
 42
0.0000001
 43
0.0000001
 44
0.0000000001
 40
0.0
 40
0.0
 40
0.0
 40
0.0
 40
0.1034124982
 40
0.2124289161
 40
0.3278335679
 40
0.4501852125
 40
0.5795699479
 40
0.7154189826
 40
0.8563070977
 40
1.0
 40
1.0
 40
1.0
 40
1.0
 10
3.4321957904
 20
3.9997565852
 30
0.0
 10
3.4327866198
 20
3.9989164587
 30
0.0
 10
3.4341151944
 20
3.9972688253
 30
0.0
 10
3.4364675324
 20
3.9950059959
 30
0.0
 10
3.4392318993
 20
3.9929371604
 30
0.0
 10
3.4424009178
 20
3.9911159278
 30
0.0
 10
3.4459499538
 20
3.9896023654
 30
0.0
 10
3.449827832
 20
3.9884597836
 30
0.0
 10
3.4539509113
 20
3.9877459977
 30
0.0
 10
3.4567800528
 20
3.9875845344
 30
0.0
 10
3.4582071918
 20
3.9875845344
 30
0.0
  0
SPLINE
  5
337
100
AcDbEntity
  8
0
100
AcDbSpline
 62
7
  6
CONTINUOUS
 70
0
 71
3
 72
15
 73
11
 74
0
 42
0.0000001
 43
0.0000001
 44
0.0000000001
 40
0.0
 40
0.0
 40
0.0
 40
0.0
 40
0.1080171775
 40
0.2203393623
 40
0.3376283979
 40
0.4603950771
 40
0.5887721899
 40
0.7223585513
 40
0.8600346285
 40
1.0
 40
1.0
 40
1.0
 40
1.0
 10
3.4321957904
 20
3.9927736197
 30
0.0
 10
3.4327827233
 20
3.9918411272
 30
0.0
 10
3.4341004532
 20
3.9900120462
 30
0.0
 10
3.4364499889
 20
3.9874823553
 30
0.0
 10
3.4392128074
 20
3.9851681628
 30
0.0
 10
3.4423819839
 20
3.9831297421
 30
0.0
 10
3.4459331455
 20
3.9814347868
 30
0.0
 10
3.4498152005
 20
3.9801546932
 30
0.0
 10
3.4539440005
 20
3.9793547338
 30
0.0
 10
3.4567794722
 20
3.9791736468
 30
0.0
 10
3.4582071918
 20
3.9791736468
 30
0.0
  0
SPLINE
  5
338
100
AcDbEntity
  8
0
100
AcDbSpline
 62
7
  6
CONTINUOUS
 70
0
 71
3
 72
15
 73
11
 74
0
 42
0.0000001
 43
0.0000001
 44
0.0000000001
 40
0.0
 40
0.0
 40
0.0
 40
0.0
 40
0.1120729783
 40
0.227358428
 40
0.34638228
 40
0.4695806772
 40
0.5970985478
 40
0.7286652315
 40
0.863431632
 40
1.0
 40
1.0
 40
1.0
 40
1.0
 10
4.3542185931
 20
4.9603320796
 30
0.0
 10
4.353634613
 20
4.9613483598
 30
0.0
 10
4.3523255421
 20
4.9633413817
 30
0.0
 10
4.3499789391
 20
4.9661127736
 30
0.0
 10
4.3472182279
 20
4.9686494197
 30
0.0
 10
4.3440497074
 20
4.970885144
 30
0.0
 10
4.3404972346
 20
4.9727453218
 30
0.0
 10
4.3366115805
 20
4.9741510253
 30
0.0
 10
4.3324772994
 20
4.9750298912
 30
0.0
 10
4.3296354942
 20
4.9752289996
 30
0.0
 10
4.3282071918
 20
4.9752289996
 30
0.0
  0
SPLINE
  5
339
100
AcDbEntity
  8
0
100
AcDbSpline
 62
7
  6
CONTINUOUS
 70
0
 71
3
 72
15
 73
11
 74
0
 42
0.0000001
 43
0.0000001
 44
0.0000000001
 40
0.0
 40
0.0
 40
0.0
 40
0.0
 40
0.1080171741
 40
0.2203393609
 40
0.3376283867
 40
0.4603950615
 40
0.5887721698
 40
0.7223585404
 40
0.8600346293
 40
1.0
 40
1.0
 40
1.0
 40
1.0
 10
4.3542185931
 20
4.9579969282
 30
0.0
 10
4.3536316603
 20
4.9589294207
 30
0.0
 10
4.3523139304
 20
4.9607585017
 30
0.0
 10
4.3499643947
 20
4.9632881925
 30
0.0
 10
4.3472015765
 20
4.965602385
 30
0.0
 10
4.3440324
 20
4.9676408056
 30
0.0
 10
4.3404812385
 20
4.9693357611
 30
0.0
 10
4.3365991833
 20
4.9706158546
 30
0.0
 10
4.3324703832
 20
4.9714158142
 30
0.0
 10
4.3296349113
 20
4.9715969011
 30
0.0
 10
4.3282071918
 20
4.9715969011
 30
0.0
  0
SPLINE
  5
33A
100
AcDbEntity
  8
0
100
AcDbSpline
 62
7
  6
CONTINUOUS
 70
0
 71
3
 72
15
 73
11
 74
0
 42
0.0000001
 43
0.0000001
 44
0.0000000001
 40
0.0
 40
0.0
 40
0.0
 40
0.0
 40
0.1034124949
 40
0.2124289148
 40
0.3278335567
 40
0.4501851969
 40
0.5795699274
 40
0.7154189715
 40
0.8563070985
 40
1.0
 40
1.0
 40
1.0
 40
1.0
 10
4.3542185931
 20
4.9510139628
 30
0.0
 10
4.3536277638
 20
4.9518540892
 30
0.0
 10
4.3522991892
 20
4.9535017226
 30
0.0
 10
4.3499468512
 20
4.9557645519
 30
0.0
 10
4.3471824846
 20
4.9578333874
 30
0.0
 10
4.3440134661
 20
4.9596546199
 30
0.0
 10
4.3404644302
 20
4.9611681824
 30
0.0
 10
4.3365865518
 20
4.9623107642
 30
0.0
 10
4.3324634724
 20
4.9630245503
 30
0.0
 10
4.3296343307
 20
4.9631860135
 30
0.0
 10
4.3282071918
 20
4.9631860135
 30
0.0
  0
SPLINE
  5
33B
100
AcDbEntity
  8
0
100
AcDbSpline
 62
7
  6
CONTINUOUS
 70
0
 71
3
 72
15
 73
11
 74
0
 42
0.0000001
 43
0.0000001
 44
0.0000000001
 40
0.0
 40
0.0
 40
0.0
 40
0.0
 40
0.0983290116
 40
0.2037737082
 40
0.3172059278
 40
0.4391892196
 40
0.5697199856
 40
0.7080251698
 40
0.8523469364
 40
1.0
 40
1.0
 40
1.0
 40
1.0
 10
4.3542185931
 20
4.939450433
 30
0.0
 10
4.3536226304
 20
4.9401902849
 30
0.0
 10
4.3522807399
 20
4.9416399233
 30
0.0
 10
4.3499262268
 20
4.9436131601
 30
0.0
 10
4.3471613159
 20
4.9454162224
 30
0.0
 10
4.3439935235
 20
4.9470027669
 30
0.0
 10
4.3404474556
 20
4.9483208331
 30
0.0
 10
4.3365741847
 20
4.9493155702
 30
0.0
 10
4.3324568345
 20
4.9499368805
 30
0.0
 10
4.3296337747
 20
4.9500773381
 30
0.0
 10
4.3282071918
 20
4.9500773381
 30
0.0
  0
SPLINE
  5
33C
100
AcDbEntity
  8
0
100
AcDbSpline
 62
7
  6
CONTINUOUS
 70
0
 71
3
 72
16
 73
12
 74
0
 42
0.0000001
 43
0.0000001
 44
0.0000000001
 40
0.0
 40
0.0
 40
0.0
 40
0.0
 40
0.0929073169
 40
0.1946388021
 40
0.2491238632
 40
0.3061327987
 40
0.4278184562
 40
0.5595968561
 40
0.7004606776
 40
0.848306573
 40
1.0
 40
1.0
 40
1.0
 40
1.0
 10
4.3542185931
 20
4.9234177021
 30
0.0
 10
4.353615925
 20
4.9240498886
 30
0.0
 10
4.3522582761
 20
4.92528566
 30
0.0
 10
4.3503410216
 20
4.9266400441
 30
0.0
 10
4.3486134841
 20
4.9276584044
 30
0.0
 10
4.3466669649
 20
4.9286686961
 30
0.0
 10
4.3439733044
 20
4.929806478
 30
0.0
 10
4.3404311204
 20
4.9309171101
 30
0.0
 10
4.3365625896
 20
4.9317553231
 30
0.0
 10
4.3324507327
 20
4.9322788284
 30
0.0
 10
4.3296332647
 20
4.9323971186
 30
0.0
 10
4.3282071918
 20
4.9323971186
 30
0.0
  0
SPLINE
  5
33D
100
AcDbEntity
  8
0
100
AcDbSpline
 62
7
  6
CONTINUOUS
 70
0
 71
3
 72
15
 73
11
 74
0
 42
0.0000001
 43
0.0000001
 44
0.0000000001
 40
0.0
 40
0.0
 40
0.0
 40
0.0
 40
0.0874131254
 40
0.1854974824
 40
0.2950905743
 40
0.4165848812
 40
0.5496655322
 40
0.693075708
 40
0.8443735278
 40
1.0
 40
1.0
 40
1.0
 40
1.0
 10
4.3542185931
 20
4.903070174
 30
0.0
 10
4.3536073871
 20
4.903587509
 30
0.0
 10
4.3522319108
 20
4.9045942327
 30
0.0
 10
4.3498777644
 20
4.9059324308
 30
0.0
 10
4.3471163105
 20
4.9071549638
 30
0.0
 10
4.3439543967
 20
4.9082307121
 30
0.0
 10
4.3404161323
 20
4.9091245057
 30
0.0
 10
4.3365523216
 20
4.9097990937
 30
0.0
 10
4.3324453961
 20
4.9102204547
 30
0.0
 10
4.3296328204
 20
4.9103156252
 30
0.0
 10
4.3282071918
 20
4.9103156252
 30
0.0
  0
SPLINE
  5
33E
100
AcDbEntity
  8
0
100
AcDbSpline
 62
7
  6
CONTINUOUS
 70
0
 71
3
 72
18
 73
14
 74
0
 42
0.0000001
 43
0.0000001
 44
0.0000000001
 40
0.0
 40
0.0
 40
0.0
 40
0.0
 40
0.0396171757
 40
0.0822584387
 40
0.1280327526
 40
0.17703378
 40
0.2293420401
 40
0.2850122576
 40
0.4064007777
 40
0.5407095872
 40
0.6864410606
 40
0.8408480118
 40
1.0
 40
1.0
 40
1.0
 40
1.0
 10
4.3542185931
 20
4.8786038065
 30
0.0
 10
4.3539191834
 20
4.8787941421
 30
0.0
 10
4.353284798
 20
4.879169581
 30
0.0
 10
4.352266973
 20
4.8796985363
 30
0.0
 10
4.3511477035
 20
4.880211195
 30
0.0
 10
4.349926178
 20
4.8807050915
 30
0.0
 10
4.3486017747
 20
4.8811776696
 30
0.0
 10
4.3466417528
 20
4.8817935024
 30
0.0
 10
4.3439375859
 20
4.8824832368
 30
0.0
 10
4.3404035143
 20
4.8831528759
 30
0.0
 10
4.3365438148
 20
4.8836583971
 30
0.0
 10
4.3324410509
 20
4.8839742056
 30
0.0
 10
4.3296324588
 20
4.8840455148
 30
0.0
 10
4.3282071918
 20
4.8840455148
 30
0.0
  0
SPLINE
  5
33F
100
AcDbEntity
  8
0
100
AcDbSpline
 62
7
  6
CONTINUOUS
 70
0
 71
3
 72
18
 73
14
 74
0
 42
0.0000001
 43
0.0000001
 44
0.0000000001
 40
0.0
 40
0.0
 40
0.0
 40
0.0
 40
0.0372338933
 40
0.0779311572
 40
0.1221706042
 40
0.1700182374
 40
0.2215290783
 40
0.2767340199
 40
0.3981087159
 40
0.5334618075
 40
0.6810935414
 40
0.8380130594
 40
1.0
 40
1.0
 40
1.0
 40
1.0
 10
4.3542185931
 20
4.8502542241
 30
0.0
 10
4.3539164783
 20
4.8503807699
 30
0.0
 10
4.3532774054
 20
4.8506296947
 30
0.0
 10
4.3522602984
 20
4.850977677
 30
0.0
 10
4.3511417153
 20
4.851315025
 30
0.0
 10
4.3499208194
 20
4.8516401004
 30
0.0
 10
4.348597004
 20
4.8519511996
 30
0.0
 10
4.3466319205
 20
4.8523578422
 30
0.0
 10
4.3439246353
 20
4.852812217
 30
0.0
 10
4.3403939471
 20
4.8532525936
 30
0.0
 10
4.3365375183
 20
4.85358511
 30
0.0
 10
4.3324378604
 20
4.8537928787
 30
0.0
 10
4.3296321941
 20
4.8538397828
 30
0.0
 10
4.3282071918
 20
4.8538397828
 30
0.0
  0
SPLINE
  5
340
100
AcDbEntity
  8
0
100
AcDbSpline
 62
7
  6
CONTINUOUS
 70
0
 71
3
 72
17
 73
13
 74
0
 42
0.0000001
 43
0.0000001
 44
0.0000000001
 40
0.0
 40
0.0
 40
0.0
 40
0.0
 40
0.0356566654
 40
0.0750874919
 40
0.1654547341
 40
0.2713891638
 40
0.3927852899
 40
0.4590603652
 40
0.528828718
 40
0.6776842531
 40
0.8362084068
 40
1.0
 40
1.0
 40
1.0
 40
1.0
 10
4.3542185931
 20
4.8182944488
 30
0.0
 10
4.353914318
 20
4.8183546942
 30
0.0
 10
4.3532718299
 20
4.8184728956
 30
0.0
 10
4.3518508604
 20
4.8187024773
 30
0.0
 10
4.3498173994
 20
4.8189708705
 30
0.0
 10
4.3470680067
 20
4.8192542767
 30
0.0
 10
4.344521662
 20
4.8194561914
 30
0.0
 10
4.3422867688
 20
4.8196001471
 30
0.0
 10
4.3398120599
 20
4.8197355257
 30
0.0
 10
4.3365337314
 20
4.8198690526
 30
0.0
 10
4.3324359582
 20
4.8199671803
 30
0.0
 10
4.3296320363
 20
4.8199893271
 30
0.0
 10
4.3282071918
 20
4.8199893271
 30
0.0
  0
SPLINE
  5
341
100
AcDbEntity
  8
0
100
AcDbSpline
 62
7
  6
CONTINUOUS
 70
0
 71
3
 72
15
 73
11
 74
0
 42
0.0000001
 43
0.0000001
 44
0.0000000001
 40
0.0
 40
0.0
 40
0.0
 40
0.0
 40
0.1365683491
 40
0.2713347117
 40
0.4029013778
 40
0.5304192727
 40
0.6536176873
 40
0.7726415632
 40
0.8879270116
 40
1.0
 40
1.0
 40
1.0
 40
1.0
 10
4.3282071918
 20
3.9755415484
 30
0.0
 10
4.329635494
 20
3.9755415484
 30
0.0
 10
4.3324772986
 20
3.9757406567
 30
0.0
 10
4.336611579
 20
3.9766195222
 30
0.0
 10
4.3404972327
 20
3.9780252255
 30
0.0
 10
4.3440497061
 20
3.9798854029
 30
0.0
 10
4.3472182271
 20
3.9821211277
 30
0.0
 10
4.3499789388
 20
3.9846577739
 30
0.0
 10
4.3523255419
 20
3.9874291662
 30
0.0
 10
4.3536346129
 20
3.989422188
 30
0.0
 10
4.3542185931
 20
3.9904384683
 30
0.0
  0
SPLINE
  5
342
100
AcDbEntity
  8
0
100
AcDbSpline
 62
7
  6
CONTINUOUS
 70
0
 71
3
 72
15
 73
11
 74
0
 42
0.0000001
 43
0.0000001
 44
0.0000000001
 40
0.0
 40
0.0
 40
0.0
 40
0.0
 40
0.1399653514
 40
0.2776414018
 40
0.4112277548
 40
0.5396048884
 40
0.6623715808
 40
0.7796606305
 40
0.8919828161
 40
1.0
 40
1.0
 40
1.0
 40
1.0
 10
4.3282071918
 20
3.9791736468
 30
0.0
 10
4.3296349111
 20
3.9791736468
 30
0.0
 10
4.3324703824
 20
3.9793547338
 30
0.0
 10
4.3365991818
 20
3.9801546929
 30
0.0
 10
4.3404812367
 20
3.9814347864
 30
0.0
 10
4.3440323987
 20
3.9831297414
 30
0.0
 10
4.3472015757
 20
3.9851681625
 30
0.0
 10
4.3499643944
 20
3.987482355
 30
0.0
 10
4.3523139302
 20
3.9900120461
 30
0.0
 10
4.3536316603
 20
3.9918411272
 30
0.0
 10
4.3542185931
 20
3.9927736197
 30
0.0
  0
SPLINE
  5
343
100
AcDbEntity
  8
0
100
AcDbSpline
 62
7
  6
CONTINUOUS
 70
0
 71
3
 72
15
 73
11
 74
0
 42
0.0000001
 43
0.0000001
 44
0.0000000001
 40
0.0
 40
0.0
 40
0.0
 40
0.0
 40
0.1436928816
 40
0.2845809695
 40
0.420429996
 40
0.5498147529
 40
0.672166411
 40
0.787571077
 40
0.8965874956
 40
1.0
 40
1.0
 40
1.0
 40
1.0
 10
4.3282071918
 20
3.9875845344
 30
0.0
 10
4.3296343305
 20
3.9875845344
 30
0.0
 10
4.3324634716
 20
3.9877459976
 30
0.0
 10
4.3365865503
 20
3.9884597833
 30
0.0
 10
4.3404644284
 20
3.989602365
 30
0.0
 10
4.3440134648
 20
3.9911159272
 30
0.0
 10
4.3471824838
 20
3.9929371601
 30
0.0
 10
4.3499468509
 20
3.9950059956
 30
0.0
 10
4.3522991891
 20
3.9972688252
 30
0.0
 10
4.3536277637
 20
3.9989164586
 30
0.0
 10
4.3542185931
 20
3.9997565852
 30
0.0
  0
SPLINE
  5
344
100
AcDbEntity
  8
0
100
AcDbSpline
 62
7
  6
CONTINUOUS
 70
0
 71
3
 72
15
 73
11
 74
0
 42
0.0000001
 43
0.0000001
 44
0.0000000001
 40
0.0
 40
0.0
 40
0.0
 40
0.0
 40
0.1476530432
 40
0.2919747699
 40
0.4302799365
 40
0.5608107301
 40
0.6827940399
 40
0.7962262839
 40
0.9016709793
 40
1.0
 40
1.0
 40
1.0
 40
1.0
 10
4.3282071918
 20
4.0006932099
 30
0.0
 10
4.3296337745
 20
4.0006932099
 30
0.0
 10
4.3324568337
 20
4.0008336674
 30
0.0
 10
4.3365741832
 20
4.0014549774
 30
0.0
 10
4.3404474538
 20
4.0024497144
 30
0.0
 10
4.3439935221
 20
4.0037677803
 30
0.0
 10
4.3471613151
 20
4.0053543252
 30
0.0
 10
4.3499262265
 20
4.0071573875
 30
0.0
 10
4.3522807398
 20
4.0091306246
 30
0.0
 10
4.3536226303
 20
4.0105802629
 30
0.0
 10
4.3542185931
 20
4.0113201149
 30
0.0
  0
SPLINE
  5
345
100
AcDbEntity
  8
0
100
AcDbSpline
 62
7
  6
CONTINUOUS
 70
0
 71
3
 72
16
 73
12
 74
0
 42
0.0000001
 43
0.0000001
 44
0.0000000001
 40
0.0
 40
0.0
 40
0.0
 40
0.0
 40
0.1516934061
 40
0.2995392608
 40
0.4404030647
 40
0.5721814934
 40
0.6938671691
 40
0.7508761239
 40
0.8053611904
 40
0.9070926743
 40
1.0
 40
1.0
 40
1.0
 40
1.0
 10
4.3282071918
 20
4.0183734294
 30
0.0
 10
4.3296332645
 20
4.0183734294
 30
0.0
 10
4.332450732
 20
4.0184917195
 30
0.0
 10
4.3365625881
 20
4.0190152245
 30
0.0
 10
4.3404311186
 20
4.0198534375
 30
0.0
 10
4.343973303
 20
4.0209640693
 30
0.0
 10
4.3466669641
 20
4.0221018515
 30
0.0
 10
4.3486134837
 20
4.0231121433
 30
0.0
 10
4.3503410214
 20
4.0241305036
 30
0.0
 10
4.3522582759
 20
4.0254848878
 30
0.0
 10
4.3536159249
 20
4.0267206593
 30
0.0
 10
4.3542185931
 20
4.0273528459
 30
0.0
  0
SPLINE
  5
346
100
AcDbEntity
  8
0
100
AcDbSpline
 62
7
  6
CONTINUOUS
 70
0
 71
3
 72
15
 73
11
 74
0
 42
0.0000001
 43
0.0000001
 44
0.0000000001
 40
0.0
 40
0.0
 40
0.0
 40
0.0
 40
0.1556264508
 40
0.3069242291
 40
0.4503343872
 40
0.5834150683
 40
0.7049093936
 40
0.8145025105
 40
0.9125868661
 40
1.0
 40
1.0
 40
1.0
 40
1.0
 10
4.3282071918
 20
4.0404549227
 30
0.0
 10
4.3296328202
 20
4.0404549227
 30
0.0
 10
4.3324453954
 20
4.0405500932
 30
0.0
 10
4.3365523201
 20
4.040971454
 30
0.0
 10
4.3404161305
 20
4.041646042
 30
0.0
 10
4.3439543952
 20
4.0425398354
 30
0.0
 10
4.3471163097
 20
4.0436155839
 30
0.0
 10
4.349877764
 20
4.0448381169
 30
0.0
 10
4.3522319107
 20
4.0461763152
 30
0.0
 10
4.3536073871
 20
4.0471830389
 30
0.0
 10
4.3542185931
 20
4.047700374
 30
0.0
  0
SPLINE
  5
347
100
AcDbEntity
  8
0
100
AcDbSpline
 62
7
  6
CONTINUOUS
 70
0
 71
3
 72
18
 73
14
 74
0
 42
0.0000001
 43
0.0000001
 44
0.0000000001
 40
0.0
 40
0.0
 40
0.0
 40
0.0
 40
0.1591519663
 40
0.3135588753
 40
0.4592903311
 40
0.5935991716
 40
0.7149877104
 40
0.7706579474
 40
0.8229662132
 40
0.8719672388
 40
0.9177415531
 40
0.9603828212
 40
1.0
 40
1.0
 40
1.0
 40
1.0
 10
4.3282071918
 20
4.0667250332
 30
0.0
 10
4.3296324586
 20
4.0667250332
 30
0.0
 10
4.3324410501
 20
4.0667963423
 30
0.0
 10
4.3365438133
 20
4.0671121507
 30
0.0
 10
4.3404035126
 20
4.0676176718
 30
0.0
 10
4.3439375845
 20
4.0682873108
 30
0.0
 10
4.346641752
 20
4.0689770454
 30
0.0
 10
4.3486017742
 20
4.0695928782
 30
0.0
 10
4.3499261778
 20
4.0700654563
 30
0.0
 10
4.3511477033
 20
4.0705593529
 30
0.0
 10
4.3522669728
 20
4.0710720116
 30
0.0
 10
4.3532847979
 20
4.0716009669
 30
0.0
 10
4.3539191834
 20
4.0719764059
 30
0.0
 10
4.3542185931
 20
4.0721667415
 30
0.0
  0
SPLINE
  5
348
100
AcDbEntity
  8
0
100
AcDbSpline
 62
7
  6
CONTINUOUS
 70
0
 71
3
 72
18
 73
14
 74
0
 42
0.0000001
 43
0.0000001
 44
0.0000000001
 40
0.0
 40
0.0
 40
0.0
 40
0.0
 40
0.1619869183
 40
0.3189063936
 40
0.4665381097
 40
0.6018912332
 40
0.7232659481
 40
0.7784709093
 40
0.8299817562
 40
0.8778293876
 40
0.9220688348
 40
0.9627661037
 40
1.0
 40
1.0
 40
1.0
 40
1.0
 10
4.3282071918
 20
4.0969307651
 30
0.0
 10
4.3296321939
 20
4.0969307651
 30
0.0
 10
4.3324378596
 20
4.0969776692
 30
0.0
 10
4.3365375168
 20
4.0971854378
 30
0.0
 10
4.3403939454
 20
4.0975179542
 30
0.0
 10
4.3439246339
 20
4.0979583307
 30
0.0
 10
4.3466319197
 20
4.0984127056
 30
0.0
 10
4.3485970035
 20
4.0988193483
 30
0.0
 10
4.3499208192
 20
4.0991304475
 30
0.0
 10
4.3511417151
 20
4.0994555229
 30
0.0
 10
4.3522602982
 20
4.0997928709
 30
0.0
 10
4.3532774053
 20
4.1001408532
 30
0.0
 10
4.3539164783
 20
4.100389778
 30
0.0
 10
4.3542185931
 20
4.1005163239
 30
0.0
  0
SPLINE
  5
349
100
AcDbEntity
  8
0
100
AcDbSpline
 62
7
  6
CONTINUOUS
 70
0
 71
3
 72
17
 73
13
 74
0
 42
0.0000001
 43
0.0000001
 44
0.0000000001
 40
0.0
 40
0.0
 40
0.0
 40
0.0
 40
0.1637915706
 40
0.3223156813
 40
0.4711711985
 40
0.5409395751
 40
0.6072146591
 40
0.7286108042
 40
0.8345452596
 40
0.9249125003
 40
0.9643433315
 40
1.0
 40
1.0
 40
1.0
 40
1.0
 10
4.3282071918
 20
4.1307812208
 30
0.0
 10
4.3296320361
 20
4.1307812208
 30
0.0
 10
4.3324359574
 20
4.1308033677
 30
0.0
 10
4.3365337299
 20
4.1309014953
 30
0.0
 10
4.3398120581
 20
4.1310350222
 30
0.0
 10
4.3422867671
 20
4.1311704008
 30
0.0
 10
4.3445216607
 20
4.1313143564
 30
0.0
 10
4.3470680059
 20
4.1315162712
 30
0.0
 10
4.349817399
 20
4.1317996773
 30
0.0
 10
4.3518508602
 20
4.1320680707
 30
0.0
 10
4.3532718298
 20
4.1322976523
 30
0.0
 10
4.353914318
 20
4.1324158538
 30
0.0
 10
4.3542185931
 20
4.1324760992
 30
0.0
  0
SPLINE
  5
34A
100
AcDbEntity
  8
0
100
AcDbSpline
 62
7
  6
CONTINUOUS
 70
0
 71
3
 72
15
 73
11
 74
0
 42
0.0000001
 43
0.0000001
 44
0.0000000001
 40
0.0
 40
0.0
 40
0.0
 40
0.0
 40
0.1155557164
 40
0.2334218885
 40
0.3539902928
 40
0.477610178
 40
0.6044142998
 40
0.7342289082
 40
0.8664362401
 40
1.0
 40
1.0
 40
1.0
 40
1.0
 10
3.4321957904
 20
4.9579969282
 30
0.0
 10
3.4327775351
 20
4.9590877082
 30
0.0
 10
3.4340797893
 20
4.9612260724
 30
0.0
 10
3.4364236319
 20
4.9642119047
 30
0.0
 10
3.4391820424
 20
4.966945999
 30
0.0
 10
3.4423493866
 20
4.9693570977
 30
0.0
 10
3.4459024833
 20
4.9713644861
 30
0.0
 10
3.4497910973
 20
4.9728824407
 30
0.0
 10
3.4539304274
 20
4.9738320196
 30
0.0
 10
3.4567783266
 20
4.9740473296
 30
0.0
 10
3.4582071918
 20
4.9740473296
 30
0.0
  0
SPLINE
  5
34B
100
AcDbEntity
  8
0
100
AcDbSpline
 62
7
  6
CONTINUOUS
 70
0
 71
3
 72
15
 73
11
 74
0
 42
0.0000001
 43
0.0000001
 44
0.0000000001
 40
0.0
 40
0.0
 40
0.0
 40
0.0
 40
0.1184671131
 40
0.2385149558
 40
0.360412638
 40
0.4844216215
 40
0.6106480128
 40
0.7389868576
 40
0.8690118266
 40
1.0
 40
1.0
 40
1.0
 40
1.0
 10
3.4321957904
 20
4.9510139628
 30
0.0
 10
3.43277585
 20
4.9521692719
 30
0.0
 10
3.4340728146
 20
4.9544332658
 30
0.0
 10
3.4364142315
 20
4.9576044366
 30
0.0
 10
3.4391704108
 20
4.9605091915
 30
0.0
 10
3.4423363317
 20
4.9630720112
 30
0.0
 10
3.445889541
 20
4.9652070104
 30
0.0
 10
3.449780484
 20
4.9668225511
 30
0.0
 10
3.4539242823
 20
4.9678337881
 30
0.0
 10
3.4567778056
 20
4.9680632715
 30
0.0
 10
3.4582071918
 20
4.9680632715
 30
0.0
  0
SPLINE
  5
34C
100
AcDbEntity
  8
0
100
AcDbSpline
 62
7
  6
CONTINUOUS
 70
0
 71
3
 72
18
 73
14
 74
0
 42
0.0000001
 43
0.0000001
 44
0.0000000001
 40
0.0
 40
0.0
 40
0.0
 40
0.0
 40
0.1207868147
 40
0.2425794033
 40
0.3655415762
 40
0.4898542197
 40
0.5525828664
 40
0.6156752889
 40
0.6791124852
 40
0.7428742784
 40
0.8069102359
 40
0.8711757243
 40
1.0
 40
1.0
 40
1.0
 40
1.0
 10
3.4321957904
 20
4.939450433
 30
0.0
 10
3.4327745959
 20
4.9406596847
 30
0.0
 10
3.4340675198
 20
4.9430285355
 30
0.0
 10
3.4364070049
 20
4.9463543923
 30
0.0
 10
3.4391608889
 20
4.9494013437
 30
0.0
 10
3.4417918066
 20
4.9516370574
 30
0.0
 10
3.4440871532
 20
4.953202469
 30
0.0
 10
3.4459064031
 20
4.9542566867
 30
0.0
 10
3.4478105856
 20
4.95517526
 30
0.0
 10
3.4497905121
 20
4.9559461899
 30
0.0
 10
3.4518349503
 20
4.9565589629
 30
0.0
 10
3.4546285791
 20
4.9571527263
 30
0.0
 10
3.4567773463
 20
4.957334455
 30
0.0
 10
3.4582071918
 20
4.957334455
 30
0.0
  0
SPLINE
  5
34D
100
AcDbEntity
  8
0
100
AcDbSpline
 62
7
  6
CONTINUOUS
 70
0
 71
3
 72
20
 73
16
 74
0
 42
0.0000001
 43
0.0000001
 44
0.0000000001
 40
0.0
 40
0.0
 40
0.0
 40
0.0
 40
0.1225779704
 40
0.2457274454
 40
0.3695277665
 40
0.4317438675
 40
0.4941654977
 40
0.5567889781
 40
0.619622151
 40
0.6826521119
 40
0.7458700119
 40
0.8092430206
 40
0.8727496412
 40
0.9363668304
 40
1.0
 40
1.0
 40
1.0
 40
1.0
 10
3.4321957904
 20
4.9234177021
 30
0.0
 10
3.4327736888
 20
4.924669783
 30
0.0
 10
3.4340637327
 20
4.9271218703
 30
0.0
 10
3.4364012996
 20
4.9305700656
 30
0.0
 10
3.4386927162
 20
4.9332003634
 30
0.0
 10
3.4407280187
 20
4.9351185067
 30
0.0
 10
3.4423579925
 20
4.9364560061
 30
0.0
 10
3.4440850186
 20
4.9376777854
 30
0.0
 10
3.4459042283
 20
4.9387712239
 30
0.0
 10
3.4478085011
 20
4.9397240969
 30
0.0
 10
3.4497887013
 20
4.9405238576
 30
0.0
 10
3.4518332329
 20
4.94115958
 30
0.0
 10
3.453928699
 20
4.9416214134
 30
0.0
 10
3.4560589648
 20
4.9419013845
 30
0.0
 10
3.4574913137
 20
4.9419642044
 30
0.0
 10
3.4582071918
 20
4.9419642044
 30
0.0
  0
SPLINE
  5
34E
100
AcDbEntity
  8
0
100
AcDbSpline
 62
7
  6
CONTINUOUS
 70
0
 71
3
 72
19
 73
15
 74
0
 42
0.0000001
 43
0.0000001
 44
0.0000000001
 40
0.0
 40
0.0
 40
0.0
 40
0.0
 40
0.1238824877
 40
0.248031207
 40
0.3724636191
 40
0.4972418132
 40
0.559806207
 40
0.6224690003
 40
0.6852212528
 40
0.7480619529
 40
0.8109707863
 40
0.8739429614
 40
0.936976093
 40
1.0
 40
1.0
 40
1.0
 40
1.0
 10
3.4321957904
 20
4.903070174
 30
0.0
 10
3.4327730711
 20
4.9043535475
 30
0.0
 10
3.4340610024
 20
4.9068663114
 30
0.0
 10
3.4363977858
 20
4.910404242
 30
0.0
 10
3.4391487971
 20
4.9136463409
 30
0.0
 10
3.4417834398
 20
4.9160315233
 30
0.0
 10
3.4440834103
 20
4.9177011963
 30
0.0
 10
3.4459026494
 20
4.9188233772
 30
0.0
 10
3.4478069684
 20
4.919801284
 30
0.0
 10
3.44978732
 20
4.9206221184
 30
0.0
 10
3.4518320876
 20
4.9212746213
 30
0.0
 10
3.4539278796
 20
4.921748669
 30
0.0
 10
3.4560585314
 20
4.9220360548
 30
0.0
 10
3.4574912776
 20
4.9221005436
 30
0.0
 10
3.4582071918
 20
4.9221005436
 30
0.0
  0
SPLINE
  5
34F
100
AcDbEntity
  8
0
100
AcDbSpline
 62
7
  6
CONTINUOUS
 70
0
 71
3
 72
19
 73
15
 74
0
 42
0.0000001
 43
0.0000001
 44
0.0000000001
 40
0.0
 40
0.0
 40
0.0
 40
0.0
 40
0.1246748415
 40
0.2494310973
 40
0.3742477799
 40
0.4991545786
 40
0.5616813204
 40
0.6242378593
 40
0.6868175129
 40
0.7494239515
 40
0.8120444896
 40
0.8746846266
 40
0.9373547903
 40
1.0
 40
1.0
 40
1.0
 40
1.0
 10
3.4321957904
 20
4.8786038065
 30
0.0
 10
3.432772705
 20
4.8799066249
 30
0.0
 10
3.4340594213
 20
4.8824571131
 30
0.0
 10
3.4363955116
 20
4.8860506005
 30
0.0
 10
3.4391457553
 20
4.8893438062
 30
0.0
 10
3.441781289
 20
4.8917682073
 30
0.0
 10
3.4440824372
 20
4.8934652713
 30
0.0
 10
3.4459016621
 20
4.8946052742
 30
0.0
 10
3.4478060118
 20
4.8955987446
 30
0.0
 10
3.449786452
 20
4.8964326727
 30
0.0
 10
3.4518313652
 20
4.8970956066
 30
0.0
 10
3.4539273611
 20
4.8975772476
 30
0.0
 10
3.4560582567
 20
4.8978692438
 30
0.0
 10
3.4574912547
 20
4.8979347706
 30
0.0
 10
3.4582071918
 20
4.8979347706
 30
0.0
  0
SPLINE
  5
350
100
AcDbEntity
  8
0
100
AcDbSpline
 62
7
  6
CONTINUOUS
 70
0
 71
3
 72
19
 73
15
 74
0
 42
0.0000001
 43
0.0000001
 44
0.0000000001
 40
0.0
 40
0.0
 40
0.0
 40
0.0
 40
0.1249739543
 40
0.2499599286
 40
0.374922308
 40
0.4998783336
 40
0.5623911211
 40
0.6249077056
 40
0.6874222229
 40
0.7499400874
 40
0.8124514875
 40
0.874965821
 40
0.937498388
 40
1.0
 40
1.0
 40
1.0
 40
1.0
 10
3.4321957904
 20
4.8502542241
 30
0.0
 10
3.4327725691
 20
4.8515644456
 30
0.0
 10
3.4340588326
 20
4.8541292933
 30
0.0
 10
3.4363946609
 20
4.8577439241
 30
0.0
 10
3.4391446114
 20
4.8610565776
 30
0.0
 10
3.4417804752
 20
4.8634959101
 30
0.0
 10
3.4440820678
 20
4.8652034063
 30
0.0
 10
3.4459012862
 20
4.8663501935
 30
0.0
 10
3.4478056465
 20
4.8673495889
 30
0.0
 10
3.4497861197
 20
4.8681885023
 30
0.0
 10
3.4518310881
 20
4.868855408
 30
0.0
 10
3.4539271618
 20
4.8693399407
 30
0.0
 10
3.456058151
 20
4.8696336927
 30
0.0
 10
3.4574912459
 20
4.8696996149
 30
0.0
 10
3.4582071918
 20
4.8696996149
 30
0.0
  0
SPLINE
  5
351
100
AcDbEntity
  8
0
100
AcDbSpline
 62
7
  6
CONTINUOUS
 70
0
 71
3
 72
19
 73
15
 74
0
 42
0.0000001
 43
0.0000001
 44
0.0000000001
 40
0.0
 40
0.0
 40
0.0
 40
0.0
 40
0.1247837019
 40
0.2496235389
 40
0.3744932067
 40
0.4994178782
 40
0.5619395248
 40
0.6244815126
 40
0.6870374588
 40
0.7496116702
 40
0.8121925076
 40
0.8747868883
 40
0.9374070111
 40
1.0
 40
1.0
 40
1.0
 40
1.0
 10
3.4321957904
 20
4.8182944488
 30
0.0
 10
3.4327726554
 20
4.8195999575
 30
0.0
 10
3.4340592065
 20
4.8221556641
 30
0.0
 10
3.4363952015
 20
4.8257568356
 30
0.0
 10
3.4391453387
 20
4.8290571092
 30
0.0
 10
3.4417809929
 20
4.8314869364
 30
0.0
 10
3.4440823029
 20
4.8331877912
 30
0.0
 10
3.4459015255
 20
4.8343302596
 30
0.0
 10
3.4478058791
 20
4.8353258832
 30
0.0
 10
3.4497863313
 20
4.8361616229
 30
0.0
 10
3.4518312647
 20
4.8368260001
 30
0.0
 10
3.4539272888
 20
4.8373086919
 30
0.0
 10
3.4560582183
 20
4.8376013261
 30
0.0
 10
3.4574912515
 20
4.8376669966
 30
0.0
 10
3.4582071918
 20
4.8376669966
 30
0.0
  0
SPLINE
  5
352
100
AcDbEntity
  8
0
100
AcDbSpline
 62
7
  6
CONTINUOUS
 70
0
 71
3
 72
19
 73
15
 74
0
 42
0.0000001
 43
0.0000001
 44
0.0000000001
 40
0.0
 40
0.0
 40
0.0
 40
0.0
 40
0.1241016113
 40
0.2484181989
 40
0.3729566354
 40
0.497770134
 40
0.5603240159
 40
0.6229573653
 40
0.685661879
 40
0.7484378491
 40
0.8112670734
 40
0.8741476006
 40
0.9370805755
 40
1.0
 40
1.0
 40
1.0
 40
1.0
 10
3.4321957904
 20
4.7830322707
 30
0.0
 10
3.4327729689
 20
4.7843209979
 30
0.0
 10
3.434060562
 20
4.7868441493
 30
0.0
 10
3.4363971539
 20
4.7903973792
 30
0.0
 10
3.4391479543
 20
4.7936535527
 30
0.0
 10
3.4417828457
 20
4.7960495329
 30
0.0
 10
3.444083142
 20
4.7977267458
 30
0.0
 10
3.4459023776
 20
4.7988538339
 30
0.0
 10
3.4478067054
 20
4.7998360258
 30
0.0
 10
3.4497870817
 20
4.8006604652
 30
0.0
 10
3.4518318895
 20
4.8013158398
 30
0.0
 10
3.4539277376
 20
4.8017919778
 30
0.0
 10
3.4560584562
 20
4.8020806327
 30
0.0
 10
3.4574912713
 20
4.8021454073
 30
0.0
 10
3.4582071918
 20
4.8021454073
 30
0.0
  0
LINE
  5
353
100
AcDbEntity
  8
0
100
AcDbLine
 62
7
  6
CONTINUOUS
 10
3.4582071918
 20
4.7828201459
 11
3.4321957904
 21
4.7830322707
  0
SPLINE
  5
354
100
AcDbEntity
  8
0
100
AcDbSpline
 62
7
  6
CONTINUOUS
 70
0
 71
3
 72
20
 73
16
 74
0
 42
0.0000001
 43
0.0000001
 44
0.0000000001
 40
0.0
 40
0.0
 40
0.0
 40
0.0
 40
0.1229100108
 40
0.2463128966
 40
0.3702722567
 40
0.4325283208
 40
0.4949619205
 40
0.5575688215
 40
0.6203569875
 40
0.6833145619
 40
0.7464347256
 40
0.8096878615
 40
0.8730567405
 40
0.9365235806
 40
1.0
 40
1.0
 40
1.0
 40
1.0
 10
3.4321957904
 20
4.7448072838
 30
0.0
 10
3.4327735281
 20
4.7460673283
 30
0.0
 10
3.4340630447
 20
4.7485348758
 30
0.0
 10
3.4364003205
 20
4.7520058456
 30
0.0
 10
3.4386919726
 20
4.7546541613
 30
0.0
 10
3.4407276627
 20
4.756585469
 30
0.0
 10
3.4423576087
 20
4.7579318702
 30
0.0
 10
3.444084617
 20
4.7591617934
 30
0.0
 10
3.4459038243
 20
4.7602625334
 30
0.0
 10
3.4478081128
 20
4.7612217812
 30
0.0
 10
3.4497883514
 20
4.7620269036
 30
0.0
 10
3.4518329435
 20
4.7626668962
 30
0.0
 10
3.4539284922
 20
4.7631318372
 30
0.0
 10
3.4560588555
 20
4.7634136948
 30
0.0
 10
3.4574913046
 20
4.7634769392
 30
0.0
 10
3.4582071918
 20
4.7634769392
 30
0.0
  0
SPLINE
  5
355
100
AcDbEntity
  8
0
100
AcDbSpline
 62
7
  6
CONTINUOUS
 70
0
 71
3
 72
18
 73
14
 74
0
 42
0.0000001
 43
0.0000001
 44
0.0000000001
 40
0.0
 40
0.0
 40
0.0
 40
0.0
 40
0.1634939106
 40
0.3217530717
 40
0.4704059311
 40
0.5401048308
 40
0.6063352379
 40
0.72772595
 40
0.8337858803
 40
0.8810228048
 40
0.9244390699
 40
0.964080074
 40
1.0
 40
1.0
 40
1.0
 40
1.0
 10
3.4582071918
 20
4.7426901989
 30
0.0
 10
3.4567823222
 20
4.7426901989
 30
0.0
 10
3.4539781187
 20
4.7427178672
 30
0.0
 10
3.4498800456
 20
4.7428404576
 30
0.0
 10
3.4466017841
 20
4.7430072568
 30
0.0
 10
3.4441273326
 20
4.7431763493
 30
0.0
 10
3.4418919356
 20
4.7433561996
 30
0.0
 10
3.4393446389
 20
4.7436086069
 30
0.0
 10
3.4369698105
 20
4.7439142332
 30
0.0
 10
3.4352761143
 20
4.7441803554
 30
0.0
 10
3.4341580677
 20
4.7443793748
 30
0.0
 10
3.4331415825
 20
4.7445846047
 30
0.0
 10
3.432499681
 20
4.744732126
 30
0.0
 10
3.4321957904
 20
4.7448072838
 30
0.0
  0
SPLINE
  5
356
100
AcDbEntity
  8
0
100
AcDbSpline
 62
7
  6
CONTINUOUS
 70
0
 71
3
 72
19
 73
15
 74
0
 42
0.0000001
 43
0.0000001
 44
0.0000000001
 40
0.0
 40
0.0
 40
0.0
 40
0.0
 40
0.1212219203
 40
0.2433413588
 40
0.3665014652
 40
0.4908668082
 40
0.553564764
 40
0.6165885429
 40
0.6799207101
 40
0.7435439287
 40
0.8074121308
 40
0.8714863819
 40
0.9357222535
 40
1.0
 40
1.0
 40
1.0
 40
1.0
 10
3.4321957904
 20
4.7039876157
 30
0.0
 10
3.4327743667
 20
4.705207362
 30
0.0
 10
3.4340665473
 20
4.7075966007
 30
0.0
 10
3.4364056451
 20
4.7109525135
 30
0.0
 10
3.4391591289
 20
4.7140271271
 30
0.0
 10
3.441790607
 20
4.7162839986
 30
0.0
 10
3.4440866198
 20
4.7178641563
 30
0.0
 10
3.4459058757
 20
4.718927999
 30
0.0
 10
3.4478100667
 20
4.7198549729
 30
0.0
 10
3.4497901094
 20
4.7206329695
 30
0.0
 10
3.4518343932
 20
4.7212513574
 30
0.0
 10
3.4539295263
 20
4.7217005781
 30
0.0
 10
3.4560594012
 20
4.7219728937
 30
0.0
 10
3.4574913501
 20
4.7220339909
 30
0.0
 10
3.4582071918
 20
4.7220339909
 30
0.0
  0
SPLINE
  5
357
100
AcDbEntity
  8
0
100
AcDbSpline
 62
7
  6
CONTINUOUS
 70
0
 71
3
 72
18
 73
14
 74
0
 42
0.0000001
 43
0.0000001
 44
0.0000000001
 40
0.0
 40
0.0
 40
0.0
 40
0.0
 40
0.1614351765
 40
0.3178648979
 40
0.4651247083
 40
0.6002710666
 40
0.7216440797
 40
0.7769375792
 40
0.8286021643
 40
0.8766739
 40
0.9212135287
 40
0.9622935025
 40
1.0
 40
1.0
 40
1.0
 40
1.0
 10
3.4582071918
 20
4.6999859593
 30
0.0
 10
3.45678214
 20
4.6999859593
 30
0.0
 10
3.4539759228
 20
4.7000383238
 30
0.0
 10
3.4498756758
 20
4.7002702707
 30
0.0
 10
3.446018616
 20
4.7006414974
 30
0.0
 10
3.4424872596
 20
4.7011331627
 30
0.0
 10
3.439780543
 20
4.7016402941
 30
0.0
 10
3.4378164377
 20
4.7020939403
 30
0.0
 10
3.4364924931
 20
4.7024412081
 30
0.0
 10
3.4352714536
 20
4.7028040925
 30
0.0
 10
3.4341527066
 20
4.7031806985
 30
0.0
 10
3.4331354184
 20
4.7035692026
 30
0.0
 10
3.4324973201
 20
4.703846658
 30
0.0
 10
3.4321957904
 20
4.7039876157
 30
0.0
  0
SPLINE
  5
358
100
AcDbEntity
  8
0
100
AcDbSpline
 62
7
  6
CONTINUOUS
 70
0
 71
3
 72
15
 73
11
 74
0
 42
0.0000001
 43
0.0000001
 44
0.0000000001
 40
0.0
 40
0.0
 40
0.0
 40
0.0
 40
0.1190378318
 40
0.239515852
 40
0.3616781261
 40
0.4857673611
 40
0.6118826574
 40
0.7399311332
 40
0.8695236755
 40
1.0
 40
1.0
 40
1.0
 40
1.0
 10
3.4321957904
 20
4.6609663821
 30
0.0
 10
3.4327755375
 20
4.6621346134
 30
0.0
 10
3.4340715066
 20
4.6644237403
 30
0.0
 10
3.4364124388
 20
4.6676319798
 30
0.0
 10
3.4391681509
 20
4.6705708651
 30
0.0
 10
3.4423337458
 20
4.6731640393
 30
0.0
 10
3.4458869297
 20
4.675324596
 30
0.0
 10
3.4497783093
 20
4.6769597135
 30
0.0
 10
3.4539230099
 20
4.6779833428
 30
0.0
 10
3.4567776975
 20
4.6782156807
 30
0.0
 10
3.4582071918
 20
4.6782156807
 30
0.0
  0
SPLINE
  5
359
100
AcDbEntity
  8
0
100
AcDbSpline
 62
7
  6
CONTINUOUS
 70
0
 71
3
 72
15
 73
11
 74
0
 42
0.0000001
 43
0.0000001
 44
0.0000000001
 40
0.0
 40
0.0
 40
0.0
 40
0.0
 40
0.1584273752
 40
0.3121948612
 40
0.4574483133
 40
0.5915039181
 40
0.712915197
 40
0.821215896
 40
0.9166691074
 40
1.0
 40
1.0
 40
1.0
 40
1.0
 10
3.4582071918
 20
4.6551186924
 30
0.0
 10
3.4567818527
 20
4.6551186924
 30
0.0
 10
3.453972465
 20
4.6551953582
 30
0.0
 10
3.44986885
 20
4.6555348681
 30
0.0
 10
3.4460083316
 20
4.6560783559
 30
0.0
 10
3.4424732612
 20
4.6567983085
 30
0.0
 10
3.4393144782
 20
4.6576645652
 30
0.0
 10
3.4365560352
 20
4.6586485743
 30
0.0
 10
3.4342045006
 20
4.6597251127
 30
0.0
 10
3.4328148442
 20
4.6605434881
 30
0.0
 10
3.4321957904
 20
4.6609663821
 30
0.0
  0
SPLINE
  5
35A
100
AcDbEntity
  8
0
100
AcDbSpline
 62
7
  6
CONTINUOUS
 70
0
 71
3
 72
15
 73
11
 74
0
 42
0.0000001
 43
0.0000001
 44
0.0000000001
 40
0.0
 40
0.0
 40
0.0
 40
0.0
 40
0.1162516864
 40
0.2346374157
 40
0.3555204525
 40
0.4792302823
 40
0.6058946665
 40
0.7353573638
 40
0.8670465804
 40
1.0
 40
1.0
 40
1.0
 40
1.0
 10
3.4321957904
 20
4.6161579009
 30
0.0
 10
3.4327771179
 20
4.6172639053
 30
0.0
 10
3.4340780748
 20
4.6194319292
 30
0.0
 10
3.4364213457
 20
4.6224615229
 30
0.0
 10
3.4391792469
 20
4.6252359138
 30
0.0
 10
3.4423462874
 20
4.6276828272
 30
0.0
 10
3.4458994466
 20
4.6297203182
 30
0.0
 10
3.4497886314
 20
4.6312612686
 30
0.0
 10
3.4539290091
 20
4.6322253607
 30
0.0
 10
3.4567782065
 20
4.6324440027
 30
0.0
 10
3.4582071918
 20
4.6324440027
 30
0.0
  0
SPLINE
  5
35B
100
AcDbEntity
  8
0
100
AcDbSpline
 62
7
  6
CONTINUOUS
 70
0
 71
3
 72
15
 73
11
 74
0
 42
0.0000001
 43
0.0000001
 44
0.0000000001
 40
0.0
 40
0.0
 40
0.0
 40
0.0
 40
0.154776979
 40
0.3053276965
 40
0.4481839609
 40
0.5809772421
 40
0.7025063315
 40
0.8124979748
 40
0.9113761171
 40
1.0
 40
1.0
 40
1.0
 40
1.0
 10
3.4582071918
 20
4.6085204943
 30
0.0
 10
3.4567814714
 20
4.6085204943
 30
0.0
 10
3.4539678817
 20
4.6086208735
 30
0.0
 10
3.4498599171
 20
4.6090652615
 30
0.0
 10
3.4459951009
 20
4.6097767328
 30
0.0
 10
3.4424559073
 20
4.6107194349
 30
0.0
 10
3.4392931504
 20
4.6118541214
 30
0.0
 10
3.4365309853
 20
4.6131437416
 30
0.0
 10
3.4341763608
 20
4.614555487
 30
0.0
 10
3.4328049372
 20
4.615614417
 30
0.0
 10
3.4321957904
 20
4.6161579009
 30
0.0
  0
SPLINE
  5
35C
100
AcDbEntity
  8
0
100
AcDbSpline
 62
7
  6
CONTINUOUS
 70
0
 71
3
 72
15
 73
11
 74
0
 42
0.0000001
 43
0.0000001
 44
0.0000000001
 40
0.0
 40
0.0
 40
0.0
 40
0.0
 40
0.112896682
 40
0.2287895544
 40
0.3481741828
 40
0.4714679918
 40
0.5988149477
 40
0.7299686448
 40
0.8641348505
 40
1.0
 40
1.0
 40
1.0
 40
1.0
 10
3.4321957904
 20
4.5699937025
 30
0.0
 10
3.4327792186
 20
4.5710273656
 30
0.0
 10
3.4340866273
 20
4.5730543326
 30
0.0
 10
3.4364325945
 20
4.5758758026
 30
0.0
 10
3.4391928005
 20
4.5784585544
 30
0.0
 10
3.4423610944
 20
4.5807352116
 30
0.0
 10
3.4459137597
 20
4.5826297193
 30
0.0
 10
3.4498001272
 20
4.5840615704
 30
0.0
 10
3.4539355734
 20
4.5849568898
 30
0.0
 10
3.4567787618
 20
4.5851597634
 30
0.0
 10
3.4582071918
 20
4.5851597634
 30
0.0
  0
SPLINE
  5
35D
100
AcDbEntity
  8
0
100
AcDbSpline
 62
7
  6
CONTINUOUS
 70
0
 71
3
 72
15
 73
11
 74
0
 42
0.0000001
 43
0.0000001
 44
0.0000000001
 40
0.0
 40
0.0
 40
0.0
 40
0.0
 40
0.1508535258
 40
0.297970745
 40
0.4383145848
 40
0.5698579169
 40
0.6916470496
 40
0.7488470062
 40
0.8036189928
 40
1.0
 40
1.0
 40
1.0
 40
1.0
 10
3.4582071918
 20
4.5606401313
 30
0.0
 10
3.4567810109
 20
4.5606401313
 30
0.0
 10
3.453962355
 20
4.5607634366
 30
0.0
 10
3.4498493127
 20
4.5613090879
 30
0.0
 10
3.4459797324
 20
4.5621827451
 30
0.0
 10
3.4424366195
 20
4.5633404018
 30
0.0
 10
3.4397446046
 20
4.5645253174
 30
0.0
 10
3.4377993845
 20
4.565577209
 30
0.0
 10
3.4353159322
 20
4.5671020984
 30
0.0
 10
3.4334492303
 20
4.5686240833
 30
0.0
 10
3.4321957904
 20
4.5699937025
 30
0.0
  0
SPLINE
  5
35E
100
AcDbEntity
  8
0
100
AcDbSpline
 62
7
  6
CONTINUOUS
 70
0
 71
3
 72
17
 73
13
 74
0
 42
0.0000001
 43
0.0000001
 44
0.0000000001
 40
0.0
 40
0.0
 40
0.0
 40
0.0
 40
0.1089526076
 40
0.2219495301
 40
0.3396228571
 40
0.4004093059
 40
0.4625305615
 40
0.590686572
 40
0.723783972
 40
0.791916517
 40
0.8608395161
 40
1.0
 40
1.0
 40
1.0
 40
1.0
 10
3.4321957904
 20
4.5229183731
 30
0.0
 10
3.4327819946
 20
4.5238702513
 30
0.0
 10
3.4340976623
 20
4.5257373375
 30
0.0
 10
3.4364463614
 20
4.528322881
 30
0.0
 10
3.438724401
 20
4.5302736325
 30
0.0
 10
3.440742629
 20
4.5316973372
 30
0.0
 10
3.4429389976
 20
4.5330463826
 30
0.0
 10
3.4459295153
 20
4.5345059359
 30
0.0
 10
3.4491415622
 20
4.535588725
 30
0.0
 10
3.451843086
 20
4.5362171926
 30
0.0
 10
3.4546408316
 20
4.5366786197
 30
0.0
 10
3.4567793421
 20
4.5368183356
 30
0.0
 10
3.4582071918
 20
4.5368183356
 30
0.0
  0
SPLINE
  5
35F
100
AcDbEntity
  8
0
100
AcDbSpline
 62
7
  6
CONTINUOUS
 70
0
 71
3
 72
15
 73
11
 74
0
 42
0.0000001
 43
0.0000001
 44
0.0000000001
 40
0.0
 40
0.0
 40
0.0
 40
0.0
 40
0.1467595091
 40
0.2903046633
 40
0.4280510203
 40
0.5583163694
 40
0.6803759498
 40
0.7942501072
 40
0.9005058736
 40
1.0
 40
1.0
 40
1.0
 40
1.0
 10
3.4582071918
 20
4.5119387175
 30
0.0
 10
3.4567804889
 20
4.5119387175
 30
0.0
 10
3.4539561122
 20
4.5120839511
 30
0.0
 10
3.4498375019
 20
4.5127263057
 30
0.0
 10
3.4459631809
 20
4.513754707
 30
0.0
 10
3.4424163835
 20
4.5151173228
 30
0.0
 10
3.4392482166
 20
4.5167573988
 30
0.0
 10
3.4364833155
 20
4.518621143
 30
0.0
 10
3.4341291982
 20
4.5206605587
 30
0.0
 10
3.4327904885
 20
4.5221555845
 30
0.0
 10
3.4321957904
 20
4.5229183731
 30
0.0
  0
SPLINE
  5
360
100
AcDbEntity
  8
0
100
AcDbSpline
 62
7
  6
CONTINUOUS
 70
0
 71
3
 72
15
 73
11
 74
0
 42
0.0000001
 43
0.0000001
 44
0.0000000001
 40
0.0
 40
0.0
 40
0.0
 40
0.0
 40
0.1044805416
 40
0.214257955
 40
0.3300914997
 40
0.4525324175
 40
0.5816806546
 40
0.7170079309
 40
0.8571596574
 40
1.0
 40
1.0
 40
1.0
 40
1.0
 10
3.4321957904
 20
4.475385274
 30
0.0
 10
3.4327856583
 20
4.4762466319
 30
0.0
 10
3.4341116174
 20
4.4779360477
 30
0.0
 10
3.436463366
 20
4.4802602357
 30
0.0
 10
3.439227459
 20
4.4823854536
 30
0.0
 10
3.4423965974
 20
4.4842565519
 30
0.0
 10
3.4459461796
 20
4.4858117186
 30
0.0
 10
3.4498250298
 20
4.4869858081
 30
0.0
 10
3.4539493898
 20
4.4877193227
 30
0.0
 10
3.4567799251
 20
4.487885274
 30
0.0
 10
3.4582071918
 20
4.487885274
 30
0.0
  0
SPLINE
  5
361
100
AcDbEntity
  8
0
100
AcDbSpline
 62
7
  6
CONTINUOUS
 70
0
 71
3
 72
15
 73
11
 74
0
 42
0.0000001
 43
0.0000001
 44
0.0000000001
 40
0.0
 40
0.0
 40
0.0
 40
0.0
 40
0.1428403031
 40
0.2829920047
 40
0.4183192843
 40
0.5474675457
 40
0.6699084783
 40
0.7857420361
 40
0.8955194521
 40
1.0
 40
1.0
 40
1.0
 40
1.0
 10
3.4582071918
 20
4.462885274
 30
0.0
 10
3.4567799255
 20
4.462885274
 30
0.0
 10
3.4539493908
 20
4.4630512252
 30
0.0
 10
3.4498250314
 20
4.4637847394
 30
0.0
 10
3.4459461811
 20
4.4649588289
 30
0.0
 10
3.4423965985
 20
4.4665139954
 30
0.0
 10
3.4392274596
 20
4.468385094
 30
0.0
 10
3.4364633662
 20
4.4705103119
 30
0.0
 10
3.4341116175
 20
4.4728345002
 30
0.0
 10
3.4327856583
 20
4.474523916
 30
0.0
 10
3.4321957904
 20
4.475385274
 30
0.0
  0
SPLINE
  5
362
100
AcDbEntity
  8
0
100
AcDbSpline
 62
7
  6
CONTINUOUS
 70
0
 71
3
 72
15
 73
11
 74
0
 42
0.0000001
 43
0.0000001
 44
0.0000000001
 40
0.0
 40
0.0
 40
0.0
 40
0.0
 40
0.0994941203
 40
0.2057498842
 40
0.3196240284
 40
0.4416835937
 40
0.5719489177
 40
0.7096952709
 40
0.8532404504
 40
1.0
 40
1.0
 40
1.0
 40
1.0
 10
3.4321957904
 20
4.4278521749
 30
0.0
 10
3.4327904885
 20
4.4286149634
 30
0.0
 10
3.4341291981
 20
4.4301099891
 30
0.0
 10
3.4364833153
 20
4.4321494047
 30
0.0
 10
3.439248216
 20
4.4340131489
 30
0.0
 10
3.4424163825
 20
4.4356532246
 30
0.0
 10
3.4459631793
 20
4.4370158405
 30
0.0
 10
3.4498375003
 20
4.4380442419
 30
0.0
 10
3.4539561112
 20
4.4386865968
 30
0.0
 10
3.4567804885
 20
4.4388318305
 30
0.0
 10
3.4582071918
 20
4.4388318305
 30
0.0
  0
SPLINE
  5
363
100
AcDbEntity
  8
0
100
AcDbSpline
 62
7
  6
CONTINUOUS
 70
0
 71
3
 72
17
 73
13
 74
0
 42
0.0000001
 43
0.0000001
 44
0.0000000001
 40
0.0
 40
0.0
 40
0.0
 40
0.0
 40
0.1391604455
 40
0.2080834282
 40
0.276215965
 40
0.4093133678
 40
0.5374694017
 40
0.599590664
 40
0.6603771207
 40
0.7780504607
 40
0.8910473859
 40
1.0
 40
1.0
 40
1.0
 40
1.0
 10
3.4582071918
 20
4.4139522123
 30
0.0
 10
3.4567793425
 20
4.4139522123
 30
0.0
 10
3.4546408326
 20
4.4140919282
 30
0.0
 10
3.4518430876
 20
4.414553355
 30
0.0
 10
3.449141564
 20
4.4151818225
 30
0.0
 10
3.4459295168
 20
4.4162646115
 30
0.0
 10
3.4429389988
 20
4.4177241647
 30
0.0
 10
3.4407426298
 20
4.4190732102
 30
0.0
 10
3.4387244015
 20
4.4204969151
 30
0.0
 10
3.4364463617
 20
4.4224476666
 30
0.0
 10
3.4340976625
 20
4.4250332103
 30
0.0
 10
3.4327819946
 20
4.4269002966
 30
0.0
 10
3.4321957904
 20
4.4278521749
 30
0.0
  0
SPLINE
  5
364
100
AcDbEntity
  8
0
100
AcDbSpline
 62
7
  6
CONTINUOUS
 70
0
 71
3
 72
15
 73
11
 74
0
 42
0.0000001
 43
0.0000001
 44
0.0000000001
 40
0.0
 40
0.0
 40
0.0
 40
0.0
 40
0.1963809989
 40
0.2511529824
 40
0.3083529286
 40
0.4301420461
 40
0.5616853521
 40
0.7020291876
 40
0.8491464326
 40
1.0
 40
1.0
 40
1.0
 40
1.0
 10
3.4321957904
 20
4.3807768455
 30
0.0
 10
3.4334492302
 20
4.3821464646
 30
0.0
 10
3.4353159321
 20
4.3836684494
 30
0.0
 10
3.4377993842
 20
4.3851933388
 30
0.0
 10
3.439744604
 20
4.3862452303
 30
0.0
 10
3.4424366185
 20
4.3874301457
 30
0.0
 10
3.4459797308
 20
4.3885878025
 30
0.0
 10
3.4498493111
 20
4.3894614598
 30
0.0
 10
3.453962354
 20
4.3900071113
 30
0.0
 10
3.4567810105
 20
4.3901304166
 30
0.0
 10
3.4582071918
 20
4.3901304166
 30
0.0
  0
SPLINE
  5
365
100
AcDbEntity
  8
0
100
AcDbSpline
 62
7
  6
CONTINUOUS
 70
0
 71
3
 72
15
 73
11
 74
0
 42
0.0000001
 43
0.0000001
 44
0.0000000001
 40
0.0
 40
0.0
 40
0.0
 40
0.0
 40
0.135865112
 40
0.2700312933
 40
0.4011849928
 40
0.5285319714
 40
0.651825795
 40
0.7712104362
 40
0.8871033114
 40
1.0
 40
1.0
 40
1.0
 40
1.0
 10
3.4582071918
 20
4.3656107846
 30
0.0
 10
3.4567787622
 20
4.3656107846
 30
0.0
 10
3.4539355744
 20
4.3658136581
 30
0.0
 10
3.4498001288
 20
4.366708977
 30
0.0
 10
3.4459137612
 20
4.3681408281
 30
0.0
 10
3.4423610955
 20
4.3700353356
 30
0.0
 10
3.4391928011
 20
4.3723119931
 30
0.0
 10
3.4364325948
 20
4.374894745
 30
0.0
 10
3.4340866274
 20
4.3777162152
 30
0.0
 10
3.4327792186
 20
4.3797431822
 30
0.0
 10
3.4321957904
 20
4.3807768455
 30
0.0
  0
SPLINE
  5
366
100
AcDbEntity
  8
0
100
AcDbSpline
 62
7
  6
CONTINUOUS
 70
0
 71
3
 72
15
 73
11
 74
0
 42
0.0000001
 43
0.0000001
 44
0.0000000001
 40
0.0
 40
0.0
 40
0.0
 40
0.0
 40
0.0886238773
 40
0.1875020172
 40
0.2974936469
 40
0.4190227207
 40
0.551815975
 40
0.6946722347
 40
0.8452229783
 40
1.0
 40
1.0
 40
1.0
 40
1.0
 10
3.4321957904
 20
4.334612647
 30
0.0
 10
3.4328049371
 20
4.3351561309
 30
0.0
 10
3.4341763607
 20
4.3362150609
 30
0.0
 10
3.4365309851
 20
4.3376268062
 30
0.0
 10
3.4392931498
 20
4.3389164264
 30
0.0
 10
3.4424559062
 20
4.3400511126
 30
0.0
 10
3.4459950994
 20
4.3409938149
 30
0.0
 10
3.4498599155
 20
4.3417052863
 30
0.0
 10
3.4539678807
 20
4.3421496744
 30
0.0
 10
3.456781471
 20
4.3422500536
 30
0.0
 10
3.4582071918
 20
4.3422500536
 30
0.0
  0
SPLINE
  5
367
100
AcDbEntity
  8
0
100
AcDbSpline
 62
7
  6
CONTINUOUS
 70
0
 71
3
 72
15
 73
11
 74
0
 42
0.0000001
 43
0.0000001
 44
0.0000000001
 40
0.0
 40
0.0
 40
0.0
 40
0.0
 40
0.1329534111
 40
0.2646426207
 40
0.3941053173
 40
0.5207697081
 40
0.6444795424
 40
0.7653625813
 40
0.883748312
 40
1.0
 40
1.0
 40
1.0
 40
1.0
 10
3.4582071918
 20
4.3183265452
 30
0.0
 10
3.4567782066
 20
4.3183265452
 30
0.0
 10
3.4539290094
 20
4.3185451873
 30
0.0
 10
3.4497886318
 20
4.3195092792
 30
0.0
 10
3.445899447
 20
4.3210502295
 30
0.0
 10
3.4423462876
 20
4.3230877205
 30
0.0
 10
3.439179247
 20
4.325534634
 30
0.0
 10
3.4364213458
 20
4.328309025
 30
0.0
 10
3.4340780748
 20
4.3313386187
 30
0.0
 10
3.4327771179
 20
4.3335066426
 30
0.0
 10
3.4321957904
 20
4.334612647
 30
0.0
  0
SPLINE
  5
368
100
AcDbEntity
  8
0
100
AcDbSpline
 62
7
  6
CONTINUOUS
 70
0
 71
3
 72
15
 73
11
 74
0
 42
0.0000001
 43
0.0000001
 44
0.0000000001
 40
0.0
 40
0.0
 40
0.0
 40
0.0
 40
0.0833308872
 40
0.1787840963
 40
0.2870847814
 40
0.4084960446
 40
0.5425516217
 40
0.6878050686
 40
0.8415725811
 40
1.0
 40
1.0
 40
1.0
 40
1.0
 10
3.4321957904
 20
4.2898041659
 30
0.0
 10
3.4328148441
 20
4.2902270599
 30
0.0
 10
3.4342045005
 20
4.2910454352
 30
0.0
 10
3.436556035
 20
4.2921219735
 30
0.0
 10
3.4393144776
 20
4.2931059826
 30
0.0
 10
3.4424732601
 20
4.2939722391
 30
0.0
 10
3.44600833
 20
4.2946921918
 30
0.0
 10
3.4498688484
 20
4.2952356796
 30
0.0
 10
3.4539724639
 20
4.2955751897
 30
0.0
 10
3.4567818523
 20
4.2956518556
 30
0.0
 10
3.4582071918
 20
4.2956518556
 30
0.0
  0
SPLINE
  5
369
100
AcDbEntity
  8
0
100
AcDbSpline
 62
7
  6
CONTINUOUS
 70
0
 71
3
 72
15
 73
11
 74
0
 42
0.0000001
 43
0.0000001
 44
0.0000000001
 40
0.0
 40
0.0
 40
0.0
 40
0.0
 40
0.1304762884
 40
0.2600688068
 40
0.3881172844
 40
0.5142326021
 40
0.6383218514
 40
0.7604841382
 40
0.8809621612
 40
1.0
 40
1.0
 40
1.0
 40
1.0
 10
3.4582071918
 20
4.2725548673
 30
0.0
 10
3.4567776979
 20
4.2725548673
 30
0.0
 10
3.453923011
 20
4.272787205
 30
0.0
 10
3.4497783109
 20
4.2738108339
 30
0.0
 10
3.4458869313
 20
4.2754459513
 30
0.0
 10
3.4423337468
 20
4.2776065078
 30
0.0
 10
3.4391681515
 20
4.2801996823
 30
0.0
 10
3.436412439
 20
4.2831385678
 30
0.0
 10
3.4340715068
 20
4.2863468075
 30
0.0
 10
3.4327755375
 20
4.2886359344
 30
0.0
 10
3.4321957904
 20
4.2898041659
 30
0.0
  0
SPLINE
  5
36A
100
AcDbEntity
  8
0
100
AcDbSpline
 62
7
  6
CONTINUOUS
 70
0
 71
3
 72
18
 73
14
 74
0
 42
0.0000001
 43
0.0000001
 44
0.0000000001
 40
0.0
 40
0.0
 40
0.0
 40
0.0
 40
0.0377064957
 40
0.0787864661
 40
0.1233260932
 40
0.1713978282
 40
0.22306241
 40
0.2783558988
 40
0.399728896
 40
0.5348752258
 40
0.6821350308
 40
0.838564779
 40
1.0
 40
1.0
 40
1.0
 40
1.0
 10
3.4321957904
 20
4.2467829322
 30
0.0
 10
3.43249732
 20
4.2469238899
 30
0.0
 10
3.4331354183
 20
4.2472013453
 30
0.0
 10
3.4341527065
 20
4.2475898495
 30
0.0
 10
3.4352714535
 20
4.2479664554
 30
0.0
 10
3.4364924929
 20
4.2483293398
 30
0.0
 10
3.4378164374
 20
4.2486766076
 30
0.0
 10
3.4397805424
 20
4.2491302537
 30
0.0
 10
3.4424872585
 20
4.2496373851
 30
0.0
 10
3.4460186144
 20
4.2501290504
 30
0.0
 10
3.4498756742
 20
4.2505002771
 30
0.0
 10
3.4539759218
 20
4.2507322241
 30
0.0
 10
3.4567821396
 20
4.2507845886
 30
0.0
 10
3.4582071918
 20
4.2507845886
 30
0.0
  0
SPLINE
  5
36B
100
AcDbEntity
  8
0
100
AcDbSpline
 62
7
  6
CONTINUOUS
 70
0
 71
3
 72
19
 73
15
 74
0
 42
0.0000001
 43
0.0000001
 44
0.0000000001
 40
0.0
 40
0.0
 40
0.0
 40
0.0
 40
0.0642777365
 40
0.1285135827
 40
0.192587818
 40
0.256456012
 40
0.3200792276
 40
0.3834113995
 40
0.4464351924
 40
0.5091331553
 40
0.6334985125
 40
0.7566586313
 40
0.8787780727
 40
1.0
 40
1.0
 40
1.0
 40
1.0
 10
3.4582071918
 20
4.228736557
 30
0.0
 10
3.4574913502
 20
4.228736557
 30
0.0
 10
3.4560594017
 20
4.228797654
 30
0.0
 10
3.4539295274
 20
4.2290699698
 30
0.0
 10
3.4518343947
 20
4.2295191901
 30
0.0
 10
3.4497901113
 20
4.2301375779
 30
0.0
 10
3.4478100684
 20
4.2309155741
 30
0.0
 10
3.4459058774
 20
4.2318425482
 30
0.0
 10
3.4440866211
 20
4.2329063908
 30
0.0
 10
3.4417906079
 20
4.2344865487
 30
0.0
 10
3.4391591294
 20
4.2367434203
 30
0.0
 10
3.4364056453
 20
4.2398180341
 30
0.0
 10
3.4340665475
 20
4.2431739471
 30
0.0
 10
3.4327743668
 20
4.2455631859
 30
0.0
 10
3.4321957904
 20
4.2467829322
 30
0.0
  0
SPLINE
  5
36C
100
AcDbEntity
  8
0
100
AcDbSpline
 62
7
  6
CONTINUOUS
 70
0
 71
3
 72
18
 73
14
 74
0
 42
0.0000001
 43
0.0000001
 44
0.0000000001
 40
0.0
 40
0.0
 40
0.0
 40
0.0
 40
0.0359199242
 40
0.075560925
 40
0.1189771886
 40
0.1662141124
 40
0.2722740286
 40
0.3936647245
 40
0.4598951221
 40
0.5295940025
 40
0.6782468562
 40
0.8365060444
 40
1.0
 40
1.0
 40
1.0
 40
1.0
 10
3.4321957904
 20
4.2059632641
 30
0.0
 10
3.4324996809
 20
4.206038422
 30
0.0
 10
3.4331415825
 20
4.2061859432
 30
0.0
 10
3.4341580676
 20
4.2063911732
 30
0.0
 10
3.4352761141
 20
4.2065901925
 30
0.0
 10
3.4369698102
 20
4.2068563147
 30
0.0
 10
3.4393446383
 20
4.207161941
 30
0.0
 10
3.4418919347
 20
4.2074143483
 30
0.0
 10
3.4441273313
 20
4.2075941986
 30
0.0
 10
3.4466017824
 20
4.207763291
 30
0.0
 10
3.449880044
 20
4.2079300903
 30
0.0
 10
3.4539781177
 20
4.2080526807
 30
0.0
 10
3.4567823219
 20
4.208080349
 30
0.0
 10
3.4582071918
 20
4.208080349
 30
0.0
  0
SPLINE
  5
36D
100
AcDbEntity
  8
0
100
AcDbSpline
 62
7
  6
CONTINUOUS
 70
0
 71
3
 72
20
 73
16
 74
0
 42
0.0000001
 43
0.0000001
 44
0.0000000001
 40
0.0
 40
0.0
 40
0.0
 40
0.0
 40
0.0634764094
 40
0.1269432245
 40
0.1903120879
 40
0.2535652157
 40
0.3166853762
 40
0.3796429552
 40
0.4424311349
 40
0.505038043
 40
0.5674716487
 40
0.6297277209
 40
0.7536870935
 40
0.8770899821
 40
1.0
 40
1.0
 40
1.0
 40
1.0
 10
3.4582071918
 20
4.1872936087
 30
0.0
 10
3.4574913047
 20
4.1872936087
 30
0.0
 10
3.456058856
 20
4.187356853
 30
0.0
 10
3.4539284933
 20
4.1876387106
 30
0.0
 10
3.4518329451
 20
4.1881036512
 30
0.0
 10
3.4497883533
 20
4.1887436438
 30
0.0
 10
3.4478081146
 20
4.1895487658
 30
0.0
 10
3.445903826
 20
4.1905080138
 30
0.0
 10
3.4440846183
 20
4.1916087536
 30
0.0
 10
3.4423576097
 20
4.192838677
 30
0.0
 10
3.4407276634
 20
4.1941850783
 30
0.0
 10
3.4386919731
 20
4.1961163862
 30
0.0
 10
3.4364003207
 20
4.1987647019
 30
0.0
 10
3.4340630448
 20
4.202235672
 30
0.0
 10
3.4327735282
 20
4.2047032195
 30
0.0
 10
3.4321957904
 20
4.2059632641
 30
0.0
  0
LINE
  5
36E
100
AcDbEntity
  8
0
100
AcDbLine
 62
7
  6
CONTINUOUS
 10
3.4321957904
 20
4.1677382773
 11
3.4582071918
 21
4.167950402
  0
SPLINE
  5
36F
100
AcDbEntity
  8
0
100
AcDbSpline
 62
7
  6
CONTINUOUS
 70
0
 71
3
 72
19
 73
15
 74
0
 42
0.0000001
 43
0.0000001
 44
0.0000000001
 40
0.0
 40
0.0
 40
0.0
 40
0.0
 40
0.0629194147
 40
0.1258523647
 40
0.1887328764
 40
0.2515620925
 40
0.3143380593
 40
0.3770425777
 40
0.4396759406
 40
0.5022298295
 40
0.6270433421
 40
0.7515817911
 40
0.8758983816
 40
1.0
 40
1.0
 40
1.0
 40
1.0
 10
3.4582071918
 20
4.1486251407
 30
0.0
 10
3.4574912714
 20
4.1486251407
 30
0.0
 10
3.4560584567
 20
4.148689915
 30
0.0
 10
3.4539277387
 20
4.1489785701
 30
0.0
 10
3.4518318911
 20
4.1494547077
 30
0.0
 10
3.4497870836
 20
4.1501100822
 30
0.0
 10
3.4478067072
 20
4.1509345211
 30
0.0
 10
3.4459023793
 20
4.1519167133
 30
0.0
 10
3.4440831432
 20
4.1530438012
 30
0.0
 10
3.4417828466
 20
4.1547210143
 30
0.0
 10
3.4391479548
 20
4.1571169947
 30
0.0
 10
3.4363971541
 20
4.1603731684
 30
0.0
 10
3.4340605621
 20
4.1639263985
 30
0.0
 10
3.432772969
 20
4.16644955
 30
0.0
 10
3.4321957904
 20
4.1677382773
 30
0.0
  0
SPLINE
  5
370
100
AcDbEntity
  8
0
100
AcDbSpline
 62
7
  6
CONTINUOUS
 70
0
 71
3
 72
19
 73
15
 74
0
 42
0.0000001
 43
0.0000001
 44
0.0000000001
 40
0.0
 40
0.0
 40
0.0
 40
0.0
 40
0.0625929791
 40
0.1252130771
 40
0.1878074424
 40
0.2503882717
 40
0.3129624797
 40
0.3755184306
 40
0.4380604318
 40
0.5005820853
 40
0.6255067707
 40
0.7503764511
 40
0.8752162909
 40
1.0
 40
1.0
 40
1.0
 40
1.0
 10
3.4582071918
 20
4.1131035513
 30
0.0
 10
3.4574912516
 20
4.1131035513
 30
0.0
 10
3.4560582188
 20
4.1131692216
 30
0.0
 10
3.4539272899
 20
4.1134618559
 30
0.0
 10
3.4518312662
 20
4.1139445473
 30
0.0
 10
3.4497863332
 20
4.1146089244
 30
0.0
 10
3.4478058809
 20
4.1154446638
 30
0.0
 10
3.4459015272
 20
4.1164402876
 30
0.0
 10
3.4440823042
 20
4.1175827558
 30
0.0
 10
3.4417809938
 20
4.1192836108
 30
0.0
 10
3.4391453393
 20
4.1217134382
 30
0.0
 10
3.4363952017
 20
4.125013712
 30
0.0
 10
3.4340592067
 20
4.1286148837
 30
0.0
 10
3.4327726554
 20
4.1311705904
 30
0.0
 10
3.4321957904
 20
4.1324760992
 30
0.0
  0
SPLINE
  5
371
100
AcDbEntity
  8
0
100
AcDbSpline
 62
7
  6
CONTINUOUS
 70
0
 71
3
 72
19
 73
15
 74
0
 42
0.0000001
 43
0.0000001
 44
0.0000000001
 40
0.0
 40
0.0
 40
0.0
 40
0.0
 40
0.0625016022
 40
0.1250341445
 40
0.1875484626
 40
0.2500598545
 40
0.3125777157
 40
0.3750922376
 40
0.4376088355
 40
0.5001216299
 40
0.6250776695
 40
0.7500400613
 40
0.8750260385
 40
1.0
 40
1.0
 40
1.0
 40
1.0
 10
3.4582071918
 20
4.081070933
 30
0.0
 10
3.457491246
 20
4.081070933
 30
0.0
 10
3.4560581515
 20
4.081136855
 30
0.0
 10
3.4539271629
 20
4.0814306071
 30
0.0
 10
3.4518310897
 20
4.0819151394
 30
0.0
 10
3.4497861215
 20
4.082582045
 30
0.0
 10
3.4478056483
 20
4.083420958
 30
0.0
 10
3.4459012879
 20
4.0844203536
 30
0.0
 10
3.4440820691
 20
4.0855671407
 30
0.0
 10
3.4417804761
 20
4.0872746371
 30
0.0
 10
3.439144612
 20
4.0897139698
 30
0.0
 10
3.4363946611
 20
4.0930266235
 30
0.0
 10
3.4340588327
 20
4.0966412545
 30
0.0
 10
3.4327725691
 20
4.0992061023
 30
0.0
 10
3.4321957904
 20
4.1005163239
 30
0.0
  0
SPLINE
  5
372
100
AcDbEntity
  8
0
100
AcDbSpline
 62
7
  6
CONTINUOUS
 70
0
 71
3
 72
19
 73
15
 74
0
 42
0.0000001
 43
0.0000001
 44
0.0000000001
 40
0.0
 40
0.0
 40
0.0
 40
0.0
 40
0.1672301978
 40
0.3297668727
 40
0.4831992113
 40
0.6235665112
 40
0.6877922229
 40
0.7475558925
 40
0.8025576932
 40
0.8525475433
 40
0.8973369626
 40
0.9368217482
 40
0.9709986276
 40
1.0
 40
1.0
 40
1.0
 40
1.0
 10
4.1132071918
 20
4.9595081922
 30
0.0
 10
4.1143229475
 20
4.9595081922
 30
0.0
 10
4.1165234474
 20
4.9595554911
 30
0.0
 10
4.1197415305
 20
4.9597657679
 30
0.0
 10
4.1227683955
 20
4.9601047336
 30
0.0
 10
4.1251270188
 20
4.9604915523
 30
0.0
 10
4.1268526394
 20
4.960857799
 30
0.0
 10
4.1280119874
 20
4.9611454019
 30
0.0
 10
4.1290681751
 20
4.9614511637
 30
0.0
 10
4.1300149602
 20
4.9617722338
 30
0.0
 10
4.1308469544
 20
4.9621056565
 30
0.0
 10
4.1315598332
 20
4.9624486996
 30
0.0
 10
4.1321497338
 20
4.9627986187
 30
0.0
 10
4.1324862133
 20
4.9630553599
 30
0.0
 10
4.1326289386
 20
4.9631860135
 30
0.0
  0
SPLINE
  5
373
100
AcDbEntity
  8
0
100
AcDbSpline
 62
7
  6
CONTINUOUS
 70
0
 71
3
 72
19
 73
15
 74
0
 42
0.0000001
 43
0.0000001
 44
0.0000000001
 40
0.0
 40
0.0
 40
0.0
 40
0.0
 40
0.0626451999
 40
0.1253153388
 40
0.1879554604
 40
0.2505759904
 40
0.3131824256
 40
0.3757620838
 40
0.4383186363
 40
0.5008453849
 40
0.6257521976
 40
0.7505688926
 40
0.8753251514
 40
1.0
 40
1.0
 40
1.0
 40
1.0
 10
3.4582071918
 20
4.0528357773
 30
0.0
 10
3.4574912548
 20
4.0528357773
 30
0.0
 10
3.4560582572
 20
4.052901304
 30
0.0
 10
3.4539273622
 20
4.0531933002
 30
0.0
 10
3.4518313668
 20
4.0536749409
 30
0.0
 10
3.4497864538
 20
4.0543378746
 30
0.0
 10
3.4478060135
 20
4.0551718023
 30
0.0
 10
3.4459016638
 20
4.0561652729
 30
0.0
 10
3.4440824385
 20
4.0573052757
 30
0.0
 10
3.4417812899
 20
4.0590023399
 30
0.0
 10
3.4391457559
 20
4.0614267412
 30
0.0
 10
3.4363955118
 20
4.064719947
 30
0.0
 10
3.4340594214
 20
4.0683134347
 30
0.0
 10
3.432772705
 20
4.070863923
 30
0.0
 10
3.4321957904
 20
4.0721667415
 30
0.0
  0
SPLINE
  5
374
100
AcDbEntity
  8
0
100
AcDbSpline
 62
7
  6
CONTINUOUS
 70
0
 71
3
 72
19
 73
15
 74
0
 42
0.0000001
 43
0.0000001
 44
0.0000000001
 40
0.0
 40
0.0
 40
0.0
 40
0.0
 40
0.0630238971
 40
0.1260570038
 40
0.1890291634
 40
0.2519379887
 40
0.3147786856
 40
0.3775309427
 40
0.4401937496
 40
0.5027581503
 40
0.6275363584
 40
0.751968783
 40
0.8761175051
 40
1.0
 40
1.0
 40
1.0
 40
1.0
 10
3.4582071918
 20
4.0286700043
 30
0.0
 10
3.4574912777
 20
4.0286700043
 30
0.0
 10
3.4560585319
 20
4.028734493
 30
0.0
 10
3.4539278807
 20
4.0290218789
 30
0.0
 10
3.4518320891
 20
4.0294959261
 30
0.0
 10
3.4497873219
 20
4.030148429
 30
0.0
 10
3.4478069701
 20
4.030969263
 30
0.0
 10
3.4459026511
 20
4.03194717
 30
0.0
 10
3.4440834116
 20
4.0330693507
 30
0.0
 10
3.4417834407
 20
4.0347390239
 30
0.0
 10
3.4391487977
 20
4.0371242066
 30
0.0
 10
3.436397786
 20
4.0403663056
 30
0.0
 10
3.4340610025
 20
4.0439042364
 30
0.0
 10
3.4327730711
 20
4.0464170004
 30
0.0
 10
3.4321957904
 20
4.047700374
 30
0.0
  0
SPLINE
  5
375
100
AcDbEntity
  8
0
100
AcDbSpline
 62
7
  6
CONTINUOUS
 70
0
 71
3
 72
20
 73
16
 74
0
 42
0.0000001
 43
0.0000001
 44
0.0000000001
 40
0.0
 40
0.0
 40
0.0
 40
0.0
 40
0.0636331596
 40
0.1272503237
 40
0.1907569287
 40
0.2541299293
 40
0.317347826
 40
0.3803777917
 40
0.4432109783
 40
0.5058344657
 40
0.568256102
 40
0.6304722111
 40
0.7542725447
 40
0.8774220225
 40
1.0
 40
1.0
 40
1.0
 40
1.0
 10
3.4582071918
 20
4.0088063436
 30
0.0
 10
3.4574913138
 20
4.0088063436
 30
0.0
 10
3.4560589653
 20
4.0088691632
 30
0.0
 10
3.4539287001
 20
4.0091491345
 30
0.0
 10
3.4518332345
 20
4.0096109674
 30
0.0
 10
3.4497887031
 20
4.0102466898
 30
0.0
 10
3.4478085029
 20
4.0110464501
 30
0.0
 10
3.4459042299
 20
4.0119993233
 30
0.0
 10
3.4440850199
 20
4.0130927616
 30
0.0
 10
3.4423579935
 20
4.0143145411
 30
0.0
 10
3.4407280194
 20
4.0156520406
 30
0.0
 10
3.4386927168
 20
4.017570184
 30
0.0
 10
3.4364012998
 20
4.0202004819
 30
0.0
 10
3.4340637328
 20
4.0236486775
 30
0.0
 10
3.4327736889
 20
4.0261007649
 30
0.0
 10
3.4321957904
 20
4.0273528459
 30
0.0
  0
SPLINE
  5
376
100
AcDbEntity
  8
0
100
AcDbSpline
 62
7
  6
CONTINUOUS
 70
0
 71
3
 72
18
 73
14
 74
0
 42
0.0000001
 43
0.0000001
 44
0.0000000001
 40
0.0
 40
0.0
 40
0.0
 40
0.0
 40
0.12882424
 40
0.1930897128
 40
0.2571256621
 40
0.3208874523
 40
0.3843246533
 40
0.4474170899
 40
0.5101457437
 40
0.6344584014
 40
0.7574205869
 40
0.8792131783
 40
1.0
 40
1.0
 40
1.0
 40
1.0
 10
3.4582071918
 20
3.9934360929
 30
0.0
 10
3.4567773467
 20
3.9934360929
 30
0.0
 10
3.4546285801
 20
3.9936178216
 30
0.0
 10
3.4518349519
 20
3.9942115846
 30
0.0
 10
3.449790514
 20
3.9948243575
 30
0.0
 10
3.4478105874
 20
3.995595287
 30
0.0
 10
3.4459064048
 20
3.9965138605
 30
0.0
 10
3.4440871544
 20
3.9975680781
 30
0.0
 10
3.4417918075
 20
3.9991334898
 30
0.0
 10
3.4391608895
 20
4.0013692038
 30
0.0
 10
3.4364070052
 20
4.0044161552
 30
0.0
 10
3.4340675199
 20
4.0077420123
 30
0.0
 10
3.4327745959
 20
4.0101108632
 30
0.0
 10
3.4321957904
 20
4.0113201149
 30
0.0
  0
SPLINE
  5
377
100
AcDbEntity
  8
0
100
AcDbSpline
 62
7
  6
CONTINUOUS
 70
0
 71
3
 72
15
 73
11
 74
0
 42
0.0000001
 43
0.0000001
 44
0.0000000001
 40
0.0
 40
0.0
 40
0.0
 40
0.0
 40
0.1309881372
 40
0.2610130822
 40
0.3893519288
 40
0.5155783417
 40
0.6395873395
 40
0.7614850344
 40
0.8815328799
 40
1.0
 40
1.0
 40
1.0
 40
1.0
 10
3.4582071918
 20
3.9827072764
 30
0.0
 10
3.456777806
 20
3.9827072764
 30
0.0
 10
3.4539242834
 20
3.9829367598
 30
0.0
 10
3.4497804856
 20
3.9839479964
 30
0.0
 10
3.4458895426
 20
3.9855635368
 30
0.0
 10
3.4423363327
 20
3.9876985359
 30
0.0
 10
3.4391704114
 20
3.990261356
 30
0.0
 10
3.4364142317
 20
3.993166111
 30
0.0
 10
3.4340728147
 20
3.996337282
 30
0.0
 10
3.43277585
 20
3.9986012759
 30
0.0
 10
3.4321957904
 20
3.9997565852
 30
0.0
  0
SPLINE
  5
378
100
AcDbEntity
  8
0
100
AcDbSpline
 62
7
  6
CONTINUOUS
 70
0
 71
3
 72
15
 73
11
 74
0
 42
0.0000001
 43
0.0000001
 44
0.0000000001
 40
0.0
 40
0.0
 40
0.0
 40
0.0
 40
0.133563723
 40
0.2657710307
 40
0.3955856413
 40
0.5223897852
 40
0.6460096848
 40
0.7665781019
 40
0.8844442768
 40
1.0
 40
1.0
 40
1.0
 40
1.0
 10
3.4582071918
 20
3.9767232183
 30
0.0
 10
3.456778327
 20
3.9767232183
 30
0.0
 10
3.4539304285
 20
3.9769385283
 30
0.0
 10
3.4497910989
 20
3.9778881068
 30
0.0
 10
3.4459024849
 20
3.9794060612
 30
0.0
 10
3.4423493876
 20
3.9814134495
 30
0.0
 10
3.4391820429
 20
3.9838245485
 30
0.0
 10
3.4364236322
 20
3.9865586429
 30
0.0
 10
3.4340797894
 20
3.9895444754
 30
0.0
 10
3.4327775351
 20
3.9916828397
 30
0.0
 10
3.4321957904
 20
3.9927736197
 30
0.0
  0
SPLINE
  5
379
100
AcDbEntity
  8
0
100
AcDbSpline
 62
7
  6
CONTINUOUS
 70
0
 71
3
 72
19
 73
15
 74
0
 42
0.0000001
 43
0.0000001
 44
0.0000000001
 40
0.0
 40
0.0
 40
0.0
 40
0.0
 40
0.0290013724
 40
0.0631782518
 40
0.1026630374
 40
0.1474524567
 40
0.1974423068
 40
0.2524441075
 40
0.3122077771
 40
0.3764334888
 40
0.5168007887
 40
0.6702331273
 40
0.8327698022
 40
1.0
 40
1.0
 40
1.0
 40
1.0
 10
4.1326289386
 20
3.9875845344
 30
0.0
 10
4.1324862133
 20
3.987715188
 30
0.0
 10
4.1321497338
 20
3.9879719293
 30
0.0
 10
4.1315598332
 20
3.9883218483
 30
0.0
 10
4.1308469544
 20
3.9886648915
 30
0.0
 10
4.1300149602
 20
3.9889983141
 30
0.0
 10
4.1290681751
 20
3.9893193843
 30
0.0
 10
4.1280119874
 20
3.989625146
 30
0.0
 10
4.1268526394
 20
3.9899127489
 30
0.0
 10
4.1251270188
 20
3.9902789957
 30
0.0
 10
4.1227683955
 20
3.9906658143
 30
0.0
 10
4.1197415305
 20
3.99100478
 30
0.0
 10
4.1165234474
 20
3.9912150569
 30
0.0
 10
4.1143229475
 20
3.9912623557
 30
0.0
 10
4.1132071918
 20
3.9912623557
 30
0.0
  0
SPLINE
  5
37A
100
AcDbEntity
  8
0
100
AcDbSpline
 62
7
  6
CONTINUOUS
 70
0
 71
3
 72
19
 73
15
 74
0
 42
0.0000001
 43
0.0000001
 44
0.0000000001
 40
0.0
 40
0.0
 40
0.0
 40
0.0
 40
0.1672301978
 40
0.3297668727
 40
0.4831992113
 40
0.6235665112
 40
0.6877922229
 40
0.7475558925
 40
0.8025576932
 40
0.8525475433
 40
0.8973369626
 40
0.9368217482
 40
0.9709986276
 40
1.0
 40
1.0
 40
1.0
 40
1.0
 10
3.5032071918
 20
3.9912623557
 30
0.0
 10
3.5020914361
 20
3.9912623557
 30
0.0
 10
3.4998909362
 20
3.9912150569
 30
0.0
 10
3.4966728531
 20
3.99100478
 30
0.0
 10
3.4936459881
 20
3.9906658143
 30
0.0
 10
3.4912873648
 20
3.9902789957
 30
0.0
 10
3.4895617442
 20
3.9899127489
 30
0.0
 10
3.4884023962
 20
3.989625146
 30
0.0
 10
3.4873462085
 20
3.9893193843
 30
0.0
 10
3.4863994234
 20
3.9889983141
 30
0.0
 10
3.4855674291
 20
3.9886648915
 30
0.0
 10
3.4848545504
 20
3.9883218483
 30
0.0
 10
3.4842646498
 20
3.9879719293
 30
0.0
 10
3.4839281702
 20
3.987715188
 30
0.0
 10
3.4837854449
 20
3.9875845344
 30
0.0
  0
SPLINE
  5
37B
100
AcDbEntity
  8
0
100
AcDbSpline
 62
7
  6
CONTINUOUS
 70
0
 71
3
 72
15
 73
11
 74
0
 42
0.0000001
 43
0.0000001
 44
0.0000000001
 40
0.0
 40
0.0
 40
0.0
 40
0.0
 40
0.1335637407
 40
0.2657710466
 40
0.3955856464
 40
0.5223897875
 40
0.6460096857
 40
0.766578104
 40
0.8844442768
 40
1.0
 40
1.0
 40
1.0
 40
1.0
 10
4.3282071918
 20
4.9740473296
 30
0.0
 10
4.3296360567
 20
4.9740473296
 30
0.0
 10
4.3324839554
 20
4.9738320196
 30
0.0
 10
4.3366232851
 20
4.9728824411
 30
0.0
 10
4.3405118989
 20
4.9713644866
 30
0.0
 10
4.344064996
 20
4.9693570984
 30
0.0
 10
4.3472323407
 20
4.9669459994
 30
0.0
 10
4.3499907514
 20
4.964211905
 30
0.0
 10
4.3523345941
 20
4.9612260725
 30
0.0
 10
4.3536368485
 20
4.9590877083
 30
0.0
 10
4.3542185931
 20
4.9579969282
 30
0.0
  0
SPLINE
  5
37C
100
AcDbEntity
  8
0
100
AcDbSpline
 62
7
  6
CONTINUOUS
 70
0
 71
3
 72
15
 73
11
 74
0
 42
0.0000001
 43
0.0000001
 44
0.0000000001
 40
0.0
 40
0.0
 40
0.0
 40
0.0
 40
0.1309881545
 40
0.2610130978
 40
0.3893519339
 40
0.515578344
 40
0.6395873404
 40
0.7614850365
 40
0.88153288
 40
1.0
 40
1.0
 40
1.0
 40
1.0
 10
4.3282071918
 20
4.9680632715
 30
0.0
 10
4.3296365778
 20
4.9680632715
 30
0.0
 10
4.3324901005
 20
4.9678337881
 30
0.0
 10
4.3366338984
 20
4.9668225515
 30
0.0
 10
4.3405248412
 20
4.965207011
 30
0.0
 10
4.3440780509
 20
4.963072012
 30
0.0
 10
4.3472439722
 20
4.9605091919
 30
0.0
 10
4.3500001519
 20
4.9576044369
 30
0.0
 10
4.3523415689
 20
4.954433266
 30
0.0
 10
4.3536385336
 20
4.952169272
 30
0.0
 10
4.3542185931
 20
4.9510139628
 30
0.0
  0
SPLINE
  5
37D
100
AcDbEntity
  8
0
100
AcDbSpline
 62
7
  6
CONTINUOUS
 70
0
 71
3
 72
18
 73
14
 74
0
 42
0.0000001
 43
0.0000001
 44
0.0000000001
 40
0.0
 40
0.0
 40
0.0
 40
0.0
 40
0.128824257
 40
0.1930897326
 40
0.2571256775
 40
0.3208874604
 40
0.3843246583
 40
0.4474170936
 40
0.5101457459
 40
0.6344584023
 40
0.757420589
 40
0.8792131783
 40
1.0
 40
1.0
 40
1.0
 40
1.0
 10
4.3282071918
 20
4.957334455
 30
0.0
 10
4.3296370371
 20
4.957334455
 30
0.0
 10
4.3317858038
 20
4.9571527263
 30
0.0
 10
4.3345794322
 20
4.9565589631
 30
0.0
 10
4.3366238701
 20
4.9559461903
 30
0.0
 10
4.3386037965
 20
4.9551752608
 30
0.0
 10
4.340507979
 20
4.9542566874
 30
0.0
 10
4.3423272292
 20
4.9532024698
 30
0.0
 10
4.3446225762
 20
4.9516370581
 30
0.0
 10
4.3472534941
 20
4.9494013441
 30
0.0
 10
4.3500073784
 20
4.9463543927
 30
0.0
 10
4.3523468636
 20
4.9430285356
 30
0.0
 10
4.3536397876
 20
4.9406596848
 30
0.0
 10
4.3542185931
 20
4.939450433
 30
0.0
  0
SPLINE
  5
37E
100
AcDbEntity
  8
0
100
AcDbSpline
 62
7
  6
CONTINUOUS
 70
0
 71
3
 72
19
 73
15
 74
0
 42
0.0000001
 43
0.0000001
 44
0.0000000001
 40
0.0
 40
0.0
 40
0.0
 40
0.0
 40
0.0290013724
 40
0.0631782518
 40
0.1026630374
 40
0.1474524567
 40
0.1974423068
 40
0.2524441075
 40
0.3122077771
 40
0.3764334888
 40
0.5168007887
 40
0.6702331273
 40
0.8327698022
 40
1.0
 40
1.0
 40
1.0
 40
1.0
 10
3.4837854449
 20
4.9631860135
 30
0.0
 10
3.4839281702
 20
4.9630553599
 30
0.0
 10
3.4842646498
 20
4.9627986187
 30
0.0
 10
3.4848545504
 20
4.9624486996
 30
0.0
 10
3.4855674291
 20
4.9621056565
 30
0.0
 10
3.4863994234
 20
4.9617722338
 30
0.0
 10
3.4873462085
 20
4.9614511637
 30
0.0
 10
3.4884023962
 20
4.9611454019
 30
0.0
 10
3.4895617442
 20
4.960857799
 30
0.0
 10
3.4912873648
 20
4.9604915523
 30
0.0
 10
3.4936459881
 20
4.9601047336
 30
0.0
 10
3.4966728531
 20
4.9597657679
 30
0.0
 10
3.4998909362
 20
4.9595554911
 30
0.0
 10
3.5020914361
 20
4.9595081922
 30
0.0
 10
3.5032071918
 20
4.9595081922
 30
0.0
  0
SPLINE
  5
37F
100
AcDbEntity
  8
0
100
AcDbSpline
 62
7
  6
CONTINUOUS
 70
0
 71
3
 72
20
 73
16
 74
0
 42
0.0000001
 43
0.0000001
 44
0.0000000001
 40
0.0
 40
0.0
 40
0.0
 40
0.0
 40
0.0636331649
 40
0.1272503405
 40
0.1907569483
 40
0.2541299444
 40
0.317347834
 40
0.3803777965
 40
0.443210982
 40
0.5058344679
 40
0.5682561027
 40
0.6304722119
 40
0.7542725468
 40
0.8774220226
 40
1.0
 40
1.0
 40
1.0
 40
1.0
 10
4.3282071918
 20
4.9419642044
 30
0.0
 10
4.3289230698
 20
4.9419642044
 30
0.0
 10
4.3303554185
 20
4.9419013846
 30
0.0
 10
4.3324856839
 20
4.9416214134
 30
0.0
 10
4.3345811496
 20
4.9411595803
 30
0.0
 10
4.3366256809
 20
4.940523858
 30
0.0
 10
4.3386058809
 20
4.9397240977
 30
0.0
 10
4.3405101538
 20
4.9387712246
 30
0.0
 10
4.3423293638
 20
4.9376777863
 30
0.0
 10
4.3440563902
 20
4.9364560068
 30
0.0
 10
4.3456863642
 20
4.9351185073
 30
0.0
 10
4.3477216668
 20
4.9332003639
 30
0.0
 10
4.3500130838
 20
4.930570066
 30
0.0
 10
4.3523506507
 20
4.9271218705
 30
0.0
 10
4.3536406947
 20
4.924669783
 30
0.0
 10
4.3542185931
 20
4.9234177021
 30
0.0
  0
SPLINE
  5
380
100
AcDbEntity
  8
0
100
AcDbSpline
 62
7
  6
CONTINUOUS
 70
0
 71
3
 72
19
 73
15
 74
0
 42
0.0000001
 43
0.0000001
 44
0.0000000001
 40
0.0
 40
0.0
 40
0.0
 40
0.0
 40
0.0630239024
 40
0.1260570204
 40
0.1890291828
 40
0.2519380037
 40
0.3147786935
 40
0.3775309475
 40
0.4401937533
 40
0.5027581524
 40
0.6275363593
 40
0.7519687851
 40
0.8761175052
 40
1.0
 40
1.0
 40
1.0
 40
1.0
 10
4.3282071918
 20
4.9221005436
 30
0.0
 10
4.3289231059
 20
4.9221005436
 30
0.0
 10
4.3303558519
 20
4.9220360549
 30
0.0
 10
4.3324865033
 20
4.9217486691
 30
0.0
 10
4.334582295
 20
4.9212746216
 30
0.0
 10
4.3366270621
 20
4.9206221188
 30
0.0
 10
4.3386074137
 20
4.9198012848
 30
0.0
 10
4.3405117326
 20
4.9188233778
 30
0.0
 10
4.3423309721
 20
4.9177011971
 30
0.0
 10
4.3446309429
 20
4.916031524
 30
0.0
 10
4.3472655859
 20
4.9136463413
 30
0.0
 10
4.3500165975
 20
4.9104042423
 30
0.0
 10
4.3523533811
 20
4.9068663115
 30
0.0
 10
4.3536413125
 20
4.9043535476
 30
0.0
 10
4.3542185931
 20
4.903070174
 30
0.0
  0
SPLINE
  5
381
100
AcDbEntity
  8
0
100
AcDbSpline
 62
7
  6
CONTINUOUS
 70
0
 71
3
 72
19
 73
15
 74
0
 42
0.0000001
 43
0.0000001
 44
0.0000000001
 40
0.0
 40
0.0
 40
0.0
 40
0.0
 40
0.0626452052
 40
0.1253153554
 40
0.1879554797
 40
0.2505760053
 40
0.3131824334
 40
0.3757620886
 40
0.4383186399
 40
0.5008453871
 40
0.6257521985
 40
0.7505688947
 40
0.8753251514
 40
1.0
 40
1.0
 40
1.0
 40
1.0
 10
4.3282071918
 20
4.8979347706
 30
0.0
 10
4.3289231288
 20
4.8979347706
 30
0.0
 10
4.3303561266
 20
4.8978692439
 30
0.0
 10
4.3324870218
 20
4.8975772477
 30
0.0
 10
4.3345830173
 20
4.8970956069
 30
0.0
 10
4.3366279302
 20
4.8964326732
 30
0.0
 10
4.3386083703
 20
4.8955987455
 30
0.0
 10
4.3405127199
 20
4.8946052749
 30
0.0
 10
4.3423319452
 20
4.8934652721
 30
0.0
 10
4.3446330938
 20
4.891768208
 30
0.0
 10
4.3472686277
 20
4.8893438067
 30
0.0
 10
4.3500188718
 20
4.8860506009
 30
0.0
 10
4.3523549621
 20
4.8824571132
 30
0.0
 10
4.3536416785
 20
4.879906625
 30
0.0
 10
4.3542185931
 20
4.8786038065
 30
0.0
  0
SPLINE
  5
382
100
AcDbEntity
  8
0
100
AcDbSpline
 62
7
  6
CONTINUOUS
 70
0
 71
3
 72
19
 73
15
 74
0
 42
0.0000001
 43
0.0000001
 44
0.0000000001
 40
0.0
 40
0.0
 40
0.0
 40
0.0
 40
0.0625016075
 40
0.125034161
 40
0.1875484818
 40
0.2500598694
 40
0.3125777235
 40
0.3750922424
 40
0.4376088392
 40
0.500121632
 40
0.6250776704
 40
0.7500400634
 40
0.8750260386
 40
1.0
 40
1.0
 40
1.0
 40
1.0
 10
4.3282071918
 20
4.8696996149
 30
0.0
 10
4.3289231376
 20
4.8696996149
 30
0.0
 10
4.3303562323
 20
4.8696336928
 30
0.0
 10
4.3324872211
 20
4.8693399408
 30
0.0
 10
4.3345832944
 20
4.8688554083
 30
0.0
 10
4.3366282625
 20
4.8681885028
 30
0.0
 10
4.3386087355
 20
4.8673495898
 30
0.0
 10
4.3405130958
 20
4.8663501942
 30
0.0
 10
4.3423323146
 20
4.8652034071
 30
0.0
 10
4.3446339075
 20
4.8634959108
 30
0.0
 10
4.3472697716
 20
4.8610565781
 30
0.0
 10
4.3500197225
 20
4.8577439245
 30
0.0
 10
4.3523555509
 20
4.8541292934
 30
0.0
 10
4.3536418145
 20
4.8515644457
 30
0.0
 10
4.3542185931
 20
4.8502542241
 30
0.0
  0
SPLINE
  5
383
100
AcDbEntity
  8
0
100
AcDbSpline
 62
7
  6
CONTINUOUS
 70
0
 71
3
 72
19
 73
15
 74
0
 42
0.0000001
 43
0.0000001
 44
0.0000000001
 40
0.0
 40
0.0
 40
0.0
 40
0.0
 40
0.0625929843
 40
0.1252130937
 40
0.1878074617
 40
0.2503882866
 40
0.3129624876
 40
0.3755184354
 40
0.4380604355
 40
0.5005820875
 40
0.6255067716
 40
0.7503764532
 40
0.875216291
 40
1.0
 40
1.0
 40
1.0
 40
1.0
 10
4.3282071918
 20
4.8376669966
 30
0.0
 10
4.328923132
 20
4.8376669966
 30
0.0
 10
4.330356165
 20
4.8376013262
 30
0.0
 10
4.3324870941
 20
4.837308692
 30
0.0
 10
4.3345831179
 20
4.8368260004
 30
0.0
 10
4.3366280509
 20
4.8361616234
 30
0.0
 10
4.338608503
 20
4.835325884
 30
0.0
 10
4.3405128565
 20
4.8343302603
 30
0.0
 10
4.3423320795
 20
4.833187792
 30
0.0
 10
4.3446333898
 20
4.8314869371
 30
0.0
 10
4.3472690443
 20
4.8290571097
 30
0.0
 10
4.3500191819
 20
4.8257568359
 30
0.0
 10
4.3523551769
 20
4.8221556642
 30
0.0
 10
4.3536417281
 20
4.8195999576
 30
0.0
 10
4.3542185931
 20
4.8182944488
 30
0.0
  0
SPLINE
  5
384
100
AcDbEntity
  8
0
100
AcDbSpline
 62
7
  6
CONTINUOUS
 70
0
 71
3
 72
15
 73
11
 74
0
 42
0.0000001
 43
0.0000001
 44
0.0000000001
 40
0.0
 40
0.0
 40
0.0
 40
0.0
 40
0.1155557129
 40
0.2334218869
 40
0.3539902814
 40
0.4776101623
 40
0.6044142802
 40
0.7342288976
 40
0.8664362409
 40
1.0
 40
1.0
 40
1.0
 40
1.0
 10
4.3542185931
 20
3.9927736197
 30
0.0
 10
4.3536368485
 20
3.9916828398
 30
0.0
 10
4.3523345943
 20
3.9895444756
 30
0.0
 10
4.3499907517
 20
3.9865586435
 30
0.0
 10
4.3472323415
 20
3.9838245491
 30
0.0
 10
4.3440649974
 20
3.9814134506
 30
0.0
 10
4.3405119007
 20
3.979406062
 30
0.0
 10
4.3366232866
 20
3.9778881074
 30
0.0
 10
4.3324839562
 20
3.9769385284
 30
0.0
 10
4.3296360569
 20
3.9767232183
 30
0.0
 10
4.3282071918
 20
3.9767232183
 30
0.0
  0
SPLINE
  5
385
100
AcDbEntity
  8
0
100
AcDbSpline
 62
7
  6
CONTINUOUS
 70
0
 71
3
 72
15
 73
11
 74
0
 42
0.0000001
 43
0.0000001
 44
0.0000000001
 40
0.0
 40
0.0
 40
0.0
 40
0.0
 40
0.1184671095
 40
0.2385149543
 40
0.3604126266
 40
0.4844216058
 40
0.6106479934
 40
0.7389868472
 40
0.8690118274
 40
1.0
 40
1.0
 40
1.0
 40
1.0
 10
4.3542185931
 20
3.9997565852
 30
0.0
 10
4.3536385336
 20
3.9986012761
 30
0.0
 10
4.3523415691
 20
3.9963372821
 30
0.0
 10
4.3500001522
 20
3.9931661115
 30
0.0
 10
4.347243973
 20
3.9902613566
 30
0.0
 10
4.3440780522
 20
3.9876985371
 30
0.0
 10
4.340524843
 20
3.9855635377
 30
0.0
 10
4.3366338999
 20
3.983947997
 30
0.0
 10
4.3324901014
 20
3.9829367599
 30
0.0
 10
4.329636578
 20
3.9827072764
 30
0.0
 10
4.3282071918
 20
3.9827072764
 30
0.0
  0
SPLINE
  5
386
100
AcDbEntity
  8
0
100
AcDbSpline
 62
7
  6
CONTINUOUS
 70
0
 71
3
 72
18
 73
14
 74
0
 42
0.0000001
 43
0.0000001
 44
0.0000000001
 40
0.0
 40
0.0
 40
0.0
 40
0.0
 40
0.1207868111
 40
0.2425794017
 40
0.3655415648
 40
0.4898542041
 40
0.5525828511
 40
0.6156752697
 40
0.6791124669
 40
0.742874268
 40
0.8069102328
 40
0.8711757251
 40
1.0
 40
1.0
 40
1.0
 40
1.0
 10
4.3542185931
 20
4.0113201149
 30
0.0
 10
4.3536397877
 20
4.0101108633
 30
0.0
 10
4.3523468638
 20
4.0077420125
 30
0.0
 10
4.3500073787
 20
4.0044161558
 30
0.0
 10
4.347253495
 20
4.0013692045
 30
0.0
 10
4.3446225774
 20
3.9991334908
 30
0.0
 10
4.3423272309
 20
3.9975680793
 30
0.0
 10
4.340507981
 20
3.9965138614
 30
0.0
 10
4.3386037984
 20
3.9955952882
 30
0.0
 10
4.3366238718
 20
3.9948243582
 30
0.0
 10
4.3345794334
 20
3.9942115851
 30
0.0
 10
4.3317858044
 20
3.9936178216
 30
0.0
 10
4.3296370373
 20
3.9934360929
 30
0.0
 10
4.3282071918
 20
3.9934360929
 30
0.0
  0
SPLINE
  5
387
100
AcDbEntity
  8
0
100
AcDbSpline
 62
7
  6
CONTINUOUS
 70
0
 71
3
 72
20
 73
16
 74
0
 42
0.0000001
 43
0.0000001
 44
0.0000000001
 40
0.0
 40
0.0
 40
0.0
 40
0.0
 40
0.1225779668
 40
0.2457274437
 40
0.3695277551
 40
0.4317438513
 40
0.494165482
 40
0.5567889628
 40
0.6196221319
 40
0.6826520938
 40
0.7458700016
 40
0.8092430175
 40
0.8727496419
 40
0.9363668311
 40
1.0
 40
1.0
 40
1.0
 40
1.0
 10
4.3542185931
 20
4.0273528459
 30
0.0
 10
4.3536406948
 20
4.026100765
 30
0.0
 10
4.3523506509
 20
4.0236486776
 30
0.0
 10
4.3500130841
 20
4.0202004825
 30
0.0
 10
4.3477216676
 20
4.0175701847
 30
0.0
 10
4.3456863652
 20
4.0156520416
 30
0.0
 10
4.3440563915
 20
4.0143145422
 30
0.0
 10
4.3423293654
 20
4.0130927628
 30
0.0
 10
4.3405101559
 20
4.0119993243
 30
0.0
 10
4.3386058829
 20
4.0110464513
 30
0.0
 10
4.3366256826
 20
4.0102466905
 30
0.0
 10
4.3345811508
 20
4.0096109679
 30
0.0
 10
4.3324856845
 20
4.0091491346
 30
0.0
 10
4.3303554188
 20
4.0088691634
 30
0.0
 10
4.3289230698
 20
4.0088063436
 30
0.0
 10
4.3282071918
 20
4.0088063436
 30
0.0
  0
SPLINE
  5
388
100
AcDbEntity
  8
0
100
AcDbSpline
 62
7
  6
CONTINUOUS
 70
0
 71
3
 72
19
 73
15
 74
0
 42
0.0000001
 43
0.0000001
 44
0.0000000001
 40
0.0
 40
0.0
 40
0.0
 40
0.0
 40
0.123882484
 40
0.2480312054
 40
0.3724636077
 40
0.4972417975
 40
0.5598061917
 40
0.6224689813
 40
0.6852212347
 40
0.7480619426
 40
0.8109707833
 40
0.8739429621
 40
0.9369760937
 40
1.0
 40
1.0
 40
1.0
 40
1.0
 10
4.3542185931
 20
4.047700374
 30
0.0
 10
4.3536413125
 20
4.0464170005
 30
0.0
 10
4.3523533813
 20
4.0439042366
 30
0.0
 10
4.3500165978
 20
4.0403663062
 30
0.0
 10
4.3472655867
 20
4.0371242073
 30
0.0
 10
4.3446309441
 20
4.034739025
 30
0.0
 10
4.3423309737
 20
4.033069352
 30
0.0
 10
4.3405117347
 20
4.031947171
 30
0.0
 10
4.3386074157
 20
4.0309692642
 30
0.0
 10
4.3366270639
 20
4.0301484297
 30
0.0
 10
4.3345822961
 20
4.0294959267
 30
0.0
 10
4.332486504
 20
4.029021879
 30
0.0
 10
4.3303558521
 20
4.0287344932
 30
0.0
 10
4.3289231059
 20
4.0286700043
 30
0.0
 10
4.3282071918
 20
4.0286700043
 30
0.0
  0
SPLINE
  5
389
100
AcDbEntity
  8
0
100
AcDbSpline
 62
7
  6
CONTINUOUS
 70
0
 71
3
 72
19
 73
15
 74
0
 42
0.0000001
 43
0.0000001
 44
0.0000000001
 40
0.0
 40
0.0
 40
0.0
 40
0.0
 40
0.1246748377
 40
0.2494310957
 40
0.3742477684
 40
0.4991545629
 40
0.5616813051
 40
0.6242378404
 40
0.6868174949
 40
0.7494239413
 40
0.8120444866
 40
0.8746846273
 40
0.937354791
 40
1.0
 40
1.0
 40
1.0
 40
1.0
 10
4.3542185931
 20
4.0721667415
 30
0.0
 10
4.3536416786
 20
4.0708639231
 30
0.0
 10
4.3523549623
 20
4.0683134349
 30
0.0
 10
4.350018872
 20
4.0647199476
 30
0.0
 10
4.3472686285
 20
4.061426742
 30
0.0
 10
4.344633095
 20
4.059002341
 30
0.0
 10
4.3423319468
 20
4.057305277
 30
0.0
 10
4.340512722
 20
4.056165274
 30
0.0
 10
4.3386083722
 20
4.0551718036
 30
0.0
 10
4.3366279319
 20
4.0543378753
 30
0.0
 10
4.3345830185
 20
4.0536749414
 30
0.0
 10
4.3324870225
 20
4.0531933003
 30
0.0
 10
4.3303561269
 20
4.0529013042
 30
0.0
 10
4.3289231288
 20
4.0528357773
 30
0.0
 10
4.3282071918
 20
4.0528357773
 30
0.0
  0
SPLINE
  5
38A
100
AcDbEntity
  8
0
100
AcDbSpline
 62
7
  6
CONTINUOUS
 70
0
 71
3
 72
19
 73
15
 74
0
 42
0.0000001
 43
0.0000001
 44
0.0000000001
 40
0.0
 40
0.0
 40
0.0
 40
0.0
 40
0.1249739506
 40
0.2499599269
 40
0.3749222965
 40
0.4998783179
 40
0.5623911058
 40
0.6249076867
 40
0.6874222049
 40
0.7499400772
 40
0.8124514845
 40
0.8749658217
 40
0.9374983887
 40
1.0
 40
1.0
 40
1.0
 40
1.0
 10
4.3542185931
 20
4.1005163239
 30
0.0
 10
4.3536418145
 20
4.0992061024
 30
0.0
 10
4.352355551
 20
4.0966412547
 30
0.0
 10
4.3500197227
 20
4.0930266241
 30
0.0
 10
4.3472697724
 20
4.0897139706
 30
0.0
 10
4.3446339087
 20
4.0872746382
 30
0.0
 10
4.3423323162
 20
4.085567142
 30
0.0
 10
4.3405130979
 20
4.0844203547
 30
0.0
 10
4.3386087375
 20
4.0834209593
 30
0.0
 10
4.3366282642
 20
4.0825820458
 30
0.0
 10
4.3345832956
 20
4.08191514
 30
0.0
 10
4.3324872217
 20
4.0814306072
 30
0.0
 10
4.3303562326
 20
4.0811368552
 30
0.0
 10
4.3289231377
 20
4.081070933
 30
0.0
 10
4.3282071918
 20
4.081070933
 30
0.0
  0
SPLINE
  5
38B
100
AcDbEntity
  8
0
100
AcDbSpline
 62
7
  6
CONTINUOUS
 70
0
 71
3
 72
19
 73
15
 74
0
 42
0.0000001
 43
0.0000001
 44
0.0000000001
 40
0.0
 40
0.0
 40
0.0
 40
0.0
 40
0.1247836982
 40
0.2496235372
 40
0.3744931953
 40
0.4994178625
 40
0.5619395096
 40
0.6244814936
 40
0.6870374408
 40
0.74961166
 40
0.8121925046
 40
0.874786889
 40
0.9374070118
 40
1.0
 40
1.0
 40
1.0
 40
1.0
 10
4.3542185931
 20
4.1324760992
 30
0.0
 10
4.3536417282
 20
4.1311705905
 30
0.0
 10
4.3523551771
 20
4.1286148839
 30
0.0
 10
4.3500191821
 20
4.1250137126
 30
0.0
 10
4.3472690451
 20
4.121713439
 30
0.0
 10
4.344633391
 20
4.1192836119
 30
0.0
 10
4.3423320811
 20
4.1175827571
 30
0.0
 10
4.3405128586
 20
4.1164402886
 30
0.0
 10
4.3386085049
 20
4.1154446651
 30
0.0
 10
4.3366280526
 20
4.1146089251
 30
0.0
 10
4.334583119
 20
4.1139445479
 30
0.0
 10
4.3324870948
 20
4.113461856
 30
0.0
 10
4.3303561652
 20
4.1131692218
 30
0.0
 10
4.328923132
 20
4.1131035513
 30
0.0
 10
4.3282071918
 20
4.1131035513
 30
0.0
  0
SPLINE
  5
38C
100
AcDbEntity
  8
0
100
AcDbSpline
 62
7
  6
CONTINUOUS
 70
0
 71
3
 72
19
 73
15
 74
0
 42
0.0000001
 43
0.0000001
 44
0.0000000001
 40
0.0
 40
0.0
 40
0.0
 40
0.0
 40
0.1241016076
 40
0.2484181973
 40
0.3729566239
 40
0.4977701183
 40
0.5603240007
 40
0.6229573463
 40
0.685661861
 40
0.7484378389
 40
0.8112670704
 40
0.8741476013
 40
0.9370805762
 40
1.0
 40
1.0
 40
1.0
 40
1.0
 10
4.3542185931
 20
4.1677382773
 30
0.0
 10
4.3536414146
 20
4.1664495501
 30
0.0
 10
4.3523538216
 20
4.1639263987
 30
0.0
 10
4.3500172298
 20
4.1603731689
 30
0.0
 10
4.3472664296
 20
4.1571169955
 30
0.0
 10
4.3446315382
 20
4.1547210154
 30
0.0
 10
4.342331242
 20
4.1530438025
 30
0.0
 10
4.3405120065
 20
4.1519167143
 30
0.0
 10
4.3386076786
 20
4.1509345224
 30
0.0
 10
4.3366273022
 20
4.1501100829
 30
0.0
 10
4.3345824942
 20
4.1494547082
 30
0.0
 10
4.332486646
 20
4.1489785701
 30
0.0
 10
4.3303559274
 20
4.1486899152
 30
0.0
 10
4.3289231122
 20
4.1486251407
 30
0.0
 10
4.3282071918
 20
4.1486251407
 30
0.0
  0
LINE
  5
38D
100
AcDbEntity
  8
0
100
AcDbLine
 62
7
  6
CONTINUOUS
 10
4.3282071918
 20
4.167950402
 11
4.3542185931
 21
4.1677382773
  0
SPLINE
  5
38E
100
AcDbEntity
  8
0
100
AcDbSpline
 62
7
  6
CONTINUOUS
 70
0
 71
3
 72
20
 73
16
 74
0
 42
0.0000001
 43
0.0000001
 44
0.0000000001
 40
0.0
 40
0.0
 40
0.0
 40
0.0
 40
0.1229100071
 40
0.246312895
 40
0.3702722453
 40
0.4325283046
 40
0.4949619048
 40
0.5575688062
 40
0.6203569684
 40
0.6833145437
 40
0.7464347153
 40
0.8096878584
 40
0.8730567412
 40
0.9365235813
 40
1.0
 40
1.0
 40
1.0
 40
1.0
 10
4.3542185931
 20
4.2059632641
 30
0.0
 10
4.3536408554
 20
4.2047032196
 30
0.0
 10
4.3523513389
 20
4.2022356722
 30
0.0
 10
4.3500140631
 20
4.1987647025
 30
0.0
 10
4.3477224112
 20
4.1961163868
 30
0.0
 10
4.3456867213
 20
4.1941850793
 30
0.0
 10
4.3440567753
 20
4.1928386781
 30
0.0
 10
4.342329767
 20
4.1916087548
 30
0.0
 10
4.3405105598
 20
4.1905080148
 30
0.0
 10
4.3386062712
 20
4.1895487671
 30
0.0
 10
4.3366260325
 20
4.1887436445
 30
0.0
 10
4.3345814402
 20
4.1881036517
 30
0.0
 10
4.3324858913
 20
4.1876387107
 30
0.0
 10
4.330355528
 20
4.1873568531
 30
0.0
 10
4.3289230789
 20
4.1872936087
 30
0.0
 10
4.3282071918
 20
4.1872936087
 30
0.0
  0
SPLINE
  5
38F
100
AcDbEntity
  8
0
100
AcDbSpline
 62
7
  6
CONTINUOUS
 70
0
 71
3
 72
18
 73
14
 74
0
 42
0.0000001
 43
0.0000001
 44
0.0000000001
 40
0.0
 40
0.0
 40
0.0
 40
0.0
 40
0.1634939321
 40
0.3217530906
 40
0.4704059365
 40
0.5401048348
 40
0.6063352404
 40
0.7277259506
 40
0.8337858821
 40
0.8810228055
 40
0.9244390699
 40
0.9640800739
 40
1.0
 40
1.0
 40
1.0
 40
1.0
 10
4.3282071918
 20
4.208080349
 30
0.0
 10
4.3296320615
 20
4.208080349
 30
0.0
 10
4.3324362652
 20
4.2080526807
 30
0.0
 10
4.3365343384
 20
4.2079300903
 30
0.0
 10
4.3398125998
 20
4.2077632911
 30
0.0
 10
4.3422870511
 20
4.2075941987
 30
0.0
 10
4.344522448
 20
4.2074143484
 30
0.0
 10
4.3470697447
 20
4.207161941
 30
0.0
 10
4.3494445731
 20
4.2068563148
 30
0.0
 10
4.3511382693
 20
4.2065901926
 30
0.0
 10
4.3522563158
 20
4.2063911732
 30
0.0
 10
4.353272801
 20
4.2061859432
 30
0.0
 10
4.3539147026
 20
4.206038422
 30
0.0
 10
4.3542185931
 20
4.2059632641
 30
0.0
  0
SPLINE
  5
390
100
AcDbEntity
  8
0
100
AcDbSpline
 62
7
  6
CONTINUOUS
 70
0
 71
3
 72
19
 73
15
 74
0
 42
0.0000001
 43
0.0000001
 44
0.0000000001
 40
0.0
 40
0.0
 40
0.0
 40
0.0
 40
0.1212219167
 40
0.2433413572
 40
0.3665014538
 40
0.4908667925
 40
0.5535647486
 40
0.6165885237
 40
0.6799206918
 40
0.7435439184
 40
0.8074121278
 40
0.8714863826
 40
0.9357222542
 40
1.0
 40
1.0
 40
1.0
 40
1.0
 10
4.3542185931
 20
4.2467829322
 30
0.0
 10
4.3536400169
 20
4.245563186
 30
0.0
 10
4.3523478363
 20
4.2431739473
 30
0.0
 10
4.3500087385
 20
4.2398180347
 30
0.0
 10
4.347255255
 20
4.236743421
 30
0.0
 10
4.3446237769
 20
4.2344865497
 30
0.0
 10
4.3423277642
 20
4.232906392
 30
0.0
 10
4.3405085084
 20
4.2318425491
 30
0.0
 10
4.3386043174
 20
4.2309155753
 30
0.0
 10
4.3366242745
 20
4.2301375785
 30
0.0
 10
4.3345799905
 20
4.2295191906
 30
0.0
 10
4.3324848573
 20
4.2290699699
 30
0.0
 10
4.3303549824
 20
4.2287976542
 30
0.0
 10
4.3289230335
 20
4.228736557
 30
0.0
 10
4.3282071918
 20
4.228736557
 30
0.0
  0
SPLINE
  5
391
100
AcDbEntity
  8
0
100
AcDbSpline
 62
7
  6
CONTINUOUS
 70
0
 71
3
 72
18
 73
14
 74
0
 42
0.0000001
 43
0.0000001
 44
0.0000000001
 40
0.0
 40
0.0
 40
0.0
 40
0.0
 40
0.1614351978
 40
0.3178649166
 40
0.4651247137
 40
0.600271069
 40
0.7216440804
 40
0.7769375808
 40
0.8286021661
 40
0.8766739007
 40
0.9212135287
 40
0.9622935024
 40
1.0
 40
1.0
 40
1.0
 40
1.0
 10
4.3282071918
 20
4.2507845886
 30
0.0
 10
4.3296322437
 20
4.2507845886
 30
0.0
 10
4.3324384611
 20
4.2507322241
 30
0.0
 10
4.3365387081
 20
4.2505002772
 30
0.0
 10
4.3403957678
 20
4.2501290505
 30
0.0
 10
4.343927124
 20
4.2496373853
 30
0.0
 10
4.3466338406
 20
4.2491302538
 30
0.0
 10
4.3485979459
 20
4.2486766077
 30
0.0
 10
4.3499218905
 20
4.2483293398
 30
0.0
 10
4.35114293
 20
4.2479664554
 30
0.0
 10
4.352261677
 20
4.2475898495
 30
0.0
 10
4.3532789652
 20
4.2472013453
 30
0.0
 10
4.3539170635
 20
4.2469238899
 30
0.0
 10
4.3542185931
 20
4.2467829322
 30
0.0
  0
SPLINE
  5
392
100
AcDbEntity
  8
0
100
AcDbSpline
 62
7
  6
CONTINUOUS
 70
0
 71
3
 72
15
 73
11
 74
0
 42
0.0000001
 43
0.0000001
 44
0.0000000001
 40
0.0
 40
0.0
 40
0.0
 40
0.0
 40
0.1190378282
 40
0.2395158504
 40
0.3616781147
 40
0.4857673454
 40
0.611882638
 40
0.7399311227
 40
0.8695236763
 40
1.0
 40
1.0
 40
1.0
 40
1.0
 10
4.3542185931
 20
4.2898041659
 30
0.0
 10
4.3536388461
 20
4.2886359345
 30
0.0
 10
4.352342877
 20
4.2863468076
 30
0.0
 10
4.3500019449
 20
4.2831385683
 30
0.0
 10
4.3472462329
 20
4.280199683
 30
0.0
 10
4.3440806382
 20
4.277606509
 30
0.0
 10
4.3405274544
 20
4.2754459521
 30
0.0
 10
4.3366360746
 20
4.2738108345
 30
0.0
 10
4.3324913737
 20
4.2727872051
 30
0.0
 10
4.329636686
 20
4.2725548673
 30
0.0
 10
4.3282071918
 20
4.2725548673
 30
0.0
  0
SPLINE
  5
393
100
AcDbEntity
  8
0
100
AcDbSpline
 62
7
  6
CONTINUOUS
 70
0
 71
3
 72
15
 73
11
 74
0
 42
0.0000001
 43
0.0000001
 44
0.0000000001
 40
0.0
 40
0.0
 40
0.0
 40
0.0
 40
0.1584273961
 40
0.3121948796
 40
0.4574483187
 40
0.5915039205
 40
0.7129151977
 40
0.8212158978
 40
0.9166691074
 40
1.0
 40
1.0
 40
1.0
 40
1.0
 10
4.3282071918
 20
4.2956518556
 30
0.0
 10
4.3296325311
 20
4.2956518556
 30
0.0
 10
4.3324419189
 20
4.2955751898
 30
0.0
 10
4.336545534
 20
4.2952356798
 30
0.0
 10
4.3404060522
 20
4.294692192
 30
0.0
 10
4.3439411225
 20
4.2939722394
 30
0.0
 10
4.3470999054
 20
4.2931059828
 30
0.0
 10
4.3498583484
 20
4.2921219737
 30
0.0
 10
4.3522098829
 20
4.2910454352
 30
0.0
 10
4.3535995394
 20
4.2902270599
 30
0.0
 10
4.3542185931
 20
4.2898041659
 30
0.0
  0
SPLINE
  5
394
100
AcDbEntity
  8
0
100
AcDbSpline
 62
7
  6
CONTINUOUS
 70
0
 71
3
 72
15
 73
11
 74
0
 42
0.0000001
 43
0.0000001
 44
0.0000000001
 40
0.0
 40
0.0
 40
0.0
 40
0.0
 40
0.1162516877
 40
0.2346374182
 40
0.3555204566
 40
0.4792302903
 40
0.6058946803
 40
0.7353573766
 40
0.8670465871
 40
1.0
 40
1.0
 40
1.0
 40
1.0
 10
4.3542185931
 20
4.334612647
 30
0.0
 10
4.3536372657
 20
4.3335066426
 30
0.0
 10
4.3523363088
 20
4.3313386187
 30
0.0
 10
4.3499930378
 20
4.328309025
 30
0.0
 10
4.3472351365
 20
4.325534634
 30
0.0
 10
4.344068096
 20
4.3230877206
 30
0.0
 10
4.3405149366
 20
4.3210502296
 30
0.0
 10
4.3366257519
 20
4.3195092792
 30
0.0
 10
4.3324853742
 20
4.3185451873
 30
0.0
 10
4.329636177
 20
4.3183265452
 30
0.0
 10
4.3282071918
 20
4.3183265452
 30
0.0
  0
SPLINE
  5
395
100
AcDbEntity
  8
0
100
AcDbSpline
 62
7
  6
CONTINUOUS
 70
0
 71
3
 72
15
 73
11
 74
0
 42
0.0000001
 43
0.0000001
 44
0.0000000001
 40
0.0
 40
0.0
 40
0.0
 40
0.0
 40
0.1547769994
 40
0.3053277145
 40
0.4481839663
 40
0.5809772445
 40
0.7025063322
 40
0.8124979767
 40
0.9113761171
 40
1.0
 40
1.0
 40
1.0
 40
1.0
 10
4.3282071918
 20
4.3422500536
 30
0.0
 10
4.3296329123
 20
4.3422500536
 30
0.0
 10
4.3324465022
 20
4.3421496744
 30
0.0
 10
4.3365544668
 20
4.3417052864
 30
0.0
 10
4.3404192828
 20
4.3409938151
 30
0.0
 10
4.3439584763
 20
4.340051113
 30
0.0
 10
4.3471212332
 20
4.3389164265
 30
0.0
 10
4.3498833983
 20
4.3376268064
 30
0.0
 10
4.3522380228
 20
4.336215061
 30
0.0
 10
4.3536094464
 20
4.335156131
 30
0.0
 10
4.3542185931
 20
4.334612647
 30
0.0
  0
SPLINE
  5
396
100
AcDbEntity
  8
0
100
AcDbSpline
 62
7
  6
CONTINUOUS
 70
0
 71
3
 72
15
 73
11
 74
0
 42
0.0000001
 43
0.0000001
 44
0.0000000001
 40
0.0
 40
0.0
 40
0.0
 40
0.0
 40
0.1128966785
 40
0.228789553
 40
0.3481741714
 40
0.4714679761
 40
0.5988149279
 40
0.7299686341
 40
0.8641348513
 40
1.0
 40
1.0
 40
1.0
 40
1.0
 10
4.3542185931
 20
4.3807768455
 30
0.0
 10
4.353635165
 20
4.3797431823
 30
0.0
 10
4.3523277563
 20
4.3777162154
 30
0.0
 10
4.3499817891
 20
4.3748947455
 30
0.0
 10
4.3472215834
 20
4.3723119937
 30
0.0
 10
4.3440532895
 20
4.3700353366
 30
0.0
 10
4.3405006244
 20
4.3681408288
 30
0.0
 10
4.3366142567
 20
4.3667089776
 30
0.0
 10
4.3324788103
 20
4.3658136581
 30
0.0
 10
4.3296356218
 20
4.3656107846
 30
0.0
 10
4.3282071918
 20
4.3656107846
 30
0.0
  0
SPLINE
  5
397
100
AcDbEntity
  8
0
100
AcDbSpline
 62
7
  6
CONTINUOUS
 70
0
 71
3
 72
15
 73
11
 74
0
 42
0.0000001
 43
0.0000001
 44
0.0000000001
 40
0.0
 40
0.0
 40
0.0
 40
0.0
 40
0.1508535457
 40
0.2979707626
 40
0.4383145901
 40
0.5698579192
 40
0.6916470504
 40
0.7488470079
 40
0.8036189947
 40
1.0
 40
1.0
 40
1.0
 40
1.0
 10
4.3282071918
 20
4.3901304166
 30
0.0
 10
4.3296333729
 20
4.3901304166
 30
0.0
 10
4.3324520289
 20
4.3900071113
 30
0.0
 10
4.3365650712
 20
4.38946146
 30
0.0
 10
4.3404346514
 20
4.3885878027
 30
0.0
 10
4.3439777641
 20
4.3874301461
 30
0.0
 10
4.346669779
 20
4.3862452305
 30
0.0
 10
4.3486149991
 20
4.385193339
 30
0.0
 10
4.3510984514
 20
4.3836684496
 30
0.0
 10
4.3529651533
 20
4.3821464646
 30
0.0
 10
4.3542185931
 20
4.3807768455
 30
0.0
  0
SPLINE
  5
398
100
AcDbEntity
  8
0
100
AcDbSpline
 62
7
  6
CONTINUOUS
 70
0
 71
3
 72
17
 73
13
 74
0
 42
0.0000001
 43
0.0000001
 44
0.0000000001
 40
0.0
 40
0.0
 40
0.0
 40
0.0
 40
0.1089526043
 40
0.2219495287
 40
0.3396228459
 40
0.4004092899
 40
0.4625305458
 40
0.5906865519
 40
0.7237839611
 40
0.7919165138
 40
0.8608395169
 40
1.0
 40
1.0
 40
1.0
 40
1.0
 10
4.3542185931
 20
4.4278521749
 30
0.0
 10
4.353632389
 20
4.4269002967
 30
0.0
 10
4.3523167213
 20
4.4250332105
 30
0.0
 10
4.3499680222
 20
4.4224476671
 30
0.0
 10
4.3476899828
 20
4.4204969156
 30
0.0
 10
4.3456717549
 20
4.419073211
 30
0.0
 10
4.3434753864
 20
4.4177241656
 30
0.0
 10
4.3404848688
 20
4.4162646122
 30
0.0
 10
4.3372728217
 20
4.4151818231
 30
0.0
 10
4.3345712977
 20
4.4145533553
 30
0.0
 10
4.331773552
 20
4.4140919283
 30
0.0
 10
4.3296350415
 20
4.4139522123
 30
0.0
 10
4.3282071918
 20
4.4139522123
 30
0.0
  0
SPLINE
  5
399
100
AcDbEntity
  8
0
100
AcDbSpline
 62
7
  6
CONTINUOUS
 70
0
 71
3
 72
15
 73
11
 74
0
 42
0.0000001
 43
0.0000001
 44
0.0000000001
 40
0.0
 40
0.0
 40
0.0
 40
0.0
 40
0.1467595285
 40
0.2903046804
 40
0.4280510255
 40
0.5583163717
 40
0.6803759506
 40
0.7942501091
 40
0.9005058736
 40
1.0
 40
1.0
 40
1.0
 40
1.0
 10
4.3282071918
 20
4.4388318305
 30
0.0
 10
4.3296338949
 20
4.4388318305
 30
0.0
 10
4.3324582717
 20
4.4386865969
 30
0.0
 10
4.3365768821
 20
4.4380442421
 30
0.0
 10
4.3404512029
 20
4.4370158409
 30
0.0
 10
4.3439980001
 20
4.4356532252
 30
0.0
 10
4.347166167
 20
4.4340131491
 30
0.0
 10
4.349931068
 20
4.4321494049
 30
0.0
 10
4.3522851853
 20
4.4301099892
 30
0.0
 10
4.353623895
 20
4.4286149634
 30
0.0
 10
4.3542185931
 20
4.4278521749
 30
0.0
  0
SPLINE
  5
39A
100
AcDbEntity
  8
0
100
AcDbSpline
 62
7
  6
CONTINUOUS
 70
0
 71
3
 72
15
 73
11
 74
0
 42
0.0000001
 43
0.0000001
 44
0.0000000001
 40
0.0
 40
0.0
 40
0.0
 40
0.0
 40
0.1044805383
 40
0.2142579537
 40
0.3300914884
 40
0.4525324018
 40
0.5816806342
 40
0.7170079198
 40
0.8571596583
 40
1.0
 40
1.0
 40
1.0
 40
1.0
 10
4.3542185931
 20
4.475385274
 30
0.0
 10
4.3536287253
 20
4.4745239161
 30
0.0
 10
4.3523027663
 20
4.4728345003
 30
0.0
 10
4.3499510177
 20
4.4705103124
 30
0.0
 10
4.3471869248
 20
4.4683850944
 30
0.0
 10
4.3440177865
 20
4.4665139963
 30
0.0
 10
4.3404682045
 20
4.4649588295
 30
0.0
 10
4.336589354
 20
4.4637847399
 30
0.0
 10
4.3324649939
 20
4.4630512252
 30
0.0
 10
4.3296344584
 20
4.462885274
 30
0.0
 10
4.3282071918
 20
4.462885274
 30
0.0
  0
SPLINE
  5
39B
100
AcDbEntity
  8
0
100
AcDbSpline
 62
7
  6
CONTINUOUS
 70
0
 71
3
 72
15
 73
11
 74
0
 42
0.0000001
 43
0.0000001
 44
0.0000000001
 40
0.0
 40
0.0
 40
0.0
 40
0.0
 40
0.142840322
 40
0.2829920215
 40
0.4183192895
 40
0.547467548
 40
0.6699084791
 40
0.7857420381
 40
0.8955194521
 40
1.0
 40
1.0
 40
1.0
 40
1.0
 10
4.3282071918
 20
4.487885274
 30
0.0
 10
4.3296344582
 20
4.487885274
 30
0.0
 10
4.3324649931
 20
4.4877193227
 30
0.0
 10
4.3365893525
 20
4.4869858084
 30
0.0
 10
4.3404682027
 20
4.485811719
 30
0.0
 10
4.3440177852
 20
4.4842565525
 30
0.0
 10
4.347186924
 20
4.4823854539
 30
0.0
 10
4.3499510174
 20
4.480260236
 30
0.0
 10
4.3523027661
 20
4.4779360478
 30
0.0
 10
4.3536287252
 20
4.4762466319
 30
0.0
 10
4.3542185931
 20
4.475385274
 30
0.0
  0
SPLINE
  5
39C
100
AcDbEntity
  8
0
100
AcDbSpline
 62
7
  6
CONTINUOUS
 70
0
 71
3
 72
15
 73
11
 74
0
 42
0.0000001
 43
0.0000001
 44
0.0000000001
 40
0.0
 40
0.0
 40
0.0
 40
0.0
 40
0.0994941171
 40
0.205749883
 40
0.3196240171
 40
0.441683578
 40
0.571948897
 40
0.7096952596
 40
0.8532404513
 40
1.0
 40
1.0
 40
1.0
 40
1.0
 10
4.3542185931
 20
4.5229183731
 30
0.0
 10
4.3536238951
 20
4.5221555846
 30
0.0
 10
4.3522851855
 20
4.5206605588
 30
0.0
 10
4.3499310684
 20
4.5186211434
 30
0.0
 10
4.3471661678
 20
4.5167573992
 30
0.0
 10
4.3439980015
 20
4.5151173235
 30
0.0
 10
4.3404512047
 20
4.5137547075
 30
0.0
 10
4.3365768836
 20
4.5127263062
 30
0.0
 10
4.3324582725
 20
4.5120839511
 30
0.0
 10
4.329633895
 20
4.5119387175
 30
0.0
 10
4.3282071918
 20
4.5119387175
 30
0.0
  0
SPLINE
  5
39D
100
AcDbEntity
  8
0
100
AcDbSpline
 62
7
  6
CONTINUOUS
 70
0
 71
3
 72
17
 73
13
 74
0
 42
0.0000001
 43
0.0000001
 44
0.0000000001
 40
0.0
 40
0.0
 40
0.0
 40
0.0
 40
0.1391604639
 40
0.2080834494
 40
0.2762159813
 40
0.4093133729
 40
0.537469404
 40
0.5995906646
 40
0.6603771216
 40
0.7780504627
 40
0.8910473859
 40
1.0
 40
1.0
 40
1.0
 40
1.0
 10
4.3282071918
 20
4.5368183356
 30
0.0
 10
4.3296350413
 20
4.5368183356
 30
0.0
 10
4.3317735514
 20
4.5366786197
 30
0.0
 10
4.3345712966
 20
4.5362171928
 30
0.0
 10
4.33727282
 20
4.5355887254
 30
0.0
 10
4.340484867
 20
4.5345059363
 30
0.0
 10
4.3434753849
 20
4.5330463832
 30
0.0
 10
4.3456717538
 20
4.5316973377
 30
0.0
 10
4.3476899821
 20
4.5302736329
 30
0.0
 10
4.3499680219
 20
4.5283228813
 30
0.0
 10
4.3523167211
 20
4.5257373376
 30
0.0
 10
4.3536323889
 20
4.5238702514
 30
0.0
 10
4.3542185931
 20
4.5229183731
 30
0.0
  0
SPLINE
  5
39E
100
AcDbEntity
  8
0
100
AcDbSpline
 62
7
  6
CONTINUOUS
 70
0
 71
3
 72
15
 73
11
 74
0
 42
0.0000001
 43
0.0000001
 44
0.0000000001
 40
0.0
 40
0.0
 40
0.0
 40
0.0
 40
0.1963809977
 40
0.2511529791
 40
0.3083529174
 40
0.4301420303
 40
0.561685331
 40
0.702029176
 40
0.8491464335
 40
1.0
 40
1.0
 40
1.0
 40
1.0
 10
4.3542185931
 20
4.5699937025
 30
0.0
 10
4.3529651534
 20
4.5686240834
 30
0.0
 10
4.3510984515
 20
4.5671020986
 30
0.0
 10
4.3486149995
 20
4.5655772092
 30
0.0
 10
4.3466697799
 20
4.5645253178
 30
0.0
 10
4.3439777655
 20
4.5633404025
 30
0.0
 10
4.3404346532
 20
4.5621827456
 30
0.0
 10
4.3365650727
 20
4.5613090882
 30
0.0
 10
4.3324520297
 20
4.5607634366
 30
0.0
 10
4.329633373
 20
4.5606401313
 30
0.0
 10
4.3282071918
 20
4.5606401313
 30
0.0
  0
SPLINE
  5
39F
100
AcDbEntity
  8
0
100
AcDbSpline
 62
7
  6
CONTINUOUS
 70
0
 71
3
 72
15
 73
11
 74
0
 42
0.0000001
 43
0.0000001
 44
0.0000000001
 40
0.0
 40
0.0
 40
0.0
 40
0.0
 40
0.1358651299
 40
0.2700313094
 40
0.4011849979
 40
0.5285319737
 40
0.6518257958
 40
0.7712104382
 40
0.8871033114
 40
1.0
 40
1.0
 40
1.0
 40
1.0
 10
4.3282071918
 20
4.5851597634
 30
0.0
 10
4.3296356216
 20
4.5851597634
 30
0.0
 10
4.3324788095
 20
4.5849568898
 30
0.0
 10
4.3366142552
 20
4.5840615708
 30
0.0
 10
4.3405006225
 20
4.5826297198
 30
0.0
 10
4.3440532882
 20
4.5807352123
 30
0.0
 10
4.3472215825
 20
4.5784585548
 30
0.0
 10
4.3499817888
 20
4.5758758029
 30
0.0
 10
4.3523277562
 20
4.5730543327
 30
0.0
 10
4.353635165
 20
4.5710273657
 30
0.0
 10
4.3542185931
 20
4.5699937025
 30
0.0
  0
SPLINE
  5
3A0
100
AcDbEntity
  8
0
100
AcDbSpline
 62
7
  6
CONTINUOUS
 70
0
 71
3
 72
15
 73
11
 74
0
 42
0.0000001
 43
0.0000001
 44
0.0000000001
 40
0.0
 40
0.0
 40
0.0
 40
0.0
 40
0.0886238743
 40
0.1875020162
 40
0.2974936357
 40
0.419022705
 40
0.5518159535
 40
0.6946722229
 40
0.8452229793
 40
1.0
 40
1.0
 40
1.0
 40
1.0
 10
4.3542185931
 20
4.6161579009
 30
0.0
 10
4.3536094464
 20
4.615614417
 30
0.0
 10
4.3522380229
 20
4.614555487
 30
0.0
 10
4.3498833986
 20
4.6131437418
 30
0.0
 10
4.347121234
 20
4.6118541216
 30
0.0
 10
4.3439584777
 20
4.6107194355
 30
0.0
 10
4.3404192846
 20
4.6097767331
 30
0.0
 10
4.3365544683
 20
4.6090652617
 30
0.0
 10
4.332446503
 20
4.6086208735
 30
0.0
 10
4.3296329125
 20
4.6085204943
 30
0.0
 10
4.3282071918
 20
4.6085204943
 30
0.0
  0
SPLINE
  5
3A1
100
AcDbEntity
  8
0
100
AcDbSpline
 62
7
  6
CONTINUOUS
 70
0
 71
3
 72
15
 73
11
 74
0
 42
0.0000001
 43
0.0000001
 44
0.0000000001
 40
0.0
 40
0.0
 40
0.0
 40
0.0
 40
0.1329534217
 40
0.2646426392
 40
0.3941053358
 40
0.5207697193
 40
0.6444795486
 40
0.7653625848
 40
0.883748314
 40
1.0
 40
1.0
 40
1.0
 40
1.0
 10
4.3282071918
 20
4.6324440027
 30
0.0
 10
4.3296361771
 20
4.6324440027
 30
0.0
 10
4.3324853745
 20
4.6322253607
 30
0.0
 10
4.3366257523
 20
4.6312612686
 30
0.0
 10
4.340514937
 20
4.6297203182
 30
0.0
 10
4.3440680962
 20
4.6276828272
 30
0.0
 10
4.3472351367
 20
4.6252359138
 30
0.0
 10
4.3499930379
 20
4.6224615229
 30
0.0
 10
4.3523363088
 20
4.6194319292
 30
0.0
 10
4.3536372657
 20
4.6172639053
 30
0.0
 10
4.3542185931
 20
4.6161579009
 30
0.0
  0
SPLINE
  5
3A2
100
AcDbEntity
  8
0
100
AcDbSpline
 62
7
  6
CONTINUOUS
 70
0
 71
3
 72
15
 73
11
 74
0
 42
0.0000001
 43
0.0000001
 44
0.0000000001
 40
0.0
 40
0.0
 40
0.0
 40
0.0
 40
0.0833308843
 40
0.1787840954
 40
0.2870847702
 40
0.4084960289
 40
0.5425515998
 40
0.6878050566
 40
0.841572582
 40
1.0
 40
1.0
 40
1.0
 40
1.0
 10
4.3542185931
 20
4.6609663821
 30
0.0
 10
4.3535995395
 20
4.6605434881
 30
0.0
 10
4.3522098831
 20
4.6597251127
 30
0.0
 10
4.3498583487
 20
4.6586485745
 30
0.0
 10
4.3470999062
 20
4.6576645654
 30
0.0
 10
4.3439411239
 20
4.656798309
 30
0.0
 10
4.340406054
 20
4.6560783562
 30
0.0
 10
4.3365455355
 20
4.6555348684
 30
0.0
 10
4.3324419197
 20
4.6551953582
 30
0.0
 10
4.3296325313
 20
4.6551186924
 30
0.0
 10
4.3282071918
 20
4.6551186924
 30
0.0
  0
SPLINE
  5
3A3
100
AcDbEntity
  8
0
100
AcDbSpline
 62
7
  6
CONTINUOUS
 70
0
 71
3
 72
15
 73
11
 74
0
 42
0.0000001
 43
0.0000001
 44
0.0000000001
 40
0.0
 40
0.0
 40
0.0
 40
0.0
 40
0.1304763057
 40
0.2600688224
 40
0.3881172894
 40
0.5142326044
 40
0.6383218523
 40
0.7604841402
 40
0.8809621613
 40
1.0
 40
1.0
 40
1.0
 40
1.0
 10
4.3282071918
 20
4.6782156807
 30
0.0
 10
4.3296366858
 20
4.6782156807
 30
0.0
 10
4.3324913729
 20
4.6779833429
 30
0.0
 10
4.3366360731
 20
4.676959714
 30
0.0
 10
4.3405274525
 20
4.6753245965
 30
0.0
 10
4.3440806369
 20
4.6731640401
 30
0.0
 10
4.3472462321
 20
4.6705708656
 30
0.0
 10
4.3500019446
 20
4.6676319801
 30
0.0
 10
4.3523428768
 20
4.6644237404
 30
0.0
 10
4.3536388461
 20
4.6621346135
 30
0.0
 10
4.3542185931
 20
4.6609663821
 30
0.0
  0
SPLINE
  5
3A4
100
AcDbEntity
  8
0
100
AcDbSpline
 62
7
  6
CONTINUOUS
 70
0
 71
3
 72
18
 73
14
 74
0
 42
0.0000001
 43
0.0000001
 44
0.0000000001
 40
0.0
 40
0.0
 40
0.0
 40
0.0
 40
0.0377064945
 40
0.0787864633
 40
0.123326091
 40
0.1713978274
 40
0.2230624068
 40
0.2783558876
 40
0.3997288802
 40
0.5348752037
 40
0.6821350185
 40
0.83856478
 40
1.0
 40
1.0
 40
1.0
 40
1.0
 10
4.3542185931
 20
4.7039876157
 30
0.0
 10
4.3539170635
 20
4.7038466581
 30
0.0
 10
4.3532789653
 20
4.7035692027
 30
0.0
 10
4.3522616771
 20
4.7031806985
 30
0.0
 10
4.3511429302
 20
4.7028040926
 30
0.0
 10
4.3499218907
 20
4.7024412082
 30
0.0
 10
4.3485979463
 20
4.7020939404
 30
0.0
 10
4.3466338415
 20
4.7016402943
 30
0.0
 10
4.3439271255
 20
4.7011331629
 30
0.0
 10
4.3403957696
 20
4.7006414976
 30
0.0
 10
4.3365387096
 20
4.7002702709
 30
0.0
 10
4.3324384619
 20
4.7000383238
 30
0.0
 10
4.3296322439
 20
4.6999859593
 30
0.0
 10
4.3282071918
 20
4.6999859593
 30
0.0
  0
SPLINE
  5
3A5
100
AcDbEntity
  8
0
100
AcDbSpline
 62
7
  6
CONTINUOUS
 70
0
 71
3
 72
19
 73
15
 74
0
 42
0.0000001
 43
0.0000001
 44
0.0000000001
 40
0.0
 40
0.0
 40
0.0
 40
0.0
 40
0.0642777419
 40
0.1285135996
 40
0.1925878378
 40
0.2564560273
 40
0.3200792356
 40
0.3834114044
 40
0.4464351961
 40
0.5091331575
 40
0.6334985133
 40
0.7566586334
 40
0.8787780727
 40
1.0
 40
1.0
 40
1.0
 40
1.0
 10
4.3282071918
 20
4.7220339909
 30
0.0
 10
4.3289230335
 20
4.7220339909
 30
0.0
 10
4.3303549822
 20
4.7219728938
 30
0.0
 10
4.3324848567
 20
4.7217005781
 30
0.0
 10
4.3345799894
 20
4.7212513577
 30
0.0
 10
4.3366242728
 20
4.72063297
 30
0.0
 10
4.3386043154
 20
4.7198549737
 30
0.0
 10
4.3405085063
 20
4.7189279997
 30
0.0
 10
4.3423277626
 20
4.7178641571
 30
0.0
 10
4.3446237757
 20
4.7162839992
 30
0.0
 10
4.3472552542
 20
4.7140271276
 30
0.0
 10
4.3500087383
 20
4.7109525138
 30
0.0
 10
4.3523478361
 20
4.7075966008
 30
0.0
 10
4.3536400168
 20
4.705207362
 30
0.0
 10
4.3542185931
 20
4.7039876157
 30
0.0
  0
SPLINE
  5
3A6
100
AcDbEntity
  8
0
100
AcDbSpline
 62
7
  6
CONTINUOUS
 70
0
 71
3
 72
18
 73
14
 74
0
 42
0.0000001
 43
0.0000001
 44
0.0000000001
 40
0.0
 40
0.0
 40
0.0
 40
0.0
 40
0.035919923
 40
0.0755609222
 40
0.1189771864
 40
0.1662141116
 40
0.2722740174
 40
0.3936647087
 40
0.4598951056
 40
0.5295939801
 40
0.6782468439
 40
0.8365060453
 40
1.0
 40
1.0
 40
1.0
 40
1.0
 10
4.3542185931
 20
4.7448072838
 30
0.0
 10
4.3539147026
 20
4.744732126
 30
0.0
 10
4.3532728011
 20
4.7445846047
 30
0.0
 10
4.352256316
 20
4.7443793748
 30
0.0
 10
4.3511382695
 20
4.7441803554
 30
0.0
 10
4.3494445735
 20
4.7439142333
 30
0.0
 10
4.3470697455
 20
4.743608607
 30
0.0
 10
4.3445224492
 20
4.7433561997
 30
0.0
 10
4.3422870527
 20
4.7431763494
 30
0.0
 10
4.3398126016
 20
4.7430072569
 30
0.0
 10
4.3365343399
 20
4.7428404577
 30
0.0
 10
4.332436266
 20
4.7427178673
 30
0.0
 10
4.3296320617
 20
4.7426901989
 30
0.0
 10
4.3282071918
 20
4.7426901989
 30
0.0
  0
SPLINE
  5
3A7
100
AcDbEntity
  8
0
100
AcDbSpline
 62
7
  6
CONTINUOUS
 70
0
 71
3
 72
20
 73
16
 74
0
 42
0.0000001
 43
0.0000001
 44
0.0000000001
 40
0.0
 40
0.0
 40
0.0
 40
0.0
 40
0.0634764147
 40
0.1269432412
 40
0.1903121074
 40
0.2535652308
 40
0.3166853841
 40
0.3796429601
 40
0.4424311386
 40
0.5050380451
 40
0.5674716493
 40
0.6297277218
 40
0.7536870956
 40
0.8770899822
 40
1.0
 40
1.0
 40
1.0
 40
1.0
 10
4.3282071918
 20
4.7634769392
 30
0.0
 10
4.3289230789
 20
4.7634769392
 30
0.0
 10
4.3303555278
 20
4.7634136949
 30
0.0
 10
4.3324858907
 20
4.7631318373
 30
0.0
 10
4.334581439
 20
4.7626668965
 30
0.0
 10
4.3366260308
 20
4.7620269041
 30
0.0
 10
4.3386062693
 20
4.761221782
 30
0.0
 10
4.3405105577
 20
4.7602625341
 30
0.0
 10
4.3423297654
 20
4.7591617943
 30
0.0
 10
4.3440567739
 20
4.7579318709
 30
0.0
 10
4.3456867202
 20
4.7565854696
 30
0.0
 10
4.3477224105
 20
4.7546541617
 30
0.0
 10
4.3500140629
 20
4.752005846
 30
0.0
 10
4.3523513388
 20
4.7485348759
 30
0.0
 10
4.3536408554
 20
4.7460673284
 30
0.0
 10
4.3542185931
 20
4.7448072838
 30
0.0
  0
LINE
  5
3A8
100
AcDbEntity
  8
0
100
AcDbLine
 62
7
  6
CONTINUOUS
 10
4.3542185931
 20
4.7830322707
 11
4.3282071918
 21
4.7828201459
  0
SPLINE
  5
3A9
100
AcDbEntity
  8
0
100
AcDbSpline
 62
7
  6
CONTINUOUS
 70
0
 71
3
 72
19
 73
15
 74
0
 42
0.0000001
 43
0.0000001
 44
0.0000000001
 40
0.0
 40
0.0
 40
0.0
 40
0.0
 40
0.0629194199
 40
0.1258523813
 40
0.1887328958
 40
0.2515621075
 40
0.3143380672
 40
0.3770425826
 40
0.4396759443
 40
0.5022298317
 40
0.627043343
 40
0.7515817932
 40
0.8758983816
 40
1.0
 40
1.0
 40
1.0
 40
1.0
 10
4.3282071918
 20
4.8021454073
 30
0.0
 10
4.3289231122
 20
4.8021454073
 30
0.0
 10
4.3303559271
 20
4.8020806328
 30
0.0
 10
4.3324866454
 20
4.8017919779
 30
0.0
 10
4.334582493
 20
4.8013158401
 30
0.0
 10
4.3366273004
 20
4.8006604656
 30
0.0
 10
4.3386076767
 20
4.7998360267
 30
0.0
 10
4.3405120044
 20
4.7988538345
 30
0.0
 10
4.3423312404
 20
4.7977267466
 30
0.0
 10
4.344631537
 20
4.7960495336
 30
0.0
 10
4.3472664287
 20
4.7936535532
 30
0.0
 10
4.3500172295
 20
4.7903973796
 30
0.0
 10
4.3523538215
 20
4.7868441494
 30
0.0
 10
4.3536414146
 20
4.784320998
 30
0.0
 10
4.3542185931
 20
4.7830322707
 30
0.0
  0
ENDSEC
  0
SECTION
  2
OBJECTS
  0
DICTIONARY
  5
C
100
AcDbDictionary
280
0
281
1
  3
ACAD_GROUP
350
D
  3
ACAD_MLINESTYLE
350
17
  3
ACAD_LAYOUT
350
1A
  3
ACAD_PLOTSETTINGS
350
19
  3
ACAD_PLOTSTYLENAME
350
E
  0
DICTIONARY
  5
D
102
{ACAD_REACTORS
330
C
102
}
100
AcDbDictionary
280
0
281
1
  0
ACDBDICTIONARYWDFLT
  5
E
102
{ACAD_REACTORS
330
C
102
}
100
AcDbDictionary
281
1
  3
Normal
350
F
100
AcDbDictionaryWithDefault
340
F
  0
DICTIONARY
  5
17
102
{ACAD_REACTORS
330
C
102
}
100
AcDbDictionary
280
0
281
1
  3
Standard
350
18
  0
DICTIONARY
  5
19
102
{ACAD_REACTORS
330
C
102
}
100
AcDbDictionary
281
1
  0
DICTIONARY
  5
1A
102
{ACAD_REACTORS
330
C
102
}
100
AcDbDictionary
281
1
  3
Model
350
3AA
  3
Layout1
350
3AB
  0
ACDBPLACEHOLDER
  5
F
102
{ACAD_REACTORS
330
E
102
}
  0
MLINESTYLE
  5
18
102
{ACAD_REACTORS
330
17
102
}
100
AcDbMlineStyle
  2
STANDARD
 70
0
  3

 62
256
 51
90.0
 52
90.0
 71
2
 49
0.5
 62
256
  6
BYLAYER
 49
-0.5
 62
256
  6
BYLAYER
  0
LAYOUT
  5
3AA
102
{ACAD_REACTORS
330
1A
102
}
100
AcDbPlotSettings
  1

  2
none_device
  4
ANSI_A_(11.00_x_8.50_Inches)
  6

 40
0.0
 41
0.0
 42
0.0
 43
0.0
 44
279.4
 45
215.9
 46
0.0
 47
0.0
 48
0.0
 49
0.0
140
0.0
141
0.0
142
1.0
143
1.0
 70
1024
 72
0
 73
0
 74
0
  7

 75
0
147
1.0
148
0.0
149
0.0
100
AcDbLayout
  1
Model
 70
0
 71
0
 10
0.0
 20
0.0
 11
11.0
 21
8.5
 12
0.0
 22
0.0
 32
0.0
 14
0.0
 24
0.0
 34
0.0
 15
0.0
 25
0.0
 35
0.0
146
0.0
 13
0.0
 23
0.0
 33
0.0
 16
1.0
 26
0.0
 36
0.0
 17
0.0
 27
1.0
 37
0.0
 76
0
330
203
345
0
346
0
  0
LAYOUT
  5
3AB
102
{ACAD_REACTORS
330
1A
102
}
100
AcDbPlotSettings
  1

  2
none_device
  4
ANSI_A_(11.00_x_8.50_Inches)
  6

 40
0.0
 41
0.0
 42
0.0
 43
0.0
 44
279.4
 45
215.9
 46
0.0
 47
0.0
 48
0.0
 49
0.0
140
0.0
141
0.0
142
1.0
143
1.0
 70
0
 72
0
 73
0
 74
0
  7

 75
0
147
1.0
148
0.0
149
0.0
100
AcDbLayout
  1
Layout1
 70
0
 71
1
 10
0.0
 20
0.0
 11
11.0
 21
8.5
 12
0.0
 22
0.0
 32
0.0
 14
0.0
 24
0.0
 34
0.0
 15
0.0
 25
0.0
 35
0.0
146
0.0
 13
0.0
 23
0.0
 33
0.0
 16
1.0
 26
0.0
 36
0.0
 17
0.0
 27
1.0
 37
0.0
 76
0
330
204
345
0
346
0
  0
ENDSEC
  0
EOF
