999
DXF file: 5-3242bp_top.dxf
999
Pro/ENGINEER 2023134 by Parametric Technology Corporation
  0
SECTION
  2
HEADER
  9
$ACADVER
  1
AC1032
  9
$DWGCODEPAGE
  3
ANSI_1252
  9
$EXTMAX
 10
11.0
 20
8.5
 30
0.0
  9
$EXTMIN
 10
0.0
 20
0.0
 30
0.0
  9
$LIMMIN
 10
0.0
 20
0.0
  9
$LIMMAX
 10
11.0
 20
8.5
  9
$VIEWCTR
 10
5.5
 20
4.25
  9
$VIEWSIZE
 40
8.5
  9
$CLAYER
  8
0
  9
$LTSCALE
 40
0.605
  9
$CELTYPE
  6
BYLAYER
  9
$DIMSCALE
 40
1.0
  9
$DIMASZ
 40
0.1
  9
$DIMEXO
 40
0.0625
  9
$DIMDLI
 40
0.418
  9
$DIMEXE
 40
0.125
  9
$DIMCEN
 40
0.099
  9
$DIMLFAC
 40
1.0
  9
$DIMBLK
  1
_FILLED
  9
$DIMALT
 70
1
  9
$DIMALTD
 70
2
  9
$DIMALTTD
 70
2
  9
$DIMALTF
 40
25.4
  9
$DIMTXT
 40
0.08
  9
$DIMTOL
 70
1
  9
$DIMLIM
 70
0
  9
$DIMTFAC
 40
1.0
  9
$DIMTP
 40
0.001
  9
$DIMTM
 40
0.001
  9
$DIMGAP
 40
0.09
  9
$DIMDSEP
 70
46
  9
$AUNITS
 70
0
  9
$PDMODE
 70
3
  9
$PDSIZE
 40
0.3125
  9
$HANDSEED
  5
392
  9
$TILEMODE
 70
1
  9
$MEASUREMENT
 70
0
  9
$INSUNITS
 70
1
  0
ENDSEC
  0
SECTION
  2
CLASSES
  0
CLASS
  1
ACDBDICTIONARYWDFLT
  2
AcDbDictionaryWithDefault
  3
AutoCAD 2000
 90
0
 91
1
280
0
281
0
  0
CLASS
  1
ACDBPLACEHOLDER
  2
AcDbPlaceHolder
  3
AutoCAD 2000
 90
0
 91
1
280
0
281
0
  0
CLASS
  1
LAYOUT
  2
AcDbLayout
  3
AutoCAD 2000
 90
0
 91
0
280
0
281
0
  0
ENDSEC
  0
SECTION
  2
TABLES
  0
TABLE
  2
VPORT
  5
8
100
AcDbSymbolTable
 70
2
  0
VPORT
  5
1F4
100
AcDbSymbolTableRecord
100
AcDbViewportTableRecord
  2
*ACTIVE
 70
0
 10
0.0
 20
0.0
 11
1.0
 21
1.0
 12
5.5
 22
4.25
 13
0.0
 23
0.0
 14
1.0
 24
1.0
 15
0.0
 25
0.0
 16
0.0
 26
0.0
 36
1.0
 17
0.0
 27
0.0
 37
0.0
 40
8.5
 41
1.2941176471
 42
50.0
 43
0.0
 44
0.0
 50
0.0
 51
0.0
 71
0
 72
100
 73
1
 74
1
 75
0
 76
0
 77
0
 78
0
  0
ENDTAB
  0
TABLE
  2
LTYPE
  5
5
100
AcDbSymbolTable
 70
6
  0
LTYPE
  5
14
100
AcDbSymbolTableRecord
100
AcDbLinetypeTableRecord
  2
BYBLOCK
 70
0
  3

 72
65
 73
0
 40
0.0
  0
LTYPE
  5
15
100
AcDbSymbolTableRecord
100
AcDbLinetypeTableRecord
  2
BYLAYER
 70
0
  3

 72
65
 73
0
 40
0.0
  0
LTYPE
  5
16
100
AcDbSymbolTableRecord
100
AcDbLinetypeTableRecord
  2
CONTINUOUS
 70
64
  3
Solid line
 72
65
 73
0
 40
0.0
  0
LTYPE
  5
1F5
100
AcDbSymbolTableRecord
100
AcDbLinetypeTableRecord
  2
CENTER
 70
64
  3
____ _ ____ _ ____ _ ____ _ ____ _ ____ _ ____
 72
65
 73
4
 40
0.6
 49
0.375
 74
0
 49
-0.075
 74
0
 49
0.075
 74
0
 49
-0.075
 74
0
  0
LTYPE
  5
1F6
100
AcDbSymbolTableRecord
100
AcDbLinetypeTableRecord
  2
HIDDEN
 70
64
  3
- - - - - - - - - - - - - - - - - - - -
 72
65
 73
2
 40
0.2
 49
0.1
 74
0
 49
-0.1
 74
0
  0
LTYPE
  5
1F7
100
AcDbSymbolTableRecord
100
AcDbLinetypeTableRecord
  2
PHANTOM
 70
64
  3
_____ _ _ _____ _ _ _____ _ _ _____
 72
65
 73
6
 40
0.8
 49
0.45
 74
0
 49
-0.05
 74
0
 49
0.1
 74
0
 49
-0.05
 74
0
 49
0.1
 74
0
 49
-0.05
 74
0
  0
LTYPE
  5
1F8
100
AcDbSymbolTableRecord
100
AcDbLinetypeTableRecord
  2
DOT
 70
64
  3
. . . . . . . . . . . . . . . . . . . .
 72
65
 73
2
 40
0.2
 49
0.1
 74
0
 49
-0.1
 74
0
  0
LTYPE
  5
1F9
100
AcDbSymbolTableRecord
100
AcDbLinetypeTableRecord
  2
DASHED
 70
64
  3
- - - - - - - - - - - - - - - - - - - -
 72
65
 73
2
 40
0.2
 49
0.1
 74
0
 49
-0.1
 74
0
  0
ENDTAB
  0
TABLE
  2
LAYER
  5
2
100
AcDbSymbolTable
 70
36
  0
LAYER
  5
10
100
AcDbSymbolTableRecord
100
AcDbLayerTableRecord
  2
0
 70
0
 62
7
  6
CONTINUOUS
370
-3
390
F
  0
LAYER
  5
1FA
100
AcDbSymbolTableRecord
100
AcDbLayerTableRecord
  2
DEFAULT_1
 70
0
 62
7
  6
CENTER
370
-3
390
F
  0
LAYER
  5
1FB
100
AcDbSymbolTableRecord
100
AcDbLayerTableRecord
  2
DEFAULT_2
 70
0
 62
8
  6
HIDDEN
370
-3
390
F
  0
LAYER
  5
1FC
100
AcDbSymbolTableRecord
100
AcDbLayerTableRecord
  2
DEFAULT_3
 70
0
 62
7
  6
PHANTOM
370
-3
390
F
  0
LAYER
  5
1FD
100
AcDbSymbolTableRecord
100
AcDbLayerTableRecord
  2
DEFAULT_COORDINATE_SYSTEM
 70
0
 62
7
  6
CONTINUOUS
370
-3
390
F
  0
LAYER
  5
1FE
100
AcDbSymbolTableRecord
100
AcDbLayerTableRecord
  2
DEFAULT_DATUM_AXES
 70
0
 62
7
  6
CONTINUOUS
370
-3
390
F
  0
LAYER
  5
1FF
100
AcDbSymbolTableRecord
100
AcDbLayerTableRecord
  2
DEFAULT_DATUM_CURVES
 70
0
 62
7
  6
CONTINUOUS
370
-3
390
F
  0
LAYER
  5
200
100
AcDbSymbolTableRecord
100
AcDbLayerTableRecord
  2
DEFAULT_DATUM_PLANES
 70
0
 62
7
  6
CONTINUOUS
370
-3
390
F
  0
ENDTAB
  0
TABLE
  2
STYLE
  5
3
100
AcDbSymbolTable
 70
1
  0
STYLE
  5
11
100
AcDbSymbolTableRecord
100
AcDbTextStyleTableRecord
  2
STANDARD
 70
0
 40
0.0
 41
0.8
 50
0.0
 71
0
 42
0.2
  3
txt
  4

  0
STYLE
  5
201
100
AcDbSymbolTableRecord
100
AcDbTextStyleTableRecord
  2
TEXTSTYLE_1
 70
0
 40
0.0
 41
0.8
 50
0.0
 71
0
 42
0.2
  3
gdt
  4

  0
ENDTAB
  0
TABLE
  2
VIEW
  5
6
100
AcDbSymbolTable
 70
0
  0
ENDTAB
  0
TABLE
  2
UCS
  5
7
100
AcDbSymbolTable
 70
0
  0
ENDTAB
  0
TABLE
  2
APPID
  5
9
100
AcDbSymbolTable
 70
1
  0
APPID
  5
202
100
AcDbSymbolTableRecord
100
AcDbRegAppTableRecord
  2
ACAD
 70
0
  0
ENDTAB
  0
TABLE
  2
BLOCK_RECORD
  5
1
100
AcDbSymbolTable
 70
0
  0
BLOCK_RECORD
  5
203
100
AcDbSymbolTableRecord
100
AcDbBlockTableRecord
  2
*Model_Space
  0
BLOCK_RECORD
  5
204
100
AcDbSymbolTableRecord
100
AcDbBlockTableRecord
  2
*Paper_Space
  0
BLOCK_RECORD
  5
205
100
AcDbSymbolTableRecord
100
AcDbBlockTableRecord
  2
_FILLED
  0
ENDTAB
  0
TABLE
  2
DIMSTYLE
  5
A
100
AcDbSymbolTable
 70
1
100
AcDbDimStyleTable
 71
0
  0
DIMSTYLE
105
206
100
AcDbSymbolTableRecord
100
AcDbDimStyleTableRecord
  2
STANDARD
 70
0
  3

  4

 40
1.0
 41
0.1
 42
0.0625
 43
0.38
 44
0.125
 45
0.0
 46
0.0
 47
0.001
 48
0.001
140
0.08
141
0.09
142
0.0
143
25.4
144
1.0
145
0.0
146
1.0
147
0.09
 71
1
 72
0
 73
1
 74
1
 75
0
 76
0
 77
0
 78
4
 79
1
170
1
171
2
172
0
173
0
174
0
175
0
176
0
177
0
178
0
270
2
179
3
271
3
272
3
273
2
274
2
275
0
280
0
281
0
282
0
283
1
284
4
285
0
286
0
287
3
288
0
340
11
278
46
341
205
342
205
343
205
344
205
  0
ENDTAB
  0
ENDSEC
  0
SECTION
  2
BLOCKS
  0
BLOCK
  5
20
100
AcDbEntity
  8
0
100
AcDbBlockBegin
  2
*Model_Space
 70
0
 10
0.0
 20
0.0
 30
0.0
  3
*Model_Space
  1

  0
ENDBLK
  5
21
100
AcDbEntity
  8
0
100
AcDbBlockEnd
  0
BLOCK
  5
1C
100
AcDbEntity
  8
0
100
AcDbBlockBegin
  2
*Paper_Space
 70
0
 10
0.0
 20
0.0
 30
0.0
  3
*Paper_Space
  1

  0
ENDBLK
  5
1D
100
AcDbEntity
  8
0
100
AcDbBlockEnd
  0
BLOCK
  5
207
100
AcDbEntity
  8
0
100
AcDbBlockBegin
  2
_FILLED
 70
64
 10
0.0
 20
0.0
  3
_FILLED
  1

  0
SOLID
  5
208
100
AcDbEntity
  8
0
  6
BYBLOCK
 62
0
100
AcDbTrace
 10
0.0
 20
0.0
 11
-1.0
 21
0.2
 12
-1.0
 22
-0.2
 13
-1.0
 23
-0.2
  0
ENDBLK
  5
209
100
AcDbEntity
  8
0
  6
BYBLOCK
 62
0
100
AcDbBlockEnd
  0
ENDSEC
  0
SECTION
  2
ENTITIES
  0
MTEXT
  5
20A
100
AcDbEntity
  8
0
100
AcDbMText
 62
2
  6
CONTINUOUS
  7
STANDARD
 71
3
 72
1
 10
5.6560359589
 20
2.1340633562
 30
0.0
 11
1.0
 21
0.0
 31
0.0
 73
2
 44
0.9
  1
SCALE 1.000
 40
0.08
 41
0.704
  0
LINE
  5
20B
100
AcDbEntity
  8
0
100
AcDbLine
 62
7
  6
CONTINUOUS
 10
0.0
 20
0.0
 11
0.0
 21
8.5
  0
LINE
  5
20C
100
AcDbEntity
  8
0
100
AcDbLine
 62
7
  6
CONTINUOUS
 10
0.0
 20
0.0
 11
11.0
 21
0.0
  0
LINE
  5
20D
100
AcDbEntity
  8
0
100
AcDbLine
 62
7
  6
CONTINUOUS
 10
0.0
 20
8.5
 11
11.0
 21
8.5
  0
LINE
  5
20E
100
AcDbEntity
  8
0
100
AcDbLine
 62
7
  6
CONTINUOUS
 10
11.0
 20
0.0
 11
11.0
 21
8.5
  0
LINE
  5
20F
100
AcDbEntity
  8
0
100
AcDbLine
 62
7
  6
CONTINUOUS
 10
1.9437071918
 20
6.0844220136
 11
1.9437071918
 21
6.223885274
  0
LINE
  5
210
100
AcDbEntity
  8
0
100
AcDbLine
 62
7
  6
CONTINUOUS
 10
5.6637071918
 20
2.709885274
 11
4.7237071918
 21
2.709885274
  0
LINE
  5
211
100
AcDbEntity
  8
0
100
AcDbLine
 62
7
  6
CONTINUOUS
 10
5.6935509174
 20
2.739885274
 11
5.6923692475
 21
2.739885274
  0
LINE
  5
212
100
AcDbEntity
  8
0
100
AcDbLine
 62
7
  6
CONTINUOUS
 10
5.6899188189
 20
2.739885274
 11
5.6863851894
 21
2.739885274
  0
LINE
  5
213
100
AcDbEntity
  8
0
100
AcDbLine
 62
7
  6
CONTINUOUS
 10
5.6815079313
 20
2.739885274
 11
5.6756563728
 21
2.739885274
  0
LINE
  5
214
100
AcDbEntity
  8
0
100
AcDbLine
 62
7
  6
CONTINUOUS
 10
5.6683992559
 20
2.739885274
 11
5.6602861222
 21
2.739885274
  0
LINE
  5
215
100
AcDbEntity
  8
0
100
AcDbLine
 62
7
  6
CONTINUOUS
 10
5.6507190364
 20
2.739885274
 11
5.6404224614
 21
2.739885274
  0
LINE
  5
216
100
AcDbEntity
  8
0
100
AcDbLine
 62
7
  6
CONTINUOUS
 10
5.628637543
 20
2.739885274
 11
5.6162566884
 21
2.739885274
  0
LINE
  5
217
100
AcDbEntity
  8
0
100
AcDbLine
 62
7
  6
CONTINUOUS
 10
5.6023674326
 20
2.739885274
 11
5.5880215328
 21
2.739885274
  0
LINE
  5
218
100
AcDbEntity
  8
0
100
AcDbLine
 62
7
  6
CONTINUOUS
 10
5.5721617006
 20
2.739885274
 11
5.5559889144
 21
2.739885274
  0
LINE
  5
219
100
AcDbEntity
  8
0
100
AcDbLine
 62
7
  6
CONTINUOUS
 10
5.5383112449
 20
2.739885274
 11
5.5204673251
 21
2.739885274
  0
LINE
  5
21A
100
AcDbEntity
  8
0
100
AcDbLine
 62
7
  6
CONTINUOUS
 10
5.5011420638
 20
2.739885274
 11
5.481798857
 21
2.739885274
  0
LINE
  5
21B
100
AcDbEntity
  8
0
100
AcDbLine
 62
7
  6
CONTINUOUS
 10
5.4610121167
 20
2.739885274
 11
5.4403559087
 21
2.739885274
  0
LINE
  5
21C
100
AcDbEntity
  8
0
100
AcDbLine
 62
7
  6
CONTINUOUS
 10
5.4183078771
 20
2.739885274
 11
5.3965375985
 21
2.739885274
  0
LINE
  5
21D
100
AcDbEntity
  8
0
100
AcDbLine
 62
7
  6
CONTINUOUS
 10
5.3734406102
 20
2.739885274
 11
5.3507659205
 21
2.739885274
  0
LINE
  5
21E
100
AcDbEntity
  8
0
100
AcDbLine
 62
7
  6
CONTINUOUS
 10
5.3268424121
 20
2.739885274
 11
5.3034816812
 21
2.739885274
  0
LINE
  5
21F
100
AcDbEntity
  8
0
100
AcDbLine
 62
7
  6
CONTINUOUS
 10
5.2789620492
 20
2.739885274
 11
5.2551402535
 21
2.739885274
  0
LINE
  5
220
100
AcDbEntity
  8
0
100
AcDbLine
 62
7
  6
CONTINUOUS
 10
5.2302606353
 20
2.739885274
 11
5.2062071918
 21
2.739885274
  0
LINE
  5
221
100
AcDbEntity
  8
0
100
AcDbLine
 62
7
  6
CONTINUOUS
 10
5.1812071918
 20
2.739885274
 11
5.1571537483
 21
2.739885274
  0
LINE
  5
222
100
AcDbEntity
  8
0
100
AcDbLine
 62
7
  6
CONTINUOUS
 10
5.1322741301
 20
2.739885274
 11
5.1084523344
 21
2.739885274
  0
LINE
  5
223
100
AcDbEntity
  8
0
100
AcDbLine
 62
7
  6
CONTINUOUS
 10
5.0839327024
 20
2.739885274
 11
5.0605719714
 21
2.739885274
  0
LINE
  5
224
100
AcDbEntity
  8
0
100
AcDbLine
 62
7
  6
CONTINUOUS
 10
5.036648463
 20
2.739885274
 11
5.0139737734
 21
2.739885274
  0
LINE
  5
225
100
AcDbEntity
  8
0
100
AcDbLine
 62
7
  6
CONTINUOUS
 10
4.9908767851
 20
2.739885274
 11
4.9691065064
 21
2.739885274
  0
LINE
  5
226
100
AcDbEntity
  8
0
100
AcDbLine
 62
7
  6
CONTINUOUS
 10
4.9470584748
 20
2.739885274
 11
4.9264022668
 21
2.739885274
  0
LINE
  5
227
100
AcDbEntity
  8
0
100
AcDbLine
 62
7
  6
CONTINUOUS
 10
4.9056155265
 20
2.739885274
 11
4.8862723198
 21
2.739885274
  0
LINE
  5
228
100
AcDbEntity
  8
0
100
AcDbLine
 62
7
  6
CONTINUOUS
 10
4.8669470585
 20
2.739885274
 11
4.8491031387
 21
2.739885274
  0
LINE
  5
229
100
AcDbEntity
  8
0
100
AcDbLine
 62
7
  6
CONTINUOUS
 10
4.8314254691
 20
2.739885274
 11
4.8152526829
 21
2.739885274
  0
LINE
  5
22A
100
AcDbEntity
  8
0
100
AcDbLine
 62
7
  6
CONTINUOUS
 10
4.7993928508
 20
2.739885274
 11
4.785046951
 21
2.739885274
  0
LINE
  5
22B
100
AcDbEntity
  8
0
100
AcDbLine
 62
7
  6
CONTINUOUS
 10
4.7711576951
 20
2.739885274
 11
4.7587768406
 21
2.739885274
  0
LINE
  5
22C
100
AcDbEntity
  8
0
100
AcDbLine
 62
7
  6
CONTINUOUS
 10
4.7469919221
 20
2.739885274
 11
4.7366953472
 21
2.739885274
  0
LINE
  5
22D
100
AcDbEntity
  8
0
100
AcDbLine
 62
7
  6
CONTINUOUS
 10
4.7271282614
 20
2.739885274
 11
4.7190151277
 21
2.739885274
  0
LINE
  5
22E
100
AcDbEntity
  8
0
100
AcDbLine
 62
7
  6
CONTINUOUS
 10
4.7010291942
 20
2.739885274
 11
4.6974955646
 21
2.739885274
  0
LINE
  5
22F
100
AcDbEntity
  8
0
100
AcDbLine
 62
7
  6
CONTINUOUS
 10
4.7117580107
 20
2.739885274
 11
4.7059064523
 21
2.739885274
  0
LINE
  5
230
100
AcDbEntity
  8
0
100
AcDbLine
 62
7
  6
CONTINUOUS
 10
4.6950451361
 20
2.739885274
 11
4.6938634662
 21
2.739885274
  0
LINE
  5
231
100
AcDbEntity
  8
0
100
AcDbLine
 62
7
  6
CONTINUOUS
 10
6.6737071918
 20
2.764885274
 11
5.6815079313
 21
2.764885274
  0
LINE
  5
232
100
AcDbEntity
  8
0
100
AcDbLine
 62
7
  6
CONTINUOUS
 10
5.2987071918
 20
2.764885274
 11
5.0887071918
 21
2.764885274
  0
LINE
  5
233
100
AcDbEntity
  8
0
100
AcDbLine
 62
7
  6
CONTINUOUS
 10
4.7059064523
 20
2.764885274
 11
3.7137071918
 21
2.764885274
  0
LINE
  5
234
100
AcDbEntity
  8
0
100
AcDbLine
 62
7
  6
CONTINUOUS
 10
3.6937071918
 20
2.784885274
 11
3.6937071918
 21
3.394885274
  0
LINE
  5
235
100
AcDbEntity
  8
0
100
AcDbLine
 62
7
  6
CONTINUOUS
 10
3.7137071918
 20
2.764885274
 11
3.7137071918
 21
3.414885274
  0
LINE
  5
236
100
AcDbEntity
  8
0
100
AcDbLine
 62
7
  6
CONTINUOUS
 10
6.6937071918
 20
2.784885274
 11
5.6778301101
 21
2.784885274
  0
LINE
  5
237
100
AcDbEntity
  8
0
100
AcDbLine
 62
7
  6
CONTINUOUS
 10
5.3187071918
 20
2.784885274
 11
5.0687071918
 21
2.784885274
  0
LINE
  5
238
100
AcDbEntity
  8
0
100
AcDbLine
 62
7
  6
CONTINUOUS
 10
4.7095842735
 20
2.784885274
 11
3.6937071918
 21
2.784885274
  0
LINE
  5
239
100
AcDbEntity
  8
0
100
AcDbLine
 62
7
  6
CONTINUOUS
 10
4.0687071918
 20
5.6889374011
 11
4.0687071918
 21
5.910885274
  0
LINE
  5
23A
100
AcDbEntity
  8
0
100
AcDbLine
 62
7
  6
CONTINUOUS
 10
3.6937071918
 20
3.394885274
 11
4.7095842735
 21
3.394885274
  0
LINE
  5
23B
100
AcDbEntity
  8
0
100
AcDbLine
 62
7
  6
CONTINUOUS
 10
5.0687071918
 20
3.394885274
 11
5.3187071918
 21
3.394885274
  0
LINE
  5
23C
100
AcDbEntity
  8
0
100
AcDbLine
 62
7
  6
CONTINUOUS
 10
5.6778301101
 20
3.394885274
 11
6.6937071918
 21
3.394885274
  0
LINE
  5
23D
100
AcDbEntity
  8
0
100
AcDbLine
 62
7
  6
CONTINUOUS
 10
3.7137071918
 20
3.414885274
 11
4.7059064523
 21
3.414885274
  0
LINE
  5
23E
100
AcDbEntity
  8
0
100
AcDbLine
 62
7
  6
CONTINUOUS
 10
5.0887071918
 20
3.414885274
 11
5.2987071918
 21
3.414885274
  0
LINE
  5
23F
100
AcDbEntity
  8
0
100
AcDbLine
 62
7
  6
CONTINUOUS
 10
5.6815079313
 20
3.414885274
 11
6.6737071918
 21
3.414885274
  0
LINE
  5
240
100
AcDbEntity
  8
0
100
AcDbLine
 62
7
  6
CONTINUOUS
 10
4.6938634662
 20
3.609885274
 11
4.6950451361
 21
3.609885274
  0
LINE
  5
241
100
AcDbEntity
  8
0
100
AcDbLine
 62
7
  6
CONTINUOUS
 10
4.6974955646
 20
3.609885274
 11
4.7010291942
 21
3.609885274
  0
LINE
  5
242
100
AcDbEntity
  8
0
100
AcDbLine
 62
7
  6
CONTINUOUS
 10
4.7059064523
 20
3.609885274
 11
4.7117580107
 21
3.609885274
  0
LINE
  5
243
100
AcDbEntity
  8
0
100
AcDbLine
 62
7
  6
CONTINUOUS
 10
4.7190151277
 20
3.609885274
 11
4.7271282614
 21
3.609885274
  0
LINE
  5
244
100
AcDbEntity
  8
0
100
AcDbLine
 62
7
  6
CONTINUOUS
 10
4.7366953472
 20
3.609885274
 11
4.7469919221
 21
3.609885274
  0
LINE
  5
245
100
AcDbEntity
  8
0
100
AcDbLine
 62
7
  6
CONTINUOUS
 10
4.7587768406
 20
3.609885274
 11
4.7711576951
 21
3.609885274
  0
LINE
  5
246
100
AcDbEntity
  8
0
100
AcDbLine
 62
7
  6
CONTINUOUS
 10
4.785046951
 20
3.609885274
 11
4.7993928508
 21
3.609885274
  0
LINE
  5
247
100
AcDbEntity
  8
0
100
AcDbLine
 62
7
  6
CONTINUOUS
 10
4.8152526829
 20
3.609885274
 11
4.8314254691
 21
3.609885274
  0
LINE
  5
248
100
AcDbEntity
  8
0
100
AcDbLine
 62
7
  6
CONTINUOUS
 10
4.8491031387
 20
3.609885274
 11
4.8669470585
 21
3.609885274
  0
LINE
  5
249
100
AcDbEntity
  8
0
100
AcDbLine
 62
7
  6
CONTINUOUS
 10
4.8862723198
 20
3.609885274
 11
4.9056155265
 21
3.609885274
  0
LINE
  5
24A
100
AcDbEntity
  8
0
100
AcDbLine
 62
7
  6
CONTINUOUS
 10
4.9264022668
 20
3.609885274
 11
4.9470584748
 21
3.609885274
  0
LINE
  5
24B
100
AcDbEntity
  8
0
100
AcDbLine
 62
7
  6
CONTINUOUS
 10
4.9691065064
 20
3.609885274
 11
4.9908767851
 21
3.609885274
  0
LINE
  5
24C
100
AcDbEntity
  8
0
100
AcDbLine
 62
7
  6
CONTINUOUS
 10
5.0139737734
 20
3.609885274
 11
5.036648463
 21
3.609885274
  0
LINE
  5
24D
100
AcDbEntity
  8
0
100
AcDbLine
 62
7
  6
CONTINUOUS
 10
5.0605719714
 20
3.609885274
 11
5.0839327024
 21
3.609885274
  0
LINE
  5
24E
100
AcDbEntity
  8
0
100
AcDbLine
 62
7
  6
CONTINUOUS
 10
5.1084523344
 20
3.609885274
 11
5.1322741301
 21
3.609885274
  0
LINE
  5
24F
100
AcDbEntity
  8
0
100
AcDbLine
 62
7
  6
CONTINUOUS
 10
5.1571537483
 20
3.609885274
 11
5.1812071918
 21
3.609885274
  0
LINE
  5
250
100
AcDbEntity
  8
0
100
AcDbLine
 62
7
  6
CONTINUOUS
 10
5.2062071918
 20
3.609885274
 11
5.2302606353
 21
3.609885274
  0
LINE
  5
251
100
AcDbEntity
  8
0
100
AcDbLine
 62
7
  6
CONTINUOUS
 10
5.2551402535
 20
3.609885274
 11
5.2789620492
 21
3.609885274
  0
LINE
  5
252
100
AcDbEntity
  8
0
100
AcDbLine
 62
7
  6
CONTINUOUS
 10
5.3034816812
 20
3.609885274
 11
5.3268424121
 21
3.609885274
  0
LINE
  5
253
100
AcDbEntity
  8
0
100
AcDbLine
 62
7
  6
CONTINUOUS
 10
5.3507659205
 20
3.609885274
 11
5.3734406102
 21
3.609885274
  0
LINE
  5
254
100
AcDbEntity
  8
0
100
AcDbLine
 62
7
  6
CONTINUOUS
 10
5.3965375985
 20
3.609885274
 11
5.4183078771
 21
3.609885274
  0
LINE
  5
255
100
AcDbEntity
  8
0
100
AcDbLine
 62
7
  6
CONTINUOUS
 10
5.4403559087
 20
3.609885274
 11
5.4610121167
 21
3.609885274
  0
LINE
  5
256
100
AcDbEntity
  8
0
100
AcDbLine
 62
7
  6
CONTINUOUS
 10
5.481798857
 20
3.609885274
 11
5.5011420638
 21
3.609885274
  0
LINE
  5
257
100
AcDbEntity
  8
0
100
AcDbLine
 62
7
  6
CONTINUOUS
 10
5.5204673251
 20
3.609885274
 11
5.5383112449
 21
3.609885274
  0
LINE
  5
258
100
AcDbEntity
  8
0
100
AcDbLine
 62
7
  6
CONTINUOUS
 10
5.5559889144
 20
3.609885274
 11
5.5721617006
 21
3.609885274
  0
LINE
  5
259
100
AcDbEntity
  8
0
100
AcDbLine
 62
7
  6
CONTINUOUS
 10
5.5880215328
 20
3.609885274
 11
5.6023674326
 21
3.609885274
  0
LINE
  5
25A
100
AcDbEntity
  8
0
100
AcDbLine
 62
7
  6
CONTINUOUS
 10
5.6162566884
 20
3.609885274
 11
5.628637543
 21
3.609885274
  0
LINE
  5
25B
100
AcDbEntity
  8
0
100
AcDbLine
 62
7
  6
CONTINUOUS
 10
5.6404224614
 20
3.609885274
 11
5.6507190364
 21
3.609885274
  0
LINE
  5
25C
100
AcDbEntity
  8
0
100
AcDbLine
 62
7
  6
CONTINUOUS
 10
5.6602861222
 20
3.609885274
 11
5.6683992559
 21
3.609885274
  0
LINE
  5
25D
100
AcDbEntity
  8
0
100
AcDbLine
 62
7
  6
CONTINUOUS
 10
5.6756563728
 20
3.609885274
 11
5.6815079313
 21
3.609885274
  0
LINE
  5
25E
100
AcDbEntity
  8
0
100
AcDbLine
 62
7
  6
CONTINUOUS
 10
5.6863851894
 20
3.609885274
 11
5.6899188189
 21
3.609885274
  0
LINE
  5
25F
100
AcDbEntity
  8
0
100
AcDbLine
 62
7
  6
CONTINUOUS
 10
5.6923692475
 20
3.609885274
 11
5.6935509174
 21
3.609885274
  0
LINE
  5
260
100
AcDbEntity
  8
0
100
AcDbLine
 62
7
  6
CONTINUOUS
 10
4.7237071918
 20
3.639885274
 11
5.6637071918
 21
3.639885274
  0
LINE
  5
261
100
AcDbEntity
  8
0
100
AcDbLine
 62
7
  6
CONTINUOUS
 10
5.6637071918
 20
3.670885274
 11
4.7237071918
 21
3.670885274
  0
LINE
  5
262
100
AcDbEntity
  8
0
100
AcDbLine
 62
7
  6
CONTINUOUS
 10
5.6937071918
 20
3.700885274
 11
4.6937071918
 21
3.700885274
  0
LINE
  5
263
100
AcDbEntity
  8
0
100
AcDbLine
 62
7
  6
CONTINUOUS
 10
4.6937071918
 20
5.370885274
 11
4.6937071918
 21
3.700885274
  0
LINE
  5
264
100
AcDbEntity
  8
0
100
AcDbLine
 62
7
  6
CONTINUOUS
 10
4.6938634662
 20
3.6098853362
 11
4.6938634662
 21
3.414885274
  0
LINE
  5
265
100
AcDbEntity
  8
0
100
AcDbLine
 62
7
  6
CONTINUOUS
 10
4.6938634662
 20
2.764885274
 11
4.6938634662
 21
2.7398852752
  0
LINE
  5
266
100
AcDbEntity
  8
0
100
AcDbLine
 62
7
  6
CONTINUOUS
 10
4.6950451361
 20
3.609885274
 11
4.6950451361
 21
3.414885274
  0
LINE
  5
267
100
AcDbEntity
  8
0
100
AcDbLine
 62
7
  6
CONTINUOUS
 10
4.6950451361
 20
2.764885274
 11
4.6950451361
 21
2.739885274
  0
LINE
  5
268
100
AcDbEntity
  8
0
100
AcDbLine
 62
7
  6
CONTINUOUS
 10
4.6974955646
 20
3.609885274
 11
4.6974955646
 21
3.414885274
  0
LINE
  5
269
100
AcDbEntity
  8
0
100
AcDbLine
 62
7
  6
CONTINUOUS
 10
4.6974955646
 20
2.764885274
 11
4.6974955646
 21
2.739885274
  0
LINE
  5
26A
100
AcDbEntity
  8
0
100
AcDbLine
 62
7
  6
CONTINUOUS
 10
4.7010291942
 20
3.609885274
 11
4.7010291942
 21
3.414885274
  0
LINE
  5
26B
100
AcDbEntity
  8
0
100
AcDbLine
 62
7
  6
CONTINUOUS
 10
4.7010291942
 20
2.764885274
 11
4.7010291942
 21
2.739885274
  0
LINE
  5
26C
100
AcDbEntity
  8
0
100
AcDbLine
 62
7
  6
CONTINUOUS
 10
4.7059064523
 20
3.609885274
 11
4.7059064523
 21
3.4143070208
  0
LINE
  5
26D
100
AcDbEntity
  8
0
100
AcDbLine
 62
7
  6
CONTINUOUS
 10
4.7059064523
 20
2.7654635271
 11
4.7059064523
 21
2.739885274
  0
LINE
  5
26E
100
AcDbEntity
  8
0
100
AcDbLine
 62
7
  6
CONTINUOUS
 10
4.7095842735
 20
3.394885274
 11
4.7095842735
 21
2.784885274
  0
LINE
  5
26F
100
AcDbEntity
  8
0
100
AcDbLine
 62
7
  6
CONTINUOUS
 10
4.7117580107
 20
3.609885274
 11
4.7117580107
 21
2.739885274
  0
LINE
  5
270
100
AcDbEntity
  8
0
100
AcDbLine
 62
7
  6
CONTINUOUS
 10
4.7190151277
 20
3.609885274
 11
4.7190151277
 21
2.739885274
  0
LINE
  5
271
100
AcDbEntity
  8
0
100
AcDbLine
 62
7
  6
CONTINUOUS
 10
4.7271282614
 20
3.609885274
 11
4.7271282614
 21
2.739885274
  0
LINE
  5
272
100
AcDbEntity
  8
0
100
AcDbLine
 62
7
  6
CONTINUOUS
 10
4.7366953472
 20
3.609885274
 11
4.7366953472
 21
2.739885274
  0
LINE
  5
273
100
AcDbEntity
  8
0
100
AcDbLine
 62
7
  6
CONTINUOUS
 10
4.7469919221
 20
3.609885274
 11
4.7469919221
 21
2.739885274
  0
LINE
  5
274
100
AcDbEntity
  8
0
100
AcDbLine
 62
7
  6
CONTINUOUS
 10
4.7587768406
 20
3.609885274
 11
4.7587768406
 21
2.739885274
  0
LINE
  5
275
100
AcDbEntity
  8
0
100
AcDbLine
 62
7
  6
CONTINUOUS
 10
4.7687071918
 20
5.400885274
 11
4.7687071918
 21
5.410885274
  0
LINE
  5
276
100
AcDbEntity
  8
0
100
AcDbLine
 62
7
  6
CONTINUOUS
 10
4.7711576951
 20
3.609885274
 11
4.7711576951
 21
2.739885274
  0
LINE
  5
277
100
AcDbEntity
  8
0
100
AcDbLine
 62
7
  6
CONTINUOUS
 10
4.785046951
 20
3.609885274
 11
4.785046951
 21
2.739885274
  0
LINE
  5
278
100
AcDbEntity
  8
0
100
AcDbLine
 62
7
  6
CONTINUOUS
 10
4.7993928508
 20
3.609885274
 11
4.7993928508
 21
2.739885274
  0
LINE
  5
279
100
AcDbEntity
  8
0
100
AcDbLine
 62
7
  6
CONTINUOUS
 10
4.8152526829
 20
3.609885274
 11
4.8152526829
 21
2.739885274
  0
LINE
  5
27A
100
AcDbEntity
  8
0
100
AcDbLine
 62
7
  6
CONTINUOUS
 10
4.8314254691
 20
3.609885274
 11
4.8314254691
 21
2.739885274
  0
LINE
  5
27B
100
AcDbEntity
  8
0
100
AcDbLine
 62
7
  6
CONTINUOUS
 10
4.8491031387
 20
3.609885274
 11
4.8491031387
 21
2.739885274
  0
LINE
  5
27C
100
AcDbEntity
  8
0
100
AcDbLine
 62
7
  6
CONTINUOUS
 10
4.8669470585
 20
3.609885274
 11
4.8669470585
 21
2.739885274
  0
LINE
  5
27D
100
AcDbEntity
  8
0
100
AcDbLine
 62
7
  6
CONTINUOUS
 10
4.8860601951
 20
3.6358966753
 11
4.8860601951
 21
2.7138738726
  0
LINE
  5
27E
100
AcDbEntity
  8
0
100
AcDbLine
 62
7
  6
CONTINUOUS
 10
4.8862723198
 20
3.609885274
 11
4.8862723198
 21
2.739885274
  0
LINE
  5
27F
100
AcDbEntity
  8
0
100
AcDbLine
 62
7
  6
CONTINUOUS
 10
4.9056155265
 20
3.609885274
 11
4.9056155265
 21
2.739885274
  0
LINE
  5
280
100
AcDbEntity
  8
0
100
AcDbLine
 62
7
  6
CONTINUOUS
 10
4.924285182
 20
3.6358966753
 11
4.924285182
 21
2.7138738726
  0
LINE
  5
281
100
AcDbEntity
  8
0
100
AcDbLine
 62
7
  6
CONTINUOUS
 10
4.9264022668
 20
3.609885274
 11
4.9264022668
 21
2.739885274
  0
LINE
  5
282
100
AcDbEntity
  8
0
100
AcDbLine
 62
7
  6
CONTINUOUS
 10
4.9337071918
 20
3.639885274
 11
4.9337071918
 21
3.670885274
  0
LINE
  5
283
100
AcDbEntity
  8
0
100
AcDbLine
 62
7
  6
CONTINUOUS
 10
4.9470584748
 20
3.609885274
 11
4.9470584748
 21
2.739885274
  0
LINE
  5
284
100
AcDbEntity
  8
0
100
AcDbLine
 62
7
  6
CONTINUOUS
 10
4.9651048501
 20
3.6358966753
 11
4.9651048501
 21
2.7138738726
  0
LINE
  5
285
100
AcDbEntity
  8
0
100
AcDbLine
 62
7
  6
CONTINUOUS
 10
4.9691065064
 20
3.609885274
 11
4.9691065064
 21
2.739885274
  0
LINE
  5
286
100
AcDbEntity
  8
0
100
AcDbLine
 62
7
  6
CONTINUOUS
 10
4.9908767851
 20
3.609885274
 11
4.9908767851
 21
2.739885274
  0
LINE
  5
287
100
AcDbEntity
  8
0
100
AcDbLine
 62
7
  6
CONTINUOUS
 10
5.0062071918
 20
6.240885274
 11
5.0062071918
 21
6.223885274
  0
LINE
  5
288
100
AcDbEntity
  8
0
100
AcDbLine
 62
7
  6
CONTINUOUS
 10
5.0081260837
 20
3.6358966753
 11
5.0081260837
 21
2.7138738726
  0
LINE
  5
289
100
AcDbEntity
  8
0
100
AcDbLine
 62
7
  6
CONTINUOUS
 10
5.0139737734
 20
3.609885274
 11
5.0139737734
 21
2.739885274
  0
LINE
  5
28A
100
AcDbEntity
  8
0
100
AcDbLine
 62
7
  6
CONTINUOUS
 10
5.036648463
 20
3.609885274
 11
5.036648463
 21
2.739885274
  0
LINE
  5
28B
100
AcDbEntity
  8
0
100
AcDbLine
 62
7
  6
CONTINUOUS
 10
5.0529345648
 20
3.6358966753
 11
5.0529345648
 21
2.7138738726
  0
LINE
  5
28C
100
AcDbEntity
  8
0
100
AcDbLine
 62
7
  6
CONTINUOUS
 10
5.0605719714
 20
3.609885274
 11
5.0605719714
 21
2.739885274
  0
LINE
  5
28D
100
AcDbEntity
  8
0
100
AcDbLine
 62
7
  6
CONTINUOUS
 10
5.0687071918
 20
2.784885274
 11
5.0687071918
 21
3.394885274
  0
LINE
  5
28E
100
AcDbEntity
  8
0
100
AcDbLine
 62
7
  6
CONTINUOUS
 10
5.0839327024
 20
3.609885274
 11
5.0839327024
 21
3.4143070208
  0
LINE
  5
28F
100
AcDbEntity
  8
0
100
AcDbLine
 62
7
  6
CONTINUOUS
 10
5.0839327024
 20
2.7654635271
 11
5.0839327024
 21
2.739885274
  0
LINE
  5
290
100
AcDbEntity
  8
0
100
AcDbLine
 62
7
  6
CONTINUOUS
 10
5.0887071918
 20
2.764885274
 11
5.0887071918
 21
3.414885274
  0
LINE
  5
291
100
AcDbEntity
  8
0
100
AcDbLine
 62
7
  6
CONTINUOUS
 10
5.0990987633
 20
3.6358966753
 11
5.0990987633
 21
3.414885274
  0
LINE
  5
292
100
AcDbEntity
  8
0
100
AcDbLine
 62
7
  6
CONTINUOUS
 10
5.0990987633
 20
2.764885274
 11
5.0990987633
 21
2.7138738726
  0
LINE
  5
293
100
AcDbEntity
  8
0
100
AcDbLine
 62
7
  6
CONTINUOUS
 10
5.1084523344
 20
3.609885274
 11
5.1084523344
 21
3.414885274
  0
LINE
  5
294
100
AcDbEntity
  8
0
100
AcDbLine
 62
7
  6
CONTINUOUS
 10
5.1084523344
 20
2.764885274
 11
5.1084523344
 21
2.739885274
  0
LINE
  5
295
100
AcDbEntity
  8
0
100
AcDbLine
 62
7
  6
CONTINUOUS
 10
5.1322741301
 20
3.609885274
 11
5.1322741301
 21
3.414885274
  0
LINE
  5
296
100
AcDbEntity
  8
0
100
AcDbLine
 62
7
  6
CONTINUOUS
 10
5.1322741301
 20
2.764885274
 11
5.1322741301
 21
2.739885274
  0
LINE
  5
297
100
AcDbEntity
  8
0
100
AcDbLine
 62
7
  6
CONTINUOUS
 10
5.1461740927
 20
3.6358966753
 11
5.1461740927
 21
3.414885274
  0
LINE
  5
298
100
AcDbEntity
  8
0
100
AcDbLine
 62
7
  6
CONTINUOUS
 10
5.1461740927
 20
2.764885274
 11
5.1461740927
 21
2.7138738726
  0
LINE
  5
299
100
AcDbEntity
  8
0
100
AcDbLine
 62
7
  6
CONTINUOUS
 10
5.1571537483
 20
3.609885274
 11
5.1571537483
 21
3.414885274
  0
LINE
  5
29A
100
AcDbEntity
  8
0
100
AcDbLine
 62
7
  6
CONTINUOUS
 10
5.1571537483
 20
2.764885274
 11
5.1571537483
 21
2.739885274
  0
LINE
  5
29B
100
AcDbEntity
  8
0
100
AcDbLine
 62
7
  6
CONTINUOUS
 10
5.1812071918
 20
3.609885274
 11
5.1812071918
 21
3.414885274
  0
LINE
  5
29C
100
AcDbEntity
  8
0
100
AcDbLine
 62
7
  6
CONTINUOUS
 10
5.1812071918
 20
2.764885274
 11
5.1812071918
 21
2.739885274
  0
LINE
  5
29D
100
AcDbEntity
  8
0
100
AcDbLine
 62
7
  6
CONTINUOUS
 10
5.1937071918
 20
3.6358966753
 11
5.1937071918
 21
3.414885274
  0
LINE
  5
29E
100
AcDbEntity
  8
0
100
AcDbLine
 62
7
  6
CONTINUOUS
 10
5.1937071918
 20
2.764885274
 11
5.1937071918
 21
2.7138738726
  0
LINE
  5
29F
100
AcDbEntity
  8
0
100
AcDbLine
 62
7
  6
CONTINUOUS
 10
5.2062071918
 20
3.609885274
 11
5.2062071918
 21
3.414885274
  0
LINE
  5
2A0
100
AcDbEntity
  8
0
100
AcDbLine
 62
7
  6
CONTINUOUS
 10
5.2062071918
 20
2.764885274
 11
5.2062071918
 21
2.739885274
  0
LINE
  5
2A1
100
AcDbEntity
  8
0
100
AcDbLine
 62
7
  6
CONTINUOUS
 10
5.2302606353
 20
3.609885274
 11
5.2302606353
 21
3.414885274
  0
LINE
  5
2A2
100
AcDbEntity
  8
0
100
AcDbLine
 62
7
  6
CONTINUOUS
 10
5.2302606353
 20
2.764885274
 11
5.2302606353
 21
2.739885274
  0
LINE
  5
2A3
100
AcDbEntity
  8
0
100
AcDbLine
 62
7
  6
CONTINUOUS
 10
5.2412402909
 20
3.6358966753
 11
5.2412402909
 21
3.414885274
  0
LINE
  5
2A4
100
AcDbEntity
  8
0
100
AcDbLine
 62
7
  6
CONTINUOUS
 10
5.2412402909
 20
2.764885274
 11
5.2412402909
 21
2.7138738726
  0
LINE
  5
2A5
100
AcDbEntity
  8
0
100
AcDbLine
 62
7
  6
CONTINUOUS
 10
5.2551402535
 20
3.609885274
 11
5.2551402535
 21
3.414885274
  0
LINE
  5
2A6
100
AcDbEntity
  8
0
100
AcDbLine
 62
7
  6
CONTINUOUS
 10
5.2551402535
 20
2.764885274
 11
5.2551402535
 21
2.739885274
  0
LINE
  5
2A7
100
AcDbEntity
  8
0
100
AcDbLine
 62
7
  6
CONTINUOUS
 10
5.2789620492
 20
3.609885274
 11
5.2789620492
 21
3.414885274
  0
LINE
  5
2A8
100
AcDbEntity
  8
0
100
AcDbLine
 62
7
  6
CONTINUOUS
 10
5.2789620492
 20
2.764885274
 11
5.2789620492
 21
2.739885274
  0
LINE
  5
2A9
100
AcDbEntity
  8
0
100
AcDbLine
 62
7
  6
CONTINUOUS
 10
5.2883156203
 20
3.6358966753
 11
5.2883156203
 21
3.414885274
  0
LINE
  5
2AA
100
AcDbEntity
  8
0
100
AcDbLine
 62
7
  6
CONTINUOUS
 10
5.2883156203
 20
2.764885274
 11
5.2883156203
 21
2.7138738726
  0
LINE
  5
2AB
100
AcDbEntity
  8
0
100
AcDbLine
 62
7
  6
CONTINUOUS
 10
5.2987071918
 20
2.764885274
 11
5.2987071918
 21
3.414885274
  0
LINE
  5
2AC
100
AcDbEntity
  8
0
100
AcDbLine
 62
7
  6
CONTINUOUS
 10
5.3034816812
 20
3.609885274
 11
5.3034816812
 21
3.4143070208
  0
LINE
  5
2AD
100
AcDbEntity
  8
0
100
AcDbLine
 62
7
  6
CONTINUOUS
 10
5.3034816812
 20
2.7654635271
 11
5.3034816812
 21
2.739885274
  0
LINE
  5
2AE
100
AcDbEntity
  8
0
100
AcDbLine
 62
7
  6
CONTINUOUS
 10
5.3187071918
 20
2.784885274
 11
5.3187071918
 21
3.394885274
  0
LINE
  5
2AF
100
AcDbEntity
  8
0
100
AcDbLine
 62
7
  6
CONTINUOUS
 10
5.3268424121
 20
3.609885274
 11
5.3268424121
 21
2.739885274
  0
LINE
  5
2B0
100
AcDbEntity
  8
0
100
AcDbLine
 62
7
  6
CONTINUOUS
 10
5.3344798188
 20
3.6358966753
 11
5.3344798188
 21
2.7138738726
  0
LINE
  5
2B1
100
AcDbEntity
  8
0
100
AcDbLine
 62
7
  6
CONTINUOUS
 10
5.3507659205
 20
3.609885274
 11
5.3507659205
 21
2.739885274
  0
LINE
  5
2B2
100
AcDbEntity
  8
0
100
AcDbLine
 62
7
  6
CONTINUOUS
 10
5.3734406102
 20
3.609885274
 11
5.3734406102
 21
2.739885274
  0
LINE
  5
2B3
100
AcDbEntity
  8
0
100
AcDbLine
 62
7
  6
CONTINUOUS
 10
5.3792882999
 20
3.6358966753
 11
5.3792882999
 21
2.7138738726
  0
LINE
  5
2B4
100
AcDbEntity
  8
0
100
AcDbLine
 62
7
  6
CONTINUOUS
 10
5.3812071918
 20
6.240885274
 11
5.3812071918
 21
6.223885274
  0
LINE
  5
2B5
100
AcDbEntity
  8
0
100
AcDbLine
 62
7
  6
CONTINUOUS
 10
5.3965375985
 20
3.609885274
 11
5.3965375985
 21
2.739885274
  0
LINE
  5
2B6
100
AcDbEntity
  8
0
100
AcDbLine
 62
7
  6
CONTINUOUS
 10
5.4183078771
 20
3.609885274
 11
5.4183078771
 21
2.739885274
  0
LINE
  5
2B7
100
AcDbEntity
  8
0
100
AcDbLine
 62
7
  6
CONTINUOUS
 10
5.4223095335
 20
3.6358966753
 11
5.4223095335
 21
2.7138738726
  0
LINE
  5
2B8
100
AcDbEntity
  8
0
100
AcDbLine
 62
7
  6
CONTINUOUS
 10
5.4403559087
 20
3.609885274
 11
5.4403559087
 21
2.739885274
  0
LINE
  5
2B9
100
AcDbEntity
  8
0
100
AcDbLine
 62
7
  6
CONTINUOUS
 10
5.4537071918
 20
3.639885274
 11
5.4537071918
 21
3.670885274
  0
LINE
  5
2BA
100
AcDbEntity
  8
0
100
AcDbLine
 62
7
  6
CONTINUOUS
 10
5.4610121167
 20
3.609885274
 11
5.4610121167
 21
2.739885274
  0
LINE
  5
2BB
100
AcDbEntity
  8
0
100
AcDbLine
 62
7
  6
CONTINUOUS
 10
5.4631292016
 20
3.6358966753
 11
5.4631292016
 21
2.7138738726
  0
LINE
  5
2BC
100
AcDbEntity
  8
0
100
AcDbLine
 62
7
  6
CONTINUOUS
 10
5.481798857
 20
3.609885274
 11
5.481798857
 21
2.739885274
  0
LINE
  5
2BD
100
AcDbEntity
  8
0
100
AcDbLine
 62
7
  6
CONTINUOUS
 10
5.5011420638
 20
3.609885274
 11
5.5011420638
 21
2.739885274
  0
LINE
  5
2BE
100
AcDbEntity
  8
0
100
AcDbLine
 62
7
  6
CONTINUOUS
 10
5.5013541885
 20
3.6358966753
 11
5.5013541885
 21
2.7138738726
  0
LINE
  5
2BF
100
AcDbEntity
  8
0
100
AcDbLine
 62
7
  6
CONTINUOUS
 10
5.5204673251
 20
3.609885274
 11
5.5204673251
 21
2.739885274
  0
LINE
  5
2C0
100
AcDbEntity
  8
0
100
AcDbLine
 62
7
  6
CONTINUOUS
 10
5.5383112449
 20
3.609885274
 11
5.5383112449
 21
2.739885274
  0
LINE
  5
2C1
100
AcDbEntity
  8
0
100
AcDbLine
 62
7
  6
CONTINUOUS
 10
5.5559889144
 20
3.609885274
 11
5.5559889144
 21
2.739885274
  0
LINE
  5
2C2
100
AcDbEntity
  8
0
100
AcDbLine
 62
7
  6
CONTINUOUS
 10
5.5721617006
 20
3.609885274
 11
5.5721617006
 21
2.739885274
  0
LINE
  5
2C3
100
AcDbEntity
  8
0
100
AcDbLine
 62
7
  6
CONTINUOUS
 10
5.5880215328
 20
3.609885274
 11
5.5880215328
 21
2.739885274
  0
LINE
  5
2C4
100
AcDbEntity
  8
0
100
AcDbLine
 62
7
  6
CONTINUOUS
 10
5.6023674326
 20
3.609885274
 11
5.6023674326
 21
2.739885274
  0
LINE
  5
2C5
100
AcDbEntity
  8
0
100
AcDbLine
 62
7
  6
CONTINUOUS
 10
5.6162566884
 20
3.609885274
 11
5.6162566884
 21
2.739885274
  0
LINE
  5
2C6
100
AcDbEntity
  8
0
100
AcDbLine
 62
7
  6
CONTINUOUS
 10
5.6187071918
 20
5.400885274
 11
5.6187071918
 21
5.410885274
  0
LINE
  5
2C7
100
AcDbEntity
  8
0
100
AcDbLine
 62
7
  6
CONTINUOUS
 10
5.628637543
 20
3.609885274
 11
5.628637543
 21
2.739885274
  0
LINE
  5
2C8
100
AcDbEntity
  8
0
100
AcDbLine
 62
7
  6
CONTINUOUS
 10
5.6404224614
 20
3.609885274
 11
5.6404224614
 21
2.739885274
  0
LINE
  5
2C9
100
AcDbEntity
  8
0
100
AcDbLine
 62
7
  6
CONTINUOUS
 10
5.6507190364
 20
3.609885274
 11
5.6507190364
 21
2.739885274
  0
LINE
  5
2CA
100
AcDbEntity
  8
0
100
AcDbLine
 62
7
  6
CONTINUOUS
 10
5.6602861222
 20
3.609885274
 11
5.6602861222
 21
2.739885274
  0
LINE
  5
2CB
100
AcDbEntity
  8
0
100
AcDbLine
 62
7
  6
CONTINUOUS
 10
5.6683992559
 20
3.609885274
 11
5.6683992559
 21
2.739885274
  0
LINE
  5
2CC
100
AcDbEntity
  8
0
100
AcDbLine
 62
7
  6
CONTINUOUS
 10
5.6756563728
 20
3.609885274
 11
5.6756563728
 21
2.739885274
  0
LINE
  5
2CD
100
AcDbEntity
  8
0
100
AcDbLine
 62
7
  6
CONTINUOUS
 10
5.6778301101
 20
3.394885274
 11
5.6778301101
 21
2.784885274
  0
LINE
  5
2CE
100
AcDbEntity
  8
0
100
AcDbLine
 62
7
  6
CONTINUOUS
 10
5.6815079313
 20
3.609885274
 11
5.6815079313
 21
3.4143070208
  0
LINE
  5
2CF
100
AcDbEntity
  8
0
100
AcDbLine
 62
7
  6
CONTINUOUS
 10
5.6815079313
 20
2.7654635271
 11
5.6815079313
 21
2.739885274
  0
LINE
  5
2D0
100
AcDbEntity
  8
0
100
AcDbLine
 62
7
  6
CONTINUOUS
 10
5.6863851894
 20
3.609885274
 11
5.6863851894
 21
3.414885274
  0
LINE
  5
2D1
100
AcDbEntity
  8
0
100
AcDbLine
 62
7
  6
CONTINUOUS
 10
5.6863851894
 20
2.764885274
 11
5.6863851894
 21
2.739885274
  0
LINE
  5
2D2
100
AcDbEntity
  8
0
100
AcDbLine
 62
7
  6
CONTINUOUS
 10
5.6899188189
 20
3.609885274
 11
5.6899188189
 21
3.414885274
  0
LINE
  5
2D3
100
AcDbEntity
  8
0
100
AcDbLine
 62
7
  6
CONTINUOUS
 10
5.6899188189
 20
2.764885274
 11
5.6899188189
 21
2.739885274
  0
LINE
  5
2D4
100
AcDbEntity
  8
0
100
AcDbLine
 62
7
  6
CONTINUOUS
 10
5.6923692475
 20
3.609885274
 11
5.6923692475
 21
3.414885274
  0
LINE
  5
2D5
100
AcDbEntity
  8
0
100
AcDbLine
 62
7
  6
CONTINUOUS
 10
5.6923692475
 20
2.764885274
 11
5.6923692475
 21
2.739885274
  0
LINE
  5
2D6
100
AcDbEntity
  8
0
100
AcDbLine
 62
7
  6
CONTINUOUS
 10
5.6935509174
 20
3.609885274
 11
5.6935509174
 21
3.414885274
  0
LINE
  5
2D7
100
AcDbEntity
  8
0
100
AcDbLine
 62
7
  6
CONTINUOUS
 10
5.6935509174
 20
2.764885274
 11
5.6935509174
 21
2.739885274
  0
LINE
  5
2D8
100
AcDbEntity
  8
0
100
AcDbLine
 62
7
  6
CONTINUOUS
 10
5.6937071918
 20
5.370885274
 11
5.6937071918
 21
3.700885274
  0
LINE
  5
2D9
100
AcDbEntity
  8
0
100
AcDbLine
 62
7
  6
CONTINUOUS
 10
4.6937071918
 20
5.370885274
 11
5.6937071918
 21
5.370885274
  0
LINE
  5
2DA
100
AcDbEntity
  8
0
100
AcDbLine
 62
7
  6
CONTINUOUS
 10
4.7237071918
 20
5.400885274
 11
5.6637071918
 21
5.400885274
  0
LINE
  5
2DB
100
AcDbEntity
  8
0
100
AcDbLine
 62
7
  6
CONTINUOUS
 10
5.6659141939
 20
5.410885274
 11
4.7215001897
 21
5.410885274
  0
LINE
  5
2DC
100
AcDbEntity
  8
0
100
AcDbLine
 62
7
  6
CONTINUOUS
 10
5.695591218
 20
5.4364950301
 11
4.6918231656
 21
5.4364950301
  0
LINE
  5
2DD
100
AcDbEntity
  8
0
100
AcDbLine
 62
7
  6
CONTINUOUS
 10
6.3187071918
 20
5.6889374011
 11
6.3187071918
 21
5.910885274
  0
LINE
  5
2DE
100
AcDbEntity
  8
0
100
AcDbLine
 62
7
  6
CONTINUOUS
 10
4.564141348
 20
5.5798844972
 11
5.8232730355
 21
5.5798844972
  0
LINE
  5
2DF
100
AcDbEntity
  8
0
100
AcDbLine
 62
7
  6
CONTINUOUS
 10
6.2908845659
 20
5.6590165214
 11
4.0965298176
 21
5.6590165214
  0
LINE
  5
2E0
100
AcDbEntity
  8
0
100
AcDbLine
 62
7
  6
CONTINUOUS
 10
6.3187071918
 20
5.6889374011
 11
4.0687071918
 21
5.6889374011
  0
LINE
  5
2E1
100
AcDbEntity
  8
0
100
AcDbLine
 62
7
  6
CONTINUOUS
 10
6.6737071918
 20
2.764885274
 11
6.6737071918
 21
3.414885274
  0
LINE
  5
2E2
100
AcDbEntity
  8
0
100
AcDbLine
 62
7
  6
CONTINUOUS
 10
6.6937071918
 20
2.784885274
 11
6.6937071918
 21
3.394885274
  0
LINE
  5
2E3
100
AcDbEntity
  8
0
100
AcDbLine
 62
7
  6
CONTINUOUS
 10
8.2765506815
 20
5.910885274
 11
2.110863702
 21
5.910885274
  0
LINE
  5
2E4
100
AcDbEntity
  8
0
100
AcDbLine
 62
7
  6
CONTINUOUS
 10
8.3359253431
 20
5.9528222837
 11
2.0514890404
 21
5.9528222837
  0
LINE
  5
2E5
100
AcDbEntity
  8
0
100
AcDbLine
 62
7
  6
CONTINUOUS
 10
8.4052588761
 20
6.0264029237
 11
1.9821555074
 21
6.0264029237
  0
LINE
  5
2E6
100
AcDbEntity
  8
0
100
AcDbLine
 62
7
  6
CONTINUOUS
 10
8.4437071918
 20
6.0844220136
 11
1.9437071918
 21
6.0844220136
  0
LINE
  5
2E7
100
AcDbEntity
  8
0
100
AcDbLine
 62
7
  6
CONTINUOUS
 10
1.9437071918
 20
6.223885274
 11
8.4437071918
 21
6.223885274
  0
LINE
  5
2E8
100
AcDbEntity
  8
0
100
AcDbLine
 62
7
  6
CONTINUOUS
 10
5.0062071918
 20
6.240885274
 11
5.3812071918
 21
6.240885274
  0
LINE
  5
2E9
100
AcDbEntity
  8
0
100
AcDbLine
 62
7
  6
CONTINUOUS
 10
8.4437071918
 20
6.0844220136
 11
8.4437071918
 21
6.223885274
  0
ARC
  5
2EA
100
AcDbEntity
  8
0
100
AcDbCircle
 62
7
  6
CONTINUOUS
 10
3.9150819729
 20
3.1656098799
 40
2.5
100
AcDbArc
 50
74.9522620167
 51
85.8378620776
  0
ARC
  5
2EB
100
AcDbEntity
  8
0
100
AcDbCircle
 62
7
  6
CONTINUOUS
 10
4.7237071918
 20
3.609885274
 40
0.03
100
AcDbArc
 50
90.0
 51
119.8827588896
  0
ARC
  5
2EC
100
AcDbEntity
  8
0
100
AcDbCircle
 62
7
  6
CONTINUOUS
 10
4.7237071918
 20
2.739885274
 40
0.03
100
AcDbArc
 50
240.1172411104
 51
270.0
  0
ARC
  5
2ED
100
AcDbEntity
  8
0
100
AcDbCircle
 62
7
  6
CONTINUOUS
 10
4.7237071918
 20
3.700885274
 40
0.03
100
AcDbArc
 50
180.0
 51
270.0
  0
ARC
  5
2EE
100
AcDbEntity
  8
0
100
AcDbCircle
 62
7
  6
CONTINUOUS
 10
4.7234269707
 20
3.6103700164
 40
0.029440092
100
AcDbArc
 50
119.8799308782
 51
128.5051181692
  0
ARC
  5
2EF
100
AcDbEntity
  8
0
100
AcDbCircle
 62
7
  6
CONTINUOUS
 10
4.7234269683
 20
2.7394005281
 40
0.0294400878
100
AcDbArc
 50
231.4947896676
 51
240.1200697476
  0
ARC
  5
2F0
100
AcDbEntity
  8
0
100
AcDbCircle
 62
7
  6
CONTINUOUS
 10
3.7137071918
 20
3.394885274
 40
0.02
100
AcDbArc
 50
90.0
 51
180.0
  0
ARC
  5
2F1
100
AcDbEntity
  8
0
100
AcDbCircle
 62
7
  6
CONTINUOUS
 10
3.7137071918
 20
2.784885274
 40
0.02
100
AcDbArc
 50
180.0
 51
270.0
  0
ARC
  5
2F2
100
AcDbEntity
  8
0
100
AcDbCircle
 62
7
  6
CONTINUOUS
 10
5.0887071918
 20
3.394885274
 40
0.02
100
AcDbArc
 50
90.0
 51
180.0
  0
ARC
  5
2F3
100
AcDbEntity
  8
0
100
AcDbCircle
 62
7
  6
CONTINUOUS
 10
5.0887071918
 20
2.784885274
 40
0.02
100
AcDbArc
 50
180.0
 51
270.0
  0
ARC
  5
2F4
100
AcDbEntity
  8
0
100
AcDbCircle
 62
7
  6
CONTINUOUS
 10
4.5187071918
 20
5.410885274
 40
0.175
100
AcDbArc
 50
8.4149680847
 51
74.9522620167
  0
ARC
  5
2F5
100
AcDbEntity
  8
0
100
AcDbCircle
 62
7
  6
CONTINUOUS
 10
1.9332724092
 20
5.910885274
 40
0.1254347826
100
AcDbArc
 50
19.5319940446
 51
67.0635891141
  0
ARC
  5
2F6
100
AcDbEntity
  8
0
100
AcDbCircle
 62
7
  6
CONTINUOUS
 10
2.0067071918
 20
6.0844220136
 40
0.063
100
AcDbArc
 50
180.0
 51
247.0635891141
  0
ARC
  5
2F7
100
AcDbEntity
  8
0
100
AcDbCircle
 62
7
  6
CONTINUOUS
 10
2.110863702
 20
5.973885274
 40
0.063
100
AcDbArc
 50
199.5319940446
 51
270.0
  0
ARC
  5
2F8
100
AcDbEntity
  8
0
100
AcDbCircle
 62
7
  6
CONTINUOUS
 10
4.7237071918
 20
5.370885274
 40
0.03
100
AcDbArc
 50
90.0
 51
180.0
  0
ARC
  5
2F9
100
AcDbEntity
  8
0
100
AcDbCircle
 62
7
  6
CONTINUOUS
 10
4.7215001897
 20
5.440885274
 40
0.03
100
AcDbArc
 50
188.4149680847
 51
270.0
  0
ARC
  5
2FA
100
AcDbEntity
  8
0
100
AcDbCircle
 62
7
  6
CONTINUOUS
 10
4.0987071918
 20
5.6889374011
 40
0.03
100
AcDbArc
 50
180.0
 51
265.8378620776
  0
ARC
  5
2FB
100
AcDbEntity
  8
0
100
AcDbCircle
 62
7
  6
CONTINUOUS
 10
6.4723324107
 20
3.1656098799
 40
2.5
100
AcDbArc
 50
94.1621379224
 51
105.0477379833
  0
ARC
  5
2FC
100
AcDbEntity
  8
0
100
AcDbCircle
 62
7
  6
CONTINUOUS
 10
5.6637071918
 20
3.609885274
 40
0.03
100
AcDbArc
 50
60.1172411104
 51
90.0
  0
ARC
  5
2FD
100
AcDbEntity
  8
0
100
AcDbCircle
 62
7
  6
CONTINUOUS
 10
5.6637071918
 20
2.739885274
 40
0.03
100
AcDbArc
 50
270.0
 51
299.8827588896
  0
ARC
  5
2FE
100
AcDbEntity
  8
0
100
AcDbCircle
 62
7
  6
CONTINUOUS
 10
5.6637071918
 20
3.700885274
 40
0.03
100
AcDbArc
 50
270.0
 51
360.0
  0
ARC
  5
2FF
100
AcDbEntity
  8
0
100
AcDbCircle
 62
7
  6
CONTINUOUS
 10
5.6639874135
 20
2.7394005306
 40
0.0294400909
100
AcDbArc
 50
299.8799307451
 51
308.5052178022
  0
ARC
  5
300
100
AcDbEntity
  8
0
100
AcDbCircle
 62
7
  6
CONTINUOUS
 10
5.6639874166
 20
3.6103700217
 40
0.0294400856
100
AcDbArc
 50
51.4948728869
 51
60.1200701176
  0
ARC
  5
301
100
AcDbEntity
  8
0
100
AcDbCircle
 62
7
  6
CONTINUOUS
 10
5.2987071918
 20
3.394885274
 40
0.02
100
AcDbArc
 50
0.0
 51
90.0
  0
ARC
  5
302
100
AcDbEntity
  8
0
100
AcDbCircle
 62
7
  6
CONTINUOUS
 10
5.2987071918
 20
2.784885274
 40
0.02
100
AcDbArc
 50
270.0
 51
360.0
  0
ARC
  5
303
100
AcDbEntity
  8
0
100
AcDbCircle
 62
7
  6
CONTINUOUS
 10
6.6737071918
 20
3.394885274
 40
0.02
100
AcDbArc
 50
0.0
 51
90.0
  0
ARC
  5
304
100
AcDbEntity
  8
0
100
AcDbCircle
 62
7
  6
CONTINUOUS
 10
6.6737071918
 20
2.784885274
 40
0.02
100
AcDbArc
 50
270.0
 51
360.0
  0
ARC
  5
305
100
AcDbEntity
  8
0
100
AcDbCircle
 62
7
  6
CONTINUOUS
 10
5.8687071918
 20
5.410885274
 40
0.175
100
AcDbArc
 50
105.0477379833
 51
171.5850319153
  0
ARC
  5
306
100
AcDbEntity
  8
0
100
AcDbCircle
 62
7
  6
CONTINUOUS
 10
8.4541419744
 20
5.910885274
 40
0.1254347826
100
AcDbArc
 50
112.9364108859
 51
160.4680059554
  0
ARC
  5
307
100
AcDbEntity
  8
0
100
AcDbCircle
 62
7
  6
CONTINUOUS
 10
8.3807071918
 20
6.0844220136
 40
0.063
100
AcDbArc
 50
292.9364108859
 51
360.0
  0
ARC
  5
308
100
AcDbEntity
  8
0
100
AcDbCircle
 62
7
  6
CONTINUOUS
 10
8.2765506815
 20
5.973885274
 40
0.063
100
AcDbArc
 50
270.0
 51
340.4680059554
  0
ARC
  5
309
100
AcDbEntity
  8
0
100
AcDbCircle
 62
7
  6
CONTINUOUS
 10
5.6637071918
 20
5.370885274
 40
0.03
100
AcDbArc
 50
0.0
 51
90.0
  0
ARC
  5
30A
100
AcDbEntity
  8
0
100
AcDbCircle
 62
7
  6
CONTINUOUS
 10
5.6659141939
 20
5.440885274
 40
0.03
100
AcDbArc
 50
270.0
 51
351.5850319153
  0
ARC
  5
30B
100
AcDbEntity
  8
0
100
AcDbCircle
 62
7
  6
CONTINUOUS
 10
6.2887071918
 20
5.6889374011
 40
0.03
100
AcDbArc
 50
274.1621379224
 51
360.0
  0
SPLINE
  5
30C
100
AcDbEntity
  8
0
100
AcDbSpline
 62
7
  6
CONTINUOUS
 70
0
 71
3
 72
17
 73
13
 74
0
 42
0.0000001
 43
0.0000001
 44
0.0000000001
 40
0.0
 40
0.0
 40
0.0
 40
0.0
 40
0.0356566666
 40
0.0750874946
 40
0.1654547349
 40
0.271389175
 40
0.3927853057
 40
0.4590603818
 40
0.5288287404
 40
0.6776842654
 40
0.8362084058
 40
1.0
 40
1.0
 40
1.0
 40
1.0
 10
5.5366163666
 20
2.7138738726
 30
0.0
 10
5.536676612
 20
2.7141781478
 30
0.0
 10
5.5367948134
 20
2.7148206359
 30
0.0
 10
5.5370243951
 20
2.7162416054
 30
0.0
 10
5.5372927884
 20
2.7182750665
 30
0.0
 10
5.5375761946
 20
2.7210244593
 30
0.0
 10
5.5377781092
 20
2.7235708042
 30
0.0
 10
5.5379220649
 20
2.7258056974
 30
0.0
 10
5.5380574435
 20
2.7282804063
 30
0.0
 10
5.5381909704
 20
2.7315587347
 30
0.0
 10
5.5382890981
 20
2.7356565077
 30
0.0
 10
5.5383112449
 20
2.7384604295
 30
0.0
 10
5.5383112449
 20
2.739885274
 30
0.0
  0
SPLINE
  5
30D
100
AcDbEntity
  8
0
100
AcDbSpline
 62
7
  6
CONTINUOUS
 70
0
 71
3
 72
18
 73
14
 74
0
 42
0.0000001
 43
0.0000001
 44
0.0000000001
 40
0.0
 40
0.0
 40
0.0
 40
0.0
 40
0.0372338944
 40
0.07793116
 40
0.1221706064
 40
0.1700182382
 40
0.2215290815
 40
0.2767340311
 40
0.3981087317
 40
0.5334618297
 40
0.6810935536
 40
0.8380130584
 40
1.0
 40
1.0
 40
1.0
 40
1.0
 10
5.5685761419
 20
2.7138738726
 30
0.0
 10
5.5687026877
 20
2.7141759875
 30
0.0
 10
5.5689516125
 20
2.7148150604
 30
0.0
 10
5.5692995948
 20
2.7158321675
 30
0.0
 10
5.5696369428
 20
2.7169507505
 30
0.0
 10
5.5699620182
 20
2.7181716464
 30
0.0
 10
5.5702731174
 20
2.7194954619
 30
0.0
 10
5.5706797601
 20
2.7214605455
 30
0.0
 10
5.5711341349
 20
2.7241678309
 30
0.0
 10
5.5715745114
 20
2.7276985191
 30
0.0
 10
5.5719070278
 20
2.7315549477
 30
0.0
 10
5.5721147965
 20
2.7356546055
 30
0.0
 10
5.5721617006
 20
2.7384602717
 30
0.0
 10
5.5721617006
 20
2.739885274
 30
0.0
  0
SPLINE
  5
30E
100
AcDbEntity
  8
0
100
AcDbSpline
 62
7
  6
CONTINUOUS
 70
0
 71
3
 72
18
 73
14
 74
0
 42
0.0000001
 43
0.0000001
 44
0.0000000001
 40
0.0
 40
0.0
 40
0.0
 40
0.0
 40
0.0396171768
 40
0.0822584415
 40
0.1280327549
 40
0.1770337809
 40
0.2293420433
 40
0.2850122688
 40
0.4064007934
 40
0.5407096091
 40
0.6864410727
 40
0.8408480108
 40
1.0
 40
1.0
 40
1.0
 40
1.0
 10
5.5969257243
 20
2.7138738726
 30
0.0
 10
5.5971160599
 20
2.7141732823
 30
0.0
 10
5.5974914988
 20
2.7148076678
 30
0.0
 10
5.5980204541
 20
2.7158254928
 30
0.0
 10
5.5985331128
 20
2.7169447623
 30
0.0
 10
5.5990270094
 20
2.7181662878
 30
0.0
 10
5.5994995875
 20
2.7194906912
 30
0.0
 10
5.6001154203
 20
2.7214507132
 30
0.0
 10
5.6008051547
 20
2.7241548803
 30
0.0
 10
5.6014747938
 20
2.7276889519
 30
0.0
 10
5.6019803149
 20
2.7315486512
 30
0.0
 10
5.6022961234
 20
2.735651415
 30
0.0
 10
5.6023674326
 20
2.7384600069
 30
0.0
 10
5.6023674326
 20
2.739885274
 30
0.0
  0
SPLINE
  5
30F
100
AcDbEntity
  8
0
100
AcDbSpline
 62
7
  6
CONTINUOUS
 70
0
 71
3
 72
15
 73
11
 74
0
 42
0.0000001
 43
0.0000001
 44
0.0000000001
 40
0.0
 40
0.0
 40
0.0
 40
0.0
 40
0.0874131284
 40
0.1854974834
 40
0.2950905855
 40
0.4165848969
 40
0.5496655538
 40
0.6930757199
 40
0.8443735268
 40
1.0
 40
1.0
 40
1.0
 40
1.0
 10
5.6213920918
 20
2.7138738726
 30
0.0
 10
5.6219094269
 20
2.7144850786
 30
0.0
 10
5.6229161505
 20
2.7158605549
 30
0.0
 10
5.6242543487
 20
2.7182147015
 30
0.0
 10
5.6254768816
 20
2.7209761556
 30
0.0
 10
5.62655263
 20
2.7241380695
 30
0.0
 10
5.6274464236
 20
2.7276763339
 30
0.0
 10
5.6281210115
 20
2.7315401444
 30
0.0
 10
5.6285423725
 20
2.7356470697
 30
0.0
 10
5.628637543
 20
2.7384596454
 30
0.0
 10
5.628637543
 20
2.739885274
 30
0.0
  0
SPLINE
  5
310
100
AcDbEntity
  8
0
100
AcDbSpline
 62
7
  6
CONTINUOUS
 70
0
 71
3
 72
16
 73
12
 74
0
 42
0.0000001
 43
0.0000001
 44
0.0000000001
 40
0.0
 40
0.0
 40
0.0
 40
0.0
 40
0.0929073199
 40
0.1946388032
 40
0.2491238665
 40
0.3061328099
 40
0.4278184719
 40
0.5595968774
 40
0.7004606892
 40
0.8483065721
 40
1.0
 40
1.0
 40
1.0
 40
1.0
 10
5.6417396199
 20
2.7138738726
 30
0.0
 10
5.6423718064
 20
2.7144765408
 30
0.0
 10
5.6436075779
 20
2.7158341897
 30
0.0
 10
5.644961962
 20
2.7177514442
 30
0.0
 10
5.6459803223
 20
2.7194789817
 30
0.0
 10
5.646990614
 20
2.7214255011
 30
0.0
 10
5.648128396
 20
2.7241191618
 30
0.0
 10
5.649239028
 20
2.7276613458
 30
0.0
 10
5.650077241
 20
2.7315298765
 30
0.0
 10
5.6506007462
 20
2.7356417331
 30
0.0
 10
5.6507190364
 20
2.738459201
 30
0.0
 10
5.6507190364
 20
2.739885274
 30
0.0
  0
SPLINE
  5
311
100
AcDbEntity
  8
0
100
AcDbSpline
 62
7
  6
CONTINUOUS
 70
0
 71
3
 72
15
 73
11
 74
0
 42
0.0000001
 43
0.0000001
 44
0.0000000001
 40
0.0
 40
0.0
 40
0.0
 40
0.0
 40
0.0983290147
 40
0.2037737094
 40
0.3172059389
 40
0.4391892351
 40
0.5697200062
 40
0.708025181
 40
0.8523469355
 40
1.0
 40
1.0
 40
1.0
 40
1.0
 10
5.6577723508
 20
2.7138738726
 30
0.0
 10
5.6585122028
 20
2.7144698354
 30
0.0
 10
5.6599618411
 20
2.7158117259
 30
0.0
 10
5.661935078
 20
2.718166239
 30
0.0
 10
5.6637381403
 20
2.7209311501
 30
0.0
 10
5.6653246849
 20
2.7240989426
 30
0.0
 10
5.666642751
 20
2.7276450106
 30
0.0
 10
5.667637488
 20
2.7315182813
 30
0.0
 10
5.6682587983
 20
2.7356356313
 30
0.0
 10
5.6683992559
 20
2.738458691
 30
0.0
 10
5.6683992559
 20
2.739885274
 30
0.0
  0
SPLINE
  5
312
100
AcDbEntity
  8
0
100
AcDbSpline
 62
7
  6
CONTINUOUS
 70
0
 71
3
 72
15
 73
11
 74
0
 42
0.0000001
 43
0.0000001
 44
0.0000000001
 40
0.0
 40
0.0
 40
0.0
 40
0.0
 40
0.1034124982
 40
0.2124289161
 40
0.3278335679
 40
0.4501852125
 40
0.5795699479
 40
0.7154189826
 40
0.8563070977
 40
1.0
 40
1.0
 40
1.0
 40
1.0
 10
5.6693358806
 20
2.7138738726
 30
0.0
 10
5.6701760071
 20
2.714464702
 30
0.0
 10
5.6718236404
 20
2.7157932766
 30
0.0
 10
5.6740864698
 20
2.7181456146
 30
0.0
 10
5.6761553053
 20
2.7209099814
 30
0.0
 10
5.677976538
 20
2.724079
 30
0.0
 10
5.6794901003
 20
2.727628036
 30
0.0
 10
5.6806326821
 20
2.7315059142
 30
0.0
 10
5.6813464681
 20
2.7356289935
 30
0.0
 10
5.6815079313
 20
2.738458135
 30
0.0
 10
5.6815079313
 20
2.739885274
 30
0.0
  0
SPLINE
  5
313
100
AcDbEntity
  8
0
100
AcDbSpline
 62
7
  6
CONTINUOUS
 70
0
 71
3
 72
15
 73
11
 74
0
 42
0.0000001
 43
0.0000001
 44
0.0000000001
 40
0.0
 40
0.0
 40
0.0
 40
0.0
 40
0.1080171775
 40
0.2203393623
 40
0.3376283979
 40
0.4603950771
 40
0.5887721899
 40
0.7223585513
 40
0.8600346285
 40
1.0
 40
1.0
 40
1.0
 40
1.0
 10
5.676318846
 20
2.7138738726
 30
0.0
 10
5.6772513385
 20
2.7144608055
 30
0.0
 10
5.6790804196
 20
2.7157785354
 30
0.0
 10
5.6816101105
 20
2.7181280711
 30
0.0
 10
5.683924303
 20
2.7208908895
 30
0.0
 10
5.6859627237
 20
2.7240600661
 30
0.0
 10
5.687657679
 20
2.7276112277
 30
0.0
 10
5.6889377726
 20
2.7314932827
 30
0.0
 10
5.689737732
 20
2.7356220827
 30
0.0
 10
5.6899188189
 20
2.7384575544
 30
0.0
 10
5.6899188189
 20
2.739885274
 30
0.0
  0
SPLINE
  5
314
100
AcDbEntity
  8
0
100
AcDbSpline
 62
7
  6
CONTINUOUS
 70
0
 71
3
 72
15
 73
11
 74
0
 42
0.0000001
 43
0.0000001
 44
0.0000000001
 40
0.0
 40
0.0
 40
0.0
 40
0.0
 40
0.1120729818
 40
0.2273584295
 40
0.3463822913
 40
0.4695806928
 40
0.5970985677
 40
0.7286652423
 40
0.8634316312
 40
1.0
 40
1.0
 40
1.0
 40
1.0
 10
5.6786539975
 20
2.7138738726
 30
0.0
 10
5.6796702777
 20
2.7144578528
 30
0.0
 10
5.6816632995
 20
2.7157669237
 30
0.0
 10
5.6844346916
 20
2.7181135268
 30
0.0
 10
5.6869713377
 20
2.7208742381
 30
0.0
 10
5.6892070621
 20
2.7240427587
 30
0.0
 10
5.6910672398
 20
2.7275952317
 30
0.0
 10
5.6924729432
 20
2.7314808855
 30
0.0
 10
5.693351809
 20
2.7356151664
 30
0.0
 10
5.6935509174
 20
2.7384569715
 30
0.0
 10
5.6935509174
 20
2.739885274
 30
0.0
  0
SPLINE
  5
315
100
AcDbEntity
  8
0
100
AcDbSpline
 62
7
  6
CONTINUOUS
 70
0
 71
3
 72
15
 73
11
 74
0
 42
0.0000001
 43
0.0000001
 44
0.0000000001
 40
0.0
 40
0.0
 40
0.0
 40
0.0
 40
0.1365683308
 40
0.2713346955
 40
0.4029013729
 40
0.5304192708
 40
0.6536176871
 40
0.7726415617
 40
0.8879270119
 40
1.0
 40
1.0
 40
1.0
 40
1.0
 10
4.6938634662
 20
2.7398852752
 30
0.0
 10
4.6938634662
 20
2.7384569731
 30
0.0
 10
4.6940625743
 20
2.7356151686
 30
0.0
 10
4.6949414396
 20
2.731480888
 30
0.0
 10
4.6963471429
 20
2.7275952339
 30
0.0
 10
4.6982073204
 20
2.7240427602
 30
0.0
 10
4.7004430452
 20
2.720874239
 30
0.0
 10
4.7029796915
 20
2.7181135272
 30
0.0
 10
4.7057510838
 20
2.7157669239
 30
0.0
 10
4.7077441058
 20
2.7144578529
 30
0.0
 10
4.7087603861
 20
2.7138738726
 30
0.0
  0
SPLINE
  5
316
100
AcDbEntity
  8
0
100
AcDbSpline
 62
7
  6
CONTINUOUS
 70
0
 71
3
 72
15
 73
11
 74
0
 42
0.0000001
 43
0.0000001
 44
0.0000000001
 40
0.0
 40
0.0
 40
0.0
 40
0.0
 40
0.1399653329
 40
0.2776413853
 40
0.4112277497
 40
0.5396048861
 40
0.6623715799
 40
0.7796606286
 40
0.8919828161
 40
1.0
 40
1.0
 40
1.0
 40
1.0
 10
4.6974955646
 20
2.739885274
 30
0.0
 10
4.6974955646
 20
2.7384575548
 30
0.0
 10
4.6976766515
 20
2.7356220837
 30
0.0
 10
4.6984766106
 20
2.7314932844
 30
0.0
 10
4.699756704
 20
2.7276112293
 30
0.0
 10
4.7014516592
 20
2.7240600672
 30
0.0
 10
4.7034900802
 20
2.7208908901
 30
0.0
 10
4.7058042728
 20
2.7181280714
 30
0.0
 10
4.7083339639
 20
2.7157785356
 30
0.0
 10
4.710163045
 20
2.7144608055
 30
0.0
 10
4.7110955375
 20
2.7138738726
 30
0.0
  0
SPLINE
  5
317
100
AcDbEntity
  8
0
100
AcDbSpline
 62
7
  6
CONTINUOUS
 70
0
 71
3
 72
15
 73
11
 74
0
 42
0.0000001
 43
0.0000001
 44
0.0000000001
 40
0.0
 40
0.0
 40
0.0
 40
0.0
 40
0.1436928627
 40
0.2845809527
 40
0.4204299909
 40
0.5498147506
 40
0.6721664101
 40
0.7875710751
 40
0.8965874956
 40
1.0
 40
1.0
 40
1.0
 40
1.0
 10
4.7059064523
 20
2.739885274
 30
0.0
 10
4.7059064523
 20
2.7384581354
 30
0.0
 10
4.7060679154
 20
2.7356289945
 30
0.0
 10
4.7067817011
 20
2.7315059158
 30
0.0
 10
4.7079242828
 20
2.7276280376
 30
0.0
 10
4.709437845
 20
2.7240790011
 30
0.0
 10
4.7112590779
 20
2.720909982
 30
0.0
 10
4.7133279134
 20
2.7181456149
 30
0.0
 10
4.715590743
 20
2.7157932767
 30
0.0
 10
4.7172383764
 20
2.714464702
 30
0.0
 10
4.718078503
 20
2.7138738726
 30
0.0
  0
SPLINE
  5
318
100
AcDbEntity
  8
0
100
AcDbSpline
 62
7
  6
CONTINUOUS
 70
0
 71
3
 72
15
 73
11
 74
0
 42
0.0000001
 43
0.0000001
 44
0.0000000001
 40
0.0
 40
0.0
 40
0.0
 40
0.0
 40
0.1476530551
 40
0.2919748021
 40
0.4302799768
 40
0.5608107553
 40
0.6827940561
 40
0.7962262879
 40
0.9016709839
 40
1.0
 40
1.0
 40
1.0
 40
1.0
 10
4.7190151277
 20
2.739885274
 30
0.0
 10
4.7190151277
 20
2.7384586911
 30
0.0
 10
4.7191555852
 20
2.7356356316
 30
0.0
 10
4.7197768954
 20
2.7315182818
 30
0.0
 10
4.7207716325
 20
2.727645011
 30
0.0
 10
4.7220896985
 20
2.7240989429
 30
0.0
 10
4.7236762432
 20
2.7209311503
 30
0.0
 10
4.7254793055
 20
2.7181662391
 30
0.0
 10
4.7274525424
 20
2.7158117259
 30
0.0
 10
4.7289021808
 20
2.7144698354
 30
0.0
 10
4.7296420327
 20
2.7138738726
 30
0.0
  0
SPLINE
  5
319
100
AcDbEntity
  8
0
100
AcDbSpline
 62
7
  6
CONTINUOUS
 70
0
 71
3
 72
16
 73
12
 74
0
 42
0.0000001
 43
0.0000001
 44
0.0000000001
 40
0.0
 40
0.0
 40
0.0
 40
0.0
 40
0.1516933861
 40
0.2995392431
 40
0.4404030594
 40
0.572181491
 40
0.6938671684
 40
0.7508761222
 40
0.8053611886
 40
0.9070926743
 40
1.0
 40
1.0
 40
1.0
 40
1.0
 10
4.7366953472
 20
2.739885274
 30
0.0
 10
4.7366953472
 20
2.7384592014
 30
0.0
 10
4.7368136373
 20
2.7356417341
 30
0.0
 10
4.7373371423
 20
2.7315298781
 30
0.0
 10
4.7381753552
 20
2.7276613473
 30
0.0
 10
4.7392859871
 20
2.7241191628
 30
0.0
 10
4.7404237693
 20
2.7214255017
 30
0.0
 10
4.7414340611
 20
2.7194789821
 30
0.0
 10
4.7424524214
 20
2.7177514444
 30
0.0
 10
4.7438068056
 20
2.7158341898
 30
0.0
 10
4.7450425771
 20
2.7144765408
 30
0.0
 10
4.7456747637
 20
2.7138738726
 30
0.0
  0
SPLINE
  5
31A
100
AcDbEntity
  8
0
100
AcDbSpline
 62
7
  6
CONTINUOUS
 70
0
 71
3
 72
15
 73
11
 74
0
 42
0.0000001
 43
0.0000001
 44
0.0000000001
 40
0.0
 40
0.0
 40
0.0
 40
0.0
 40
0.1556264302
 40
0.306924211
 40
0.4503343819
 40
0.5834150659
 40
0.7049093929
 40
0.8145025087
 40
0.9125868661
 40
1.0
 40
1.0
 40
1.0
 40
1.0
 10
4.7587768406
 20
2.739885274
 30
0.0
 10
4.7587768406
 20
2.7384596458
 30
0.0
 10
4.758872011
 20
2.7356470708
 30
0.0
 10
4.7592933718
 20
2.731540146
 30
0.0
 10
4.7599679597
 20
2.7276763355
 30
0.0
 10
4.7608617532
 20
2.7241380706
 30
0.0
 10
4.7619375017
 20
2.7209761561
 30
0.0
 10
4.7631600347
 20
2.7182147018
 30
0.0
 10
4.764498233
 20
2.7158605551
 30
0.0
 10
4.7655049567
 20
2.7144850787
 30
0.0
 10
4.7660222918
 20
2.7138738726
 30
0.0
  0
SPLINE
  5
31B
100
AcDbEntity
  8
0
100
AcDbSpline
 62
7
  6
CONTINUOUS
 70
0
 71
3
 72
18
 73
14
 74
0
 42
0.0000001
 43
0.0000001
 44
0.0000000001
 40
0.0
 40
0.0
 40
0.0
 40
0.0
 40
0.1591519453
 40
0.3135588568
 40
0.4592903257
 40
0.5935991692
 40
0.7149877097
 40
0.7706579458
 40
0.8229662115
 40
0.8719672381
 40
0.9177415531
 40
0.9603828213
 40
1.0
 40
1.0
 40
1.0
 40
1.0
 10
4.785046951
 20
2.739885274
 30
0.0
 10
4.785046951
 20
2.7384600073
 30
0.0
 10
4.7851182601
 20
2.735651416
 30
0.0
 10
4.7854340685
 20
2.7315486528
 30
0.0
 10
4.7859395896
 20
2.7276889534
 30
0.0
 10
4.7866092286
 20
2.7241548814
 30
0.0
 10
4.7872989631
 20
2.7214507138
 30
0.0
 10
4.787914796
 20
2.7194906916
 30
0.0
 10
4.7883873741
 20
2.718166288
 30
0.0
 10
4.7888812707
 20
2.7169447624
 30
0.0
 10
4.7893939294
 20
2.715825493
 30
0.0
 10
4.7899228847
 20
2.7148076678
 30
0.0
 10
4.7902983237
 20
2.7141732824
 30
0.0
 10
4.7904886593
 20
2.7138738726
 30
0.0
  0
SPLINE
  5
31C
100
AcDbEntity
  8
0
100
AcDbSpline
 62
7
  6
CONTINUOUS
 70
0
 71
3
 72
18
 73
14
 74
0
 42
0.0000001
 43
0.0000001
 44
0.0000000001
 40
0.0
 40
0.0
 40
0.0
 40
0.0
 40
0.1619868969
 40
0.3189063749
 40
0.4665381042
 40
0.6018912308
 40
0.7232659474
 40
0.7784709077
 40
0.8299817544
 40
0.8778293868
 40
0.9220688348
 40
0.9627661037
 40
1.0
 40
1.0
 40
1.0
 40
1.0
 10
4.8152526829
 20
2.739885274
 30
0.0
 10
4.8152526829
 20
2.7384602721
 30
0.0
 10
4.815299587
 20
2.7356546065
 30
0.0
 10
4.8155073556
 20
2.7315549493
 30
0.0
 10
4.815839872
 20
2.7276985206
 30
0.0
 10
4.8162802485
 20
2.724167832
 30
0.0
 10
4.8167346234
 20
2.7214605461
 30
0.0
 10
4.8171412661
 20
2.7194954622
 30
0.0
 10
4.8174523653
 20
2.7181716466
 30
0.0
 10
4.8177774407
 20
2.7169507507
 30
0.0
 10
4.8181147887
 20
2.7158321676
 30
0.0
 10
4.818462771
 20
2.7148150605
 30
0.0
 10
4.8187116958
 20
2.7141759875
 30
0.0
 10
4.8188382417
 20
2.7138738726
 30
0.0
  0
SPLINE
  5
31D
100
AcDbEntity
  8
0
100
AcDbSpline
 62
7
  6
CONTINUOUS
 70
0
 71
3
 72
17
 73
13
 74
0
 42
0.0000001
 43
0.0000001
 44
0.0000000001
 40
0.0
 40
0.0
 40
0.0
 40
0.0
 40
0.163791549
 40
0.3223156624
 40
0.4711711931
 40
0.5409395711
 40
0.6072146567
 40
0.7286108035
 40
0.8345452578
 40
0.9249125003
 40
0.9643433316
 40
1.0
 40
1.0
 40
1.0
 40
1.0
 10
4.8491031387
 20
2.739885274
 30
0.0
 10
4.8491031387
 20
2.7384604299
 30
0.0
 10
4.8491252855
 20
2.7356565087
 30
0.0
 10
4.8492234131
 20
2.7315587363
 30
0.0
 10
4.84935694
 20
2.7282804079
 30
0.0
 10
4.8494923186
 20
2.7258056988
 30
0.0
 10
4.8496362743
 20
2.7235708051
 30
0.0
 10
4.849838189
 20
2.7210244599
 30
0.0
 10
4.8501215951
 20
2.7182750668
 30
0.0
 10
4.8503899885
 20
2.7162416056
 30
0.0
 10
4.8506195701
 20
2.7148206359
 30
0.0
 10
4.8507377716
 20
2.7141781478
 30
0.0
 10
4.850798017
 20
2.7138738726
 30
0.0
  0
SPLINE
  5
31E
100
AcDbEntity
  8
0
100
AcDbSpline
 62
7
  6
CONTINUOUS
 70
0
 71
3
 72
15
 73
11
 74
0
 42
0.0000001
 43
0.0000001
 44
0.0000000001
 40
0.0
 40
0.0
 40
0.0
 40
0.0
 40
0.112072995
 40
0.227358455
 40
0.3463823094
 40
0.4695807008
 40
0.5970985583
 40
0.728665229
 40
0.8634316209
 40
1.0
 40
1.0
 40
1.0
 40
1.0
 10
4.7087603861
 20
3.6358966753
 30
0.0
 10
4.7077441078
 20
3.6353126962
 30
0.0
 10
4.7057510895
 20
3.634003628
 30
0.0
 10
4.7029797021
 20
3.6316570304
 30
0.0
 10
4.7004430594
 20
3.6288963261
 30
0.0
 10
4.6982073369
 20
3.6257278139
 30
0.0
 10
4.6963471594
 20
3.6221753505
 30
0.0
 10
4.6949414527
 20
3.6182897065
 30
0.0
 10
4.6940625844
 20
3.614155435
 30
0.0
 10
4.6938634662
 20
3.6113136359
 30
0.0
 10
4.6938634662
 20
3.6098853362
 30
0.0
  0
SPLINE
  5
31F
100
AcDbEntity
  8
0
100
AcDbSpline
 62
7
  6
CONTINUOUS
 70
0
 71
3
 72
15
 73
11
 74
0
 42
0.0000001
 43
0.0000001
 44
0.0000000001
 40
0.0
 40
0.0
 40
0.0
 40
0.0
 40
0.1080171741
 40
0.2203393609
 40
0.3376283867
 40
0.4603950615
 40
0.5887721698
 40
0.7223585404
 40
0.8600346293
 40
1.0
 40
1.0
 40
1.0
 40
1.0
 10
4.7110955375
 20
3.6358966753
 30
0.0
 10
4.7101630451
 20
3.6353097425
 30
0.0
 10
4.708333964
 20
3.6339920126
 30
0.0
 10
4.7058042733
 20
3.6316424769
 30
0.0
 10
4.7034900807
 20
3.6288796587
 30
0.0
 10
4.7014516602
 20
3.6257104822
 30
0.0
 10
4.6997567047
 20
3.6221593207
 30
0.0
 10
4.6984766111
 20
3.6182772655
 30
0.0
 10
4.6976766516
 20
3.6141484654
 30
0.0
 10
4.6974955646
 20
3.6113129935
 30
0.0
 10
4.6974955646
 20
3.609885274
 30
0.0
  0
SPLINE
  5
320
100
AcDbEntity
  8
0
100
AcDbSpline
 62
7
  6
CONTINUOUS
 70
0
 71
3
 72
15
 73
11
 74
0
 42
0.0000001
 43
0.0000001
 44
0.0000000001
 40
0.0
 40
0.0
 40
0.0
 40
0.0
 40
0.1034124949
 40
0.2124289148
 40
0.3278335567
 40
0.4501851969
 40
0.5795699274
 40
0.7154189715
 40
0.8563070985
 40
1.0
 40
1.0
 40
1.0
 40
1.0
 10
4.718078503
 20
3.6358966753
 30
0.0
 10
4.7172383765
 20
3.635305846
 30
0.0
 10
4.7155907431
 20
3.6339772714
 30
0.0
 10
4.7133279139
 20
3.6316249334
 30
0.0
 10
4.7112590784
 20
3.6288605668
 30
0.0
 10
4.7094378458
 20
3.6256915483
 30
0.0
 10
4.7079242833
 20
3.6221425124
 30
0.0
 10
4.7067817015
 20
3.618264634
 30
0.0
 10
4.7060679155
 20
3.6141415546
 30
0.0
 10
4.7059064523
 20
3.6113124129
 30
0.0
 10
4.7059064523
 20
3.609885274
 30
0.0
  0
SPLINE
  5
321
100
AcDbEntity
  8
0
100
AcDbSpline
 62
7
  6
CONTINUOUS
 70
0
 71
3
 72
15
 73
11
 74
0
 42
0.0000001
 43
0.0000001
 44
0.0000000001
 40
0.0
 40
0.0
 40
0.0
 40
0.0
 40
0.0983290158
 40
0.2037737117
 40
0.3172059429
 40
0.4391892432
 40
0.5697200208
 40
0.708025195
 40
0.852346943
 40
1.0
 40
1.0
 40
1.0
 40
1.0
 10
4.7296420327
 20
3.6358966753
 30
0.0
 10
4.7289021808
 20
3.6353007125
 30
0.0
 10
4.7274525424
 20
3.633958822
 30
0.0
 10
4.7254793055
 20
3.6316043088
 30
0.0
 10
4.7236762432
 20
3.6288393977
 30
0.0
 10
4.7220896985
 20
3.6256716051
 30
0.0
 10
4.7207716325
 20
3.622125537
 30
0.0
 10
4.7197768954
 20
3.6182522663
 30
0.0
 10
4.7191555852
 20
3.6141349164
 30
0.0
 10
4.7190151277
 20
3.6113118569
 30
0.0
 10
4.7190151277
 20
3.609885274
 30
0.0
  0
SPLINE
  5
322
100
AcDbEntity
  8
0
100
AcDbSpline
 62
7
  6
CONTINUOUS
 70
0
 71
3
 72
16
 73
12
 74
0
 42
0.0000001
 43
0.0000001
 44
0.0000000001
 40
0.0
 40
0.0
 40
0.0
 40
0.0
 40
0.0929073169
 40
0.1946388021
 40
0.2491238632
 40
0.3061327987
 40
0.4278184562
 40
0.5595968561
 40
0.7004606776
 40
0.848306573
 40
1.0
 40
1.0
 40
1.0
 40
1.0
 10
4.7456747637
 20
3.6358966753
 30
0.0
 10
4.7450425771
 20
3.6352940072
 30
0.0
 10
4.7438068057
 20
3.6339363583
 30
0.0
 10
4.7424524216
 20
3.6320191038
 30
0.0
 10
4.7414340613
 20
3.6302915663
 30
0.0
 10
4.7404237696
 20
3.6283450471
 30
0.0
 10
4.7392859878
 20
3.6256513866
 30
0.0
 10
4.7381753557
 20
3.6221092026
 30
0.0
 10
4.7373371426
 20
3.6182406717
 30
0.0
 10
4.7368136373
 20
3.6141288149
 30
0.0
 10
4.7366953472
 20
3.6113113469
 30
0.0
 10
4.7366953472
 20
3.609885274
 30
0.0
  0
SPLINE
  5
323
100
AcDbEntity
  8
0
100
AcDbSpline
 62
7
  6
CONTINUOUS
 70
0
 71
3
 72
15
 73
11
 74
0
 42
0.0000001
 43
0.0000001
 44
0.0000000001
 40
0.0
 40
0.0
 40
0.0
 40
0.0
 40
0.0874131254
 40
0.1854974824
 40
0.2950905743
 40
0.4165848812
 40
0.5496655322
 40
0.693075708
 40
0.8443735278
 40
1.0
 40
1.0
 40
1.0
 40
1.0
 10
4.7660222918
 20
3.6358966753
 30
0.0
 10
4.7655049567
 20
3.6352854693
 30
0.0
 10
4.7644982331
 20
3.633909993
 30
0.0
 10
4.763160035
 20
3.6315558465
 30
0.0
 10
4.761937502
 20
3.6287943926
 30
0.0
 10
4.7608617537
 20
3.6256324789
 30
0.0
 10
4.7599679601
 20
3.6220942144
 30
0.0
 10
4.7592933721
 20
3.6182304038
 30
0.0
 10
4.758872011
 20
3.6141234783
 30
0.0
 10
4.7587768406
 20
3.6113109026
 30
0.0
 10
4.7587768406
 20
3.609885274
 30
0.0
  0
SPLINE
  5
324
100
AcDbEntity
  8
0
100
AcDbSpline
 62
7
  6
CONTINUOUS
 70
0
 71
3
 72
18
 73
14
 74
0
 42
0.0000001
 43
0.0000001
 44
0.0000000001
 40
0.0
 40
0.0
 40
0.0
 40
0.0
 40
0.0396171757
 40
0.0822584387
 40
0.1280327526
 40
0.17703378
 40
0.2293420401
 40
0.2850122576
 40
0.4064007777
 40
0.5407095872
 40
0.6864410606
 40
0.8408480118
 40
1.0
 40
1.0
 40
1.0
 40
1.0
 10
4.7904886593
 20
3.6358966753
 30
0.0
 10
4.7902983237
 20
3.6355972656
 30
0.0
 10
4.7899228847
 20
3.6349628802
 30
0.0
 10
4.7893939295
 20
3.6339450552
 30
0.0
 10
4.7888812708
 20
3.6328257857
 30
0.0
 10
4.7883873742
 20
3.6316042602
 30
0.0
 10
4.7879147961
 20
3.6302798569
 30
0.0
 10
4.7872989634
 20
3.628319835
 30
0.0
 10
4.786609229
 20
3.6256156681
 30
0.0
 10
4.7859395898
 20
3.6220815965
 30
0.0
 10
4.7854340687
 20
3.618221897
 30
0.0
 10
4.7851182602
 20
3.6141191331
 30
0.0
 10
4.785046951
 20
3.611310541
 30
0.0
 10
4.785046951
 20
3.609885274
 30
0.0
  0
SPLINE
  5
325
100
AcDbEntity
  8
0
100
AcDbSpline
 62
7
  6
CONTINUOUS
 70
0
 71
3
 72
18
 73
14
 74
0
 42
0.0000001
 43
0.0000001
 44
0.0000000001
 40
0.0
 40
0.0
 40
0.0
 40
0.0
 40
0.0372338933
 40
0.0779311572
 40
0.1221706042
 40
0.1700182374
 40
0.2215290783
 40
0.2767340199
 40
0.3981087159
 40
0.5334618075
 40
0.6810935414
 40
0.8380130594
 40
1.0
 40
1.0
 40
1.0
 40
1.0
 10
4.8188382417
 20
3.6358966753
 30
0.0
 10
4.8187116959
 20
3.6355945605
 30
0.0
 10
4.818462771
 20
3.6349554875
 30
0.0
 10
4.8181147888
 20
3.6339383805
 30
0.0
 10
4.8177774408
 20
3.6328197975
 30
0.0
 10
4.8174523654
 20
3.6315989016
 30
0.0
 10
4.8171412662
 20
3.6302750862
 30
0.0
 10
4.8167346235
 20
3.6283100027
 30
0.0
 10
4.8162802487
 20
3.6256027175
 30
0.0
 10
4.8158398721
 20
3.6220720293
 30
0.0
 10
4.8155073558
 20
3.6182156005
 30
0.0
 10
4.8152995871
 20
3.6141159426
 30
0.0
 10
4.8152526829
 20
3.6113102762
 30
0.0
 10
4.8152526829
 20
3.609885274
 30
0.0
  0
SPLINE
  5
326
100
AcDbEntity
  8
0
100
AcDbSpline
 62
7
  6
CONTINUOUS
 70
0
 71
3
 72
17
 73
13
 74
0
 42
0.0000001
 43
0.0000001
 44
0.0000000001
 40
0.0
 40
0.0
 40
0.0
 40
0.0
 40
0.0356566654
 40
0.0750874919
 40
0.1654547341
 40
0.2713891638
 40
0.3927852899
 40
0.4590603652
 40
0.528828718
 40
0.6776842531
 40
0.8362084068
 40
1.0
 40
1.0
 40
1.0
 40
1.0
 10
4.850798017
 20
3.6358966753
 30
0.0
 10
4.8507377716
 20
3.6355924002
 30
0.0
 10
4.8506195701
 20
3.6349499121
 30
0.0
 10
4.8503899885
 20
3.6335289426
 30
0.0
 10
4.8501215952
 20
3.6314954816
 30
0.0
 10
4.849838189
 20
3.6287460889
 30
0.0
 10
4.8496362744
 20
3.6261997442
 30
0.0
 10
4.8494923187
 20
3.623964851
 30
0.0
 10
4.84935694
 20
3.6214901421
 30
0.0
 10
4.8492234132
 20
3.6182118136
 30
0.0
 10
4.8491252855
 20
3.6141140403
 30
0.0
 10
4.8491031387
 20
3.6113101185
 30
0.0
 10
4.8491031387
 20
3.609885274
 30
0.0
  0
SPLINE
  5
327
100
AcDbEntity
  8
0
100
AcDbSpline
 62
7
  6
CONTINUOUS
 70
0
 71
3
 72
15
 73
11
 74
0
 42
0.0000001
 43
0.0000001
 44
0.0000000001
 40
0.0
 40
0.0
 40
0.0
 40
0.0
 40
0.1365683491
 40
0.2713347117
 40
0.4029013778
 40
0.5304192727
 40
0.6536176873
 40
0.7726415632
 40
0.8879270116
 40
1.0
 40
1.0
 40
1.0
 40
1.0
 10
5.6935509174
 20
3.609885274
 30
0.0
 10
5.6935509174
 20
3.6113135762
 30
0.0
 10
5.693351809
 20
3.6141553808
 30
0.0
 10
5.6924729436
 20
3.6182896612
 30
0.0
 10
5.6910672402
 20
3.6221753149
 30
0.0
 10
5.6892070628
 20
3.6257277883
 30
0.0
 10
5.6869713381
 20
3.6288963093
 30
0.0
 10
5.6844346919
 20
3.631657021
 30
0.0
 10
5.6816632996
 20
3.6340036241
 30
0.0
 10
5.6796702777
 20
3.6353126951
 30
0.0
 10
5.6786539975
 20
3.6358966753
 30
0.0
  0
SPLINE
  5
328
100
AcDbEntity
  8
0
100
AcDbSpline
 62
7
  6
CONTINUOUS
 70
0
 71
3
 72
15
 73
11
 74
0
 42
0.0000001
 43
0.0000001
 44
0.0000000001
 40
0.0
 40
0.0
 40
0.0
 40
0.0
 40
0.1399653514
 40
0.2776414018
 40
0.4112277548
 40
0.5396048884
 40
0.6623715808
 40
0.7796606305
 40
0.8919828161
 40
1.0
 40
1.0
 40
1.0
 40
1.0
 10
5.6899188189
 20
3.609885274
 30
0.0
 10
5.6899188189
 20
3.6113129933
 30
0.0
 10
5.689737732
 20
3.6141484646
 30
0.0
 10
5.6889377729
 20
3.618277264
 30
0.0
 10
5.6876576794
 20
3.6221593189
 30
0.0
 10
5.6859627243
 20
3.6257104809
 30
0.0
 10
5.6839243033
 20
3.6288796578
 30
0.0
 10
5.6816101108
 20
3.6316424766
 30
0.0
 10
5.6790804197
 20
3.6339920124
 30
0.0
 10
5.6772513386
 20
3.6353097424
 30
0.0
 10
5.676318846
 20
3.6358966753
 30
0.0
  0
SPLINE
  5
329
100
AcDbEntity
  8
0
100
AcDbSpline
 62
7
  6
CONTINUOUS
 70
0
 71
3
 72
15
 73
11
 74
0
 42
0.0000001
 43
0.0000001
 44
0.0000000001
 40
0.0
 40
0.0
 40
0.0
 40
0.0
 40
0.1436928816
 40
0.2845809695
 40
0.420429996
 40
0.5498147529
 40
0.672166411
 40
0.787571077
 40
0.8965874956
 40
1.0
 40
1.0
 40
1.0
 40
1.0
 10
5.6815079313
 20
3.609885274
 30
0.0
 10
5.6815079313
 20
3.6113124127
 30
0.0
 10
5.6813464681
 20
3.6141415538
 30
0.0
 10
5.6806326824
 20
3.6182646325
 30
0.0
 10
5.6794901007
 20
3.6221425106
 30
0.0
 10
5.6779765385
 20
3.625691547
 30
0.0
 10
5.6761553056
 20
3.628860566
 30
0.0
 10
5.6740864701
 20
3.6316249331
 30
0.0
 10
5.6718236405
 20
3.6339772713
 30
0.0
 10
5.6701760071
 20
3.6353058459
 30
0.0
 10
5.6693358806
 20
3.6358966753
 30
0.0
  0
SPLINE
  5
32A
100
AcDbEntity
  8
0
100
AcDbSpline
 62
7
  6
CONTINUOUS
 70
0
 71
3
 72
15
 73
11
 74
0
 42
0.0000001
 43
0.0000001
 44
0.0000000001
 40
0.0
 40
0.0
 40
0.0
 40
0.0
 40
0.1476530669
 40
0.2919748222
 40
0.4302799963
 40
0.5608107666
 40
0.6827940621
 40
0.796226291
 40
0.9016709856
 40
1.0
 40
1.0
 40
1.0
 40
1.0
 10
5.6683992559
 20
3.609885274
 30
0.0
 10
5.6683992559
 20
3.611311857
 30
0.0
 10
5.6682587983
 20
3.6141349167
 30
0.0
 10
5.667637488
 20
3.6182522667
 30
0.0
 10
5.666642751
 20
3.6221255374
 30
0.0
 10
5.6653246849
 20
3.6256716054
 30
0.0
 10
5.6637381403
 20
3.6288393978
 30
0.0
 10
5.661935078
 20
3.6316043089
 30
0.0
 10
5.6599618411
 20
3.6339588221
 30
0.0
 10
5.6585122028
 20
3.6353007125
 30
0.0
 10
5.6577723508
 20
3.6358966753
 30
0.0
  0
SPLINE
  5
32B
100
AcDbEntity
  8
0
100
AcDbSpline
 62
7
  6
CONTINUOUS
 70
0
 71
3
 72
16
 73
12
 74
0
 42
0.0000001
 43
0.0000001
 44
0.0000000001
 40
0.0
 40
0.0
 40
0.0
 40
0.0
 40
0.1516934061
 40
0.2995392608
 40
0.4404030647
 40
0.5721814934
 40
0.6938671691
 40
0.7508761239
 40
0.8053611904
 40
0.9070926743
 40
1.0
 40
1.0
 40
1.0
 40
1.0
 10
5.6507190364
 20
3.609885274
 30
0.0
 10
5.6507190364
 20
3.6113113467
 30
0.0
 10
5.6506007463
 20
3.6141288142
 30
0.0
 10
5.6500772412
 20
3.6182406703
 30
0.0
 10
5.6492390282
 20
3.6221092008
 30
0.0
 10
5.6481283964
 20
3.6256513852
 30
0.0
 10
5.6469906143
 20
3.6283450463
 30
0.0
 10
5.6459803225
 20
3.6302915659
 30
0.0
 10
5.6449619621
 20
3.6320191036
 30
0.0
 10
5.6436075779
 20
3.6339363581
 30
0.0
 10
5.6423718065
 20
3.6352940071
 30
0.0
 10
5.6417396199
 20
3.6358966753
 30
0.0
  0
SPLINE
  5
32C
100
AcDbEntity
  8
0
100
AcDbSpline
 62
7
  6
CONTINUOUS
 70
0
 71
3
 72
15
 73
11
 74
0
 42
0.0000001
 43
0.0000001
 44
0.0000000001
 40
0.0
 40
0.0
 40
0.0
 40
0.0
 40
0.1556264508
 40
0.3069242291
 40
0.4503343872
 40
0.5834150683
 40
0.7049093936
 40
0.8145025105
 40
0.9125868661
 40
1.0
 40
1.0
 40
1.0
 40
1.0
 10
5.628637543
 20
3.609885274
 30
0.0
 10
5.628637543
 20
3.6113109024
 30
0.0
 10
5.6285423725
 20
3.6141234775
 30
0.0
 10
5.6281210117
 20
3.6182304023
 30
0.0
 10
5.6274464238
 20
3.6220942127
 30
0.0
 10
5.6265526304
 20
3.6256324774
 30
0.0
 10
5.6254768818
 20
3.6287943918
 30
0.0
 10
5.6242543488
 20
3.6315558462
 30
0.0
 10
5.6229161506
 20
3.6339099929
 30
0.0
 10
5.6219094269
 20
3.6352854693
 30
0.0
 10
5.6213920918
 20
3.6358966753
 30
0.0
  0
SPLINE
  5
32D
100
AcDbEntity
  8
0
100
AcDbSpline
 62
7
  6
CONTINUOUS
 70
0
 71
3
 72
18
 73
14
 74
0
 42
0.0000001
 43
0.0000001
 44
0.0000000001
 40
0.0
 40
0.0
 40
0.0
 40
0.0
 40
0.1591519663
 40
0.3135588753
 40
0.4592903311
 40
0.5935991716
 40
0.7149877104
 40
0.7706579474
 40
0.8229662132
 40
0.8719672388
 40
0.9177415531
 40
0.9603828212
 40
1.0
 40
1.0
 40
1.0
 40
1.0
 10
5.6023674326
 20
3.609885274
 30
0.0
 10
5.6023674326
 20
3.6113105408
 30
0.0
 10
5.6022961234
 20
3.6141191323
 30
0.0
 10
5.6019803151
 20
3.6182218955
 30
0.0
 10
5.601474794
 20
3.6220815947
 30
0.0
 10
5.6008051549
 20
3.6256156666
 30
0.0
 10
5.6001154204
 20
3.6283198342
 30
0.0
 10
5.5994995876
 20
3.6302798564
 30
0.0
 10
5.5990270094
 20
3.63160426
 30
0.0
 10
5.5985331129
 20
3.6328257855
 30
0.0
 10
5.5980204542
 20
3.633945055
 30
0.0
 10
5.5974914989
 20
3.6349628801
 30
0.0
 10
5.5971160599
 20
3.6355972656
 30
0.0
 10
5.5969257243
 20
3.6358966753
 30
0.0
  0
SPLINE
  5
32E
100
AcDbEntity
  8
0
100
AcDbSpline
 62
7
  6
CONTINUOUS
 70
0
 71
3
 72
18
 73
14
 74
0
 42
0.0000001
 43
0.0000001
 44
0.0000000001
 40
0.0
 40
0.0
 40
0.0
 40
0.0
 40
0.1619869183
 40
0.3189063936
 40
0.4665381097
 40
0.6018912332
 40
0.7232659481
 40
0.7784709093
 40
0.8299817562
 40
0.8778293876
 40
0.9220688348
 40
0.9627661037
 40
1.0
 40
1.0
 40
1.0
 40
1.0
 10
5.5721617006
 20
3.609885274
 30
0.0
 10
5.5721617006
 20
3.611310276
 30
0.0
 10
5.5721147965
 20
3.6141159418
 30
0.0
 10
5.5719070279
 20
3.618215599
 30
0.0
 10
5.5715745116
 20
3.6220720276
 30
0.0
 10
5.5711341351
 20
3.6256027161
 30
0.0
 10
5.5706797602
 20
3.6283100019
 30
0.0
 10
5.5702731175
 20
3.6302750857
 30
0.0
 10
5.5699620182
 20
3.6315989014
 30
0.0
 10
5.5696369428
 20
3.6328197973
 30
0.0
 10
5.5692995948
 20
3.6339383804
 30
0.0
 10
5.5689516125
 20
3.6349554875
 30
0.0
 10
5.5687026877
 20
3.6355945605
 30
0.0
 10
5.5685761419
 20
3.6358966753
 30
0.0
  0
SPLINE
  5
32F
100
AcDbEntity
  8
0
100
AcDbSpline
 62
7
  6
CONTINUOUS
 70
0
 71
3
 72
17
 73
13
 74
0
 42
0.0000001
 43
0.0000001
 44
0.0000000001
 40
0.0
 40
0.0
 40
0.0
 40
0.0
 40
0.1637915706
 40
0.3223156813
 40
0.4711711985
 40
0.5409395751
 40
0.6072146591
 40
0.7286108042
 40
0.8345452596
 40
0.9249125003
 40
0.9643433315
 40
1.0
 40
1.0
 40
1.0
 40
1.0
 10
5.5383112449
 20
3.609885274
 30
0.0
 10
5.5383112449
 20
3.6113101183
 30
0.0
 10
5.5382890981
 20
3.6141140396
 30
0.0
 10
5.5381909704
 20
3.6182118121
 30
0.0
 10
5.5380574436
 20
3.6214901403
 30
0.0
 10
5.537922065
 20
3.6239648493
 30
0.0
 10
5.5377781093
 20
3.6261997429
 30
0.0
 10
5.5375761946
 20
3.6287460881
 30
0.0
 10
5.5372927884
 20
3.6314954812
 30
0.0
 10
5.5370243951
 20
3.6335289424
 30
0.0
 10
5.5367948134
 20
3.634949912
 30
0.0
 10
5.536676612
 20
3.6355924002
 30
0.0
 10
5.5366163666
 20
3.6358966753
 30
0.0
  0
SPLINE
  5
330
100
AcDbEntity
  8
0
100
AcDbSpline
 62
7
  6
CONTINUOUS
 70
0
 71
3
 72
19
 73
15
 74
0
 42
0.0000001
 43
0.0000001
 44
0.0000000001
 40
0.0
 40
0.0
 40
0.0
 40
0.0
 40
0.1672301978
 40
0.3297668727
 40
0.4831992113
 40
0.6235665112
 40
0.6877922229
 40
0.7475558925
 40
0.8025576932
 40
0.8525475433
 40
0.8973369626
 40
0.9368217482
 40
0.9709986276
 40
1.0
 40
1.0
 40
1.0
 40
1.0
 10
4.7095842735
 20
3.394885274
 30
0.0
 10
4.7095842735
 20
3.3960010297
 30
0.0
 10
4.7095369747
 20
3.3982015296
 30
0.0
 10
4.7093266978
 20
3.4014196126
 30
0.0
 10
4.7089877321
 20
3.4044464777
 30
0.0
 10
4.7086009135
 20
3.406805101
 30
0.0
 10
4.7082346667
 20
3.4085307215
 30
0.0
 10
4.7079470638
 20
3.4096900696
 30
0.0
 10
4.7076413021
 20
3.4107462572
 30
0.0
 10
4.7073202319
 20
3.4116930424
 30
0.0
 10
4.7069868093
 20
3.4125250366
 30
0.0
 10
4.7066437661
 20
3.4132379154
 30
0.0
 10
4.7062938471
 20
3.413827816
 30
0.0
 10
4.7060371058
 20
3.4141642955
 30
0.0
 10
4.7059064523
 20
3.4143070208
 30
0.0
  0
SPLINE
  5
331
100
AcDbEntity
  8
0
100
AcDbSpline
 62
7
  6
CONTINUOUS
 70
0
 71
3
 72
15
 73
11
 74
0
 42
0.0000001
 43
0.0000001
 44
0.0000000001
 40
0.0
 40
0.0
 40
0.0
 40
0.0
 40
0.1428403031
 40
0.2829920047
 40
0.4183192843
 40
0.5474675457
 40
0.6699084783
 40
0.7857420361
 40
0.8955194521
 40
1.0
 40
1.0
 40
1.0
 40
1.0
 10
5.2062071918
 20
2.739885274
 30
0.0
 10
5.2062071918
 20
2.7384580077
 30
0.0
 10
5.2060412406
 20
2.735627473
 30
0.0
 10
5.2053077263
 20
2.7315031136
 30
0.0
 10
5.2041336369
 20
2.7276242633
 30
0.0
 10
5.2025784703
 20
2.7240746807
 30
0.0
 10
5.2007073718
 20
2.7209055418
 30
0.0
 10
5.1985821538
 20
2.7181414484
 30
0.0
 10
5.1962579656
 20
2.7157896997
 30
0.0
 10
5.1945685497
 20
2.7144637405
 30
0.0
 10
5.1937071918
 20
2.7138738726
 30
0.0
  0
SPLINE
  5
332
100
AcDbEntity
  8
0
100
AcDbSpline
 62
7
  6
CONTINUOUS
 70
0
 71
3
 72
15
 73
11
 74
0
 42
0.0000001
 43
0.0000001
 44
0.0000000001
 40
0.0
 40
0.0
 40
0.0
 40
0.0
 40
0.0994941203
 40
0.2057498842
 40
0.3196240284
 40
0.4416835937
 40
0.5719489177
 40
0.7096952709
 40
0.8532404504
 40
1.0
 40
1.0
 40
1.0
 40
1.0
 10
5.2412402909
 20
2.7138738726
 30
0.0
 10
5.2404775024
 20
2.7144685707
 30
0.0
 10
5.2389824766
 20
2.7158072803
 30
0.0
 10
5.2369430611
 20
2.7181613975
 30
0.0
 10
5.2350793169
 20
2.7209262982
 30
0.0
 10
5.2334392411
 20
2.7240944646
 30
0.0
 10
5.2320766252
 20
2.7276412615
 30
0.0
 10
5.2310482239
 20
2.7315155825
 30
0.0
 10
5.2304058689
 20
2.7356341933
 30
0.0
 10
5.2302606353
 20
2.7384585707
 30
0.0
 10
5.2302606353
 20
2.739885274
 30
0.0
  0
SPLINE
  5
333
100
AcDbEntity
  8
0
100
AcDbSpline
 62
7
  6
CONTINUOUS
 70
0
 71
3
 72
17
 73
13
 74
0
 42
0.0000001
 43
0.0000001
 44
0.0000000001
 40
0.0
 40
0.0
 40
0.0
 40
0.0
 40
0.1391604455
 40
0.2080834282
 40
0.276215965
 40
0.4093133678
 40
0.5374694017
 40
0.599590664
 40
0.6603771207
 40
0.7780504607
 40
0.8910473859
 40
1.0
 40
1.0
 40
1.0
 40
1.0
 10
5.2551402535
 20
2.739885274
 30
0.0
 10
5.2551402535
 20
2.7384574247
 30
0.0
 10
5.2550005375
 20
2.7363189147
 30
0.0
 10
5.2545391108
 20
2.7335211697
 30
0.0
 10
5.2539106433
 20
2.7308196461
 30
0.0
 10
5.2528278543
 20
2.727607599
 30
0.0
 10
5.251368301
 20
2.724617081
 30
0.0
 10
5.2500192555
 20
2.722420712
 30
0.0
 10
5.2485955507
 20
2.7204024837
 30
0.0
 10
5.2466447991
 20
2.7181244439
 30
0.0
 10
5.2440592554
 20
2.7157757447
 30
0.0
 10
5.2421921692
 20
2.7144600768
 30
0.0
 10
5.2412402909
 20
2.7138738726
 30
0.0
  0
SPLINE
  5
334
100
AcDbEntity
  8
0
100
AcDbSpline
 62
7
  6
CONTINUOUS
 70
0
 71
3
 72
15
 73
11
 74
0
 42
0.0000001
 43
0.0000001
 44
0.0000000001
 40
0.0
 40
0.0
 40
0.0
 40
0.0
 40
0.1963809989
 40
0.2511529824
 40
0.3083529286
 40
0.4301420461
 40
0.5616853521
 40
0.7020291876
 40
0.8491464326
 40
1.0
 40
1.0
 40
1.0
 40
1.0
 10
5.2883156203
 20
2.7138738726
 30
0.0
 10
5.2869460012
 20
2.7151273124
 30
0.0
 10
5.2854240163
 20
2.7169940143
 30
0.0
 10
5.283899127
 20
2.7194774664
 30
0.0
 10
5.2828472355
 20
2.7214226862
 30
0.0
 10
5.2816623201
 20
2.7241147007
 30
0.0
 10
5.2805046633
 20
2.727657813
 30
0.0
 10
5.279631006
 20
2.7315273933
 30
0.0
 10
5.2790853544
 20
2.7356404362
 30
0.0
 10
5.2789620492
 20
2.7384590927
 30
0.0
 10
5.2789620492
 20
2.739885274
 30
0.0
  0
SPLINE
  5
335
100
AcDbEntity
  8
0
100
AcDbSpline
 62
7
  6
CONTINUOUS
 70
0
 71
3
 72
15
 73
11
 74
0
 42
0.0000001
 43
0.0000001
 44
0.0000000001
 40
0.0
 40
0.0
 40
0.0
 40
0.0
 40
0.135865112
 40
0.2700312933
 40
0.4011849928
 40
0.5285319714
 40
0.651825795
 40
0.7712104362
 40
0.8871033114
 40
1.0
 40
1.0
 40
1.0
 40
1.0
 10
5.3034816812
 20
2.739885274
 30
0.0
 10
5.3034816812
 20
2.7384568444
 30
0.0
 10
5.3032788077
 20
2.7356136566
 30
0.0
 10
5.3023834887
 20
2.731478211
 30
0.0
 10
5.3009516377
 20
2.7275918434
 30
0.0
 10
5.2990571301
 20
2.7240391776
 30
0.0
 10
5.2967804726
 20
2.7208708832
 30
0.0
 10
5.2941977207
 20
2.718110677
 30
0.0
 10
5.2913762505
 20
2.7157647096
 30
0.0
 10
5.2893492835
 20
2.7144573008
 30
0.0
 10
5.2883156203
 20
2.7138738726
 30
0.0
  0
SPLINE
  5
336
100
AcDbEntity
  8
0
100
AcDbSpline
 62
7
  6
CONTINUOUS
 70
0
 71
3
 72
15
 73
11
 74
0
 42
0.0000001
 43
0.0000001
 44
0.0000000001
 40
0.0
 40
0.0
 40
0.0
 40
0.0
 40
0.0886238773
 40
0.1875020172
 40
0.2974936469
 40
0.4190227207
 40
0.551815975
 40
0.6946722347
 40
0.8452229783
 40
1.0
 40
1.0
 40
1.0
 40
1.0
 10
5.3344798188
 20
2.7138738726
 30
0.0
 10
5.3339363348
 20
2.7144830193
 30
0.0
 10
5.3328774048
 20
2.7158544429
 30
0.0
 10
5.3314656596
 20
2.7182090673
 30
0.0
 10
5.3301760394
 20
2.720971232
 30
0.0
 10
5.3290413531
 20
2.7241339884
 30
0.0
 10
5.3280986509
 20
2.7276731816
 30
0.0
 10
5.3273871795
 20
2.7315379977
 30
0.0
 10
5.3269427914
 20
2.7356459629
 30
0.0
 10
5.3268424121
 20
2.7384595532
 30
0.0
 10
5.3268424121
 20
2.739885274
 30
0.0
  0
SPLINE
  5
337
100
AcDbEntity
  8
0
100
AcDbSpline
 62
7
  6
CONTINUOUS
 70
0
 71
3
 72
15
 73
11
 74
0
 42
0.0000001
 43
0.0000001
 44
0.0000000001
 40
0.0
 40
0.0
 40
0.0
 40
0.0
 40
0.1329533828
 40
0.2646425751
 40
0.3941052744
 40
0.5207696807
 40
0.644479525
 40
0.7653625746
 40
0.8837483067
 40
1.0
 40
1.0
 40
1.0
 40
1.0
 10
5.3507659205
 20
2.739885274
 30
0.0
 10
5.3507659205
 20
2.7384562891
 30
0.0
 10
5.3505472785
 20
2.7356070924
 30
0.0
 10
5.3495831869
 20
2.7314667152
 30
0.0
 10
5.3480422367
 20
2.7275775304
 30
0.0
 10
5.3460047458
 20
2.7240243706
 30
0.0
 10
5.3435578321
 20
2.7208573297
 30
0.0
 10
5.3407834411
 20
2.7180994281
 30
0.0
 10
5.3377538472
 20
2.7157561571
 30
0.0
 10
5.3355858232
 20
2.7144552001
 30
0.0
 10
5.3344798188
 20
2.7138738726
 30
0.0
  0
SPLINE
  5
338
100
AcDbEntity
  8
0
100
AcDbSpline
 62
7
  6
CONTINUOUS
 70
0
 71
3
 72
15
 73
11
 74
0
 42
0.0000001
 43
0.0000001
 44
0.0000000001
 40
0.0
 40
0.0
 40
0.0
 40
0.0
 40
0.0833308872
 40
0.1787840963
 40
0.2870847814
 40
0.4084960446
 40
0.5425516217
 40
0.6878050686
 40
0.8415725811
 40
1.0
 40
1.0
 40
1.0
 40
1.0
 10
5.3792882999
 20
2.7138738726
 30
0.0
 10
5.3788654059
 20
2.7144929263
 30
0.0
 10
5.3780470305
 20
2.7158825827
 30
0.0
 10
5.3769704922
 20
2.7182341171
 30
0.0
 10
5.3759864831
 20
2.7209925598
 30
0.0
 10
5.3751202266
 20
2.7241513423
 30
0.0
 10
5.3744002739
 20
2.7276864122
 30
0.0
 10
5.3738567861
 20
2.7315469306
 30
0.0
 10
5.373517276
 20
2.7356505461
 30
0.0
 10
5.3734406102
 20
2.7384599345
 30
0.0
 10
5.3734406102
 20
2.739885274
 30
0.0
  0
SPLINE
  5
339
100
AcDbEntity
  8
0
100
AcDbSpline
 62
7
  6
CONTINUOUS
 70
0
 71
3
 72
15
 73
11
 74
0
 42
0.0000001
 43
0.0000001
 44
0.0000000001
 40
0.0
 40
0.0
 40
0.0
 40
0.0
 40
0.1304762884
 40
0.2600688068
 40
0.3881172844
 40
0.5142326021
 40
0.6383218514
 40
0.7604841382
 40
0.8809621612
 40
1.0
 40
1.0
 40
1.0
 40
1.0
 10
5.3965375985
 20
2.739885274
 30
0.0
 10
5.3965375985
 20
2.7384557801
 30
0.0
 10
5.3963052607
 20
2.7356010932
 30
0.0
 10
5.3952816319
 20
2.7314563931
 30
0.0
 10
5.3936465145
 20
2.7275650134
 30
0.0
 10
5.3914859579
 20
2.724011829
 30
0.0
 10
5.3888927834
 20
2.7208462337
 30
0.0
 10
5.385953898
 20
2.7180905212
 30
0.0
 10
5.3827456583
 20
2.715749589
 30
0.0
 10
5.3804565313
 20
2.7144536197
 30
0.0
 10
5.3792882999
 20
2.7138738726
 30
0.0
  0
SPLINE
  5
33A
100
AcDbEntity
  8
0
100
AcDbSpline
 62
7
  6
CONTINUOUS
 70
0
 71
3
 72
18
 73
14
 74
0
 42
0.0000001
 43
0.0000001
 44
0.0000000001
 40
0.0
 40
0.0
 40
0.0
 40
0.0
 40
0.0377064957
 40
0.0787864661
 40
0.1233260932
 40
0.1713978282
 40
0.22306241
 40
0.2783558988
 40
0.399728896
 40
0.5348752258
 40
0.6821350308
 40
0.838564779
 40
1.0
 40
1.0
 40
1.0
 40
1.0
 10
5.4223095335
 20
2.7138738726
 30
0.0
 10
5.4221685759
 20
2.7141754022
 30
0.0
 10
5.4218911205
 20
2.7148135005
 30
0.0
 10
5.4215026163
 20
2.7158307887
 30
0.0
 10
5.4211260104
 20
2.7169495356
 30
0.0
 10
5.420763126
 20
2.7181705751
 30
0.0
 10
5.4204158582
 20
2.7194945196
 30
0.0
 10
5.419962212
 20
2.7214586246
 30
0.0
 10
5.4194550807
 20
2.7241653407
 30
0.0
 10
5.4189634154
 20
2.7276966966
 30
0.0
 10
5.4185921887
 20
2.7315537564
 30
0.0
 10
5.4183602416
 20
2.7356540039
 30
0.0
 10
5.4183078771
 20
2.7384602218
 30
0.0
 10
5.4183078771
 20
2.739885274
 30
0.0
  0
SPLINE
  5
33B
100
AcDbEntity
  8
0
100
AcDbSpline
 62
7
  6
CONTINUOUS
 70
0
 71
3
 72
19
 73
15
 74
0
 42
0.0000001
 43
0.0000001
 44
0.0000000001
 40
0.0
 40
0.0
 40
0.0
 40
0.0
 40
0.0642777365
 40
0.1285135827
 40
0.192587818
 40
0.256456012
 40
0.3200792276
 40
0.3834113995
 40
0.4464351924
 40
0.5091331553
 40
0.6334985125
 40
0.7566586313
 40
0.8787780727
 40
1.0
 40
1.0
 40
1.0
 40
1.0
 10
5.4403559087
 20
2.739885274
 30
0.0
 10
5.4403559087
 20
2.7391694324
 30
0.0
 10
5.4402948117
 20
2.7377374838
 30
0.0
 10
5.440022496
 20
2.7356076095
 30
0.0
 10
5.4395732757
 20
2.7335124769
 30
0.0
 10
5.4389548879
 20
2.7314681935
 30
0.0
 10
5.4381768917
 20
2.7294881506
 30
0.0
 10
5.4372499176
 20
2.7275839596
 30
0.0
 10
5.436186075
 20
2.7257647033
 30
0.0
 10
5.4346059171
 20
2.7234686901
 30
0.0
 10
5.4323490454
 20
2.7208372116
 30
0.0
 10
5.4292744317
 20
2.7180837275
 30
0.0
 10
5.4259185187
 20
2.7157446297
 30
0.0
 10
5.4235292799
 20
2.714452449
 30
0.0
 10
5.4223095335
 20
2.7138738726
 30
0.0
  0
SPLINE
  5
33C
100
AcDbEntity
  8
0
100
AcDbSpline
 62
7
  6
CONTINUOUS
 70
0
 71
3
 72
18
 73
14
 74
0
 42
0.0000001
 43
0.0000001
 44
0.0000000001
 40
0.0
 40
0.0
 40
0.0
 40
0.0
 40
0.0359199242
 40
0.075560925
 40
0.1189771886
 40
0.1662141124
 40
0.2722740286
 40
0.3936647245
 40
0.4598951221
 40
0.5295940025
 40
0.6782468562
 40
0.8365060444
 40
1.0
 40
1.0
 40
1.0
 40
1.0
 10
5.4631292016
 20
2.7138738726
 30
0.0
 10
5.4630540438
 20
2.7141777631
 30
0.0
 10
5.4629065225
 20
2.7148196646
 30
0.0
 10
5.4627012926
 20
2.7158361498
 30
0.0
 10
5.4625022732
 20
2.7169541963
 30
0.0
 10
5.462236151
 20
2.7186478924
 30
0.0
 10
5.4619305248
 20
2.7210227205
 30
0.0
 10
5.4616781175
 20
2.7235700169
 30
0.0
 10
5.4614982672
 20
2.7258054135
 30
0.0
 10
5.4613291747
 20
2.7282798646
 30
0.0
 10
5.4611623755
 20
2.7315581262
 30
0.0
 10
5.4610397851
 20
2.7356561998
 30
0.0
 10
5.4610121167
 20
2.738460404
 30
0.0
 10
5.4610121167
 20
2.739885274
 30
0.0
  0
SPLINE
  5
33D
100
AcDbEntity
  8
0
100
AcDbSpline
 62
7
  6
CONTINUOUS
 70
0
 71
3
 72
20
 73
16
 74
0
 42
0.0000001
 43
0.0000001
 44
0.0000000001
 40
0.0
 40
0.0
 40
0.0
 40
0.0
 40
0.0634764094
 40
0.1269432245
 40
0.1903120879
 40
0.2535652157
 40
0.3166853762
 40
0.3796429552
 40
0.4424311349
 40
0.505038043
 40
0.5674716487
 40
0.6297277209
 40
0.7536870935
 40
0.8770899821
 40
1.0
 40
1.0
 40
1.0
 40
1.0
 10
5.481798857
 20
2.739885274
 30
0.0
 10
5.481798857
 20
2.7391693869
 30
0.0
 10
5.4817356128
 20
2.7377369382
 30
0.0
 10
5.4814537551
 20
2.7356065755
 30
0.0
 10
5.4809888145
 20
2.7335110273
 30
0.0
 10
5.480348822
 20
2.7314664355
 30
0.0
 10
5.4795437
 20
2.7294861968
 30
0.0
 10
5.478584452
 20
2.7275819082
 30
0.0
 10
5.4774837122
 20
2.7257627005
 30
0.0
 10
5.4762537887
 20
2.7240356919
 30
0.0
 10
5.4749073875
 20
2.7224057456
 30
0.0
 10
5.4729760796
 20
2.7203700553
 30
0.0
 10
5.4703277638
 20
2.7180784029
 30
0.0
 10
5.4668567938
 20
2.715741127
 30
0.0
 10
5.4643892462
 20
2.7144516104
 30
0.0
 10
5.4631292016
 20
2.7138738726
 30
0.0
  0
LINE
  5
33E
100
AcDbEntity
  8
0
100
AcDbLine
 62
7
  6
CONTINUOUS
 10
5.5013541885
 20
2.7138738726
 11
5.5011420638
 21
2.739885274
  0
SPLINE
  5
33F
100
AcDbEntity
  8
0
100
AcDbSpline
 62
7
  6
CONTINUOUS
 70
0
 71
3
 72
19
 73
15
 74
0
 42
0.0000001
 43
0.0000001
 44
0.0000000001
 40
0.0
 40
0.0
 40
0.0
 40
0.0
 40
0.0629194147
 40
0.1258523647
 40
0.1887328764
 40
0.2515620925
 40
0.3143380593
 40
0.3770425777
 40
0.4396759406
 40
0.5022298295
 40
0.6270433421
 40
0.7515817911
 40
0.8758983816
 40
1.0
 40
1.0
 40
1.0
 40
1.0
 10
5.5204673251
 20
2.739885274
 30
0.0
 10
5.5204673251
 20
2.7391693536
 30
0.0
 10
5.5204025507
 20
2.7377365389
 30
0.0
 10
5.5201138957
 20
2.7356058208
 30
0.0
 10
5.5196377581
 20
2.7335099733
 30
0.0
 10
5.5189823836
 20
2.7314651658
 30
0.0
 10
5.5181579446
 20
2.7294847894
 30
0.0
 10
5.5171757525
 20
2.7275804615
 30
0.0
 10
5.5160486645
 20
2.7257612254
 30
0.0
 10
5.5143714515
 20
2.7234609288
 30
0.0
 10
5.511975471
 20
2.720826037
 30
0.0
 10
5.5087192974
 20
2.7180752363
 30
0.0
 10
5.5051660672
 20
2.7157386443
 30
0.0
 10
5.5026429158
 20
2.7144510512
 30
0.0
 10
5.5013541885
 20
2.7138738726
 30
0.0
  0
SPLINE
  5
340
100
AcDbEntity
  8
0
100
AcDbSpline
 62
7
  6
CONTINUOUS
 70
0
 71
3
 72
19
 73
15
 74
0
 42
0.0000001
 43
0.0000001
 44
0.0000000001
 40
0.0
 40
0.0
 40
0.0
 40
0.0
 40
0.0625929791
 40
0.1252130771
 40
0.1878074424
 40
0.2503882717
 40
0.3129624797
 40
0.3755184306
 40
0.4380604318
 40
0.5005820853
 40
0.6255067707
 40
0.7503764511
 40
0.8752162909
 40
1.0
 40
1.0
 40
1.0
 40
1.0
 10
5.5559889144
 20
2.739885274
 30
0.0
 10
5.5559889144
 20
2.7391693338
 30
0.0
 10
5.5559232441
 20
2.737736301
 30
0.0
 10
5.5556306098
 20
2.7356053721
 30
0.0
 10
5.5551479184
 20
2.7335093484
 30
0.0
 10
5.5544835413
 20
2.7314644154
 30
0.0
 10
5.553647802
 20
2.7294839631
 30
0.0
 10
5.5526521782
 20
2.7275796094
 30
0.0
 10
5.5515097099
 20
2.7257603864
 30
0.0
 10
5.5498088549
 20
2.723459076
 30
0.0
 10
5.5473790275
 20
2.7208234215
 30
0.0
 10
5.5440787538
 20
2.7180732839
 30
0.0
 10
5.5404775821
 20
2.7157372889
 30
0.0
 10
5.5379218754
 20
2.7144507376
 30
0.0
 10
5.5366163666
 20
2.7138738726
 30
0.0
  0
SPLINE
  5
341
100
AcDbEntity
  8
0
100
AcDbSpline
 62
7
  6
CONTINUOUS
 70
0
 71
3
 72
19
 73
15
 74
0
 42
0.0000001
 43
0.0000001
 44
0.0000000001
 40
0.0
 40
0.0
 40
0.0
 40
0.0
 40
0.0625016022
 40
0.1250341445
 40
0.1875484626
 40
0.2500598545
 40
0.3125777157
 40
0.3750922376
 40
0.4376088355
 40
0.5001216299
 40
0.6250776695
 40
0.7500400613
 40
0.8750260385
 40
1.0
 40
1.0
 40
1.0
 40
1.0
 10
5.5880215328
 20
2.739885274
 30
0.0
 10
5.5880215328
 20
2.7391693282
 30
0.0
 10
5.5879556107
 20
2.7377362337
 30
0.0
 10
5.5876618586
 20
2.7356052451
 30
0.0
 10
5.5871773263
 20
2.7335091719
 30
0.0
 10
5.5865104207
 20
2.7314642037
 30
0.0
 10
5.5856715078
 20
2.7294837305
 30
0.0
 10
5.5846721121
 20
2.7275793701
 30
0.0
 10
5.583525325
 20
2.7257601513
 30
0.0
 10
5.5818178287
 20
2.7234585583
 30
0.0
 10
5.5793784959
 20
2.7208226942
 30
0.0
 10
5.5760658423
 20
2.7180727433
 30
0.0
 10
5.5724512113
 20
2.7157369149
 30
0.0
 10
5.5698863635
 20
2.7144506513
 30
0.0
 10
5.5685761419
 20
2.7138738726
 30
0.0
  0
SPLINE
  5
342
100
AcDbEntity
  8
0
100
AcDbSpline
 62
7
  6
CONTINUOUS
 70
0
 71
3
 72
19
 73
15
 74
0
 42
0.0000001
 43
0.0000001
 44
0.0000000001
 40
0.0
 40
0.0
 40
0.0
 40
0.0
 40
0.0626451999
 40
0.1253153388
 40
0.1879554604
 40
0.2505759904
 40
0.3131824256
 40
0.3757620838
 40
0.4383186363
 40
0.5008453849
 40
0.6257521976
 40
0.7505688926
 40
0.8753251514
 40
1.0
 40
1.0
 40
1.0
 40
1.0
 10
5.6162566884
 20
2.739885274
 30
0.0
 10
5.6162566884
 20
2.739169337
 30
0.0
 10
5.6161911618
 20
2.7377363394
 30
0.0
 10
5.6158991655
 20
2.7356054444
 30
0.0
 10
5.6154175249
 20
2.733509449
 30
0.0
 10
5.6147545911
 20
2.731464536
 30
0.0
 10
5.6139206634
 20
2.7294840957
 30
0.0
 10
5.6129271928
 20
2.727579746
 30
0.0
 10
5.61178719
 20
2.7257605207
 30
0.0
 10
5.6100901258
 20
2.723459372
 30
0.0
 10
5.6076657245
 20
2.7208238381
 30
0.0
 10
5.6043725187
 20
2.718073594
 30
0.0
 10
5.600779031
 20
2.7157375036
 30
0.0
 10
5.5982285428
 20
2.7144507872
 30
0.0
 10
5.5969257243
 20
2.7138738726
 30
0.0
  0
SPLINE
  5
343
100
AcDbEntity
  8
0
100
AcDbSpline
 62
7
  6
CONTINUOUS
 70
0
 71
3
 72
19
 73
15
 74
0
 42
0.0000001
 43
0.0000001
 44
0.0000000001
 40
0.0
 40
0.0
 40
0.0
 40
0.0
 40
0.0630238971
 40
0.1260570038
 40
0.1890291634
 40
0.2519379887
 40
0.3147786856
 40
0.3775309427
 40
0.4401937496
 40
0.5027581503
 40
0.6275363584
 40
0.751968783
 40
0.8761175051
 40
1.0
 40
1.0
 40
1.0
 40
1.0
 10
5.6404224614
 20
2.739885274
 30
0.0
 10
5.6404224614
 20
2.7391693599
 30
0.0
 10
5.6403579728
 20
2.7377366141
 30
0.0
 10
5.6400705869
 20
2.7356059629
 30
0.0
 10
5.6395965396
 20
2.7335101713
 30
0.0
 10
5.6389440367
 20
2.7314654041
 30
0.0
 10
5.6381232028
 20
2.7294850523
 30
0.0
 10
5.6371452957
 20
2.7275807333
 30
0.0
 10
5.636023115
 20
2.7257614938
 30
0.0
 10
5.6343534419
 20
2.7234615229
 30
0.0
 10
5.6319682592
 20
2.7208268799
 30
0.0
 10
5.6287261602
 20
2.7180758682
 30
0.0
 10
5.6251882293
 20
2.7157390847
 30
0.0
 10
5.6226754654
 20
2.7144511533
 30
0.0
 10
5.6213920918
 20
2.7138738726
 30
0.0
  0
SPLINE
  5
344
100
AcDbEntity
  8
0
100
AcDbSpline
 62
7
  6
CONTINUOUS
 70
0
 71
3
 72
20
 73
16
 74
0
 42
0.0000001
 43
0.0000001
 44
0.0000000001
 40
0.0
 40
0.0
 40
0.0
 40
0.0
 40
0.0636331596
 40
0.1272503237
 40
0.1907569287
 40
0.2541299293
 40
0.317347826
 40
0.3803777917
 40
0.4432109783
 40
0.5058344657
 40
0.568256102
 40
0.6304722111
 40
0.7542725447
 40
0.8774220225
 40
1.0
 40
1.0
 40
1.0
 40
1.0
 10
5.6602861222
 20
2.739885274
 30
0.0
 10
5.6602861222
 20
2.739169396
 30
0.0
 10
5.6602233025
 20
2.7377370475
 30
0.0
 10
5.6599433313
 20
2.7356067823
 30
0.0
 10
5.6594814983
 20
2.7335113167
 30
0.0
 10
5.6588457759
 20
2.7314667853
 30
0.0
 10
5.6580460157
 20
2.7294865851
 30
0.0
 10
5.6570931425
 20
2.7275823121
 30
0.0
 10
5.6559997041
 20
2.7257631021
 30
0.0
 10
5.6547779246
 20
2.7240360756
 30
0.0
 10
5.6534404252
 20
2.7224061016
 30
0.0
 10
5.6515222817
 20
2.720370799
 30
0.0
 10
5.6488919838
 20
2.718079382
 30
0.0
 10
5.6454437883
 20
2.715741815
 30
0.0
 10
5.6429917008
 20
2.714451771
 30
0.0
 10
5.6417396199
 20
2.7138738726
 30
0.0
  0
SPLINE
  5
345
100
AcDbEntity
  8
0
100
AcDbSpline
 62
7
  6
CONTINUOUS
 70
0
 71
3
 72
18
 73
14
 74
0
 42
0.0000001
 43
0.0000001
 44
0.0000000001
 40
0.0
 40
0.0
 40
0.0
 40
0.0
 40
0.12882424
 40
0.1930897128
 40
0.2571256621
 40
0.3208874523
 40
0.3843246533
 40
0.4474170899
 40
0.5101457437
 40
0.6344584014
 40
0.7574205869
 40
0.8792131783
 40
1.0
 40
1.0
 40
1.0
 40
1.0
 10
5.6756563728
 20
2.739885274
 30
0.0
 10
5.6756563728
 20
2.7384554288
 30
0.0
 10
5.6754746441
 20
2.7363066623
 30
0.0
 10
5.6748808811
 20
2.7335130341
 30
0.0
 10
5.6742681083
 20
2.7314685962
 30
0.0
 10
5.6734971787
 20
2.7294886696
 30
0.0
 10
5.6725786053
 20
2.7275844869
 30
0.0
 10
5.6715243877
 20
2.7257652366
 30
0.0
 10
5.6699589759
 20
2.7234698897
 30
0.0
 10
5.667723262
 20
2.7208389716
 30
0.0
 10
5.6646763105
 20
2.7180850873
 30
0.0
 10
5.6613504535
 20
2.7157456021
 30
0.0
 10
5.6589816026
 20
2.7144526781
 30
0.0
 10
5.6577723508
 20
2.7138738726
 30
0.0
  0
SPLINE
  5
346
100
AcDbEntity
  8
0
100
AcDbSpline
 62
7
  6
CONTINUOUS
 70
0
 71
3
 72
15
 73
11
 74
0
 42
0.0000001
 43
0.0000001
 44
0.0000000001
 40
0.0
 40
0.0
 40
0.0
 40
0.0
 40
0.1309881372
 40
0.2610130822
 40
0.3893519288
 40
0.5155783417
 40
0.6395873395
 40
0.7614850344
 40
0.8815328799
 40
1.0
 40
1.0
 40
1.0
 40
1.0
 10
5.6863851894
 20
2.739885274
 30
0.0
 10
5.6863851894
 20
2.7384558882
 30
0.0
 10
5.686155706
 20
2.7356023656
 30
0.0
 10
5.6851444694
 20
2.7314585678
 30
0.0
 10
5.6835289289
 20
2.7275676248
 30
0.0
 10
5.6813939298
 20
2.7240144149
 30
0.0
 10
5.6788311097
 20
2.7208484936
 30
0.0
 10
5.6759263548
 20
2.7180923139
 30
0.0
 10
5.6727551838
 20
2.7157508969
 30
0.0
 10
5.6704911898
 20
2.7144539322
 30
0.0
 10
5.6693358806
 20
2.7138738726
 30
0.0
  0
SPLINE
  5
347
100
AcDbEntity
  8
0
100
AcDbSpline
 62
7
  6
CONTINUOUS
 70
0
 71
3
 72
15
 73
11
 74
0
 42
0.0000001
 43
0.0000001
 44
0.0000000001
 40
0.0
 40
0.0
 40
0.0
 40
0.0
 40
0.133563723
 40
0.2657710307
 40
0.3955856413
 40
0.5223897852
 40
0.6460096848
 40
0.7665781019
 40
0.8844442768
 40
1.0
 40
1.0
 40
1.0
 40
1.0
 10
5.6923692475
 20
2.739885274
 30
0.0
 10
5.6923692475
 20
2.7384564092
 30
0.0
 10
5.6921539375
 20
2.7356085107
 30
0.0
 10
5.691204359
 20
2.7314691811
 30
0.0
 10
5.6896864045
 20
2.7275805671
 30
0.0
 10
5.6876790163
 20
2.7240274698
 30
0.0
 10
5.6852679172
 20
2.7208601251
 30
0.0
 10
5.6825338228
 20
2.7181017143
 30
0.0
 10
5.6795479903
 20
2.7157578716
 30
0.0
 10
5.6774096261
 20
2.7144556173
 30
0.0
 10
5.676318846
 20
2.7138738726
 30
0.0
  0
SPLINE
  5
348
100
AcDbEntity
  8
0
100
AcDbSpline
 62
7
  6
CONTINUOUS
 70
0
 71
3
 72
15
 73
11
 74
0
 42
0.0000001
 43
0.0000001
 44
0.0000000001
 40
0.0
 40
0.0
 40
0.0
 40
0.0
 40
0.1155557164
 40
0.2334218885
 40
0.3539902928
 40
0.477610178
 40
0.6044142998
 40
0.7342289082
 40
0.8664362401
 40
1.0
 40
1.0
 40
1.0
 40
1.0
 10
4.7110955375
 20
2.7138738726
 30
0.0
 10
4.7100047575
 20
2.7144556172
 30
0.0
 10
4.7078663934
 20
2.7157578715
 30
0.0
 10
4.7048805611
 20
2.7181017141
 30
0.0
 10
4.7021464668
 20
2.7208601245
 30
0.0
 10
4.699735368
 20
2.7240274688
 30
0.0
 10
4.6977279797
 20
2.7275805655
 30
0.0
 10
4.6962100251
 20
2.7314691795
 30
0.0
 10
4.6952604462
 20
2.7356085096
 30
0.0
 10
4.6950451361
 20
2.7384564088
 30
0.0
 10
4.6950451361
 20
2.739885274
 30
0.0
  0
SPLINE
  5
349
100
AcDbEntity
  8
0
100
AcDbSpline
 62
7
  6
CONTINUOUS
 70
0
 71
3
 72
15
 73
11
 74
0
 42
0.0000001
 43
0.0000001
 44
0.0000000001
 40
0.0
 40
0.0
 40
0.0
 40
0.0
 40
0.1184671131
 40
0.2385149558
 40
0.360412638
 40
0.4844216215
 40
0.6106480128
 40
0.7389868576
 40
0.8690118266
 40
1.0
 40
1.0
 40
1.0
 40
1.0
 10
4.718078503
 20
2.7138738726
 30
0.0
 10
4.7169231938
 20
2.7144539322
 30
0.0
 10
4.7146591999
 20
2.7157508967
 30
0.0
 10
4.7114880292
 20
2.7180923137
 30
0.0
 10
4.7085832743
 20
2.720848493
 30
0.0
 10
4.7060204545
 20
2.7240144139
 30
0.0
 10
4.7038854553
 20
2.7275676232
 30
0.0
 10
4.7022699147
 20
2.7314585662
 30
0.0
 10
4.7012586777
 20
2.7356023645
 30
0.0
 10
4.7010291942
 20
2.7384558878
 30
0.0
 10
4.7010291942
 20
2.739885274
 30
0.0
  0
SPLINE
  5
34A
100
AcDbEntity
  8
0
100
AcDbSpline
 62
7
  6
CONTINUOUS
 70
0
 71
3
 72
18
 73
14
 74
0
 42
0.0000001
 43
0.0000001
 44
0.0000000001
 40
0.0
 40
0.0
 40
0.0
 40
0.0
 40
0.1207868147
 40
0.2425794033
 40
0.3655415762
 40
0.4898542197
 40
0.5525828664
 40
0.6156752889
 40
0.6791124852
 40
0.7428742784
 40
0.8069102359
 40
0.8711757243
 40
1.0
 40
1.0
 40
1.0
 40
1.0
 10
4.7296420327
 20
2.7138738726
 30
0.0
 10
4.7284327811
 20
2.7144526781
 30
0.0
 10
4.7260639302
 20
2.715745602
 30
0.0
 10
4.7227380734
 20
2.7180850871
 30
0.0
 10
4.7196911221
 20
2.7208389711
 30
0.0
 10
4.7174554083
 20
2.7234698888
 30
0.0
 10
4.7158899968
 20
2.7257652354
 30
0.0
 10
4.714835779
 20
2.7275844853
 30
0.0
 10
4.7139172058
 20
2.7294886678
 30
0.0
 10
4.7131462758
 20
2.7314685943
 30
0.0
 10
4.7125335029
 20
2.7335130325
 30
0.0
 10
4.7119397394
 20
2.7363066613
 30
0.0
 10
4.7117580107
 20
2.7384554285
 30
0.0
 10
4.7117580107
 20
2.739885274
 30
0.0
  0
SPLINE
  5
34B
100
AcDbEntity
  8
0
100
AcDbSpline
 62
7
  6
CONTINUOUS
 70
0
 71
3
 72
20
 73
16
 74
0
 42
0.0000001
 43
0.0000001
 44
0.0000000001
 40
0.0
 40
0.0
 40
0.0
 40
0.0
 40
0.1225779704
 40
0.2457274454
 40
0.3695277665
 40
0.4317438675
 40
0.4941654977
 40
0.5567889781
 40
0.619622151
 40
0.6826521119
 40
0.7458700119
 40
0.8092430206
 40
0.8727496412
 40
0.9363668304
 40
1.0
 40
1.0
 40
1.0
 40
1.0
 10
4.7456747637
 20
2.7138738726
 30
0.0
 10
4.7444226828
 20
2.714451771
 30
0.0
 10
4.7419705954
 20
2.7157418149
 30
0.0
 10
4.7385224001
 20
2.7180793818
 30
0.0
 10
4.7358921023
 20
2.7203707984
 30
0.0
 10
4.7339739591
 20
2.7224061009
 30
0.0
 10
4.7326364597
 20
2.7240360747
 30
0.0
 10
4.7314146803
 20
2.7257631008
 30
0.0
 10
4.7303212419
 20
2.7275823105
 30
0.0
 10
4.7293683689
 20
2.7294865833
 30
0.0
 10
4.7285686082
 20
2.7314667835
 30
0.0
 10
4.7279328857
 20
2.7335113151
 30
0.0
 10
4.7274710524
 20
2.7356067812
 30
0.0
 10
4.7271910812
 20
2.737737047
 30
0.0
 10
4.7271282614
 20
2.7391693959
 30
0.0
 10
4.7271282614
 20
2.739885274
 30
0.0
  0
SPLINE
  5
34C
100
AcDbEntity
  8
0
100
AcDbSpline
 62
7
  6
CONTINUOUS
 70
0
 71
3
 72
19
 73
15
 74
0
 42
0.0000001
 43
0.0000001
 44
0.0000000001
 40
0.0
 40
0.0
 40
0.0
 40
0.0
 40
0.1238824877
 40
0.248031207
 40
0.3724636191
 40
0.4972418132
 40
0.559806207
 40
0.6224690003
 40
0.6852212528
 40
0.7480619529
 40
0.8109707863
 40
0.8739429614
 40
0.936976093
 40
1.0
 40
1.0
 40
1.0
 40
1.0
 10
4.7660222918
 20
2.7138738726
 30
0.0
 10
4.7647389182
 20
2.7144511532
 30
0.0
 10
4.7622261544
 20
2.7157390846
 30
0.0
 10
4.7586882238
 20
2.718075868
 30
0.0
 10
4.7554461249
 20
2.7208268793
 30
0.0
 10
4.7530609424
 20
2.723461522
 30
0.0
 10
4.7513912695
 20
2.7257614925
 30
0.0
 10
4.7502690886
 20
2.7275807316
 30
0.0
 10
4.7492911818
 20
2.7294850506
 30
0.0
 10
4.7484703474
 20
2.7314654022
 30
0.0
 10
4.7478178444
 20
2.7335101698
 30
0.0
 10
4.7473437968
 20
2.7356059618
 30
0.0
 10
4.747056411
 20
2.7377366136
 30
0.0
 10
4.7469919221
 20
2.7391693598
 30
0.0
 10
4.7469919221
 20
2.739885274
 30
0.0
  0
SPLINE
  5
34D
100
AcDbEntity
  8
0
100
AcDbSpline
 62
7
  6
CONTINUOUS
 70
0
 71
3
 72
19
 73
15
 74
0
 42
0.0000001
 43
0.0000001
 44
0.0000000001
 40
0.0
 40
0.0
 40
0.0
 40
0.0
 40
0.1246748415
 40
0.2494310973
 40
0.3742477799
 40
0.4991545786
 40
0.5616813204
 40
0.6242378593
 40
0.6868175129
 40
0.7494239515
 40
0.8120444896
 40
0.8746846266
 40
0.9373547903
 40
1.0
 40
1.0
 40
1.0
 40
1.0
 10
4.7904886593
 20
2.7138738726
 30
0.0
 10
4.7891858408
 20
2.7144507872
 30
0.0
 10
4.7866353527
 20
2.7157375035
 30
0.0
 10
4.7830418652
 20
2.7180735938
 30
0.0
 10
4.7797486596
 20
2.7208238375
 30
0.0
 10
4.7773242585
 20
2.7234593711
 30
0.0
 10
4.7756271945
 20
2.7257605194
 30
0.0
 10
4.7744871915
 20
2.7275797443
 30
0.0
 10
4.7734937212
 20
2.729484094
 30
0.0
 10
4.772659793
 20
2.7314645342
 30
0.0
 10
4.7719968592
 20
2.7335094474
 30
0.0
 10
4.7715152181
 20
2.7356054433
 30
0.0
 10
4.771223222
 20
2.7377363389
 30
0.0
 10
4.7711576951
 20
2.7391693369
 30
0.0
 10
4.7711576951
 20
2.739885274
 30
0.0
  0
SPLINE
  5
34E
100
AcDbEntity
  8
0
100
AcDbSpline
 62
7
  6
CONTINUOUS
 70
0
 71
3
 72
19
 73
15
 74
0
 42
0.0000001
 43
0.0000001
 44
0.0000000001
 40
0.0
 40
0.0
 40
0.0
 40
0.0
 40
0.1249739543
 40
0.2499599286
 40
0.374922308
 40
0.4998783336
 40
0.5623911211
 40
0.6249077056
 40
0.6874222229
 40
0.7499400874
 40
0.8124514875
 40
0.874965821
 40
0.937498388
 40
1.0
 40
1.0
 40
1.0
 40
1.0
 10
4.8188382417
 20
2.7138738726
 30
0.0
 10
4.8175280202
 20
2.7144506513
 30
0.0
 10
4.8149631725
 20
2.7157369148
 30
0.0
 10
4.8113485417
 20
2.7180727431
 30
0.0
 10
4.8080358882
 20
2.7208226936
 30
0.0
 10
4.8055965557
 20
2.7234585574
 30
0.0
 10
4.8038890595
 20
2.72576015
 30
0.0
 10
4.8027422722
 20
2.7275793684
 30
0.0
 10
4.8017428768
 20
2.7294837287
 30
0.0
 10
4.8009039634
 20
2.7314642018
 30
0.0
 10
4.8002370578
 20
2.7335091703
 30
0.0
 10
4.799752525
 20
2.735605244
 30
0.0
 10
4.799458773
 20
2.7377362332
 30
0.0
 10
4.7993928508
 20
2.7391693281
 30
0.0
 10
4.7993928508
 20
2.739885274
 30
0.0
  0
SPLINE
  5
34F
100
AcDbEntity
  8
0
100
AcDbSpline
 62
7
  6
CONTINUOUS
 70
0
 71
3
 72
19
 73
15
 74
0
 42
0.0000001
 43
0.0000001
 44
0.0000000001
 40
0.0
 40
0.0
 40
0.0
 40
0.0
 40
0.1247837019
 40
0.2496235389
 40
0.3744932067
 40
0.4994178782
 40
0.5619395248
 40
0.6244815126
 40
0.6870374588
 40
0.7496116702
 40
0.8121925076
 40
0.8747868883
 40
0.9374070111
 40
1.0
 40
1.0
 40
1.0
 40
1.0
 10
4.850798017
 20
2.7138738726
 30
0.0
 10
4.8494925083
 20
2.7144507376
 30
0.0
 10
4.8469368017
 20
2.7157372887
 30
0.0
 10
4.8433356302
 20
2.7180732837
 30
0.0
 10
4.8400353566
 20
2.7208234209
 30
0.0
 10
4.8376055294
 20
2.7234590751
 30
0.0
 10
4.8359046746
 20
2.7257603851
 30
0.0
 10
4.8347622062
 20
2.7275796077
 30
0.0
 10
4.8337665826
 20
2.7294839613
 30
0.0
 10
4.8329308428
 20
2.7314644135
 30
0.0
 10
4.8322664657
 20
2.7335093469
 30
0.0
 10
4.8317837738
 20
2.735605371
 30
0.0
 10
4.8314911396
 20
2.7377363005
 30
0.0
 10
4.8314254691
 20
2.7391693337
 30
0.0
 10
4.8314254691
 20
2.739885274
 30
0.0
  0
SPLINE
  5
350
100
AcDbEntity
  8
0
100
AcDbSpline
 62
7
  6
CONTINUOUS
 70
0
 71
3
 72
19
 73
15
 74
0
 42
0.0000001
 43
0.0000001
 44
0.0000000001
 40
0.0
 40
0.0
 40
0.0
 40
0.0
 40
0.1241016113
 40
0.2484181989
 40
0.3729566354
 40
0.497770134
 40
0.5603240159
 40
0.6229573653
 40
0.685661879
 40
0.7484378491
 40
0.8112670734
 40
0.8741476006
 40
0.9370805755
 40
1.0
 40
1.0
 40
1.0
 40
1.0
 10
4.8860601951
 20
2.7138738726
 30
0.0
 10
4.8847714679
 20
2.7144510511
 30
0.0
 10
4.8822483165
 20
2.7157386442
 30
0.0
 10
4.8786950866
 20
2.7180752361
 30
0.0
 10
4.8754389131
 20
2.7208260365
 30
0.0
 10
4.8730429328
 20
2.7234609279
 30
0.0
 10
4.87136572
 20
2.7257612242
 30
0.0
 10
4.8702386319
 20
2.7275804598
 30
0.0
 10
4.8692564399
 20
2.7294847876
 30
0.0
 10
4.8684320006
 20
2.7314651639
 30
0.0
 10
4.867776626
 20
2.7335099717
 30
0.0
 10
4.8673004879
 20
2.7356058198
 30
0.0
 10
4.867011833
 20
2.7377365384
 30
0.0
 10
4.8669470585
 20
2.7391693535
 30
0.0
 10
4.8669470585
 20
2.739885274
 30
0.0
  0
LINE
  5
351
100
AcDbEntity
  8
0
100
AcDbLine
 62
7
  6
CONTINUOUS
 10
4.8862723198
 20
2.739885274
 11
4.8860601951
 21
2.7138738726
  0
SPLINE
  5
352
100
AcDbEntity
  8
0
100
AcDbSpline
 62
7
  6
CONTINUOUS
 70
0
 71
3
 72
20
 73
16
 74
0
 42
0.0000001
 43
0.0000001
 44
0.0000000001
 40
0.0
 40
0.0
 40
0.0
 40
0.0
 40
0.1229100108
 40
0.2463128966
 40
0.3702722567
 40
0.4325283208
 40
0.4949619205
 40
0.5575688215
 40
0.6203569875
 40
0.6833145619
 40
0.7464347256
 40
0.8096878615
 40
0.8730567405
 40
0.9365235806
 40
1.0
 40
1.0
 40
1.0
 40
1.0
 10
4.924285182
 20
2.7138738726
 30
0.0
 10
4.9230251374
 20
2.7144516103
 30
0.0
 10
4.9205575899
 20
2.7157411269
 30
0.0
 10
4.9170866201
 20
2.7180784027
 30
0.0
 10
4.9144383044
 20
2.7203700548
 30
0.0
 10
4.9125069968
 20
2.7224057449
 30
0.0
 10
4.9111605956
 20
2.7240356909
 30
0.0
 10
4.9099306723
 20
2.7257626992
 30
0.0
 10
4.9088299324
 20
2.7275819065
 30
0.0
 10
4.9078706846
 20
2.729486195
 30
0.0
 10
4.9070655621
 20
2.7314664336
 30
0.0
 10
4.9064255695
 20
2.7335110257
 30
0.0
 10
4.9059606285
 20
2.7356065744
 30
0.0
 10
4.905678771
 20
2.7377369377
 30
0.0
 10
4.9056155265
 20
2.7391693868
 30
0.0
 10
4.9056155265
 20
2.739885274
 30
0.0
  0
SPLINE
  5
353
100
AcDbEntity
  8
0
100
AcDbSpline
 62
7
  6
CONTINUOUS
 70
0
 71
3
 72
18
 73
14
 74
0
 42
0.0000001
 43
0.0000001
 44
0.0000000001
 40
0.0
 40
0.0
 40
0.0
 40
0.0
 40
0.1634939106
 40
0.3217530717
 40
0.4704059311
 40
0.5401048308
 40
0.6063352379
 40
0.72772595
 40
0.8337858803
 40
0.8810228048
 40
0.9244390699
 40
0.964080074
 40
1.0
 40
1.0
 40
1.0
 40
1.0
 10
4.9264022668
 20
2.739885274
 30
0.0
 10
4.9264022668
 20
2.7384604044
 30
0.0
 10
4.9263745985
 20
2.7356562009
 30
0.0
 10
4.9262520081
 20
2.7315581278
 30
0.0
 10
4.9260852089
 20
2.7282798662
 30
0.0
 10
4.9259161165
 20
2.7258054148
 30
0.0
 10
4.9257362662
 20
2.7235700178
 30
0.0
 10
4.9254838589
 20
2.7210227211
 30
0.0
 10
4.9251782326
 20
2.7186478927
 30
0.0
 10
4.9249121104
 20
2.7169541965
 30
0.0
 10
4.924713091
 20
2.7158361499
 30
0.0
 10
4.9245078611
 20
2.7148196647
 30
0.0
 10
4.9243603398
 20
2.7141777632
 30
0.0
 10
4.924285182
 20
2.7138738726
 30
0.0
  0
SPLINE
  5
354
100
AcDbEntity
  8
0
100
AcDbSpline
 62
7
  6
CONTINUOUS
 70
0
 71
3
 72
19
 73
15
 74
0
 42
0.0000001
 43
0.0000001
 44
0.0000000001
 40
0.0
 40
0.0
 40
0.0
 40
0.0
 40
0.1212219203
 40
0.2433413588
 40
0.3665014652
 40
0.4908668082
 40
0.553564764
 40
0.6165885429
 40
0.6799207101
 40
0.7435439287
 40
0.8074121308
 40
0.8714863819
 40
0.9357222535
 40
1.0
 40
1.0
 40
1.0
 40
1.0
 10
4.9651048501
 20
2.7138738726
 30
0.0
 10
4.9638851038
 20
2.7144524489
 30
0.0
 10
4.961495865
 20
2.7157446295
 30
0.0
 10
4.9581399523
 20
2.7180837273
 30
0.0
 10
4.9550653387
 20
2.720837211
 30
0.0
 10
4.9528084672
 20
2.7234686892
 30
0.0
 10
4.9512283095
 20
2.725764702
 30
0.0
 10
4.9501644667
 20
2.7275839579
 30
0.0
 10
4.9492374929
 20
2.7294881489
 30
0.0
 10
4.9484594962
 20
2.7314681916
 30
0.0
 10
4.9478411084
 20
2.7335124754
 30
0.0
 10
4.9473918877
 20
2.7356076085
 30
0.0
 10
4.947119572
 20
2.7377374833
 30
0.0
 10
4.9470584748
 20
2.7391694323
 30
0.0
 10
4.9470584748
 20
2.739885274
 30
0.0
  0
SPLINE
  5
355
100
AcDbEntity
  8
0
100
AcDbSpline
 62
7
  6
CONTINUOUS
 70
0
 71
3
 72
18
 73
14
 74
0
 42
0.0000001
 43
0.0000001
 44
0.0000000001
 40
0.0
 40
0.0
 40
0.0
 40
0.0
 40
0.1614351765
 40
0.3178648979
 40
0.4651247083
 40
0.6002710666
 40
0.7216440797
 40
0.7769375792
 40
0.8286021643
 40
0.8766739
 40
0.9212135287
 40
0.9622935025
 40
1.0
 40
1.0
 40
1.0
 40
1.0
 10
4.9691065064
 20
2.739885274
 30
0.0
 10
4.9691065064
 20
2.7384602222
 30
0.0
 10
4.969054142
 20
2.735654005
 30
0.0
 10
4.968822195
 20
2.731553758
 30
0.0
 10
4.9684509683
 20
2.7276966982
 30
0.0
 10
4.9679593031
 20
2.7241653418
 30
0.0
 10
4.9674521716
 20
2.7214586252
 30
0.0
 10
4.9669985255
 20
2.7194945199
 30
0.0
 10
4.9666512576
 20
2.7181705753
 30
0.0
 10
4.9662883732
 20
2.7169495358
 30
0.0
 10
4.9659117673
 20
2.7158307888
 30
0.0
 10
4.9655232631
 20
2.7148135006
 30
0.0
 10
4.9652458077
 20
2.7141754022
 30
0.0
 10
4.9651048501
 20
2.7138738726
 30
0.0
  0
SPLINE
  5
356
100
AcDbEntity
  8
0
100
AcDbSpline
 62
7
  6
CONTINUOUS
 70
0
 71
3
 72
15
 73
11
 74
0
 42
0.0000001
 43
0.0000001
 44
0.0000000001
 40
0.0
 40
0.0
 40
0.0
 40
0.0
 40
0.1190378318
 40
0.239515852
 40
0.3616781261
 40
0.4857673611
 40
0.6118826574
 40
0.7399311332
 40
0.8695236755
 40
1.0
 40
1.0
 40
1.0
 40
1.0
 10
5.0081260837
 20
2.7138738726
 30
0.0
 10
5.0069578523
 20
2.7144536197
 30
0.0
 10
5.0046687254
 20
2.7157495888
 30
0.0
 10
5.001460486
 20
2.718090521
 30
0.0
 10
4.9985216006
 20
2.7208462331
 30
0.0
 10
4.9959284265
 20
2.724011828
 30
0.0
 10
4.9937678698
 20
2.7275650119
 30
0.0
 10
4.9921327522
 20
2.7314563915
 30
0.0
 10
4.9911091229
 20
2.7356010921
 30
0.0
 10
4.9908767851
 20
2.7384557797
 30
0.0
 10
4.9908767851
 20
2.739885274
 30
0.0
  0
SPLINE
  5
357
100
AcDbEntity
  8
0
100
AcDbSpline
 62
7
  6
CONTINUOUS
 70
0
 71
3
 72
15
 73
11
 74
0
 42
0.0000001
 43
0.0000001
 44
0.0000000001
 40
0.0
 40
0.0
 40
0.0
 40
0.0
 40
0.1584273752
 40
0.3121948612
 40
0.4574483133
 40
0.5915039181
 40
0.712915197
 40
0.821215896
 40
0.9166691074
 40
1.0
 40
1.0
 40
1.0
 40
1.0
 10
5.0139737734
 20
2.739885274
 30
0.0
 10
5.0139737734
 20
2.7384599349
 30
0.0
 10
5.0138971076
 20
2.7356505472
 30
0.0
 10
5.0135575976
 20
2.7315469322
 30
0.0
 10
5.0130141099
 20
2.7276864138
 30
0.0
 10
5.0122941572
 20
2.7241513434
 30
0.0
 10
5.0114279006
 20
2.7209925604
 30
0.0
 10
5.0104438915
 20
2.7182341174
 30
0.0
 10
5.0093673531
 20
2.7158825828
 30
0.0
 10
5.0085489777
 20
2.7144929264
 30
0.0
 10
5.0081260837
 20
2.7138738726
 30
0.0
  0
SPLINE
  5
358
100
AcDbEntity
  8
0
100
AcDbSpline
 62
7
  6
CONTINUOUS
 70
0
 71
3
 72
15
 73
11
 74
0
 42
0.0000001
 43
0.0000001
 44
0.0000000001
 40
0.0
 40
0.0
 40
0.0
 40
0.0
 40
0.1162516864
 40
0.2346374157
 40
0.3555204526
 40
0.4792302825
 40
0.6058946668
 40
0.735357364
 40
0.8670465804
 40
1.0
 40
1.0
 40
1.0
 40
1.0
 10
5.0529345648
 20
2.7138738726
 30
0.0
 10
5.0518285604
 20
2.7144552001
 30
0.0
 10
5.0496605365
 20
2.715756157
 30
0.0
 10
5.0466309429
 20
2.7180994279
 30
0.0
 10
5.0438565519
 20
2.7208573291
 30
0.0
 10
5.0414096385
 20
2.7240243696
 30
0.0
 10
5.0393721475
 20
2.7275775288
 30
0.0
 10
5.0378311971
 20
2.7314667136
 30
0.0
 10
5.0368671051
 20
2.7356070913
 30
0.0
 10
5.036648463
 20
2.7384562887
 30
0.0
 10
5.036648463
 20
2.739885274
 30
0.0
  0
SPLINE
  5
359
100
AcDbEntity
  8
0
100
AcDbSpline
 62
7
  6
CONTINUOUS
 70
0
 71
3
 72
15
 73
11
 74
0
 42
0.0000001
 43
0.0000001
 44
0.0000000001
 40
0.0
 40
0.0
 40
0.0
 40
0.0
 40
0.154776979
 40
0.3053276965
 40
0.4481839609
 40
0.5809772421
 40
0.7025063315
 40
0.8124979748
 40
0.9113761171
 40
1.0
 40
1.0
 40
1.0
 40
1.0
 10
5.0605719714
 20
2.739885274
 30
0.0
 10
5.0605719714
 20
2.7384595536
 30
0.0
 10
5.0604715922
 20
2.7356459639
 30
0.0
 10
5.0600272043
 20
2.7315379993
 30
0.0
 10
5.059315733
 20
2.7276731831
 30
0.0
 10
5.0583730308
 20
2.7241339895
 30
0.0
 10
5.0572383444
 20
2.7209712326
 30
0.0
 10
5.0559487242
 20
2.7182090675
 30
0.0
 10
5.0545369788
 20
2.715854443
 30
0.0
 10
5.0534780488
 20
2.7144830194
 30
0.0
 10
5.0529345648
 20
2.7138738726
 30
0.0
  0
SPLINE
  5
35A
100
AcDbEntity
  8
0
100
AcDbSpline
 62
7
  6
CONTINUOUS
 70
0
 71
3
 72
15
 73
11
 74
0
 42
0.0000001
 43
0.0000001
 44
0.0000000001
 40
0.0
 40
0.0
 40
0.0
 40
0.0
 40
0.112896682
 40
0.2287895544
 40
0.3481741828
 40
0.4714679918
 40
0.5988149477
 40
0.7299686448
 40
0.8641348505
 40
1.0
 40
1.0
 40
1.0
 40
1.0
 10
5.0990987633
 20
2.7138738726
 30
0.0
 10
5.0980651001
 20
2.7144573008
 30
0.0
 10
5.0960381331
 20
2.7157647095
 30
0.0
 10
5.0932166632
 20
2.7181106767
 30
0.0
 10
5.0906339113
 20
2.7208708827
 30
0.0
 10
5.0883572541
 20
2.7240391766
 30
0.0
 10
5.0864627465
 20
2.7275918419
 30
0.0
 10
5.0850308953
 20
2.7314782094
 30
0.0
 10
5.0841355759
 20
2.7356136556
 30
0.0
 10
5.0839327024
 20
2.738456844
 30
0.0
 10
5.0839327024
 20
2.739885274
 30
0.0
  0
SPLINE
  5
35B
100
AcDbEntity
  8
0
100
AcDbSpline
 62
7
  6
CONTINUOUS
 70
0
 71
3
 72
15
 73
11
 74
0
 42
0.0000001
 43
0.0000001
 44
0.0000000001
 40
0.0
 40
0.0
 40
0.0
 40
0.0
 40
0.1508535258
 40
0.297970745
 40
0.4383145848
 40
0.5698579169
 40
0.6916470496
 40
0.7488470062
 40
0.8036189928
 40
1.0
 40
1.0
 40
1.0
 40
1.0
 10
5.1084523344
 20
2.739885274
 30
0.0
 10
5.1084523344
 20
2.7384590931
 30
0.0
 10
5.1083290292
 20
2.7356404372
 30
0.0
 10
5.1077833779
 20
2.7315273949
 30
0.0
 10
5.1069097206
 20
2.7276578146
 30
0.0
 10
5.105752064
 20
2.7241147017
 30
0.0
 10
5.1045671483
 20
2.7214226868
 30
0.0
 10
5.1035152568
 20
2.7194774667
 30
0.0
 10
5.1019903674
 20
2.7169940144
 30
0.0
 10
5.1004683825
 20
2.7151273125
 30
0.0
 10
5.0990987633
 20
2.7138738726
 30
0.0
  0
SPLINE
  5
35C
100
AcDbEntity
  8
0
100
AcDbSpline
 62
7
  6
CONTINUOUS
 70
0
 71
3
 72
17
 73
13
 74
0
 42
0.0000001
 43
0.0000001
 44
0.0000000001
 40
0.0
 40
0.0
 40
0.0
 40
0.0
 40
0.1089526076
 40
0.2219495301
 40
0.3396228571
 40
0.4004093059
 40
0.4625305615
 40
0.590686572
 40
0.723783972
 40
0.791916517
 40
0.8608395161
 40
1.0
 40
1.0
 40
1.0
 40
1.0
 10
5.1461740927
 20
2.7138738726
 30
0.0
 10
5.1452222144
 20
2.7144600768
 30
0.0
 10
5.1433551283
 20
2.7157757445
 30
0.0
 10
5.1407695848
 20
2.7181244436
 30
0.0
 10
5.1388188332
 20
2.7204024832
 30
0.0
 10
5.1373951285
 20
2.7224207112
 30
0.0
 10
5.1360460832
 20
2.7246170798
 30
0.0
 10
5.1345865299
 20
2.7276075974
 30
0.0
 10
5.1335037408
 20
2.7308196444
 30
0.0
 10
5.1328752731
 20
2.7335211682
 30
0.0
 10
5.1324138461
 20
2.7363189138
 30
0.0
 10
5.1322741301
 20
2.7384574243
 30
0.0
 10
5.1322741301
 20
2.739885274
 30
0.0
  0
SPLINE
  5
35D
100
AcDbEntity
  8
0
100
AcDbSpline
 62
7
  6
CONTINUOUS
 70
0
 71
3
 72
15
 73
11
 74
0
 42
0.0000001
 43
0.0000001
 44
0.0000000001
 40
0.0
 40
0.0
 40
0.0
 40
0.0
 40
0.1467595091
 40
0.2903046633
 40
0.4280510203
 40
0.5583163694
 40
0.6803759498
 40
0.7942501072
 40
0.9005058736
 40
1.0
 40
1.0
 40
1.0
 40
1.0
 10
5.1571537483
 20
2.739885274
 30
0.0
 10
5.1571537483
 20
2.7384585711
 30
0.0
 10
5.1570085147
 20
2.7356341944
 30
0.0
 10
5.15636616
 20
2.7315155841
 30
0.0
 10
5.1553377588
 20
2.7276412631
 30
0.0
 10
5.153975143
 20
2.7240944657
 30
0.0
 10
5.152335067
 20
2.7209262988
 30
0.0
 10
5.1504713227
 20
2.7181613977
 30
0.0
 10
5.148431907
 20
2.7158072804
 30
0.0
 10
5.1469368812
 20
2.7144685707
 30
0.0
 10
5.1461740927
 20
2.7138738726
 30
0.0
  0
SPLINE
  5
35E
100
AcDbEntity
  8
0
100
AcDbSpline
 62
7
  6
CONTINUOUS
 70
0
 71
3
 72
15
 73
11
 74
0
 42
0.0000001
 43
0.0000001
 44
0.0000000001
 40
0.0
 40
0.0
 40
0.0
 40
0.0
 40
0.1044805416
 40
0.214257955
 40
0.3300914997
 40
0.4525324175
 40
0.5816806546
 40
0.7170079309
 40
0.8571596574
 40
1.0
 40
1.0
 40
1.0
 40
1.0
 10
5.1937071918
 20
2.7138738726
 30
0.0
 10
5.1928458339
 20
2.7144637405
 30
0.0
 10
5.1911564181
 20
2.7157896995
 30
0.0
 10
5.18883223
 20
2.7181414482
 30
0.0
 10
5.1867070121
 20
2.7209055412
 30
0.0
 10
5.1848359138
 20
2.7240746796
 30
0.0
 10
5.1832807472
 20
2.7276242618
 30
0.0
 10
5.1821066576
 20
2.731503112
 30
0.0
 10
5.181373143
 20
2.735627472
 30
0.0
 10
5.1812071918
 20
2.7384580073
 30
0.0
 10
5.1812071918
 20
2.739885274
 30
0.0
  0
SPLINE
  5
35F
100
AcDbEntity
  8
0
100
AcDbSpline
 62
7
  6
CONTINUOUS
 70
0
 71
3
 72
15
 73
11
 74
0
 42
0.0000001
 43
0.0000001
 44
0.0000000001
 40
0.0
 40
0.0
 40
0.0
 40
0.0
 40
0.1335637407
 40
0.2657710466
 40
0.3955856464
 40
0.5223897875
 40
0.6460096857
 40
0.766578104
 40
0.8844442768
 40
1.0
 40
1.0
 40
1.0
 40
1.0
 10
4.6950451361
 20
3.609885274
 30
0.0
 10
4.6950451361
 20
3.6113141389
 30
0.0
 10
4.6952604461
 20
3.6141620376
 30
0.0
 10
4.6962100247
 20
3.6183013673
 30
0.0
 10
4.6977279791
 20
3.6221899811
 30
0.0
 10
4.6997353673
 20
3.6257430782
 30
0.0
 10
4.7021464664
 20
3.6289104228
 30
0.0
 10
4.7048805608
 20
3.6316688336
 30
0.0
 10
4.7078663933
 20
3.6340126763
 30
0.0
 10
4.7100047575
 20
3.6353149307
 30
0.0
 10
4.7110955375
 20
3.6358966753
 30
0.0
  0
SPLINE
  5
360
100
AcDbEntity
  8
0
100
AcDbSpline
 62
7
  6
CONTINUOUS
 70
0
 71
3
 72
15
 73
11
 74
0
 42
0.0000001
 43
0.0000001
 44
0.0000000001
 40
0.0
 40
0.0
 40
0.0
 40
0.0
 40
0.1309881545
 40
0.2610130978
 40
0.3893519339
 40
0.515578344
 40
0.6395873404
 40
0.7614850365
 40
0.88153288
 40
1.0
 40
1.0
 40
1.0
 40
1.0
 10
4.7010291942
 20
3.609885274
 30
0.0
 10
4.7010291942
 20
3.6113146599
 30
0.0
 10
4.7012586776
 20
3.6141681827
 30
0.0
 10
4.7022699143
 20
3.6183119805
 30
0.0
 10
4.7038854548
 20
3.6222029234
 30
0.0
 10
4.7060204538
 20
3.6257561331
 30
0.0
 10
4.7085832739
 20
3.6289220544
 30
0.0
 10
4.7114880288
 20
3.6316782341
 30
0.0
 10
4.7146591998
 20
3.6340196511
 30
0.0
 10
4.7169231938
 20
3.6353166158
 30
0.0
 10
4.718078503
 20
3.6358966753
 30
0.0
  0
SPLINE
  5
361
100
AcDbEntity
  8
0
100
AcDbSpline
 62
7
  6
CONTINUOUS
 70
0
 71
3
 72
18
 73
14
 74
0
 42
0.0000001
 43
0.0000001
 44
0.0000000001
 40
0.0
 40
0.0
 40
0.0
 40
0.0
 40
0.128824257
 40
0.1930897326
 40
0.2571256775
 40
0.3208874604
 40
0.3843246583
 40
0.4474170936
 40
0.5101457459
 40
0.6344584023
 40
0.757420589
 40
0.8792131783
 40
1.0
 40
1.0
 40
1.0
 40
1.0
 10
4.7117580107
 20
3.609885274
 30
0.0
 10
4.7117580107
 20
3.6113151193
 30
0.0
 10
4.7119397394
 20
3.613463886
 30
0.0
 10
4.7125335026
 20
3.6162575144
 30
0.0
 10
4.7131462754
 20
3.6183019522
 30
0.0
 10
4.713917205
 20
3.6202818787
 30
0.0
 10
4.7148357784
 20
3.6221860612
 30
0.0
 10
4.715889996
 20
3.6240053114
 30
0.0
 10
4.7174554077
 20
3.6263006584
 30
0.0
 10
4.7196911216
 20
3.6289315763
 30
0.0
 10
4.722738073
 20
3.6316854606
 30
0.0
 10
4.7260639301
 20
3.6340249458
 30
0.0
 10
4.728432781
 20
3.6353178698
 30
0.0
 10
4.7296420327
 20
3.6358966753
 30
0.0
  0
SPLINE
  5
362
100
AcDbEntity
  8
0
100
AcDbSpline
 62
7
  6
CONTINUOUS
 70
0
 71
3
 72
20
 73
16
 74
0
 42
0.0000001
 43
0.0000001
 44
0.0000000001
 40
0.0
 40
0.0
 40
0.0
 40
0.0
 40
0.0636331649
 40
0.1272503405
 40
0.1907569483
 40
0.2541299444
 40
0.317347834
 40
0.3803777965
 40
0.443210982
 40
0.5058344679
 40
0.5682561027
 40
0.6304722119
 40
0.7542725468
 40
0.8774220226
 40
1.0
 40
1.0
 40
1.0
 40
1.0
 10
4.7271282614
 20
3.609885274
 30
0.0
 10
4.7271282614
 20
3.610601152
 30
0.0
 10
4.7271910811
 20
3.6120335007
 30
0.0
 10
4.7274710523
 20
3.6141637661
 30
0.0
 10
4.7279328854
 20
3.6162592318
 30
0.0
 10
4.7285686078
 20
3.6183037631
 30
0.0
 10
4.7293683681
 20
3.6202839631
 30
0.0
 10
4.7303212412
 20
3.622188236
 30
0.0
 10
4.7314146795
 20
3.624007446
 30
0.0
 10
4.732636459
 20
3.6257344724
 30
0.0
 10
4.7339739584
 20
3.6273644464
 30
0.0
 10
4.7358921019
 20
3.629399749
 30
0.0
 10
4.7385223998
 20
3.631691166
 30
0.0
 10
4.7419705953
 20
3.6340287329
 30
0.0
 10
4.7444226827
 20
3.6353187769
 30
0.0
 10
4.7456747637
 20
3.6358966753
 30
0.0
  0
SPLINE
  5
363
100
AcDbEntity
  8
0
100
AcDbSpline
 62
7
  6
CONTINUOUS
 70
0
 71
3
 72
19
 73
15
 74
0
 42
0.0000001
 43
0.0000001
 44
0.0000000001
 40
0.0
 40
0.0
 40
0.0
 40
0.0
 40
0.0630239024
 40
0.1260570204
 40
0.1890291828
 40
0.2519380037
 40
0.3147786935
 40
0.3775309475
 40
0.4401937533
 40
0.5027581524
 40
0.6275363593
 40
0.7519687851
 40
0.8761175052
 40
1.0
 40
1.0
 40
1.0
 40
1.0
 10
4.7469919221
 20
3.609885274
 30
0.0
 10
4.7469919221
 20
3.6106011881
 30
0.0
 10
4.7470564109
 20
3.6120339341
 30
0.0
 10
4.7473437967
 20
3.6141645855
 30
0.0
 10
4.7478178441
 20
3.6162603772
 30
0.0
 10
4.7484703469
 20
3.6183051443
 30
0.0
 10
4.7492911809
 20
3.6202854959
 30
0.0
 10
4.7502690879
 20
3.6221898148
 30
0.0
 10
4.7513912686
 20
3.6240090543
 30
0.0
 10
4.7530609417
 20
3.6263090251
 30
0.0
 10
4.7554461244
 20
3.6289436681
 30
0.0
 10
4.7586882234
 20
3.6316946797
 30
0.0
 10
4.7622261542
 20
3.6340314633
 30
0.0
 10
4.7647389182
 20
3.6353193947
 30
0.0
 10
4.7660222918
 20
3.6358966753
 30
0.0
  0
SPLINE
  5
364
100
AcDbEntity
  8
0
100
AcDbSpline
 62
7
  6
CONTINUOUS
 70
0
 71
3
 72
19
 73
15
 74
0
 42
0.0000001
 43
0.0000001
 44
0.0000000001
 40
0.0
 40
0.0
 40
0.0
 40
0.0
 40
0.0290013724
 40
0.0631782518
 40
0.1026630374
 40
0.1474524567
 40
0.1974423068
 40
0.2524441075
 40
0.3122077771
 40
0.3764334888
 40
0.5168007887
 40
0.6702331273
 40
0.8327698022
 40
1.0
 40
1.0
 40
1.0
 40
1.0
 10
4.7059064523
 20
2.7654635271
 30
0.0
 10
4.7060371058
 20
2.7656062524
 30
0.0
 10
4.7062938471
 20
2.765942732
 30
0.0
 10
4.7066437661
 20
2.7665326326
 30
0.0
 10
4.7069868093
 20
2.7672455113
 30
0.0
 10
4.7073202319
 20
2.7680775056
 30
0.0
 10
4.7076413021
 20
2.7690242907
 30
0.0
 10
4.7079470638
 20
2.7700804784
 30
0.0
 10
4.7082346667
 20
2.7712398264
 30
0.0
 10
4.7086009135
 20
2.772965447
 30
0.0
 10
4.7089877321
 20
2.7753240703
 30
0.0
 10
4.7093266978
 20
2.7783509353
 30
0.0
 10
4.7095369747
 20
2.7815690184
 30
0.0
 10
4.7095842735
 20
2.7837695183
 30
0.0
 10
4.7095842735
 20
2.784885274
 30
0.0
  0
SPLINE
  5
365
100
AcDbEntity
  8
0
100
AcDbSpline
 62
7
  6
CONTINUOUS
 70
0
 71
3
 72
19
 73
15
 74
0
 42
0.0000001
 43
0.0000001
 44
0.0000000001
 40
0.0
 40
0.0
 40
0.0
 40
0.0
 40
0.0626452052
 40
0.1253153554
 40
0.1879554797
 40
0.2505760053
 40
0.3131824334
 40
0.3757620886
 40
0.4383186399
 40
0.5008453871
 40
0.6257521985
 40
0.7505688947
 40
0.8753251514
 40
1.0
 40
1.0
 40
1.0
 40
1.0
 10
4.7711576951
 20
3.609885274
 30
0.0
 10
4.7711576951
 20
3.610601211
 30
0.0
 10
4.7712232219
 20
3.6120342088
 30
0.0
 10
4.7715152181
 20
3.614165104
 30
0.0
 10
4.7719968589
 20
3.6162610995
 30
0.0
 10
4.7726597925
 20
3.6183060124
 30
0.0
 10
4.7734937203
 20
3.6202864525
 30
0.0
 10
4.7744871908
 20
3.6221908021
 30
0.0
 10
4.7756271936
 20
3.6240100274
 30
0.0
 10
4.7773242578
 20
3.626311176
 30
0.0
 10
4.7797486591
 20
3.6289467099
 30
0.0
 10
4.7830418649
 20
3.631696954
 30
0.0
 10
4.7866353525
 20
3.6340330443
 30
0.0
 10
4.7891858408
 20
3.6353197607
 30
0.0
 10
4.7904886593
 20
3.6358966753
 30
0.0
  0
SPLINE
  5
366
100
AcDbEntity
  8
0
100
AcDbSpline
 62
7
  6
CONTINUOUS
 70
0
 71
3
 72
19
 73
15
 74
0
 42
0.0000001
 43
0.0000001
 44
0.0000000001
 40
0.0
 40
0.0
 40
0.0
 40
0.0
 40
0.0625016075
 40
0.125034161
 40
0.1875484818
 40
0.2500598694
 40
0.3125777235
 40
0.3750922424
 40
0.4376088392
 40
0.500121632
 40
0.6250776704
 40
0.7500400634
 40
0.8750260386
 40
1.0
 40
1.0
 40
1.0
 40
1.0
 10
4.7993928508
 20
3.609885274
 30
0.0
 10
4.7993928508
 20
3.6106012198
 30
0.0
 10
4.7994587729
 20
3.6120343145
 30
0.0
 10
4.799752525
 20
3.6141653033
 30
0.0
 10
4.8002370574
 20
3.6162613766
 30
0.0
 10
4.8009039629
 20
3.6183063447
 30
0.0
 10
4.8017428759
 20
3.6202868177
 30
0.0
 10
4.8027422715
 20
3.622191178
 30
0.0
 10
4.8038890586
 20
3.6240103968
 30
0.0
 10
4.8055965549
 20
3.6263119897
 30
0.0
 10
4.8080358877
 20
3.6289478538
 30
0.0
 10
4.8113485413
 20
3.6316978047
 30
0.0
 10
4.8149631723
 20
3.634033633
 30
0.0
 10
4.8175280201
 20
3.6353198967
 30
0.0
 10
4.8188382417
 20
3.6358966753
 30
0.0
  0
SPLINE
  5
367
100
AcDbEntity
  8
0
100
AcDbSpline
 62
7
  6
CONTINUOUS
 70
0
 71
3
 72
19
 73
15
 74
0
 42
0.0000001
 43
0.0000001
 44
0.0000000001
 40
0.0
 40
0.0
 40
0.0
 40
0.0
 40
0.0625929843
 40
0.1252130937
 40
0.1878074617
 40
0.2503882866
 40
0.3129624876
 40
0.3755184354
 40
0.4380604355
 40
0.5005820875
 40
0.6255067716
 40
0.7503764532
 40
0.875216291
 40
1.0
 40
1.0
 40
1.0
 40
1.0
 10
4.8314254691
 20
3.609885274
 30
0.0
 10
4.8314254691
 20
3.6106012142
 30
0.0
 10
4.8314911395
 20
3.6120342472
 30
0.0
 10
4.8317837738
 20
3.6141651763
 30
0.0
 10
4.8322664653
 20
3.6162612001
 30
0.0
 10
4.8329308424
 20
3.618306133
 30
0.0
 10
4.8337665817
 20
3.6202865852
 30
0.0
 10
4.8347622055
 20
3.6221909387
 30
0.0
 10
4.8359046737
 20
3.6240101617
 30
0.0
 10
4.8376055287
 20
3.626311472
 30
0.0
 10
4.8400353561
 20
3.6289471265
 30
0.0
 10
4.8433356298
 20
3.6316972641
 30
0.0
 10
4.8469368015
 20
3.6340332591
 30
0.0
 10
4.8494925082
 20
3.6353198103
 30
0.0
 10
4.850798017
 20
3.6358966753
 30
0.0
  0
SPLINE
  5
368
100
AcDbEntity
  8
0
100
AcDbSpline
 62
7
  6
CONTINUOUS
 70
0
 71
3
 72
19
 73
15
 74
0
 42
0.0000001
 43
0.0000001
 44
0.0000000001
 40
0.0
 40
0.0
 40
0.0
 40
0.0
 40
0.0629194199
 40
0.1258523813
 40
0.1887328958
 40
0.2515621075
 40
0.3143380672
 40
0.3770425826
 40
0.4396759443
 40
0.5022298317
 40
0.627043343
 40
0.7515817932
 40
0.8758983816
 40
1.0
 40
1.0
 40
1.0
 40
1.0
 10
4.8669470585
 20
3.609885274
 30
0.0
 10
4.8669470585
 20
3.6106011944
 30
0.0
 10
4.8670118329
 20
3.6120340093
 30
0.0
 10
4.8673004879
 20
3.6141647276
 30
0.0
 10
4.8677766257
 20
3.6162605752
 30
0.0
 10
4.8684320001
 20
3.6183053826
 30
0.0
 10
4.8692564391
 20
3.6202857589
 30
0.0
 10
4.8702386312
 20
3.6221900866
 30
0.0
 10
4.8713657191
 20
3.6240093226
 30
0.0
 10
4.8730429321
 20
3.6263096192
 30
0.0
 10
4.8754389126
 20
3.6289445109
 30
0.0
 10
4.8786950862
 20
3.6316953117
 30
0.0
 10
4.8822483163
 20
3.6340319037
 30
0.0
 10
4.8847714678
 20
3.6353194968
 30
0.0
 10
4.8860601951
 20
3.6358966753
 30
0.0
  0
SPLINE
  5
369
100
AcDbEntity
  8
0
100
AcDbSpline
 62
7
  6
CONTINUOUS
 70
0
 71
3
 72
15
 73
11
 74
0
 42
0.0000001
 43
0.0000001
 44
0.0000000001
 40
0.0
 40
0.0
 40
0.0
 40
0.0
 40
0.1155557129
 40
0.2334218869
 40
0.3539902814
 40
0.4776101623
 40
0.6044142802
 40
0.7342288976
 40
0.8664362409
 40
1.0
 40
1.0
 40
1.0
 40
1.0
 10
5.676318846
 20
3.6358966753
 30
0.0
 10
5.677409626
 20
3.6353149307
 30
0.0
 10
5.6795479901
 20
3.6340126765
 30
0.0
 10
5.6825338223
 20
3.6316688339
 30
0.0
 10
5.6852679166
 20
3.6289104237
 30
0.0
 10
5.6876790152
 20
3.6257430796
 30
0.0
 10
5.6896864038
 20
3.6221899829
 30
0.0
 10
5.6912043584
 20
3.6183013688
 30
0.0
 10
5.6921539374
 20
3.6141620384
 30
0.0
 10
5.6923692475
 20
3.6113141391
 30
0.0
 10
5.6923692475
 20
3.609885274
 30
0.0
  0
SPLINE
  5
36A
100
AcDbEntity
  8
0
100
AcDbSpline
 62
7
  6
CONTINUOUS
 70
0
 71
3
 72
19
 73
15
 74
0
 42
0.0000001
 43
0.0000001
 44
0.0000000001
 40
0.0
 40
0.0
 40
0.0
 40
0.0
 40
0.0290013724
 40
0.0631782518
 40
0.1026630374
 40
0.1474524567
 40
0.1974423068
 40
0.2524441075
 40
0.3122077771
 40
0.3764334888
 40
0.5168007887
 40
0.6702331273
 40
0.8327698022
 40
1.0
 40
1.0
 40
1.0
 40
1.0
 10
5.6815079313
 20
3.4143070208
 30
0.0
 10
5.6813772777
 20
3.4141642955
 30
0.0
 10
5.6811205365
 20
3.413827816
 30
0.0
 10
5.6807706174
 20
3.4132379154
 30
0.0
 10
5.6804275743
 20
3.4125250366
 30
0.0
 10
5.6800941516
 20
3.4116930424
 30
0.0
 10
5.6797730815
 20
3.4107462572
 30
0.0
 10
5.6794673198
 20
3.4096900696
 30
0.0
 10
5.6791797168
 20
3.4085307215
 30
0.0
 10
5.6788134701
 20
3.406805101
 30
0.0
 10
5.6784266514
 20
3.4044464777
 30
0.0
 10
5.6780876857
 20
3.4014196126
 30
0.0
 10
5.6778774089
 20
3.3982015296
 30
0.0
 10
5.6778301101
 20
3.3960010297
 30
0.0
 10
5.6778301101
 20
3.394885274
 30
0.0
  0
SPLINE
  5
36B
100
AcDbEntity
  8
0
100
AcDbSpline
 62
7
  6
CONTINUOUS
 70
0
 71
3
 72
15
 73
11
 74
0
 42
0.0000001
 43
0.0000001
 44
0.0000000001
 40
0.0
 40
0.0
 40
0.0
 40
0.0
 40
0.1184671095
 40
0.2385149543
 40
0.3604126266
 40
0.4844216058
 40
0.6106479934
 40
0.7389868472
 40
0.8690118274
 40
1.0
 40
1.0
 40
1.0
 40
1.0
 10
5.6693358806
 20
3.6358966753
 30
0.0
 10
5.6704911897
 20
3.6353166158
 30
0.0
 10
5.6727551836
 20
3.6340196512
 30
0.0
 10
5.6759263542
 20
3.6316782343
 30
0.0
 10
5.6788311091
 20
3.6289220552
 30
0.0
 10
5.6813939287
 20
3.6257561344
 30
0.0
 10
5.6835289281
 20
3.6222029252
 30
0.0
 10
5.6851444687
 20
3.618311982
 30
0.0
 10
5.6861557059
 20
3.6141681835
 30
0.0
 10
5.6863851894
 20
3.6113146601
 30
0.0
 10
5.6863851894
 20
3.609885274
 30
0.0
  0
SPLINE
  5
36C
100
AcDbEntity
  8
0
100
AcDbSpline
 62
7
  6
CONTINUOUS
 70
0
 71
3
 72
18
 73
14
 74
0
 42
0.0000001
 43
0.0000001
 44
0.0000000001
 40
0.0
 40
0.0
 40
0.0
 40
0.0
 40
0.1207868111
 40
0.2425794017
 40
0.3655415648
 40
0.4898542041
 40
0.5525828511
 40
0.6156752697
 40
0.6791124669
 40
0.742874268
 40
0.8069102328
 40
0.8711757251
 40
1.0
 40
1.0
 40
1.0
 40
1.0
 10
5.6577723508
 20
3.6358966753
 30
0.0
 10
5.6589816025
 20
3.6353178699
 30
0.0
 10
5.6613504533
 20
3.634024946
 30
0.0
 10
5.66467631
 20
3.6316854609
 30
0.0
 10
5.6677232613
 20
3.6289315771
 30
0.0
 10
5.6699589749
 20
3.6263006595
 30
0.0
 10
5.6715243865
 20
3.624005313
 30
0.0
 10
5.6725786043
 20
3.6221860632
 30
0.0
 10
5.6734971775
 20
3.6202818806
 30
0.0
 10
5.6742681076
 20
3.618301954
 30
0.0
 10
5.6748808806
 20
3.6162575155
 30
0.0
 10
5.6754746441
 20
3.6134638866
 30
0.0
 10
5.6756563728
 20
3.6113151195
 30
0.0
 10
5.6756563728
 20
3.609885274
 30
0.0
  0
SPLINE
  5
36D
100
AcDbEntity
  8
0
100
AcDbSpline
 62
7
  6
CONTINUOUS
 70
0
 71
3
 72
20
 73
16
 74
0
 42
0.0000001
 43
0.0000001
 44
0.0000000001
 40
0.0
 40
0.0
 40
0.0
 40
0.0
 40
0.1225779668
 40
0.2457274437
 40
0.3695277551
 40
0.4317438513
 40
0.494165482
 40
0.5567889628
 40
0.6196221319
 40
0.6826520938
 40
0.7458700016
 40
0.8092430175
 40
0.8727496419
 40
0.9363668311
 40
1.0
 40
1.0
 40
1.0
 40
1.0
 10
5.6417396199
 20
3.6358966753
 30
0.0
 10
5.6429917007
 20
3.635318777
 30
0.0
 10
5.6454437881
 20
3.6340287331
 30
0.0
 10
5.6488919832
 20
3.6316911662
 30
0.0
 10
5.651522281
 20
3.6293997498
 30
0.0
 10
5.6534404242
 20
3.6273644474
 30
0.0
 10
5.6547779235
 20
3.6257344737
 30
0.0
 10
5.6559997029
 20
3.6240074476
 30
0.0
 10
5.6570931415
 20
3.622188238
 30
0.0
 10
5.6580460144
 20
3.6202839651
 30
0.0
 10
5.6588457752
 20
3.6183037648
 30
0.0
 10
5.6594814978
 20
3.616259233
 30
0.0
 10
5.6599433312
 20
3.6141637667
 30
0.0
 10
5.6602233024
 20
3.6120335009
 30
0.0
 10
5.6602861222
 20
3.610601152
 30
0.0
 10
5.6602861222
 20
3.609885274
 30
0.0
  0
SPLINE
  5
36E
100
AcDbEntity
  8
0
100
AcDbSpline
 62
7
  6
CONTINUOUS
 70
0
 71
3
 72
19
 73
15
 74
0
 42
0.0000001
 43
0.0000001
 44
0.0000000001
 40
0.0
 40
0.0
 40
0.0
 40
0.0
 40
0.123882484
 40
0.2480312054
 40
0.3724636077
 40
0.4972417975
 40
0.5598061917
 40
0.6224689813
 40
0.6852212347
 40
0.7480619426
 40
0.8109707833
 40
0.8739429621
 40
0.9369760937
 40
1.0
 40
1.0
 40
1.0
 40
1.0
 10
5.6213920918
 20
3.6358966753
 30
0.0
 10
5.6226754653
 20
3.6353193947
 30
0.0
 10
5.6251882291
 20
3.6340314634
 30
0.0
 10
5.6287261596
 20
3.63169468
 30
0.0
 10
5.6319682585
 20
3.6289436689
 30
0.0
 10
5.6343534408
 20
3.6263090263
 30
0.0
 10
5.6360231137
 20
3.6240090559
 30
0.0
 10
5.6371452947
 20
3.6221898169
 30
0.0
 10
5.6381232015
 20
3.6202854979
 30
0.0
 10
5.638944036
 20
3.6183051461
 30
0.0
 10
5.6395965391
 20
3.6162603783
 30
0.0
 10
5.6400705868
 20
3.6141645862
 30
0.0
 10
5.6403579726
 20
3.6120339343
 30
0.0
 10
5.6404224614
 20
3.6106011881
 30
0.0
 10
5.6404224614
 20
3.609885274
 30
0.0
  0
SPLINE
  5
36F
100
AcDbEntity
  8
0
100
AcDbSpline
 62
7
  6
CONTINUOUS
 70
0
 71
3
 72
19
 73
15
 74
0
 42
0.0000001
 43
0.0000001
 44
0.0000000001
 40
0.0
 40
0.0
 40
0.0
 40
0.0
 40
0.1246748377
 40
0.2494310957
 40
0.3742477684
 40
0.4991545629
 40
0.5616813051
 40
0.6242378404
 40
0.6868174949
 40
0.7494239413
 40
0.8120444866
 40
0.8746846273
 40
0.937354791
 40
1.0
 40
1.0
 40
1.0
 40
1.0
 10
5.5969257243
 20
3.6358966753
 30
0.0
 10
5.5982285427
 20
3.6353197608
 30
0.0
 10
5.6007790308
 20
3.6340330445
 30
0.0
 10
5.6043725181
 20
3.6316969542
 30
0.0
 10
5.6076657238
 20
3.6289467107
 30
0.0
 10
5.6100901247
 20
3.6263111772
 30
0.0
 10
5.6117871887
 20
3.624010029
 30
0.0
 10
5.6129271918
 20
3.6221908042
 30
0.0
 10
5.6139206621
 20
3.6202864544
 30
0.0
 10
5.6147545904
 20
3.6183060141
 30
0.0
 10
5.6154175244
 20
3.6162611007
 30
0.0
 10
5.6158991654
 20
3.6141651047
 30
0.0
 10
5.6161911616
 20
3.6120342091
 30
0.0
 10
5.6162566884
 20
3.610601211
 30
0.0
 10
5.6162566884
 20
3.609885274
 30
0.0
  0
SPLINE
  5
370
100
AcDbEntity
  8
0
100
AcDbSpline
 62
7
  6
CONTINUOUS
 70
0
 71
3
 72
19
 73
15
 74
0
 42
0.0000001
 43
0.0000001
 44
0.0000000001
 40
0.0
 40
0.0
 40
0.0
 40
0.0
 40
0.1249739506
 40
0.2499599269
 40
0.3749222965
 40
0.4998783179
 40
0.5623911058
 40
0.6249076867
 40
0.6874222049
 40
0.7499400772
 40
0.8124514845
 40
0.8749658217
 40
0.9374983887
 40
1.0
 40
1.0
 40
1.0
 40
1.0
 10
5.5685761419
 20
3.6358966753
 30
0.0
 10
5.5698863634
 20
3.6353198967
 30
0.0
 10
5.5724512111
 20
3.6340336332
 30
0.0
 10
5.5760658417
 20
3.6316978049
 30
0.0
 10
5.5793784952
 20
3.6289478546
 30
0.0
 10
5.5818178276
 20
3.6263119909
 30
0.0
 10
5.5835253237
 20
3.6240103984
 30
0.0
 10
5.5846721111
 20
3.6221911801
 30
0.0
 10
5.5856715065
 20
3.6202868197
 30
0.0
 10
5.58651042
 20
3.6183063464
 30
0.0
 10
5.5871773258
 20
3.6162613778
 30
0.0
 10
5.5876618585
 20
3.6141653039
 30
0.0
 10
5.5879556106
 20
3.6120343148
 30
0.0
 10
5.5880215328
 20
3.6106012199
 30
0.0
 10
5.5880215328
 20
3.609885274
 30
0.0
  0
SPLINE
  5
371
100
AcDbEntity
  8
0
100
AcDbSpline
 62
7
  6
CONTINUOUS
 70
0
 71
3
 72
19
 73
15
 74
0
 42
0.0000001
 43
0.0000001
 44
0.0000000001
 40
0.0
 40
0.0
 40
0.0
 40
0.0
 40
0.1247836982
 40
0.2496235372
 40
0.3744931953
 40
0.4994178625
 40
0.5619395096
 40
0.6244814936
 40
0.6870374408
 40
0.74961166
 40
0.8121925046
 40
0.874786889
 40
0.9374070118
 40
1.0
 40
1.0
 40
1.0
 40
1.0
 10
5.5366163666
 20
3.6358966753
 30
0.0
 10
5.5379218753
 20
3.6353198104
 30
0.0
 10
5.5404775819
 20
3.6340332593
 30
0.0
 10
5.5440787532
 20
3.6316972643
 30
0.0
 10
5.5473790268
 20
3.6289471273
 30
0.0
 10
5.5498088538
 20
3.6263114732
 30
0.0
 10
5.5515097086
 20
3.6240101633
 30
0.0
 10
5.5526521772
 20
3.6221909408
 30
0.0
 10
5.5536478007
 20
3.6202865871
 30
0.0
 10
5.5544835406
 20
3.6183061348
 30
0.0
 10
5.5551479179
 20
3.6162612012
 30
0.0
 10
5.5556306097
 20
3.614165177
 30
0.0
 10
5.5559232439
 20
3.6120342474
 30
0.0
 10
5.5559889144
 20
3.6106012142
 30
0.0
 10
5.5559889144
 20
3.609885274
 30
0.0
  0
SPLINE
  5
372
100
AcDbEntity
  8
0
100
AcDbSpline
 62
7
  6
CONTINUOUS
 70
0
 71
3
 72
19
 73
15
 74
0
 42
0.0000001
 43
0.0000001
 44
0.0000000001
 40
0.0
 40
0.0
 40
0.0
 40
0.0
 40
0.1241016076
 40
0.2484181973
 40
0.3729566239
 40
0.4977701183
 40
0.5603240007
 40
0.6229573463
 40
0.685661861
 40
0.7484378389
 40
0.8112670704
 40
0.8741476013
 40
0.9370805762
 40
1.0
 40
1.0
 40
1.0
 40
1.0
 10
5.5013541885
 20
3.6358966753
 30
0.0
 10
5.5026429156
 20
3.6353194968
 30
0.0
 10
5.505166067
 20
3.6340319038
 30
0.0
 10
5.5087192968
 20
3.631695312
 30
0.0
 10
5.5119754703
 20
3.6289445118
 30
0.0
 10
5.5143714504
 20
3.6263096204
 30
0.0
 10
5.5160486633
 20
3.6240093242
 30
0.0
 10
5.5171757514
 20
3.6221900887
 30
0.0
 10
5.5181579434
 20
3.6202857608
 30
0.0
 10
5.5189823828
 20
3.6183053844
 30
0.0
 10
5.5196377576
 20
3.6162605764
 30
0.0
 10
5.5201138956
 20
3.6141647282
 30
0.0
 10
5.5204025505
 20
3.6120340095
 30
0.0
 10
5.5204673251
 20
3.6106011944
 30
0.0
 10
5.5204673251
 20
3.609885274
 30
0.0
  0
LINE
  5
373
100
AcDbEntity
  8
0
100
AcDbLine
 62
7
  6
CONTINUOUS
 10
5.5011420638
 20
3.609885274
 11
5.5013541885
 21
3.6358966753
  0
SPLINE
  5
374
100
AcDbEntity
  8
0
100
AcDbSpline
 62
7
  6
CONTINUOUS
 70
0
 71
3
 72
20
 73
16
 74
0
 42
0.0000001
 43
0.0000001
 44
0.0000000001
 40
0.0
 40
0.0
 40
0.0
 40
0.0
 40
0.1229100071
 40
0.246312895
 40
0.3702722453
 40
0.4325283046
 40
0.4949619048
 40
0.5575688062
 40
0.6203569684
 40
0.6833145437
 40
0.7464347153
 40
0.8096878584
 40
0.8730567412
 40
0.9365235813
 40
1.0
 40
1.0
 40
1.0
 40
1.0
 10
5.4631292016
 20
3.6358966753
 30
0.0
 10
5.4643892461
 20
3.6353189376
 30
0.0
 10
5.4668567936
 20
3.6340294211
 30
0.0
 10
5.4703277633
 20
3.6316921453
 30
0.0
 10
5.4729760789
 20
3.6294004934
 30
0.0
 10
5.4749073864
 20
3.6273648034
 30
0.0
 10
5.4762537876
 20
3.6257348575
 30
0.0
 10
5.4774837109
 20
3.6240078492
 30
0.0
 10
5.478584451
 20
3.622188642
 30
0.0
 10
5.4795436987
 20
3.6202843534
 30
0.0
 10
5.4803488213
 20
3.6183041147
 30
0.0
 10
5.480988814
 20
3.6162595224
 30
0.0
 10
5.481453755
 20
3.6141639735
 30
0.0
 10
5.4817356126
 20
3.6120336102
 30
0.0
 10
5.481798857
 20
3.6106011611
 30
0.0
 10
5.481798857
 20
3.609885274
 30
0.0
  0
SPLINE
  5
375
100
AcDbEntity
  8
0
100
AcDbSpline
 62
7
  6
CONTINUOUS
 70
0
 71
3
 72
18
 73
14
 74
0
 42
0.0000001
 43
0.0000001
 44
0.0000000001
 40
0.0
 40
0.0
 40
0.0
 40
0.0
 40
0.1634939321
 40
0.3217530906
 40
0.4704059365
 40
0.5401048348
 40
0.6063352404
 40
0.7277259506
 40
0.8337858821
 40
0.8810228055
 40
0.9244390699
 40
0.9640800739
 40
1.0
 40
1.0
 40
1.0
 40
1.0
 10
5.4610121167
 20
3.609885274
 30
0.0
 10
5.4610121167
 20
3.6113101437
 30
0.0
 10
5.4610397851
 20
3.6141143474
 30
0.0
 10
5.4611623754
 20
3.6182124206
 30
0.0
 10
5.4613291747
 20
3.6214906819
 30
0.0
 10
5.4614982671
 20
3.6239651333
 30
0.0
 10
5.4616781174
 20
3.6262005302
 30
0.0
 10
5.4619305247
 20
3.6287478269
 30
0.0
 10
5.462236151
 20
3.6311226553
 30
0.0
 10
5.4625022732
 20
3.6328163515
 30
0.0
 10
5.4627012926
 20
3.633934398
 30
0.0
 10
5.4629065225
 20
3.6349508832
 30
0.0
 10
5.4630540438
 20
3.6355927848
 30
0.0
 10
5.4631292016
 20
3.6358966753
 30
0.0
  0
SPLINE
  5
376
100
AcDbEntity
  8
0
100
AcDbSpline
 62
7
  6
CONTINUOUS
 70
0
 71
3
 72
19
 73
15
 74
0
 42
0.0000001
 43
0.0000001
 44
0.0000000001
 40
0.0
 40
0.0
 40
0.0
 40
0.0
 40
0.1212219167
 40
0.2433413572
 40
0.3665014538
 40
0.4908667925
 40
0.5535647486
 40
0.6165885237
 40
0.6799206918
 40
0.7435439184
 40
0.8074121278
 40
0.8714863826
 40
0.9357222542
 40
1.0
 40
1.0
 40
1.0
 40
1.0
 10
5.4223095335
 20
3.6358966753
 30
0.0
 10
5.4235292798
 20
3.635318099
 30
0.0
 10
5.4259185185
 20
3.6340259185
 30
0.0
 10
5.4292744311
 20
3.6316868207
 30
0.0
 10
5.4323490447
 20
3.6289333372
 30
0.0
 10
5.4346059161
 20
3.6263018591
 30
0.0
 10
5.4361860738
 20
3.6240058464
 30
0.0
 10
5.4372499166
 20
3.6221865906
 30
0.0
 10
5.4381768904
 20
3.6202823996
 30
0.0
 10
5.4389548872
 20
3.6183023567
 30
0.0
 10
5.4395732752
 20
3.6162580727
 30
0.0
 10
5.4400224959
 20
3.6141629395
 30
0.0
 10
5.4402948116
 20
3.6120330646
 30
0.0
 10
5.4403559087
 20
3.6106011157
 30
0.0
 10
5.4403559087
 20
3.609885274
 30
0.0
  0
SPLINE
  5
377
100
AcDbEntity
  8
0
100
AcDbSpline
 62
7
  6
CONTINUOUS
 70
0
 71
3
 72
18
 73
14
 74
0
 42
0.0000001
 43
0.0000001
 44
0.0000000001
 40
0.0
 40
0.0
 40
0.0
 40
0.0
 40
0.1614351978
 40
0.3178649166
 40
0.4651247137
 40
0.600271069
 40
0.7216440804
 40
0.7769375808
 40
0.8286021661
 40
0.8766739007
 40
0.9212135287
 40
0.9622935024
 40
1.0
 40
1.0
 40
1.0
 40
1.0
 10
5.4183078771
 20
3.609885274
 30
0.0
 10
5.4183078771
 20
3.6113103259
 30
0.0
 10
5.4183602416
 20
3.6141165433
 30
0.0
 10
5.4185921886
 20
3.6182167903
 30
0.0
 10
5.4189634153
 20
3.62207385
 30
0.0
 10
5.4194550805
 20
3.6256052062
 30
0.0
 10
5.4199622119
 20
3.6283119228
 30
0.0
 10
5.4204158581
 20
3.6302760281
 30
0.0
 10
5.4207631259
 20
3.6315999727
 30
0.0
 10
5.4211260103
 20
3.6328210122
 30
0.0
 10
5.4215026163
 20
3.6339397592
 30
0.0
 10
5.4218911205
 20
3.6349570474
 30
0.0
 10
5.4221685759
 20
3.6355951457
 30
0.0
 10
5.4223095335
 20
3.6358966753
 30
0.0
  0
SPLINE
  5
378
100
AcDbEntity
  8
0
100
AcDbSpline
 62
7
  6
CONTINUOUS
 70
0
 71
3
 72
15
 73
11
 74
0
 42
0.0000001
 43
0.0000001
 44
0.0000000001
 40
0.0
 40
0.0
 40
0.0
 40
0.0
 40
0.1190378282
 40
0.2395158504
 40
0.3616781147
 40
0.4857673454
 40
0.611882638
 40
0.7399311227
 40
0.8695236763
 40
1.0
 40
1.0
 40
1.0
 40
1.0
 10
5.3792882999
 20
3.6358966753
 30
0.0
 10
5.3804565312
 20
3.6353169283
 30
0.0
 10
5.3827456581
 20
3.6340209592
 30
0.0
 10
5.3859538974
 20
3.631680027
 30
0.0
 10
5.3888927828
 20
3.6289243151
 30
0.0
 10
5.3914859567
 20
3.6257587204
 30
0.0
 10
5.3936465136
 20
3.6222055365
 30
0.0
 10
5.3952816312
 20
3.6183141567
 30
0.0
 10
5.3963052606
 20
3.6141694559
 30
0.0
 10
5.3965375985
 20
3.6113147682
 30
0.0
 10
5.3965375985
 20
3.609885274
 30
0.0
  0
SPLINE
  5
379
100
AcDbEntity
  8
0
100
AcDbSpline
 62
7
  6
CONTINUOUS
 70
0
 71
3
 72
15
 73
11
 74
0
 42
0.0000001
 43
0.0000001
 44
0.0000000001
 40
0.0
 40
0.0
 40
0.0
 40
0.0
 40
0.1584273961
 40
0.3121948796
 40
0.4574483187
 40
0.5915039205
 40
0.7129151977
 40
0.8212158978
 40
0.9166691074
 40
1.0
 40
1.0
 40
1.0
 40
1.0
 10
5.3734406102
 20
3.609885274
 30
0.0
 10
5.3734406102
 20
3.6113106132
 30
0.0
 10
5.373517276
 20
3.6141200011
 30
0.0
 10
5.373856786
 20
3.6182236162
 30
0.0
 10
5.3744002737
 20
3.6220841344
 30
0.0
 10
5.3751202264
 20
3.6256192047
 30
0.0
 10
5.375986483
 20
3.6287779876
 30
0.0
 10
5.3769704921
 20
3.6315364305
 30
0.0
 10
5.3780470305
 20
3.6338879651
 30
0.0
 10
5.3788654059
 20
3.6352776216
 30
0.0
 10
5.3792882999
 20
3.6358966753
 30
0.0
  0
SPLINE
  5
37A
100
AcDbEntity
  8
0
100
AcDbSpline
 62
7
  6
CONTINUOUS
 70
0
 71
3
 72
15
 73
11
 74
0
 42
0.0000001
 43
0.0000001
 44
0.0000000001
 40
0.0
 40
0.0
 40
0.0
 40
0.0
 40
0.1162516829
 40
0.2346374142
 40
0.3555204413
 40
0.4792302668
 40
0.6058946472
 40
0.7353573534
 40
0.8670465812
 40
1.0
 40
1.0
 40
1.0
 40
1.0
 10
5.3344798188
 20
3.6358966753
 30
0.0
 10
5.3355858231
 20
3.6353153479
 30
0.0
 10
5.337753847
 20
3.634014391
 30
0.0
 10
5.3407834405
 20
3.6316711201
 30
0.0
 10
5.3435578315
 20
3.6289132191
 30
0.0
 10
5.3460047447
 20
3.6257461788
 30
0.0
 10
5.3480422359
 20
3.6221930196
 30
0.0
 10
5.3495831863
 20
3.6183038347
 30
0.0
 10
5.3505472785
 20
3.6141634567
 30
0.0
 10
5.3507659205
 20
3.6113142592
 30
0.0
 10
5.3507659205
 20
3.609885274
 30
0.0
  0
SPLINE
  5
37B
100
AcDbEntity
  8
0
100
AcDbSpline
 62
7
  6
CONTINUOUS
 70
0
 71
3
 72
15
 73
11
 74
0
 42
0.0000001
 43
0.0000001
 44
0.0000000001
 40
0.0
 40
0.0
 40
0.0
 40
0.0
 40
0.1547769994
 40
0.3053277145
 40
0.4481839663
 40
0.5809772445
 40
0.7025063322
 40
0.8124979767
 40
0.9113761171
 40
1.0
 40
1.0
 40
1.0
 40
1.0
 10
5.3268424121
 20
3.609885274
 30
0.0
 10
5.3268424121
 20
3.6113109945
 30
0.0
 10
5.3269427913
 20
3.6141245844
 30
0.0
 10
5.3273871793
 20
3.618232549
 30
0.0
 10
5.3280986506
 20
3.622097365
 30
0.0
 10
5.3290413528
 20
3.6256365585
 30
0.0
 10
5.3301760392
 20
3.6287993154
 30
0.0
 10
5.3314656594
 20
3.6315614804
 30
0.0
 10
5.3328774048
 20
3.633916105
 30
0.0
 10
5.3339363348
 20
3.6352875286
 30
0.0
 10
5.3344798188
 20
3.6358966753
 30
0.0
  0
SPLINE
  5
37C
100
AcDbEntity
  8
0
100
AcDbSpline
 62
7
  6
CONTINUOUS
 70
0
 71
3
 72
15
 73
11
 74
0
 42
0.0000001
 43
0.0000001
 44
0.0000000001
 40
0.0
 40
0.0
 40
0.0
 40
0.0
 40
0.1128966785
 40
0.228789553
 40
0.3481741714
 40
0.4714679761
 40
0.5988149279
 40
0.7299686341
 40
0.8641348513
 40
1.0
 40
1.0
 40
1.0
 40
1.0
 10
5.2883156203
 20
3.6358966753
 30
0.0
 10
5.2893492834
 20
3.6353132472
 30
0.0
 10
5.2913762504
 20
3.6340058385
 30
0.0
 10
5.2941977202
 20
3.6316598713
 30
0.0
 10
5.2967804721
 20
3.6288996656
 30
0.0
 10
5.2990571291
 20
3.6257313717
 30
0.0
 10
5.300951637
 20
3.6221787066
 30
0.0
 10
5.3023834881
 20
3.6182923389
 30
0.0
 10
5.3032788076
 20
3.6141568925
 30
0.0
 10
5.3034816812
 20
3.611313704
 30
0.0
 10
5.3034816812
 20
3.609885274
 30
0.0
  0
SPLINE
  5
37D
100
AcDbEntity
  8
0
100
AcDbSpline
 62
7
  6
CONTINUOUS
 70
0
 71
3
 72
15
 73
11
 74
0
 42
0.0000001
 43
0.0000001
 44
0.0000000001
 40
0.0
 40
0.0
 40
0.0
 40
0.0
 40
0.1508535457
 40
0.2979707626
 40
0.4383145901
 40
0.5698579192
 40
0.6916470504
 40
0.7488470079
 40
0.8036189947
 40
1.0
 40
1.0
 40
1.0
 40
1.0
 10
5.2789620492
 20
3.609885274
 30
0.0
 10
5.2789620492
 20
3.611311455
 30
0.0
 10
5.2790853544
 20
3.6141301111
 30
0.0
 10
5.2796310057
 20
3.6182431534
 30
0.0
 10
5.280504663
 20
3.6221127336
 30
0.0
 10
5.2816623196
 20
3.6256558463
 30
0.0
 10
5.2828472353
 20
3.6283478612
 30
0.0
 10
5.2838991268
 20
3.6302930813
 30
0.0
 10
5.2854240162
 20
3.6327765336
 30
0.0
 10
5.2869460011
 20
3.6346432355
 30
0.0
 10
5.2883156203
 20
3.6358966753
 30
0.0
  0
SPLINE
  5
37E
100
AcDbEntity
  8
0
100
AcDbSpline
 62
7
  6
CONTINUOUS
 70
0
 71
3
 72
17
 73
13
 74
0
 42
0.0000001
 43
0.0000001
 44
0.0000000001
 40
0.0
 40
0.0
 40
0.0
 40
0.0
 40
0.1089526043
 40
0.2219495287
 40
0.3396228459
 40
0.4004092899
 40
0.4625305458
 40
0.5906865519
 40
0.7237839611
 40
0.7919165138
 40
0.8608395169
 40
1.0
 40
1.0
 40
1.0
 40
1.0
 10
5.2412402909
 20
3.6358966753
 30
0.0
 10
5.2421921691
 20
3.6353104712
 30
0.0
 10
5.2440592553
 20
3.6339948035
 30
0.0
 10
5.2466447986
 20
3.6316461044
 30
0.0
 10
5.2485955502
 20
3.629368065
 30
0.0
 10
5.2500192548
 20
3.6273498371
 30
0.0
 10
5.2513683001
 20
3.6251534686
 30
0.0
 10
5.2528278536
 20
3.622162951
 30
0.0
 10
5.2539106427
 20
3.6189509039
 30
0.0
 10
5.2545391104
 20
3.6162493799
 30
0.0
 10
5.2550005375
 20
3.6134516342
 30
0.0
 10
5.2551402535
 20
3.6113131237
 30
0.0
 10
5.2551402535
 20
3.609885274
 30
0.0
  0
SPLINE
  5
37F
100
AcDbEntity
  8
0
100
AcDbSpline
 62
7
  6
CONTINUOUS
 70
0
 71
3
 72
15
 73
11
 74
0
 42
0.0000001
 43
0.0000001
 44
0.0000000001
 40
0.0
 40
0.0
 40
0.0
 40
0.0
 40
0.1467595285
 40
0.2903046804
 40
0.4280510255
 40
0.5583163717
 40
0.6803759506
 40
0.7942501091
 40
0.9005058736
 40
1.0
 40
1.0
 40
1.0
 40
1.0
 10
5.2302606353
 20
3.609885274
 30
0.0
 10
5.2302606353
 20
3.611311977
 30
0.0
 10
5.2304058689
 20
3.6141363539
 30
0.0
 10
5.2310482236
 20
3.6182549643
 30
0.0
 10
5.2320766249
 20
3.6221292851
 30
0.0
 10
5.2334392406
 20
3.6256760823
 30
0.0
 10
5.2350793166
 20
3.6288442492
 30
0.0
 10
5.2369430608
 20
3.6316091502
 30
0.0
 10
5.2389824765
 20
3.6339632675
 30
0.0
 10
5.2404775023
 20
3.6353019772
 30
0.0
 10
5.2412402909
 20
3.6358966753
 30
0.0
  0
SPLINE
  5
380
100
AcDbEntity
  8
0
100
AcDbSpline
 62
7
  6
CONTINUOUS
 70
0
 71
3
 72
15
 73
11
 74
0
 42
0.0000001
 43
0.0000001
 44
0.0000000001
 40
0.0
 40
0.0
 40
0.0
 40
0.0
 40
0.1044805383
 40
0.2142579537
 40
0.3300914884
 40
0.4525324018
 40
0.5816806342
 40
0.7170079198
 40
0.8571596583
 40
1.0
 40
1.0
 40
1.0
 40
1.0
 10
5.1937071918
 20
3.6358966753
 30
0.0
 10
5.1945685496
 20
3.6353068075
 30
0.0
 10
5.1962579655
 20
3.6339808484
 30
0.0
 10
5.1985821534
 20
3.6316290999
 30
0.0
 10
5.2007073713
 20
3.628865007
 30
0.0
 10
5.2025784695
 20
3.6256958687
 30
0.0
 10
5.2041336363
 20
3.6221462867
 30
0.0
 10
5.2053077258
 20
3.6182674362
 30
0.0
 10
5.2060412405
 20
3.6141430761
 30
0.0
 10
5.2062071918
 20
3.6113125406
 30
0.0
 10
5.2062071918
 20
3.609885274
 30
0.0
  0
LINE
  5
381
100
AcDbEntity
  8
0
100
AcDbLine
 62
7
  6
CONTINUOUS
 10
4.8860601951
 20
3.6358966753
 11
4.8862723198
 21
3.609885274
  0
SPLINE
  5
382
100
AcDbEntity
  8
0
100
AcDbSpline
 62
7
  6
CONTINUOUS
 70
0
 71
3
 72
20
 73
16
 74
0
 42
0.0000001
 43
0.0000001
 44
0.0000000001
 40
0.0
 40
0.0
 40
0.0
 40
0.0
 40
0.0634764147
 40
0.1269432412
 40
0.1903121074
 40
0.2535652308
 40
0.3166853841
 40
0.3796429601
 40
0.4424311386
 40
0.5050380451
 40
0.5674716493
 40
0.6297277218
 40
0.7536870956
 40
0.8770899822
 40
1.0
 40
1.0
 40
1.0
 40
1.0
 10
4.9056155265
 20
3.609885274
 30
0.0
 10
4.9056155265
 20
3.6106011611
 30
0.0
 10
4.9056787709
 20
3.61203361
 30
0.0
 10
4.9059606285
 20
3.6141639729
 30
0.0
 10
4.9064255692
 20
3.6162595212
 30
0.0
 10
4.9070655617
 20
3.618304113
 30
0.0
 10
4.9078706838
 20
3.6202843515
 30
0.0
 10
4.9088299317
 20
3.6221886399
 30
0.0
 10
4.9099306715
 20
3.6240078476
 30
0.0
 10
4.9111605948
 20
3.6257348561
 30
0.0
 10
4.9125069961
 20
3.6273648024
 30
0.0
 10
4.914438304
 20
3.6294004927
 30
0.0
 10
4.9170866197
 20
3.6316921451
 30
0.0
 10
4.9205575898
 20
3.6340294209
 30
0.0
 10
4.9230251373
 20
3.6353189376
 30
0.0
 10
4.924285182
 20
3.6358966753
 30
0.0
  0
SPLINE
  5
383
100
AcDbEntity
  8
0
100
AcDbSpline
 62
7
  6
CONTINUOUS
 70
0
 71
3
 72
18
 73
14
 74
0
 42
0.0000001
 43
0.0000001
 44
0.0000000001
 40
0.0
 40
0.0
 40
0.0
 40
0.0
 40
0.035919923
 40
0.0755609222
 40
0.1189771864
 40
0.1662141116
 40
0.2722740174
 40
0.3936647087
 40
0.4598951056
 40
0.5295939801
 40
0.6782468439
 40
0.8365060453
 40
1.0
 40
1.0
 40
1.0
 40
1.0
 10
4.924285182
 20
3.6358966753
 30
0.0
 10
4.9243603398
 20
3.6355927848
 30
0.0
 10
4.924507861
 20
3.6349508833
 30
0.0
 10
4.924713091
 20
3.6339343982
 30
0.0
 10
4.9249121103
 20
3.6328163517
 30
0.0
 10
4.9251782325
 20
3.6311226557
 30
0.0
 10
4.9254838588
 20
3.6287478277
 30
0.0
 10
4.925736266
 20
3.6262005314
 30
0.0
 10
4.9259161163
 20
3.6239651349
 30
0.0
 10
4.9260852088
 20
3.6214906838
 30
0.0
 10
4.9262520081
 20
3.6182124221
 30
0.0
 10
4.9263745985
 20
3.6141143482
 30
0.0
 10
4.9264022668
 20
3.6113101439
 30
0.0
 10
4.9264022668
 20
3.609885274
 30
0.0
  0
SPLINE
  5
384
100
AcDbEntity
  8
0
100
AcDbSpline
 62
7
  6
CONTINUOUS
 70
0
 71
3
 72
19
 73
15
 74
0
 42
0.0000001
 43
0.0000001
 44
0.0000000001
 40
0.0
 40
0.0
 40
0.0
 40
0.0
 40
0.1672301978
 40
0.3297668727
 40
0.4831992113
 40
0.6235665112
 40
0.6877922229
 40
0.7475558925
 40
0.8025576932
 40
0.8525475433
 40
0.8973369626
 40
0.9368217482
 40
0.9709986276
 40
1.0
 40
1.0
 40
1.0
 40
1.0
 10
5.6778301101
 20
2.784885274
 30
0.0
 10
5.6778301101
 20
2.7837695183
 30
0.0
 10
5.6778774089
 20
2.7815690184
 30
0.0
 10
5.6780876857
 20
2.7783509353
 30
0.0
 10
5.6784266514
 20
2.7753240703
 30
0.0
 10
5.6788134701
 20
2.772965447
 30
0.0
 10
5.6791797168
 20
2.7712398264
 30
0.0
 10
5.6794673198
 20
2.7700804784
 30
0.0
 10
5.6797730815
 20
2.7690242907
 30
0.0
 10
5.6800941516
 20
2.7680775056
 30
0.0
 10
5.6804275743
 20
2.7672455113
 30
0.0
 10
5.6807706174
 20
2.7665326326
 30
0.0
 10
5.6811205365
 20
2.765942732
 30
0.0
 10
5.6813772777
 20
2.7656062524
 30
0.0
 10
5.6815079313
 20
2.7654635271
 30
0.0
  0
SPLINE
  5
385
100
AcDbEntity
  8
0
100
AcDbSpline
 62
7
  6
CONTINUOUS
 70
0
 71
3
 72
19
 73
15
 74
0
 42
0.0000001
 43
0.0000001
 44
0.0000000001
 40
0.0
 40
0.0
 40
0.0
 40
0.0
 40
0.0642777419
 40
0.1285135996
 40
0.1925878378
 40
0.2564560273
 40
0.3200792356
 40
0.3834114044
 40
0.4464351961
 40
0.5091331575
 40
0.6334985133
 40
0.7566586334
 40
0.8787780727
 40
1.0
 40
1.0
 40
1.0
 40
1.0
 10
4.9470584748
 20
3.609885274
 30
0.0
 10
4.9470584748
 20
3.6106011156
 30
0.0
 10
4.9471195719
 20
3.6120330643
 30
0.0
 10
4.9473918876
 20
3.6141629389
 30
0.0
 10
4.9478411081
 20
3.6162580716
 30
0.0
 10
4.9484594958
 20
3.618302355
 30
0.0
 10
4.9492374921
 20
3.6202823976
 30
0.0
 10
4.9501644661
 20
3.6221865885
 30
0.0
 10
4.9512283087
 20
3.6240058448
 30
0.0
 10
4.9528084665
 20
3.6263018579
 30
0.0
 10
4.9550653382
 20
3.6289333363
 30
0.0
 10
4.9581399519
 20
3.6316868205
 30
0.0
 10
4.9614958649
 20
3.6340259183
 30
0.0
 10
4.9638851037
 20
3.635318099
 30
0.0
 10
4.9651048501
 20
3.6358966753
 30
0.0
  0
SPLINE
  5
386
100
AcDbEntity
  8
0
100
AcDbSpline
 62
7
  6
CONTINUOUS
 70
0
 71
3
 72
18
 73
14
 74
0
 42
0.0000001
 43
0.0000001
 44
0.0000000001
 40
0.0
 40
0.0
 40
0.0
 40
0.0
 40
0.0377064945
 40
0.0787864633
 40
0.123326091
 40
0.1713978274
 40
0.2230624068
 40
0.2783558876
 40
0.3997288802
 40
0.5348752037
 40
0.6821350185
 40
0.83856478
 40
1.0
 40
1.0
 40
1.0
 40
1.0
 10
4.9651048501
 20
3.6358966753
 30
0.0
 10
4.9652458077
 20
3.6355951457
 30
0.0
 10
4.9655232631
 20
3.6349570474
 30
0.0
 10
4.9659117672
 20
3.6339397593
 30
0.0
 10
4.9662883732
 20
3.6328210123
 30
0.0
 10
4.9666512575
 20
3.6315999729
 30
0.0
 10
4.9669985254
 20
3.6302760285
 30
0.0
 10
4.9674521715
 20
3.6283119237
 30
0.0
 10
4.9679593028
 20
3.6256052076
 30
0.0
 10
4.9684509681
 20
3.6220738517
 30
0.0
 10
4.9688221949
 20
3.6182167918
 30
0.0
 10
4.969054142
 20
3.6141165441
 30
0.0
 10
4.9691065064
 20
3.6113103261
 30
0.0
 10
4.9691065064
 20
3.609885274
 30
0.0
  0
SPLINE
  5
387
100
AcDbEntity
  8
0
100
AcDbSpline
 62
7
  6
CONTINUOUS
 70
0
 71
3
 72
15
 73
11
 74
0
 42
0.0000001
 43
0.0000001
 44
0.0000000001
 40
0.0
 40
0.0
 40
0.0
 40
0.0
 40
0.1304763057
 40
0.2600688224
 40
0.3881172894
 40
0.5142326044
 40
0.6383218523
 40
0.7604841402
 40
0.8809621613
 40
1.0
 40
1.0
 40
1.0
 40
1.0
 10
4.9908767851
 20
3.609885274
 30
0.0
 10
4.9908767851
 20
3.611314768
 30
0.0
 10
4.9911091229
 20
3.6141694551
 30
0.0
 10
4.9921327518
 20
3.6183141552
 30
0.0
 10
4.9937678692
 20
3.6222055347
 30
0.0
 10
4.9959284257
 20
3.6257587191
 30
0.0
 10
4.9985216002
 20
3.6289243143
 30
0.0
 10
5.0014604856
 20
3.6316800268
 30
0.0
 10
5.0046687253
 20
3.634020959
 30
0.0
 10
5.0069578522
 20
3.6353169282
 30
0.0
 10
5.0081260837
 20
3.6358966753
 30
0.0
  0
SPLINE
  5
388
100
AcDbEntity
  8
0
100
AcDbSpline
 62
7
  6
CONTINUOUS
 70
0
 71
3
 72
15
 73
11
 74
0
 42
0.0000001
 43
0.0000001
 44
0.0000000001
 40
0.0
 40
0.0
 40
0.0
 40
0.0
 40
0.0833308843
 40
0.1787840954
 40
0.2870847702
 40
0.4084960289
 40
0.5425515998
 40
0.6878050566
 40
0.841572582
 40
1.0
 40
1.0
 40
1.0
 40
1.0
 10
5.0081260837
 20
3.6358966753
 30
0.0
 10
5.0085489777
 20
3.6352776216
 30
0.0
 10
5.009367353
 20
3.6338879653
 30
0.0
 10
5.0104438912
 20
3.6315364309
 30
0.0
 10
5.0114279004
 20
3.6287779884
 30
0.0
 10
5.0122941568
 20
3.6256192061
 30
0.0
 10
5.0130141096
 20
3.6220841362
 30
0.0
 10
5.0135575974
 20
3.6182236177
 30
0.0
 10
5.0138971076
 20
3.6141200019
 30
0.0
 10
5.0139737734
 20
3.6113106134
 30
0.0
 10
5.0139737734
 20
3.609885274
 30
0.0
  0
SPLINE
  5
389
100
AcDbEntity
  8
0
100
AcDbSpline
 62
7
  6
CONTINUOUS
 70
0
 71
3
 72
15
 73
11
 74
0
 42
0.0000001
 43
0.0000001
 44
0.0000000001
 40
0.0
 40
0.0
 40
0.0
 40
0.0
 40
0.1329534004
 40
0.2646425909
 40
0.3941052795
 40
0.520769683
 40
0.6444795259
 40
0.7653625767
 40
0.8837483068
 40
1.0
 40
1.0
 40
1.0
 40
1.0
 10
5.036648463
 20
3.609885274
 30
0.0
 10
5.036648463
 20
3.611314259
 30
0.0
 10
5.0368671051
 20
3.6141634559
 30
0.0
 10
5.0378311967
 20
3.6183038332
 30
0.0
 10
5.039372147
 20
3.6221930178
 30
0.0
 10
5.0414096378
 20
3.6257461775
 30
0.0
 10
5.0438565515
 20
3.6289132183
 30
0.0
 10
5.0466309425
 20
3.6316711198
 30
0.0
 10
5.0496605364
 20
3.6340143909
 30
0.0
 10
5.0518285604
 20
3.6353153478
 30
0.0
 10
5.0529345648
 20
3.6358966753
 30
0.0
  0
SPLINE
  5
38A
100
AcDbEntity
  8
0
100
AcDbSpline
 62
7
  6
CONTINUOUS
 70
0
 71
3
 72
15
 73
11
 74
0
 42
0.0000001
 43
0.0000001
 44
0.0000000001
 40
0.0
 40
0.0
 40
0.0
 40
0.0
 40
0.0886238743
 40
0.1875020162
 40
0.2974936357
 40
0.419022705
 40
0.5518159535
 40
0.6946722229
 40
0.8452229793
 40
1.0
 40
1.0
 40
1.0
 40
1.0
 10
5.0529345648
 20
3.6358966753
 30
0.0
 10
5.0534780487
 20
3.6352875286
 30
0.0
 10
5.0545369787
 20
3.6339161051
 30
0.0
 10
5.0559487239
 20
3.6315614808
 30
0.0
 10
5.0572383441
 20
3.6287993162
 30
0.0
 10
5.0583730303
 20
3.6256365599
 30
0.0
 10
5.0593157326
 20
3.6220973668
 30
0.0
 10
5.060027204
 20
3.6182325505
 30
0.0
 10
5.0604715922
 20
3.6141245852
 30
0.0
 10
5.0605719714
 20
3.6113109947
 30
0.0
 10
5.0605719714
 20
3.609885274
 30
0.0
  0
SPLINE
  5
38B
100
AcDbEntity
  8
0
100
AcDbSpline
 62
7
  6
CONTINUOUS
 70
0
 71
3
 72
15
 73
11
 74
0
 42
0.0000001
 43
0.0000001
 44
0.0000000001
 40
0.0
 40
0.0
 40
0.0
 40
0.0
 40
0.1358651299
 40
0.2700313094
 40
0.4011849979
 40
0.5285319737
 40
0.6518257958
 40
0.7712104382
 40
0.8871033114
 40
1.0
 40
1.0
 40
1.0
 40
1.0
 10
5.0839327024
 20
3.609885274
 30
0.0
 10
5.0839327024
 20
3.6113137038
 30
0.0
 10
5.0841355759
 20
3.6141568917
 30
0.0
 10
5.0850308949
 20
3.6182923374
 30
0.0
 10
5.086462746
 20
3.6221787047
 30
0.0
 10
5.0883572534
 20
3.6257313704
 30
0.0
 10
5.090633911
 20
3.6288996647
 30
0.0
 10
5.0932166628
 20
3.631659871
 30
0.0
 10
5.096038133
 20
3.6340058384
 30
0.0
 10
5.0980651001
 20
3.6353132471
 30
0.0
 10
5.0990987633
 20
3.6358966753
 30
0.0
  0
SPLINE
  5
38C
100
AcDbEntity
  8
0
100
AcDbSpline
 62
7
  6
CONTINUOUS
 70
0
 71
3
 72
15
 73
11
 74
0
 42
0.0000001
 43
0.0000001
 44
0.0000000001
 40
0.0
 40
0.0
 40
0.0
 40
0.0
 40
0.1963809977
 40
0.2511529791
 40
0.3083529174
 40
0.4301420303
 40
0.561685331
 40
0.702029176
 40
0.8491464335
 40
1.0
 40
1.0
 40
1.0
 40
1.0
 10
5.0990987633
 20
3.6358966753
 30
0.0
 10
5.1004683824
 20
3.6346432356
 30
0.0
 10
5.1019903672
 20
3.6327765337
 30
0.0
 10
5.1035152565
 20
3.6302930817
 30
0.0
 10
5.104567148
 20
3.6283478621
 30
0.0
 10
5.1057520633
 20
3.6256558477
 30
0.0
 10
5.1069097202
 20
3.6221127354
 30
0.0
 10
5.1077833775
 20
3.6182431549
 30
0.0
 10
5.1083290291
 20
3.6141301119
 30
0.0
 10
5.1084523344
 20
3.6113114552
 30
0.0
 10
5.1084523344
 20
3.609885274
 30
0.0
  0
SPLINE
  5
38D
100
AcDbEntity
  8
0
100
AcDbSpline
 62
7
  6
CONTINUOUS
 70
0
 71
3
 72
17
 73
13
 74
0
 42
0.0000001
 43
0.0000001
 44
0.0000000001
 40
0.0
 40
0.0
 40
0.0
 40
0.0
 40
0.1391604639
 40
0.2080834494
 40
0.2762159813
 40
0.4093133729
 40
0.537469404
 40
0.5995906646
 40
0.6603771216
 40
0.7780504627
 40
0.8910473859
 40
1.0
 40
1.0
 40
1.0
 40
1.0
 10
5.1322741301
 20
3.609885274
 30
0.0
 10
5.1322741301
 20
3.6113131235
 30
0.0
 10
5.132413846
 20
3.6134516336
 30
0.0
 10
5.1328752729
 20
3.6162493788
 30
0.0
 10
5.1335037404
 20
3.6189509022
 30
0.0
 10
5.1345865294
 20
3.6221629492
 30
0.0
 10
5.1360460826
 20
3.6251534671
 30
0.0
 10
5.137395128
 20
3.627349836
 30
0.0
 10
5.1388188329
 20
3.6293680642
 30
0.0
 10
5.1407695845
 20
3.6316461041
 30
0.0
 10
5.1433551282
 20
3.6339948033
 30
0.0
 10
5.1452222144
 20
3.6353104711
 30
0.0
 10
5.1461740927
 20
3.6358966753
 30
0.0
  0
SPLINE
  5
38E
100
AcDbEntity
  8
0
100
AcDbSpline
 62
7
  6
CONTINUOUS
 70
0
 71
3
 72
15
 73
11
 74
0
 42
0.0000001
 43
0.0000001
 44
0.0000000001
 40
0.0
 40
0.0
 40
0.0
 40
0.0
 40
0.0994941171
 40
0.205749883
 40
0.3196240171
 40
0.441683578
 40
0.571948897
 40
0.7096952596
 40
0.8532404513
 40
1.0
 40
1.0
 40
1.0
 40
1.0
 10
5.1461740927
 20
3.6358966753
 30
0.0
 10
5.1469368812
 20
3.6353019773
 30
0.0
 10
5.1484319069
 20
3.6339632677
 30
0.0
 10
5.1504713224
 20
3.6316091506
 30
0.0
 10
5.1523350666
 20
3.62884425
 30
0.0
 10
5.1539751422
 20
3.6256760837
 30
0.0
 10
5.1553377582
 20
3.6221292869
 30
0.0
 10
5.1563661596
 20
3.6182549658
 30
0.0
 10
5.1570085146
 20
3.6141363547
 30
0.0
 10
5.1571537483
 20
3.6113119772
 30
0.0
 10
5.1571537483
 20
3.609885274
 30
0.0
  0
SPLINE
  5
38F
100
AcDbEntity
  8
0
100
AcDbSpline
 62
7
  6
CONTINUOUS
 70
0
 71
3
 72
15
 73
11
 74
0
 42
0.0000001
 43
0.0000001
 44
0.0000000001
 40
0.0
 40
0.0
 40
0.0
 40
0.0
 40
0.142840322
 40
0.2829920215
 40
0.4183192895
 40
0.547467548
 40
0.6699084791
 40
0.7857420381
 40
0.8955194522
 40
1.0
 40
1.0
 40
1.0
 40
1.0
 10
5.1812071918
 20
3.609885274
 30
0.0
 10
5.1812071918
 20
3.6113125404
 30
0.0
 10
5.181373143
 20
3.6141430753
 30
0.0
 10
5.1821066573
 20
3.6182674347
 30
0.0
 10
5.1832807468
 20
3.6221462849
 30
0.0
 10
5.1848359132
 20
3.6256958674
 30
0.0
 10
5.1867070118
 20
3.6288650062
 30
0.0
 10
5.1888322298
 20
3.6316290996
 30
0.0
 10
5.191156418
 20
3.6339808483
 30
0.0
 10
5.1928458338
 20
3.6353068074
 30
0.0
 10
5.1937071918
 20
3.6358966753
 30
0.0
  0
ENDSEC
  0
SECTION
  2
OBJECTS
  0
DICTIONARY
  5
C
100
AcDbDictionary
280
0
281
1
  3
ACAD_GROUP
350
D
  3
ACAD_MLINESTYLE
350
17
  3
ACAD_LAYOUT
350
1A
  3
ACAD_PLOTSETTINGS
350
19
  3
ACAD_PLOTSTYLENAME
350
E
  0
DICTIONARY
  5
D
102
{ACAD_REACTORS
330
C
102
}
100
AcDbDictionary
280
0
281
1
  0
ACDBDICTIONARYWDFLT
  5
E
102
{ACAD_REACTORS
330
C
102
}
100
AcDbDictionary
281
1
  3
Normal
350
F
100
AcDbDictionaryWithDefault
340
F
  0
DICTIONARY
  5
17
102
{ACAD_REACTORS
330
C
102
}
100
AcDbDictionary
280
0
281
1
  3
Standard
350
18
  0
DICTIONARY
  5
19
102
{ACAD_REACTORS
330
C
102
}
100
AcDbDictionary
281
1
  0
DICTIONARY
  5
1A
102
{ACAD_REACTORS
330
C
102
}
100
AcDbDictionary
281
1
  3
Model
350
390
  3
Layout1
350
391
  0
ACDBPLACEHOLDER
  5
F
102
{ACAD_REACTORS
330
E
102
}
  0
MLINESTYLE
  5
18
102
{ACAD_REACTORS
330
17
102
}
100
AcDbMlineStyle
  2
STANDARD
 70
0
  3

 62
256
 51
90.0
 52
90.0
 71
2
 49
0.5
 62
256
  6
BYLAYER
 49
-0.5
 62
256
  6
BYLAYER
  0
LAYOUT
  5
390
102
{ACAD_REACTORS
330
1A
102
}
100
AcDbPlotSettings
  1

  2
none_device
  4
ANSI_A_(11.00_x_8.50_Inches)
  6

 40
0.0
 41
0.0
 42
0.0
 43
0.0
 44
279.4
 45
215.9
 46
0.0
 47
0.0
 48
0.0
 49
0.0
140
0.0
141
0.0
142
1.0
143
1.0
 70
1024
 72
0
 73
0
 74
0
  7

 75
0
147
1.0
148
0.0
149
0.0
100
AcDbLayout
  1
Model
 70
0
 71
0
 10
0.0
 20
0.0
 11
11.0
 21
8.5
 12
0.0
 22
0.0
 32
0.0
 14
0.0
 24
0.0
 34
0.0
 15
0.0
 25
0.0
 35
0.0
146
0.0
 13
0.0
 23
0.0
 33
0.0
 16
1.0
 26
0.0
 36
0.0
 17
0.0
 27
1.0
 37
0.0
 76
0
330
203
345
0
346
0
  0
LAYOUT
  5
391
102
{ACAD_REACTORS
330
1A
102
}
100
AcDbPlotSettings
  1

  2
none_device
  4
ANSI_A_(11.00_x_8.50_Inches)
  6

 40
0.0
 41
0.0
 42
0.0
 43
0.0
 44
279.4
 45
215.9
 46
0.0
 47
0.0
 48
0.0
 49
0.0
140
0.0
141
0.0
142
1.0
143
1.0
 70
0
 72
0
 73
0
 74
0
  7

 75
0
147
1.0
148
0.0
149
0.0
100
AcDbLayout
  1
Layout1
 70
0
 71
1
 10
0.0
 20
0.0
 11
11.0
 21
8.5
 12
0.0
 22
0.0
 32
0.0
 14
0.0
 24
0.0
 34
0.0
 15
0.0
 25
0.0
 35
0.0
146
0.0
 13
0.0
 23
0.0
 33
0.0
 16
1.0
 26
0.0
 36
0.0
 17
0.0
 27
1.0
 37
0.0
 76
0
330
204
345
0
346
0
  0
ENDSEC
  0
EOF
