999
DXF file: 5-3272bp_right.dxf
999
Pro/ENGINEER 2023134 by Parametric Technology Corporation
  0
SECTION
  2
HEADER
  9
$ACADVER
  1
AC1032
  9
$DWGCODEPAGE
  3
ANSI_1252
  9
$EXTMAX
 10
11.0
 20
8.5
 30
0.0
  9
$EXTMIN
 10
0.0
 20
0.0
 30
0.0
  9
$LIMMIN
 10
0.0
 20
0.0
  9
$LIMMAX
 10
11.0
 20
8.5
  9
$VIEWCTR
 10
5.5
 20
4.25
  9
$VIEWSIZE
 40
8.5
  9
$CLAYER
  8
0
  9
$LTSCALE
 40
0.605
  9
$CELTYPE
  6
BYLAYER
  9
$DIMSCALE
 40
1.0
  9
$DIMASZ
 40
0.1
  9
$DIMEXO
 40
0.0625
  9
$DIMDLI
 40
0.418
  9
$DIMEXE
 40
0.125
  9
$DIMCEN
 40
0.099
  9
$DIMLFAC
 40
1.0
  9
$DIMBLK
  1
_FILLED
  9
$DIMALT
 70
1
  9
$DIMALTD
 70
2
  9
$DIMALTTD
 70
2
  9
$DIMALTF
 40
25.4
  9
$DIMTXT
 40
0.08
  9
$DIMTOL
 70
1
  9
$DIMLIM
 70
0
  9
$DIMTFAC
 40
1.0
  9
$DIMTP
 40
0.001
  9
$DIMTM
 40
0.001
  9
$DIMGAP
 40
0.09
  9
$DIMDSEP
 70
46
  9
$AUNITS
 70
0
  9
$PDMODE
 70
3
  9
$PDSIZE
 40
0.3125
  9
$HANDSEED
  5
2B1
  9
$TILEMODE
 70
1
  9
$MEASUREMENT
 70
0
  9
$INSUNITS
 70
1
  0
ENDSEC
  0
SECTION
  2
CLASSES
  0
CLASS
  1
ACDBDICTIONARYWDFLT
  2
AcDbDictionaryWithDefault
  3
AutoCAD 2000
 90
0
 91
1
280
0
281
0
  0
CLASS
  1
ACDBPLACEHOLDER
  2
AcDbPlaceHolder
  3
AutoCAD 2000
 90
0
 91
1
280
0
281
0
  0
CLASS
  1
LAYOUT
  2
AcDbLayout
  3
AutoCAD 2000
 90
0
 91
0
280
0
281
0
  0
ENDSEC
  0
SECTION
  2
TABLES
  0
TABLE
  2
VPORT
  5
8
100
AcDbSymbolTable
 70
2
  0
VPORT
  5
1F4
100
AcDbSymbolTableRecord
100
AcDbViewportTableRecord
  2
*ACTIVE
 70
0
 10
0.0
 20
0.0
 11
1.0
 21
1.0
 12
5.5
 22
4.25
 13
0.0
 23
0.0
 14
1.0
 24
1.0
 15
0.0
 25
0.0
 16
0.0
 26
0.0
 36
1.0
 17
0.0
 27
0.0
 37
0.0
 40
8.5
 41
1.2941176471
 42
50.0
 43
0.0
 44
0.0
 50
0.0
 51
0.0
 71
0
 72
100
 73
1
 74
1
 75
0
 76
0
 77
0
 78
0
  0
ENDTAB
  0
TABLE
  2
LTYPE
  5
5
100
AcDbSymbolTable
 70
6
  0
LTYPE
  5
14
100
AcDbSymbolTableRecord
100
AcDbLinetypeTableRecord
  2
BYBLOCK
 70
0
  3

 72
65
 73
0
 40
0.0
  0
LTYPE
  5
15
100
AcDbSymbolTableRecord
100
AcDbLinetypeTableRecord
  2
BYLAYER
 70
0
  3

 72
65
 73
0
 40
0.0
  0
LTYPE
  5
16
100
AcDbSymbolTableRecord
100
AcDbLinetypeTableRecord
  2
CONTINUOUS
 70
64
  3
Solid line
 72
65
 73
0
 40
0.0
  0
LTYPE
  5
1F5
100
AcDbSymbolTableRecord
100
AcDbLinetypeTableRecord
  2
CENTER
 70
64
  3
____ _ ____ _ ____ _ ____ _ ____ _ ____ _ ____
 72
65
 73
4
 40
0.6
 49
0.375
 74
0
 49
-0.075
 74
0
 49
0.075
 74
0
 49
-0.075
 74
0
  0
LTYPE
  5
1F6
100
AcDbSymbolTableRecord
100
AcDbLinetypeTableRecord
  2
HIDDEN
 70
64
  3
- - - - - - - - - - - - - - - - - - - -
 72
65
 73
2
 40
0.2
 49
0.1
 74
0
 49
-0.1
 74
0
  0
LTYPE
  5
1F7
100
AcDbSymbolTableRecord
100
AcDbLinetypeTableRecord
  2
PHANTOM
 70
64
  3
_____ _ _ _____ _ _ _____ _ _ _____
 72
65
 73
6
 40
0.8
 49
0.45
 74
0
 49
-0.05
 74
0
 49
0.1
 74
0
 49
-0.05
 74
0
 49
0.1
 74
0
 49
-0.05
 74
0
  0
LTYPE
  5
1F8
100
AcDbSymbolTableRecord
100
AcDbLinetypeTableRecord
  2
DOT
 70
64
  3
. . . . . . . . . . . . . . . . . . . .
 72
65
 73
2
 40
0.2
 49
0.1
 74
0
 49
-0.1
 74
0
  0
LTYPE
  5
1F9
100
AcDbSymbolTableRecord
100
AcDbLinetypeTableRecord
  2
DASHED
 70
64
  3
- - - - - - - - - - - - - - - - - - - -
 72
65
 73
2
 40
0.2
 49
0.1
 74
0
 49
-0.1
 74
0
  0
ENDTAB
  0
TABLE
  2
LAYER
  5
2
100
AcDbSymbolTable
 70
36
  0
LAYER
  5
10
100
AcDbSymbolTableRecord
100
AcDbLayerTableRecord
  2
0
 70
0
 62
7
  6
CONTINUOUS
370
-3
390
F
  0
LAYER
  5
1FA
100
AcDbSymbolTableRecord
100
AcDbLayerTableRecord
  2
DEFAULT_1
 70
0
 62
7
  6
CENTER
370
-3
390
F
  0
LAYER
  5
1FB
100
AcDbSymbolTableRecord
100
AcDbLayerTableRecord
  2
DEFAULT_2
 70
0
 62
8
  6
HIDDEN
370
-3
390
F
  0
LAYER
  5
1FC
100
AcDbSymbolTableRecord
100
AcDbLayerTableRecord
  2
DEFAULT_3
 70
0
 62
7
  6
PHANTOM
370
-3
390
F
  0
LAYER
  5
1FD
100
AcDbSymbolTableRecord
100
AcDbLayerTableRecord
  2
2-217_ASSY_DATUMS
 70
0
 62
7
  6
CONTINUOUS
370
-3
390
F
  0
LAYER
  5
1FE
100
AcDbSymbolTableRecord
100
AcDbLayerTableRecord
  2
3-992BP_ASSY_DATUMS
 70
0
 62
7
  6
CONTINUOUS
370
-3
390
F
  0
LAYER
  5
1FF
100
AcDbSymbolTableRecord
100
AcDbLayerTableRecord
  2
ALL_ASSEMBLY_MEMBERS
 70
0
 62
7
  6
CONTINUOUS
370
-3
390
F
  0
LAYER
  5
200
100
AcDbSymbolTableRecord
100
AcDbLayerTableRecord
  2
ALL_FEATURES
 70
0
 62
7
  6
CONTINUOUS
370
-3
390
F
  0
LAYER
  5
201
100
AcDbSymbolTableRecord
100
AcDbLayerTableRecord
  2
AXES_FEATURES
 70
0
 62
7
  6
CONTINUOUS
370
-3
390
F
  0
LAYER
  5
202
100
AcDbSymbolTableRecord
100
AcDbLayerTableRecord
  2
CHAMFER_FEATURES
 70
0
 62
7
  6
CONTINUOUS
370
-3
390
F
  0
LAYER
  5
203
100
AcDbSymbolTableRecord
100
AcDbLayerTableRecord
  2
COORDINATE_SYSTEMS
 70
0
 62
7
  6
CONTINUOUS
370
-3
390
F
  0
LAYER
  5
204
100
AcDbSymbolTableRecord
100
AcDbLayerTableRecord
  2
CUT_FEATURES
 70
0
 62
7
  6
CONTINUOUS
370
-3
390
F
  0
LAYER
  5
205
100
AcDbSymbolTableRecord
100
AcDbLayerTableRecord
  2
DATUM_CURVES
 70
0
 62
7
  6
CONTINUOUS
370
-3
390
F
  0
LAYER
  5
206
100
AcDbSymbolTableRecord
100
AcDbLayerTableRecord
  2
DATUM_PLANES
 70
0
 62
7
  6
CONTINUOUS
370
-3
390
F
  0
LAYER
  5
207
100
AcDbSymbolTableRecord
100
AcDbLayerTableRecord
  2
DATUM_POINTS
 70
0
 62
7
  6
CONTINUOUS
370
-3
390
F
  0
LAYER
  5
208
100
AcDbSymbolTableRecord
100
AcDbLayerTableRecord
  2
DEFAULT_COORDINATE_SYSTEM
 70
0
 62
7
  6
CONTINUOUS
370
-3
390
F
  0
LAYER
  5
209
100
AcDbSymbolTableRecord
100
AcDbLayerTableRecord
  2
DEFAULT_DATUM_AXES
 70
0
 62
7
  6
CONTINUOUS
370
-3
390
F
  0
LAYER
  5
20A
100
AcDbSymbolTableRecord
100
AcDbLayerTableRecord
  2
DEFAULT_DATUM_PLANES
 70
0
 62
7
  6
CONTINUOUS
370
-3
390
F
  0
LAYER
  5
20B
100
AcDbSymbolTableRecord
100
AcDbLayerTableRecord
  2
DEFAULT_SURFACES
 70
0
 62
7
  6
CONTINUOUS
370
-3
390
F
  0
LAYER
  5
20C
100
AcDbSymbolTableRecord
100
AcDbLayerTableRecord
  2
DIMENSIONS
 70
0
 62
7
  6
CONTINUOUS
370
-3
390
F
  0
LAYER
  5
20D
100
AcDbSymbolTableRecord
100
AcDbLayerTableRecord
  2
HOLE_FEATURES
 70
0
 62
7
  6
CONTINUOUS
370
-3
390
F
  0
LAYER
  5
20E
100
AcDbSymbolTableRecord
100
AcDbLayerTableRecord
  2
PART_REFERENCE_DIMENSIONS
 70
0
 62
7
  6
CONTINUOUS
370
-3
390
F
  0
LAYER
  5
20F
100
AcDbSymbolTableRecord
100
AcDbLayerTableRecord
  2
PLATED_AREA
 70
0
 62
7
  6
CONTINUOUS
370
-3
390
F
  0
LAYER
  5
210
100
AcDbSymbolTableRecord
100
AcDbLayerTableRecord
  2
POINTS
 70
0
 62
7
  6
CONTINUOUS
370
-3
390
F
  0
LAYER
  5
211
100
AcDbSymbolTableRecord
100
AcDbLayerTableRecord
  2
PROTRUSION_FEATURES
 70
0
 62
7
  6
CONTINUOUS
370
-3
390
F
  0
LAYER
  5
212
100
AcDbSymbolTableRecord
100
AcDbLayerTableRecord
  2
QUILTS
 70
0
 62
7
  6
CONTINUOUS
370
-3
390
F
  0
LAYER
  5
213
100
AcDbSymbolTableRecord
100
AcDbLayerTableRecord
  2
REFERENCE_DIMENSIONS
 70
0
 62
7
  6
CONTINUOUS
370
-3
390
F
  0
LAYER
  5
214
100
AcDbSymbolTableRecord
100
AcDbLayerTableRecord
  2
ROUND_FEATURES
 70
0
 62
7
  6
CONTINUOUS
370
-3
390
F
  0
LAYER
  5
215
100
AcDbSymbolTableRecord
100
AcDbLayerTableRecord
  2
SHELL_FEATURES
 70
0
 62
7
  6
CONTINUOUS
370
-3
390
F
  0
LAYER
  5
216
100
AcDbSymbolTableRecord
100
AcDbLayerTableRecord
  2
SURFACE_FEATURES
 70
0
 62
7
  6
CONTINUOUS
370
-3
390
F
  0
LAYER
  5
217
100
AcDbSymbolTableRecord
100
AcDbLayerTableRecord
  2
XSEC_DATUMS
 70
0
 62
7
  6
CONTINUOUS
370
-3
390
F
  0
ENDTAB
  0
TABLE
  2
STYLE
  5
3
100
AcDbSymbolTable
 70
1
  0
STYLE
  5
11
100
AcDbSymbolTableRecord
100
AcDbTextStyleTableRecord
  2
STANDARD
 70
0
 40
0.0
 41
0.8
 50
0.0
 71
0
 42
0.2
  3
txt
  4

  0
STYLE
  5
218
100
AcDbSymbolTableRecord
100
AcDbTextStyleTableRecord
  2
TEXTSTYLE_1
 70
0
 40
0.0
 41
0.8
 50
0.0
 71
0
 42
0.2
  3
gdt
  4

  0
ENDTAB
  0
TABLE
  2
VIEW
  5
6
100
AcDbSymbolTable
 70
0
  0
ENDTAB
  0
TABLE
  2
UCS
  5
7
100
AcDbSymbolTable
 70
0
  0
ENDTAB
  0
TABLE
  2
APPID
  5
9
100
AcDbSymbolTable
 70
1
  0
APPID
  5
219
100
AcDbSymbolTableRecord
100
AcDbRegAppTableRecord
  2
ACAD
 70
0
  0
ENDTAB
  0
TABLE
  2
BLOCK_RECORD
  5
1
100
AcDbSymbolTable
 70
0
  0
BLOCK_RECORD
  5
21A
100
AcDbSymbolTableRecord
100
AcDbBlockTableRecord
  2
*Model_Space
  0
BLOCK_RECORD
  5
21B
100
AcDbSymbolTableRecord
100
AcDbBlockTableRecord
  2
*Paper_Space
  0
BLOCK_RECORD
  5
21C
100
AcDbSymbolTableRecord
100
AcDbBlockTableRecord
  2
_FILLED
  0
ENDTAB
  0
TABLE
  2
DIMSTYLE
  5
A
100
AcDbSymbolTable
 70
1
100
AcDbDimStyleTable
 71
0
  0
DIMSTYLE
105
21D
100
AcDbSymbolTableRecord
100
AcDbDimStyleTableRecord
  2
STANDARD
 70
0
  3

  4

 40
1.0
 41
0.1
 42
0.0625
 43
0.38
 44
0.125
 45
0.0
 46
0.0
 47
0.001
 48
0.001
140
0.08
141
0.09
142
0.0
143
25.4
144
1.0
145
0.0
146
1.0
147
0.09
 71
1
 72
0
 73
1
 74
1
 75
0
 76
0
 77
0
 78
4
 79
1
170
1
171
2
172
0
173
0
174
0
175
0
176
0
177
0
178
0
270
2
179
3
271
3
272
3
273
2
274
2
275
0
280
0
281
0
282
0
283
1
284
4
285
0
286
0
287
3
288
0
340
11
278
46
341
21C
342
21C
343
21C
344
21C
  0
ENDTAB
  0
ENDSEC
  0
SECTION
  2
BLOCKS
  0
BLOCK
  5
20
100
AcDbEntity
  8
0
100
AcDbBlockBegin
  2
*Model_Space
 70
0
 10
0.0
 20
0.0
 30
0.0
  3
*Model_Space
  1

  0
ENDBLK
  5
21
100
AcDbEntity
  8
0
100
AcDbBlockEnd
  0
BLOCK
  5
1C
100
AcDbEntity
  8
0
100
AcDbBlockBegin
  2
*Paper_Space
 70
0
 10
0.0
 20
0.0
 30
0.0
  3
*Paper_Space
  1

  0
ENDBLK
  5
1D
100
AcDbEntity
  8
0
100
AcDbBlockEnd
  0
BLOCK
  5
21E
100
AcDbEntity
  8
0
100
AcDbBlockBegin
  2
_FILLED
 70
64
 10
0.0
 20
0.0
  3
_FILLED
  1

  0
SOLID
  5
21F
100
AcDbEntity
  8
0
  6
BYBLOCK
 62
0
100
AcDbTrace
 10
0.0
 20
0.0
 11
-1.0
 21
0.2
 12
-1.0
 22
-0.2
 13
-1.0
 23
-0.2
  0
ENDBLK
  5
220
100
AcDbEntity
  8
0
  6
BYBLOCK
 62
0
100
AcDbBlockEnd
  0
ENDSEC
  0
SECTION
  2
ENTITIES
  0
MTEXT
  5
221
100
AcDbEntity
  8
0
100
AcDbMText
 62
2
  6
CONTINUOUS
  7
STANDARD
 71
3
 72
1
 10
5.8431926928
 20
0.5809112954
 30
0.0
 11
1.0
 21
0.0
 31
0.0
 73
2
 44
0.9
  1
SCALE 1.000
 40
0.08
 41
0.704
  0
LINE
  5
222
100
AcDbEntity
  8
0
100
AcDbLine
 62
7
  6
CONTINUOUS
 10
0.0
 20
0.0
 11
0.0
 21
8.5
  0
LINE
  5
223
100
AcDbEntity
  8
0
100
AcDbLine
 62
7
  6
CONTINUOUS
 10
0.0
 20
0.0
 11
11.0
 21
0.0
  0
LINE
  5
224
100
AcDbEntity
  8
0
100
AcDbLine
 62
7
  6
CONTINUOUS
 10
0.0
 20
8.5
 11
11.0
 21
8.5
  0
LINE
  5
225
100
AcDbEntity
  8
0
100
AcDbLine
 62
7
  6
CONTINUOUS
 10
11.0
 20
0.0
 11
11.0
 21
8.5
  0
LINE
  5
226
100
AcDbEntity
  8
ALL_ASSEMBLY_MEMBERS
100
AcDbLine
 62
7
  6
CONTINUOUS
 10
5.9205713392
 20
1.307826189
 11
5.7811080788
 21
1.307826189
  0
LINE
  5
227
100
AcDbEntity
  8
0
100
AcDbLine
 62
7
  6
CONTINUOUS
 10
2.3565713392
 20
5.020326189
 11
2.3565713392
 21
1.837826189
  0
LINE
  5
228
100
AcDbEntity
  8
0
100
AcDbLine
 62
7
  6
CONTINUOUS
 10
2.3815713392
 20
5.045326189
 11
2.3815713392
 21
1.837826189
  0
LINE
  5
229
100
AcDbEntity
  8
0
100
AcDbLine
 62
7
  6
CONTINUOUS
 10
2.4315713392
 20
1.837826189
 11
2.4315713392
 21
5.0142449829
  0
LINE
  5
22A
100
AcDbEntity
  8
0
100
AcDbLine
 62
7
  6
CONTINUOUS
 10
2.4565713392
 20
1.837826189
 11
2.4565713392
 21
4.9908388909
  0
LINE
  5
22B
100
AcDbEntity
  8
0
100
AcDbLine
 62
7
  6
CONTINUOUS
 10
2.4815713392
 20
4.9139915508
 11
2.4815713392
 21
1.837826189
  0
LINE
  5
22C
100
AcDbEntity
  8
0
100
AcDbLine
 62
7
  6
CONTINUOUS
 10
2.4865713392
 20
1.732826189
 11
2.4865713392
 21
1.707826189
  0
LINE
  5
22D
100
AcDbEntity
  8
0
100
AcDbLine
 62
7
  6
CONTINUOUS
 10
2.4865713392
 20
1.782826189
 11
2.4865713392
 21
1.832826189
  0
LINE
  5
22E
100
AcDbEntity
  8
0
100
AcDbLine
 62
7
  6
CONTINUOUS
 10
2.5565713392
 20
5.0437210996
 11
2.5565713392
 21
4.9365079923
  0
LINE
  5
22F
100
AcDbEntity
  8
0
100
AcDbLine
 62
7
  6
CONTINUOUS
 10
2.4865713392
 20
1.707826189
 11
2.9265713392
 21
1.707826189
  0
LINE
  5
230
100
AcDbEntity
  8
0
100
AcDbLine
 62
7
  6
CONTINUOUS
 10
2.4865713392
 20
1.732826189
 11
2.9265713392
 21
1.732826189
  0
LINE
  5
231
100
AcDbEntity
  8
0
100
AcDbLine
 62
7
  6
CONTINUOUS
 10
2.9265713392
 20
1.782826189
 11
2.4865713392
 21
1.782826189
  0
LINE
  5
232
100
AcDbEntity
  8
0
100
AcDbLine
 62
7
  6
CONTINUOUS
 10
2.9265713392
 20
1.807826189
 11
2.4865713392
 21
1.807826189
  0
LINE
  5
233
100
AcDbEntity
  8
0
100
AcDbLine
 62
7
  6
CONTINUOUS
 10
2.4865713392
 20
1.832826189
 11
2.9265713392
 21
1.832826189
  0
LINE
  5
234
100
AcDbEntity
  8
0
100
AcDbLine
 62
7
  6
CONTINUOUS
 10
2.3815713392
 20
1.837826189
 11
2.3565713392
 21
1.8378261892
  0
LINE
  5
235
100
AcDbEntity
  8
0
100
AcDbLine
 62
7
  6
CONTINUOUS
 10
2.9815713392
 20
1.837826189
 11
2.9315713392
 21
1.837826189
  0
LINE
  5
236
100
AcDbEntity
  8
0
100
AcDbLine
 62
7
  6
CONTINUOUS
 10
2.4315713392
 20
1.837826189
 11
2.4815713392
 21
1.837826189
  0
LINE
  5
237
100
AcDbEntity
  8
0
100
AcDbLine
 62
7
  6
CONTINUOUS
 10
3.0315713392
 20
1.837826189
 11
3.0565713392
 21
1.837826189
  0
LINE
  5
238
100
AcDbEntity
  8
ALL_ASSEMBLY_MEMBERS
100
AcDbLine
 62
7
  6
CONTINUOUS
 10
4.5225713392
 20
1.937826189
 11
4.5155763697
 21
1.9386256857
  0
LINE
  5
239
100
AcDbEntity
  8
ALL_ASSEMBLY_MEMBERS
100
AcDbLine
 62
7
  6
CONTINUOUS
 10
4.5155763697
 20
1.9386256857
 11
4.3795763697
 21
1.9701256857
  0
LINE
  5
23A
100
AcDbEntity
  8
0
100
AcDbLine
 62
7
  6
CONTINUOUS
 10
2.8565713392
 20
4.9365079923
 11
2.8565713392
 21
5.0437210996
  0
LINE
  5
23B
100
AcDbEntity
  8
0
100
AcDbLine
 62
7
  6
CONTINUOUS
 10
2.9265713392
 20
1.732826189
 11
2.9265713389
 21
1.707826189
  0
LINE
  5
23C
100
AcDbEntity
  8
0
100
AcDbLine
 62
7
  6
CONTINUOUS
 10
2.9265713392
 20
1.782826189
 11
2.9265713392
 21
1.832826189
  0
LINE
  5
23D
100
AcDbEntity
  8
0
100
AcDbLine
 62
7
  6
CONTINUOUS
 10
2.9315713392
 20
1.837826189
 11
2.9315713392
 21
4.9139915508
  0
LINE
  5
23E
100
AcDbEntity
  8
0
100
AcDbLine
 62
7
  6
CONTINUOUS
 10
2.9565713392
 20
4.9908388909
 11
2.9565713392
 21
1.837826189
  0
LINE
  5
23F
100
AcDbEntity
  8
0
100
AcDbLine
 62
7
  6
CONTINUOUS
 10
2.9815713392
 20
5.0142449829
 11
2.9815713392
 21
1.837826189
  0
LINE
  5
240
100
AcDbEntity
  8
0
100
AcDbLine
 62
7
  6
CONTINUOUS
 10
3.0315713392
 20
1.837826189
 11
3.0315713392
 21
5.045326189
  0
LINE
  5
241
100
AcDbEntity
  8
0
100
AcDbLine
 62
7
  6
CONTINUOUS
 10
3.0565713392
 20
1.837826189
 11
3.0565713392
 21
5.020326189
  0
LINE
  5
242
100
AcDbEntity
  8
ALL_ASSEMBLY_MEMBERS
100
AcDbLine
 62
7
  6
CONTINUOUS
 10
4.6125713392
 20
1.937826189
 11
4.5225713392
 21
1.937826189
  0
LINE
  5
243
100
AcDbEntity
  8
ALL_ASSEMBLY_MEMBERS
100
AcDbLine
 62
7
  6
CONTINUOUS
 10
5.5125713392
 20
2.151826189
 11
5.4395713392
 21
2.151826189
  0
LINE
  5
244
100
AcDbEntity
  8
ALL_ASSEMBLY_MEMBERS
100
AcDbLine
 62
7
  6
CONTINUOUS
 10
5.9205713392
 20
2.200326189
 11
5.9375713392
 21
2.200326189
  0
LINE
  5
245
100
AcDbEntity
  8
ALL_ASSEMBLY_MEMBERS
100
AcDbLine
 62
7
  6
CONTINUOUS
 10
4.8485713392
 20
2.210826189
 11
5.4275713392
 21
2.210826189
  0
LINE
  5
246
100
AcDbEntity
  8
0
100
AcDbLine
 62
7
  6
CONTINUOUS
 10
3.0875713392
 20
4.100326189
 11
3.0875713392
 21
5.015326189
  0
LINE
  5
247
100
AcDbEntity
  8
0
100
AcDbLine
 62
7
  6
CONTINUOUS
 10
3.1175713392
 20
4.070326189
 11
3.1175713392
 21
5.045326189
  0
LINE
  5
248
100
AcDbEntity
  8
ALL_ASSEMBLY_MEMBERS
100
AcDbLine
 62
7
  6
CONTINUOUS
 10
4.8485713392
 20
2.564826189
 11
5.4275713392
 21
2.564826189
  0
LINE
  5
249
100
AcDbEntity
  8
ALL_ASSEMBLY_MEMBERS
100
AcDbLine
 62
7
  6
CONTINUOUS
 10
5.9205713392
 20
2.575326189
 11
5.9375713392
 21
2.575326189
  0
LINE
  5
24A
100
AcDbEntity
  8
ALL_ASSEMBLY_MEMBERS
100
AcDbLine
 62
7
  6
CONTINUOUS
 10
5.5125713392
 20
2.623826189
 11
5.4395713392
 21
2.623826189
  0
LINE
  5
24B
100
AcDbEntity
  8
ALL_ASSEMBLY_MEMBERS
100
AcDbLine
 62
7
  6
CONTINUOUS
 10
4.8485713392
 20
2.612826189
 11
4.6345852983
 21
2.8286524485
  0
LINE
  5
24C
100
AcDbEntity
  8
ALL_ASSEMBLY_MEMBERS
100
AcDbLine
 62
7
  6
CONTINUOUS
 10
4.5155763697
 20
2.8370266923
 11
4.3795763697
 21
2.8055266923
  0
LINE
  5
24D
100
AcDbEntity
  8
ALL_ASSEMBLY_MEMBERS
100
AcDbLine
 62
7
  6
CONTINUOUS
 10
4.5225713392
 20
2.837826189
 11
4.5155763697
 21
2.8370266923
  0
LINE
  5
24E
100
AcDbEntity
  8
ALL_ASSEMBLY_MEMBERS
100
AcDbLine
 62
7
  6
CONTINUOUS
 10
4.6125713392
 20
2.837826189
 11
4.5225713392
 21
2.837826189
  0
LINE
  5
24F
100
AcDbEntity
  8
ALL_ASSEMBLY_MEMBERS
100
AcDbLine
 62
7
  6
CONTINUOUS
 10
4.3555713392
 20
2.000326189
 11
4.3555713392
 21
2.775326189
  0
LINE
  5
250
100
AcDbEntity
  8
ALL_ASSEMBLY_MEMBERS
100
AcDbLine
 62
7
  6
CONTINUOUS
 10
4.3795763697
 20
1.9701256857
 11
4.3795763697
 21
2.8055266923
  0
LINE
  5
251
100
AcDbEntity
  8
ALL_ASSEMBLY_MEMBERS
100
AcDbLine
 62
7
  6
CONTINUOUS
 10
4.5155763697
 20
1.9386256857
 11
4.5155763697
 21
2.8370266923
  0
LINE
  5
252
100
AcDbEntity
  8
ALL_ASSEMBLY_MEMBERS
100
AcDbLine
 62
7
  6
CONTINUOUS
 10
4.5225713392
 20
1.937826189
 11
4.5225713392
 21
2.837826189
  0
LINE
  5
253
100
AcDbEntity
  8
0
100
AcDbLine
 62
7
  6
CONTINUOUS
 10
5.6075713392
 20
3.432826189
 11
5.5375713392
 21
3.432826189
  0
LINE
  5
254
100
AcDbEntity
  8
0
100
AcDbLine
 62
7
  6
CONTINUOUS
 10
5.4575713392
 20
3.512826189
 11
5.2875713392
 21
3.512826189
  0
LINE
  5
255
100
AcDbEntity
  8
ALL_ASSEMBLY_MEMBERS
100
AcDbLine
 62
7
  6
CONTINUOUS
 10
4.6125713392
 20
1.937826189
 11
4.6125713392
 21
2.837826189
  0
LINE
  5
256
100
AcDbEntity
  8
ALL_ASSEMBLY_MEMBERS
100
AcDbLine
 62
7
  6
CONTINUOUS
 10
4.6345852983
 20
1.9469999295
 11
4.6345852983
 21
2.8286524485
  0
LINE
  5
257
100
AcDbEntity
  8
ALL_ASSEMBLY_MEMBERS
100
AcDbLine
 62
7
  6
CONTINUOUS
 10
4.8485713392
 20
2.162826189
 11
4.8485713392
 21
2.612826189
  0
LINE
  5
258
100
AcDbEntity
  8
0
100
AcDbLine
 62
7
  6
CONTINUOUS
 10
2.3565713392
 20
4.0156949779
 11
3.0565713392
 21
4.0156949779
  0
LINE
  5
259
100
AcDbEntity
  8
0
100
AcDbLine
 62
7
  6
CONTINUOUS
 10
5.2175713392
 20
4.070326189
 11
3.1175713392
 21
4.070326189
  0
LINE
  5
25A
100
AcDbEntity
  8
0
100
AcDbLine
 62
7
  6
CONTINUOUS
 10
5.2475713392
 20
4.132826189
 11
5.2575713392
 21
4.132826189
  0
LINE
  5
25B
100
AcDbEntity
  8
0
100
AcDbLine
 62
7
  6
CONTINUOUS
 10
3.0315713392
 20
4.1994682698
 11
2.9815713392
 21
4.1994682698
  0
LINE
  5
25C
100
AcDbEntity
  8
0
100
AcDbLine
 62
7
  6
CONTINUOUS
 10
2.4315713392
 20
4.1994682698
 11
2.3815713392
 21
4.1994682698
  0
LINE
  5
25D
100
AcDbEntity
  8
0
100
AcDbLine
 62
7
  6
CONTINUOUS
 10
2.9315713392
 20
4.2729775866
 11
2.4815713392
 21
4.2729775866
  0
LINE
  5
25E
100
AcDbEntity
  8
0
100
AcDbLine
 62
7
  6
CONTINUOUS
 10
5.2175713392
 20
4.070326189
 11
5.2175713392
 21
5.045326189
  0
LINE
  5
25F
100
AcDbEntity
  8
0
100
AcDbLine
 62
7
  6
CONTINUOUS
 10
5.2475713392
 20
4.100326189
 11
5.2475713392
 21
5.015326189
  0
LINE
  5
260
100
AcDbEntity
  8
0
100
AcDbLine
 62
7
  6
CONTINUOUS
 10
5.2575713392
 20
3.542826189
 11
5.2575713392
 21
5.572826189
  0
LINE
  5
261
100
AcDbEntity
  8
0
100
AcDbLine
 62
7
  6
CONTINUOUS
 10
5.2875713392
 20
3.512826189
 11
5.2875713392
 21
5.602826189
  0
LINE
  5
262
100
AcDbEntity
  8
ALL_ASSEMBLY_MEMBERS
100
AcDbLine
 62
7
  6
CONTINUOUS
 10
5.4275713392
 20
2.163826212
 11
5.4275713392
 21
2.6118261084
  0
LINE
  5
263
100
AcDbEntity
  8
ALL_ASSEMBLY_MEMBERS
100
AcDbLine
 62
7
  6
CONTINUOUS
 10
5.4395713392
 20
2.151826189
 11
5.4395713392
 21
2.623826189
  0
LINE
  5
264
100
AcDbEntity
  8
0
100
AcDbLine
 62
7
  6
CONTINUOUS
 10
5.4575713392
 20
5.602826189
 11
5.4575713392
 21
3.512826189
  0
LINE
  5
265
100
AcDbEntity
  8
0
100
AcDbLine
 62
7
  6
CONTINUOUS
 10
5.5075713392
 20
5.652826189
 11
5.5075713392
 21
3.462826189
  0
LINE
  5
266
100
AcDbEntity
  8
ALL_ASSEMBLY_MEMBERS
100
AcDbLine
 62
7
  6
CONTINUOUS
 10
5.5125713392
 20
2.667826189
 11
5.5125713392
 21
2.107826189
  0
LINE
  5
267
100
AcDbEntity
  8
0
100
AcDbLine
 62
7
  6
CONTINUOUS
 10
5.5375713392
 20
3.432826189
 11
5.5375713392
 21
5.682826189
  0
LINE
  5
268
100
AcDbEntity
  8
ALL_ASSEMBLY_MEMBERS
100
AcDbLine
 62
7
  6
CONTINUOUS
 10
5.6075713392
 20
1.4749826992
 11
5.6075713392
 21
7.6406696787
  0
LINE
  5
269
100
AcDbEntity
  8
ALL_ASSEMBLY_MEMBERS
100
AcDbLine
 62
7
  6
CONTINUOUS
 10
5.6495083489
 20
1.4156080376
 11
5.6495083489
 21
7.7000443403
  0
LINE
  5
26A
100
AcDbEntity
  8
ALL_ASSEMBLY_MEMBERS
100
AcDbLine
 62
7
  6
CONTINUOUS
 10
5.7230889889
 20
1.3462745046
 11
5.7230889889
 21
7.7693778733
  0
LINE
  5
26B
100
AcDbEntity
  8
ALL_ASSEMBLY_MEMBERS
100
AcDbLine
 62
7
  6
CONTINUOUS
 10
5.7811080788
 20
1.307826189
 11
5.7811080788
 21
7.807826189
  0
LINE
  5
26C
100
AcDbEntity
  8
ALL_ASSEMBLY_MEMBERS
100
AcDbLine
 62
7
  6
CONTINUOUS
 10
5.9205713392
 20
7.807826189
 11
5.9205713392
 21
1.307826189
  0
LINE
  5
26D
100
AcDbEntity
  8
ALL_ASSEMBLY_MEMBERS
100
AcDbLine
 62
7
  6
CONTINUOUS
 10
5.9375713392
 20
2.575326189
 11
5.9375713392
 21
2.200326189
  0
LINE
  5
26E
100
AcDbEntity
  8
0
100
AcDbLine
 62
7
  6
CONTINUOUS
 10
2.8565713392
 20
4.9365079923
 11
2.5565713392
 21
4.9365079923
  0
LINE
  5
26F
100
AcDbEntity
  8
0
100
AcDbLine
 62
7
  6
CONTINUOUS
 10
2.8565713392
 20
4.9609390764
 11
2.5565713392
 21
4.9609390764
  0
LINE
  5
270
100
AcDbEntity
  8
0
100
AcDbLine
 62
7
  6
CONTINUOUS
 10
5.2475713392
 20
4.982826189
 11
5.2575713392
 21
4.982826189
  0
LINE
  5
271
100
AcDbEntity
  8
0
100
AcDbLine
 62
7
  6
CONTINUOUS
 10
2.5565713392
 20
5.0188034119
 11
2.8565713392
 21
5.0188034119
  0
LINE
  5
272
100
AcDbEntity
  8
0
100
AcDbLine
 62
7
  6
CONTINUOUS
 10
2.5565713392
 20
5.0437210996
 11
2.8565713392
 21
5.0437210996
  0
LINE
  5
273
100
AcDbEntity
  8
0
100
AcDbLine
 62
7
  6
CONTINUOUS
 10
5.2175713392
 20
5.045326189
 11
3.1175713392
 21
5.045326189
  0
LINE
  5
274
100
AcDbEntity
  8
0
100
AcDbLine
 62
7
  6
CONTINUOUS
 10
2.3815713392
 20
5.045326189
 11
3.0315713392
 21
5.045326189
  0
LINE
  5
275
100
AcDbEntity
  8
0
100
AcDbLine
 62
7
  6
CONTINUOUS
 10
5.4575713392
 20
5.602826189
 11
5.2875713392
 21
5.602826189
  0
LINE
  5
276
100
AcDbEntity
  8
0
100
AcDbLine
 62
7
  6
CONTINUOUS
 10
5.6075713392
 20
5.682826189
 11
5.5375713392
 21
5.682826189
  0
LINE
  5
277
100
AcDbEntity
  8
ALL_ASSEMBLY_MEMBERS
100
AcDbLine
 62
7
  6
CONTINUOUS
 10
4.8485713392
 20
2.162826189
 11
4.6345852983
 21
1.9469999295
  0
LINE
  5
278
100
AcDbEntity
  8
ALL_ASSEMBLY_MEMBERS
100
AcDbLine
 62
7
  6
CONTINUOUS
 10
5.9205713392
 20
7.807826189
 11
5.7811080788
 21
7.807826189
  0
ARC
  5
279
100
AcDbEntity
  8
0
100
AcDbCircle
 62
7
  6
CONTINUOUS
 10
2.4865713392
 20
1.837826189
 40
0.13
100
AcDbArc
 50
180.0
 51
270.0
  0
ARC
  5
27A
100
AcDbEntity
  8
0
100
AcDbCircle
 62
7
  6
CONTINUOUS
 10
2.9265713392
 20
1.837826189
 40
0.13
100
AcDbArc
 50
270.0
 51
360.0
  0
ARC
  5
27B
100
AcDbEntity
  8
0
100
AcDbCircle
 62
7
  6
CONTINUOUS
 10
2.9265713392
 20
1.837826189
 40
0.105
100
AcDbArc
 50
270.0
 51
360.0
  0
ARC
  5
27C
100
AcDbEntity
  8
0
100
AcDbCircle
 62
7
  6
CONTINUOUS
 10
2.4865713392
 20
1.837826189
 40
0.105
100
AcDbArc
 50
180.0
 51
270.0
  0
ARC
  5
27D
100
AcDbEntity
  8
0
100
AcDbCircle
 62
7
  6
CONTINUOUS
 10
2.4865713392
 20
1.837826189
 40
0.055
100
AcDbArc
 50
180.0
 51
270.0
  0
ARC
  5
27E
100
AcDbEntity
  8
0
100
AcDbCircle
 62
7
  6
CONTINUOUS
 10
2.9265713392
 20
1.837826189
 40
0.055
100
AcDbArc
 50
270.0
 51
360.0
  0
ARC
  5
27F
100
AcDbEntity
  8
0
100
AcDbCircle
 62
7
  6
CONTINUOUS
 10
3.1175713392
 20
4.100326189
 40
0.03
100
AcDbArc
 50
180.0
 51
270.0
  0
ARC
  5
280
100
AcDbEntity
  8
0
100
AcDbCircle
 62
7
  6
CONTINUOUS
 10
2.4865713392
 20
1.837826189
 40
0.03
100
AcDbArc
 50
180.0
 51
270.0
  0
ARC
  5
281
100
AcDbEntity
  8
0
100
AcDbCircle
 62
7
  6
CONTINUOUS
 10
2.9265713392
 20
1.837826189
 40
0.03
100
AcDbArc
 50
270.0
 51
360.0
  0
ARC
  5
282
100
AcDbEntity
  8
0
100
AcDbCircle
 62
7
  6
CONTINUOUS
 10
2.9265713392
 20
1.837826189
 40
0.005
100
AcDbArc
 50
270.0
 51
360.0
  0
ARC
  5
283
100
AcDbEntity
  8
0
100
AcDbCircle
 62
7
  6
CONTINUOUS
 10
2.4865713392
 20
1.837826189
 40
0.005
100
AcDbArc
 50
180.0
 51
270.0
  0
ARC
  5
284
100
AcDbEntity
  8
0
100
AcDbCircle
 62
7
  6
CONTINUOUS
 10
3.1175713392
 20
5.015326189
 40
0.03
100
AcDbArc
 50
90.0
 51
180.0
  0
ARC
  5
285
100
AcDbEntity
  8
0
100
AcDbCircle
 62
7
  6
CONTINUOUS
 10
3.0315713392
 20
5.020326189
 40
0.025
100
AcDbArc
 50
0.0
 51
90.0
  0
ARC
  5
286
100
AcDbEntity
  8
0
100
AcDbCircle
 62
7
  6
CONTINUOUS
 10
2.3815713392
 20
5.020326189
 40
0.025
100
AcDbArc
 50
90.0
 51
180.0
  0
ARC
  5
287
100
AcDbEntity
  8
ALL_ASSEMBLY_MEMBERS
100
AcDbCircle
 62
7
  6
CONTINUOUS
 10
5.6075713392
 20
1.2973914064
 40
0.1254347826
100
AcDbArc
 50
22.9364108859
 51
70.4680059554
  0
ARC
  5
288
100
AcDbEntity
  8
ALL_ASSEMBLY_MEMBERS
100
AcDbCircle
 62
7
  6
CONTINUOUS
 10
5.6075713392
 20
2.107826189
 40
0.095
100
AcDbArc
 50
180.0
 51
270.0
  0
ARC
  5
289
100
AcDbEntity
  8
ALL_ASSEMBLY_MEMBERS
100
AcDbCircle
 62
7
  6
CONTINUOUS
 10
5.6075713392
 20
2.667826189
 40
0.095
100
AcDbArc
 50
90.0
 51
180.0
  0
ARC
  5
28A
100
AcDbEntity
  8
ALL_ASSEMBLY_MEMBERS
100
AcDbCircle
 62
7
  6
CONTINUOUS
 10
5.7811080788
 20
1.370826189
 40
0.063
100
AcDbArc
 50
202.9364108859
 51
270.0
  0
ARC
  5
28B
100
AcDbEntity
  8
ALL_ASSEMBLY_MEMBERS
100
AcDbCircle
 62
7
  6
CONTINUOUS
 10
5.6705713392
 20
1.4749826992
 40
0.063
100
AcDbArc
 50
180.0
 51
250.4680059544
  0
ARC
  5
28C
100
AcDbEntity
  8
0
100
AcDbCircle
 62
7
  6
CONTINUOUS
 10
5.4575713392
 20
3.462826189
 40
0.05
100
AcDbArc
 50
0.0
 51
90.0
  0
ARC
  5
28D
100
AcDbEntity
  8
ALL_ASSEMBLY_MEMBERS
100
AcDbCircle
 62
7
  6
CONTINUOUS
 10
4.6125713392
 20
2.806826189
 40
0.031
100
AcDbArc
 50
44.7546926505
 51
90.0
  0
ARC
  5
28E
100
AcDbEntity
  8
ALL_ASSEMBLY_MEMBERS
100
AcDbCircle
 62
7
  6
CONTINUOUS
 10
4.3865713392
 20
2.775326189
 40
0.031
100
AcDbArc
 50
103.0407610339
 51
180.0
  0
ARC
  5
28F
100
AcDbEntity
  8
ALL_ASSEMBLY_MEMBERS
100
AcDbCircle
 62
7
  6
CONTINUOUS
 10
4.3865713392
 20
2.000326189
 40
0.031
100
AcDbArc
 50
180.0
 51
256.9592389661
  0
ARC
  5
290
100
AcDbEntity
  8
ALL_ASSEMBLY_MEMBERS
100
AcDbCircle
 62
7
  6
CONTINUOUS
 10
4.6125713392
 20
1.968826189
 40
0.031
100
AcDbArc
 50
270.0
 51
315.2453073495
  0
ARC
  5
291
100
AcDbEntity
  8
0
100
AcDbCircle
 62
7
  6
CONTINUOUS
 10
5.2875713392
 20
3.542826189
 40
0.03
100
AcDbArc
 50
180.0
 51
270.0
  0
ARC
  5
292
100
AcDbEntity
  8
0
100
AcDbCircle
 62
7
  6
CONTINUOUS
 10
5.5375713392
 20
3.462826189
 40
0.03
100
AcDbArc
 50
180.0
 51
270.0
  0
ARC
  5
293
100
AcDbEntity
  8
0
100
AcDbCircle
 62
7
  6
CONTINUOUS
 10
5.2175713392
 20
4.100326189
 40
0.03
100
AcDbArc
 50
270.0
 51
360.0
  0
ARC
  5
294
100
AcDbEntity
  8
ALL_ASSEMBLY_MEMBERS
100
AcDbCircle
 62
7
  6
CONTINUOUS
 10
5.4395713392
 20
2.611826189
 40
0.012
100
AcDbArc
 50
90.0
 51
180.0
  0
ARC
  5
295
100
AcDbEntity
  8
ALL_ASSEMBLY_MEMBERS
100
AcDbCircle
 62
7
  6
CONTINUOUS
 10
5.4395713392
 20
2.163826189
 40
0.012
100
AcDbArc
 50
180.0
 51
270.0
  0
ARC
  5
296
100
AcDbEntity
  8
ALL_ASSEMBLY_MEMBERS
100
AcDbCircle
 62
7
  6
CONTINUOUS
 10
5.6075713392
 20
7.8182609716
 40
0.1254347826
100
AcDbArc
 50
289.5319940446
 51
337.0635891141
  0
ARC
  5
297
100
AcDbEntity
  8
ALL_ASSEMBLY_MEMBERS
100
AcDbCircle
 62
7
  6
CONTINUOUS
 10
5.7811080788
 20
7.744826189
 40
0.063
100
AcDbArc
 50
90.0
 51
157.0635891141
  0
ARC
  5
298
100
AcDbEntity
  8
ALL_ASSEMBLY_MEMBERS
100
AcDbCircle
 62
7
  6
CONTINUOUS
 10
5.6705713392
 20
7.6406696787
 40
0.063
100
AcDbArc
 50
109.5319940456
 51
180.0
  0
ARC
  5
299
100
AcDbEntity
  8
0
100
AcDbCircle
 62
7
  6
CONTINUOUS
 10
5.4575713392
 20
5.652826189
 40
0.05
100
AcDbArc
 50
270.0
 51
360.0
  0
ARC
  5
29A
100
AcDbEntity
  8
0
100
AcDbCircle
 62
7
  6
CONTINUOUS
 10
5.2875713392
 20
5.572826189
 40
0.03
100
AcDbArc
 50
90.0
 51
180.0
  0
ARC
  5
29B
100
AcDbEntity
  8
0
100
AcDbCircle
 62
7
  6
CONTINUOUS
 10
5.5375713392
 20
5.652826189
 40
0.03
100
AcDbArc
 50
90.0
 51
180.0
  0
ARC
  5
29C
100
AcDbEntity
  8
0
100
AcDbCircle
 62
7
  6
CONTINUOUS
 10
5.2175713392
 20
5.015326189
 40
0.03
100
AcDbArc
 50
0.0
 51
90.0
  0
SPLINE
  5
29D
100
AcDbEntity
  8
0
100
AcDbSpline
 62
7
  6
CONTINUOUS
 70
0
 71
3
 72
18
 73
14
 74
0
 42
0.0000001
 43
0.0000001
 44
0.0000000001
 40
0.0
 40
0.0
 40
0.0
 40
0.0
 40
0.0526253575
 40
0.1058185031
 40
0.1598779273
 40
0.2150833443
 40
0.329826906
 40
0.4517624669
 40
0.5809955228
 40
0.6481524113
 40
0.7167447219
 40
0.857263815
 40
1.0
 40
1.0
 40
1.0
 40
1.0
 10
2.4565713392
 20
4.2546002574
 30
0.0
 10
2.4565713392
 20
4.2552007239
 30
0.0
 10
2.4566534829
 20
4.2564096256
 30
0.0
 10
2.457016818
 20
4.2582022667
 30
0.0
 10
2.4576166232
 20
4.2599617483
 30
0.0
 10
2.4587409044
 20
4.2622635402
 30
0.0
 10
2.4607352812
 20
4.2649700376
 30
0.0
 10
2.4638835644
 20
4.2677514124
 30
0.0
 10
2.4670188064
 20
4.2696249652
 30
0.0
 10
2.4697893594
 20
4.2708420351
 30
0.0
 10
2.4727703139
 20
4.2718766983
 30
0.0
 10
2.47670636
 20
4.2727437268
 30
0.0
 10
2.479942689
 20
4.2729775866
 30
0.0
 10
2.4815713392
 20
4.2729775866
 30
0.0
  0
SPLINE
  5
29E
100
AcDbEntity
  8
0
100
AcDbSpline
 62
7
  6
CONTINUOUS
 70
0
 71
3
 72
30
 73
26
 74
0
 42
0.0000001
 43
0.0000001
 44
0.0000000001
 40
0.0
 40
0.0
 40
0.0
 40
0.0
 40
0.0935782228
 40
0.1861613836
 40
0.276541226
 40
0.363752109
 40
0.4469055474
 40
0.5251785742
 40
0.5978783762
 40
0.6644794711
 40
0.6953817145
 40
0.7246530415
 40
0.7522824385
 40
0.7782773258
 40
0.8026729734
 40
0.8255222233
 40
0.8668689523
 40
0.8856394952
 40
0.9033476386
 40
0.9201947999
 40
0.9364128543
 40
0.9522524293
 40
0.9679677416
 40
0.983806731
 40
1.0
 40
1.0
 40
1.0
 40
1.0
 10
2.8565713392
 20
5.0437210996
 30
0.0
 10
2.8608337457
 20
5.0437210679
 30
0.0
 10
2.8693132889
 20
5.0436848597
 30
0.0
 10
2.8819085281
 20
5.0435133218
 30
0.0
 10
2.894211352
 20
5.0432131482
 30
0.0
 10
2.9060798134
 20
5.0427588284
 30
0.0
 10
2.9173879462
 20
5.0421231429
 30
0.0
 10
2.9280194398
 20
5.0412704476
 30
0.0
 10
2.9378699422
 20
5.0401658928
 30
0.0
 10
2.9455346763
 20
5.0389781344
 30
0.0
 10
2.9511981553
 20
5.037847028
 30
0.0
 10
2.9550930596
 20
5.0369353878
 30
0.0
 10
2.9587352079
 20
5.0359354713
 30
0.0
 10
2.9621183374
 20
5.0348436557
 30
0.0
 10
2.9652389073
 20
5.0336584234
 30
0.0
 10
2.9689213924
 20
5.0320062747
 30
0.0
 10
2.9722175714
 20
5.0301192289
 30
0.0
 10
2.9750254499
 20
5.0279472466
 30
0.0
 10
2.9767896565
 20
5.0262708676
 30
0.0
 10
2.9782793713
 20
5.0244948449
 30
0.0
 10
2.9794926935
 20
5.0226194973
 30
0.0
 10
2.9804300617
 20
5.0206487692
 30
0.0
 10
2.9810940744
 20
5.0185880572
 30
0.0
 10
2.9814877081
 20
5.0164433403
 30
0.0
 10
2.9815712099
 20
5.0149825722
 30
0.0
 10
2.9815713392
 20
5.0142449829
 30
0.0
  0
SPLINE
  5
29F
100
AcDbEntity
  8
0
100
AcDbSpline
 62
7
  6
CONTINUOUS
 70
0
 71
3
 72
30
 73
26
 74
0
 42
0.0000001
 43
0.0000001
 44
0.0000000001
 40
0.0
 40
0.0
 40
0.0
 40
0.0
 40
0.0161925674
 40
0.0320296372
 40
0.047741213
 40
0.0635748035
 40
0.0797848195
 40
0.096623367
 40
0.1143224077
 40
0.1330843501
 40
0.153080963
 40
0.1744473847
 40
0.1972847789
 40
0.2216702639
 40
0.2476607615
 40
0.2752841405
 40
0.3045457613
 40
0.3354396309
 40
0.4020296011
 40
0.4747144968
 40
0.5529865845
 40
0.6361386542
 40
0.7233720613
 40
0.8137936928
 40
1.0
 40
1.0
 40
1.0
 40
1.0
 10
2.4315713392
 20
5.0142449829
 30
0.0
 10
2.4315714388
 20
5.0149825637
 30
0.0
 10
2.431654842
 20
5.0164432611
 30
0.0
 10
2.4320482316
 20
5.0185877977
 30
0.0
 10
2.4327119204
 20
5.0206481277
 30
0.0
 10
2.4336489045
 20
5.0226182365
 30
0.0
 10
2.4348618836
 20
5.0244926376
 30
0.0
 10
2.4363504072
 20
5.0262682101
 30
0.0
 10
2.4381132572
 20
5.0279442906
 30
0.0
 10
2.4401500531
 20
5.029520734
 30
0.0
 10
2.4424606724
 20
5.0309970108
 30
0.0
 10
2.4450432374
 20
5.0323744782
 30
0.0
 10
2.4478951987
 20
5.033655247
 30
0.0
 10
2.4510140414
 20
5.0348408189
 30
0.0
 10
2.454396624
 20
5.0359320725
 30
0.0
 10
2.4580378928
 20
5.0369319945
 30
0.0
 10
2.4619316646
 20
5.0378442533
 30
0.0
 10
2.4675938495
 20
5.0389760079
 30
0.0
 10
2.4752572885
 20
5.0401635372
 30
0.0
 10
2.485106744
 20
5.0412691646
 30
0.0
 10
2.495737808
 20
5.042121785
 30
0.0
 10
2.5070471732
 20
5.0427581865
 30
0.0
 10
2.5189188816
 20
5.0432130343
 30
0.0
 10
2.5354883902
 20
5.0436167407
 30
0.0
 10
2.5480895343
 20
5.0437210099
 30
0.0
 10
2.5565713392
 20
5.0437210996
 30
0.0
  0
SPLINE
  5
2A0
100
AcDbEntity
  8
0
100
AcDbSpline
 62
7
  6
CONTINUOUS
 70
0
 71
3
 72
18
 73
14
 74
0
 42
0.0000001
 43
0.0000001
 44
0.0000000001
 40
0.0
 40
0.0
 40
0.0
 40
0.0
 40
0.142736185
 40
0.2832552781
 40
0.3518475886
 40
0.4190044772
 40
0.5482375331
 40
0.670173094
 40
0.7849166557
 40
0.8401220727
 40
0.8941814969
 40
0.9473746425
 40
1.0
 40
1.0
 40
1.0
 40
1.0
 10
2.3815713392
 20
4.1994682698
 30
0.0
 10
2.379942689
 20
4.1994682698
 30
0.0
 10
2.37670636
 20
4.1997021296
 30
0.0
 10
2.3727703139
 20
4.2005691581
 30
0.0
 10
2.3697893594
 20
4.2016038213
 30
0.0
 10
2.3670188064
 20
4.2028208911
 30
0.0
 10
2.3638835644
 20
4.204694444
 30
0.0
 10
2.3607352812
 20
4.2074758188
 30
0.0
 10
2.3587409044
 20
4.2101823162
 30
0.0
 10
2.3576166232
 20
4.2124841081
 30
0.0
 10
2.357016818
 20
4.2142435896
 30
0.0
 10
2.3566534829
 20
4.2160362308
 30
0.0
 10
2.3565713392
 20
4.2172451325
 30
0.0
 10
2.3565713392
 20
4.217845599
 30
0.0
  0
SPLINE
  5
2A1
100
AcDbEntity
  8
0
100
AcDbSpline
 62
7
  6
CONTINUOUS
 70
0
 71
3
 72
18
 73
14
 74
0
 42
0.0000001
 43
0.0000001
 44
0.0000000001
 40
0.0
 40
0.0
 40
0.0
 40
0.0
 40
0.1194956002
 40
0.1798151953
 40
0.2404366964
 40
0.3625479903
 40
0.4864548045
 40
0.5492465132
 40
0.6125594953
 40
0.6763719139
 40
0.7406547431
 40
0.8702050102
 40
1.0
 40
1.0
 40
1.0
 40
1.0
 10
2.4565713392
 20
4.9369699612
 30
0.0
 10
2.4565713392
 20
4.9354701382
 30
0.0
 10
2.4568191749
 20
4.9332043523
 30
0.0
 10
2.457612031
 20
4.9302887412
 30
0.0
 10
2.4587169592
 20
4.9274394786
 30
0.0
 10
2.4606739973
 20
4.9240916619
 30
0.0
 10
2.4632771104
 20
4.9211837687
 30
0.0
 10
2.4656928328
 20
4.9191745865
 30
0.0
 10
2.467666027
 20
4.9178305983
 30
0.0
 10
2.4697732352
 20
4.9166693366
 30
0.0
 10
2.4727428288
 20
4.9153785491
 30
0.0
 10
2.4766807477
 20
4.9142906837
 30
0.0
 10
2.4799422457
 20
4.9139915508
 30
0.0
 10
2.4815713392
 20
4.9139915508
 30
0.0
  0
SPLINE
  5
2A2
100
AcDbEntity
  8
0
100
AcDbSpline
 62
7
  6
CONTINUOUS
 70
0
 71
3
 72
18
 73
14
 74
0
 42
0.0000001
 43
0.0000001
 44
0.0000000001
 40
0.0
 40
0.0
 40
0.0
 40
0.0
 40
0.1194953458
 40
0.1798148626
 40
0.2404363142
 40
0.362547571
 40
0.4864544251
 40
0.5492461756
 40
0.6125592097
 40
0.6763716844
 40
0.7406545663
 40
0.8702049268
 40
1.0
 40
1.0
 40
1.0
 40
1.0
 10
2.9565713392
 20
4.9369699612
 30
0.0
 10
2.9565713392
 20
4.9354701423
 30
0.0
 10
2.9563235028
 20
4.9332043617
 30
0.0
 10
2.9555306464
 20
4.9302887574
 30
0.0
 10
2.9544257178
 20
4.9274394989
 30
0.0
 10
2.9524686785
 20
4.9240916861
 30
0.0
 10
2.9498655649
 20
4.9211837956
 30
0.0
 10
2.9474498426
 20
4.9191746133
 30
0.0
 10
2.9454766483
 20
4.9178306242
 30
0.0
 10
2.9433694404
 20
4.9166693608
 30
0.0
 10
2.9403998478
 20
4.9153785691
 30
0.0
 10
2.9364619303
 20
4.9142906965
 30
0.0
 10
2.9332004328
 20
4.9139915555
 30
0.0
 10
2.9315713392
 20
4.9139915508
 30
0.0
  0
SPLINE
  5
2A3
100
AcDbEntity
  8
0
100
AcDbSpline
 62
7
  6
CONTINUOUS
 70
0
 71
3
 72
18
 73
14
 74
0
 42
0.0000001
 43
0.0000001
 44
0.0000000001
 40
0.0
 40
0.0
 40
0.0
 40
0.0
 40
0.0526253575
 40
0.1058185031
 40
0.1598779273
 40
0.2150833443
 40
0.329826906
 40
0.4517624669
 40
0.5809955228
 40
0.6481524113
 40
0.7167447219
 40
0.857263815
 40
1.0
 40
1.0
 40
1.0
 40
1.0
 10
2.9565713392
 20
4.2546002574
 30
0.0
 10
2.9565713392
 20
4.2552007239
 30
0.0
 10
2.9564891954
 20
4.2564096256
 30
0.0
 10
2.9561258603
 20
4.2582022667
 30
0.0
 10
2.9555260552
 20
4.2599617483
 30
0.0
 10
2.954401774
 20
4.2622635402
 30
0.0
 10
2.9524073971
 20
4.2649700376
 30
0.0
 10
2.949259114
 20
4.2677514124
 30
0.0
 10
2.9461238719
 20
4.2696249652
 30
0.0
 10
2.9433533189
 20
4.2708420351
 30
0.0
 10
2.9403723644
 20
4.2718766983
 30
0.0
 10
2.9364363183
 20
4.2727437268
 30
0.0
 10
2.9331999893
 20
4.2729775866
 30
0.0
 10
2.9315713392
 20
4.2729775866
 30
0.0
  0
SPLINE
  5
2A4
100
AcDbEntity
  8
0
100
AcDbSpline
 62
7
  6
CONTINUOUS
 70
0
 71
3
 72
18
 73
14
 74
0
 42
0.0000001
 43
0.0000001
 44
0.0000000001
 40
0.0
 40
0.0
 40
0.0
 40
0.0
 40
0.142736185
 40
0.2832552781
 40
0.3518475887
 40
0.4190044772
 40
0.5482375331
 40
0.670173094
 40
0.7849166557
 40
0.8401220727
 40
0.8941814969
 40
0.9473746425
 40
1.0
 40
1.0
 40
1.0
 40
1.0
 10
3.0315713392
 20
4.1994682698
 30
0.0
 10
3.0331999893
 20
4.1994682698
 30
0.0
 10
3.0364363183
 20
4.1997021296
 30
0.0
 10
3.0403723644
 20
4.2005691581
 30
0.0
 10
3.0433533189
 20
4.2016038213
 30
0.0
 10
3.0461238719
 20
4.2028208911
 30
0.0
 10
3.049259114
 20
4.204694444
 30
0.0
 10
3.0524073971
 20
4.2074758188
 30
0.0
 10
3.054401774
 20
4.2101823162
 30
0.0
 10
3.0555260552
 20
4.2124841081
 30
0.0
 10
3.0561258603
 20
4.2142435896
 30
0.0
 10
3.0564891954
 20
4.2160362308
 30
0.0
 10
3.0565713392
 20
4.2172451325
 30
0.0
 10
3.0565713392
 20
4.217845599
 30
0.0
  0
SPLINE
  5
2A5
100
AcDbEntity
  8
0
100
AcDbSpline
 62
7
  6
CONTINUOUS
 70
0
 71
3
 72
18
 73
14
 74
0
 42
0.0000001
 43
0.0000001
 44
0.0000000001
 40
0.0
 40
0.0
 40
0.0
 40
0.0
 40
0.142736185
 40
0.2832552781
 40
0.3518475886
 40
0.4190044772
 40
0.5482375331
 40
0.670173094
 40
0.7849166557
 40
0.8401220727
 40
0.8941814969
 40
0.9473746425
 40
1.0
 40
1.0
 40
1.0
 40
1.0
 10
2.9815713392
 20
4.1994682698
 30
0.0
 10
2.979942689
 20
4.1994682698
 30
0.0
 10
2.97670636
 20
4.1997021296
 30
0.0
 10
2.9727703139
 20
4.2005691581
 30
0.0
 10
2.9697893594
 20
4.2016038213
 30
0.0
 10
2.9670188064
 20
4.2028208911
 30
0.0
 10
2.9638835644
 20
4.204694444
 30
0.0
 10
2.9607352812
 20
4.2074758188
 30
0.0
 10
2.9587409044
 20
4.2101823162
 30
0.0
 10
2.9576166232
 20
4.2124841081
 30
0.0
 10
2.957016818
 20
4.2142435896
 30
0.0
 10
2.9566534829
 20
4.2160362308
 30
0.0
 10
2.9565713392
 20
4.2172451325
 30
0.0
 10
2.9565713392
 20
4.217845599
 30
0.0
  0
SPLINE
  5
2A6
100
AcDbEntity
  8
0
100
AcDbSpline
 62
7
  6
CONTINUOUS
 70
0
 71
3
 72
18
 73
14
 74
0
 42
0.0000001
 43
0.0000001
 44
0.0000000001
 40
0.0
 40
0.0
 40
0.0
 40
0.0
 40
0.1286902083
 40
0.1931652225
 40
0.257428888
 40
0.3847374953
 40
0.5104529408
 40
0.5727729403
 40
0.6347159735
 40
0.7574564022
 40
0.8185259559
 40
0.8793600198
 40
1.0
 40
1.0
 40
1.0
 40
1.0
 10
2.9815713392
 20
5.0142449829
 30
0.0
 10
2.9799419944
 20
5.0142449829
 30
0.0
 10
2.9774889327
 20
5.0140154883
 30
0.0
 10
2.9743120032
 20
5.0132733594
 30
0.0
 10
2.9712323303
 20
5.012247042
 30
0.0
 10
2.9676167437
 20
5.0104388399
 30
0.0
 10
2.9644258788
 20
5.0079952645
 30
0.0
 10
2.9622214109
 20
5.0057175968
 30
0.0
 10
2.9602761754
 20
5.0032639695
 30
0.0
 10
2.9587151588
 20
5.0005427109
 30
0.0
 10
2.9576116775
 20
4.9976432783
 30
0.0
 10
2.9568187726
 20
4.9946726764
 30
0.0
 10
2.9565713392
 20
4.9923663118
 30
0.0
 10
2.9565713392
 20
4.9908388909
 30
0.0
  0
SPLINE
  5
2A7
100
AcDbEntity
  8
0
100
AcDbSpline
 62
7
  6
CONTINUOUS
 70
0
 71
3
 72
27
 73
23
 74
0
 42
0.0000001
 43
0.0000001
 44
0.0000000001
 40
0.0
 40
0.0
 40
0.0
 40
0.0
 40
0.1745999552
 40
0.2600987592
 40
0.3433340909
 40
0.4236262366
 40
0.5003004816
 40
0.5726884395
 40
0.640188537
 40
0.7023318176
 40
0.7587848922
 40
0.7848544551
 40
0.809499038
 40
0.8546495347
 40
0.8753492618
 40
0.8949500346
 40
0.9136089101
 40
0.9315143976
 40
0.948879329
 40
0.9659290813
 40
0.982893867
 40
1.0
 40
1.0
 40
1.0
 40
1.0
 10
2.5565713392
 20
4.9365079923
 30
0.0
 10
2.55171049
 20
4.9365079091
 30
0.0
 10
2.544468027
 20
4.9363672781
 30
0.0
 10
2.5349218148
 20
4.9358730214
 30
0.0
 10
2.5280080416
 20
4.9353481033
 30
0.0
 10
2.5213555485
 20
4.9346582662
 30
0.0
 10
2.5150276642
 20
4.9337947271
 30
0.0
 10
2.5090884701
 20
4.9327468697
 30
0.0
 10
2.503600222
 20
4.9315038317
 30
0.0
 10
2.4986210163
 20
4.9300593466
 30
0.0
 10
2.4948443356
 20
4.9286440368
 30
0.0
 10
2.4921356861
 20
4.9273894885
 30
0.0
 10
2.4897797625
 20
4.9261341921
 30
0.0
 10
2.4876659957
 20
4.9247436827
 30
0.0
 10
2.4858560821
 20
4.9231955823
 30
0.0
 10
2.4847100725
 20
4.9220168046
 30
0.0
 10
2.4837385543
 20
4.9207877521
 30
0.0
 10
2.4829446046
 20
4.9195094155
 30
0.0
 10
2.482328526
 20
4.9181855059
 30
0.0
 10
2.4818898987
 20
4.9168200016
 30
0.0
 10
2.4816281672
 20
4.9154174163
 30
0.0
 10
2.4815714235
 20
4.9144677842
 30
0.0
 10
2.4815713392
 20
4.9139915508
 30
0.0
  0
SPLINE
  5
2A8
100
AcDbEntity
  8
0
100
AcDbSpline
 62
7
  6
CONTINUOUS
 70
0
 71
3
 72
26
 73
22
 74
0
 42
0.0000001
 43
0.0000001
 44
0.0000000001
 40
0.0
 40
0.0
 40
0.0
 40
0.0
 40
0.0171064526
 40
0.0340711778
 40
0.0511208518
 40
0.0684863153
 40
0.0863937779
 40
0.1050566713
 40
0.1453266288
 40
0.1904900131
 40
0.2151436432
 40
0.241223206
 40
0.2976898419
 40
0.3598424447
 40
0.4273475718
 40
0.4997286386
 40
0.5763914858
 40
0.6566682932
 40
0.7398885885
 40
0.8253844993
 40
1.0
 40
1.0
 40
1.0
 40
1.0
 10
2.9315713392
 20
4.9139915508
 30
0.0
 10
2.9315712356
 20
4.9144677726
 30
0.0
 10
2.9315145016
 20
4.9154173685
 30
0.0
 10
2.9312528553
 20
4.9168199109
 30
0.0
 10
2.9308143082
 20
4.918185392
 30
0.0
 10
2.9301982434
 20
4.9195093066
 30
0.0
 10
2.9294041416
 20
4.9207877361
 30
0.0
 10
2.9280749955
 20
4.9224688433
 30
0.0
 10
2.9259305804
 20
4.9244452704
 30
0.0
 10
2.9233616804
 20
4.9261351196
 30
0.0
 10
2.9210045355
 20
4.9273907114
 30
0.0
 10
2.9182950543
 20
4.928645019
 30
0.0
 10
2.9145176846
 20
4.9300607445
 30
0.0
 10
2.9095378819
 20
4.9315051517
 30
0.0
 10
2.9040495461
 20
4.9327476485
 30
0.0
 10
2.8981109832
 20
4.9337954353
 30
0.0
 10
2.8917842652
 20
4.9346586009
 30
0.0
 10
2.8851332023
 20
4.9353481463
 30
0.0
 10
2.8782206517
 20
4.9358729946
 30
0.0
 10
2.8686749188
 20
4.9363673018
 30
0.0
 10
2.8614324126
 20
4.9365079155
 30
0.0
 10
2.8565713392
 20
4.9365079923
 30
0.0
  0
SPLINE
  5
2A9
100
AcDbEntity
  8
0
100
AcDbSpline
 62
7
  6
CONTINUOUS
 70
0
 71
3
 72
18
 73
14
 74
0
 42
0.0000001
 43
0.0000001
 44
0.0000000001
 40
0.0
 40
0.0
 40
0.0
 40
0.0
 40
0.1286902098
 40
0.1931652351
 40
0.2574289149
 40
0.3847375284
 40
0.5104529622
 40
0.5727729524
 40
0.6347159756
 40
0.757456383
 40
0.818525925
 40
0.8793599861
 40
1.0
 40
1.0
 40
1.0
 40
1.0
 10
2.4315713392
 20
5.0142449829
 30
0.0
 10
2.4332006841
 20
5.0142449838
 30
0.0
 10
2.4356537464
 20
5.0140154901
 30
0.0
 10
2.4388306768
 20
5.0132733619
 30
0.0
 10
2.4419103508
 20
5.0122470456
 30
0.0
 10
2.4455259382
 20
5.0104388436
 30
0.0
 10
2.4487168029
 20
5.0079952675
 30
0.0
 10
2.4509212704
 20
5.0057175994
 30
0.0
 10
2.4528665049
 20
5.0032639716
 30
0.0
 10
2.4544275207
 20
5.0005427128
 30
0.0
 10
2.4555310019
 20
4.9976432803
 30
0.0
 10
2.4563239063
 20
4.9946726777
 30
0.0
 10
2.4565713392
 20
4.9923663124
 30
0.0
 10
2.4565713392
 20
4.9908388909
 30
0.0
  0
SPLINE
  5
2AA
100
AcDbEntity
  8
0
100
AcDbSpline
 62
7
  6
CONTINUOUS
 70
0
 71
3
 72
18
 73
14
 74
0
 42
0.0000001
 43
0.0000001
 44
0.0000000001
 40
0.0
 40
0.0
 40
0.0
 40
0.0
 40
0.142736185
 40
0.2832552781
 40
0.3518475887
 40
0.4190044772
 40
0.5482375331
 40
0.670173094
 40
0.7849166557
 40
0.8401220727
 40
0.8941814969
 40
0.9473746425
 40
1.0
 40
1.0
 40
1.0
 40
1.0
 10
2.4315713392
 20
4.1994682698
 30
0.0
 10
2.4331999893
 20
4.1994682698
 30
0.0
 10
2.4364363183
 20
4.1997021296
 30
0.0
 10
2.4403723644
 20
4.2005691581
 30
0.0
 10
2.4433533189
 20
4.2016038213
 30
0.0
 10
2.4461238719
 20
4.2028208911
 30
0.0
 10
2.449259114
 20
4.204694444
 30
0.0
 10
2.4524073971
 20
4.2074758188
 30
0.0
 10
2.454401774
 20
4.2101823162
 30
0.0
 10
2.4555260552
 20
4.2124841081
 30
0.0
 10
2.4561258603
 20
4.2142435896
 30
0.0
 10
2.4564891954
 20
4.2160362308
 30
0.0
 10
2.4565713392
 20
4.2172451325
 30
0.0
 10
2.4565713392
 20
4.217845599
 30
0.0
  0
SPLINE
  5
2AB
100
AcDbEntity
  8
0
100
AcDbSpline
 62
7
  6
CONTINUOUS
 70
0
 71
3
 72
29
 73
25
 74
0
 42
0.0000001
 43
0.0000001
 44
0.0000000001
 40
0.0
 40
0.0
 40
0.0
 40
0.0
 40
0.0897291829
 40
0.1786335736
 40
0.2656890174
 40
0.350049266
 40
0.4309121819
 40
0.507495652
 40
0.5791058552
 40
0.6451869215
 40
0.6760326268
 40
0.7053782096
 40
0.7595308676
 40
0.784408723
 40
0.8078948283
 40
0.8510398044
 40
0.8710201986
 40
0.8901695565
 40
0.908700562
 40
0.9268447876
 40
0.9448362218
 40
0.9628951818
 40
0.981223652
 40
1.0
 40
1.0
 40
1.0
 40
1.0
 10
2.8565713392
 20
5.0188034119
 30
0.0
 10
2.8599185711
 20
5.0188033856
 30
0.0
 10
2.8665823255
 20
5.0187703055
 30
0.0
 10
2.876492474
 20
5.0186131836
 30
0.0
 10
2.8861998069
 20
5.0183383197
 30
0.0
 10
2.8956019957
 20
5.0179211686
 30
0.0
 10
2.9046040873
 20
5.0173357684
 30
0.0
 10
2.9131136956
 20
5.0165465753
 30
0.0
 10
2.9210426767
 20
5.0155184106
 30
0.0
 10
2.9272346167
 20
5.0144072638
 30
0.0
 10
2.9318247492
 20
5.0133445435
 30
0.0
 10
2.935941389
 20
5.0122259948
 30
0.0
 10
2.9397757097
 20
5.0109188929
 30
0.0
 10
2.9432748125
 20
5.0093691804
 30
0.0
 10
2.9462997025
 20
5.0077845325
 30
0.0
 10
2.9489963903
 20
5.0059709723
 30
0.0
 10
2.9512709487
 20
5.003903535
 30
0.0
 10
2.9527076441
 20
5.0022970939
 30
0.0
 10
2.9539176693
 20
5.0005966713
 30
0.0
 10
2.9548997351
 20
4.9988039685
 30
0.0
 10
2.9556555042
 20
4.9969238287
 30
0.0
 10
2.9561890986
 20
4.9949620936
 30
0.0
 10
2.9565045154
 20
4.9929246423
 30
0.0
 10
2.9565712851
 20
4.9915393184
 30
0.0
 10
2.9565713392
 20
4.9908388909
 30
0.0
  0
SPLINE
  5
2AC
100
AcDbEntity
  8
0
100
AcDbSpline
 62
7
  6
CONTINUOUS
 70
0
 71
3
 72
29
 73
25
 74
0
 42
0.0000001
 43
0.0000001
 44
0.0000000001
 40
0.0
 40
0.0
 40
0.0
 40
0.0
 40
0.0139620759
 40
0.0279054122
 40
0.0421250849
 40
0.056904141
 40
0.0890787528
 40
0.1069351276
 40
0.1261543725
 40
0.146844566
 40
0.1690870306
 40
0.1929319487
 40
0.2183995516
 40
0.2454951959
 40
0.2742135076
 40
0.3364253081
 40
0.4047017055
 40
0.478574135
 40
0.5574321974
 40
0.6405656147
 40
0.7272307444
 40
0.8166571137
 40
0.907942672
 40
1.0
 40
1.0
 40
1.0
 40
1.0
 10
2.9565713392
 20
4.9369699612
 30
0.0
 10
2.9565712873
 20
4.9374730669
 30
0.0
 10
2.9564964356
 20
4.9384803942
 30
0.0
 10
2.9561515659
 20
4.9399644853
 30
0.0
 10
2.9555749119
 20
4.9414066831
 30
0.0
 10
2.9544680231
 20
4.9433204785
 30
0.0
 10
2.9528957567
 20
4.9450824031
 30
0.0
 10
2.9509757821
 20
4.9466783995
 30
0.0
 10
2.9492623274
 20
4.9478652395
 30
0.0
 10
2.9473285929
 20
4.9489983037
 30
0.0
 10
2.9451762324
 20
4.9500774879
 30
0.0
 10
2.9428089997
 20
4.951102296
 30
0.0
 10
2.9402316261
 20
4.9520732382
 30
0.0
 10
2.9374492032
 20
4.9529902283
 30
0.0
 10
2.933363034
 20
4.9541722656
 30
0.0
 10
2.9277765539
 20
4.955492453
 30
0.0
 10
2.9205330236
 20
4.9568301723
 30
0.0
 10
2.912648866
 20
4.9579652056
 30
0.0
 10
2.9042008398
 20
4.9589057658
 30
0.0
 10
2.8952717918
 20
4.9596607839
 30
0.0
 10
2.8859481123
 20
4.9602378388
 30
0.0
 10
2.8763215371
 20
4.9606441424
 30
0.0
 10
2.8664951663
 20
4.9608858361
 30
0.0
 10
2.8598885081
 20
4.9609390446
 30
0.0
 10
2.8565713392
 20
4.9609390764
 30
0.0
  0
SPLINE
  5
2AD
100
AcDbEntity
  8
0
100
AcDbSpline
 62
7
  6
CONTINUOUS
 70
0
 71
3
 72
29
 73
25
 74
0
 42
0.0000001
 43
0.0000001
 44
0.0000000001
 40
0.0
 40
0.0
 40
0.0
 40
0.0
 40
0.018775704
 40
0.037101909
 40
0.0551562988
 40
0.0731403731
 40
0.0912748461
 40
0.1097958227
 40
0.1289349179
 40
0.148906129
 40
0.1699007784
 40
0.1920749004
 40
0.2155489073
 40
0.2404165775
 40
0.2667476236
 40
0.2945767855
 40
0.3547403798
 40
0.4208106281
 40
0.4924087328
 40
0.5689906999
 40
0.6498549423
 40
0.7342353526
 40
0.8213295965
 40
1.0
 40
1.0
 40
1.0
 40
1.0
 10
2.4565713392
 20
4.9908388909
 30
0.0
 10
2.4565713807
 20
4.9915393258
 30
0.0
 10
2.4566380802
 20
4.9929246035
 30
0.0
 10
2.4569532923
 20
4.9949618967
 30
0.0
 10
2.4574866101
 20
4.9969232511
 30
0.0
 10
2.4582420673
 20
4.9988027585
 30
0.0
 10
2.4592238885
 20
5.0005945199
 30
0.0
 10
2.460432759
 20
5.0022944899
 30
0.0
 10
2.4618681242
 20
5.0039006787
 30
0.0
 10
2.4635298359
 20
5.0054116194
 30
0.0
 10
2.4654177422
 20
5.0068254866
 30
0.0
 10
2.4675290947
 20
5.0081431
 30
0.0
 10
2.4698605302
 20
5.0093661631
 30
0.0
 10
2.472408826
 20
5.0104958279
 30
0.0
 10
2.4751701746
 20
5.0115327461
 30
0.0
 10
2.4792346154
 20
5.0128297073
 30
0.0
 10
2.4848198793
 20
5.0142116288
 30
0.0
 10
2.4920873353
 20
5.0155163128
 30
0.0
 10
2.5000159556
 20
5.016545362
 30
0.0
 10
2.5085254047
 20
5.0173345502
 30
0.0
 10
2.5175286224
 20
5.0179206292
 30
0.0
 10
2.5269334786
 20
5.0183382247
 30
0.0
 10
2.5399909078
 20
5.0187074849
 30
0.0
 10
2.5499059701
 20
5.0188033492
 30
0.0
 10
2.5565713392
 20
5.0188034119
 30
0.0
  0
SPLINE
  5
2AE
100
AcDbEntity
  8
0
100
AcDbSpline
 62
7
  6
CONTINUOUS
 70
0
 71
3
 72
28
 73
24
 74
0
 42
0.0000001
 43
0.0000001
 44
0.0000000001
 40
0.0
 40
0.0
 40
0.0
 40
0.0
 40
0.0920535821
 40
0.1833345412
 40
0.2727688617
 40
0.3594557984
 40
0.442610335
 40
0.5214823183
 40
0.595366432
 40
0.6636392235
 40
0.7258433826
 40
0.7816367874
 40
0.8070957568
 40
0.8309330369
 40
0.8531703357
 40
0.8738555622
 40
0.8930699942
 40
0.9109223472
 40
0.9430936631
 40
0.9578732865
 40
0.9720939697
 40
0.9860380226
 40
1.0
 40
1.0
 40
1.0
 40
1.0
 10
2.5565713392
 20
4.9609390764
 30
0.0
 10
2.5532543364
 20
4.9609390425
 30
0.0
 10
2.5466480411
 20
4.9608858493
 30
0.0
 10
2.5368217765
 20
4.9606441705
 30
0.0
 10
2.5271943851
 20
4.9602378715
 30
0.0
 10
2.5178689604
 20
4.9596607154
 30
0.0
 10
2.508937971
 20
4.9589054129
 30
0.0
 10
2.5004883553
 20
4.957964399
 30
0.0
 10
2.4926035779
 20
4.9568292929
 30
0.0
 10
2.4853598592
 20
4.9554911155
 30
0.0
 10
2.4788249572
 20
4.9539459576
 30
0.0
 10
2.4738753497
 20
4.9524367179
 30
0.0
 10
2.4703306744
 20
4.9511011239
 30
0.0
 10
2.4679643066
 20
4.950076303
 30
0.0
 10
2.4658125216
 20
4.9489974681
 30
0.0
 10
2.4638792556
 20
4.9478647061
 30
0.0
 10
2.4621662406
 20
4.94667814
 30
0.0
 10
2.4602466794
 20
4.9450823582
 30
0.0
 10
2.4586747626
 20
4.943320489
 30
0.0
 10
2.457567945
 20
4.9414067561
 30
0.0
 10
2.4569912191
 20
4.9399645161
 30
0.0
 10
2.4566462585
 20
4.9384804007
 30
0.0
 10
2.4565713797
 20
4.9374730586
 30
0.0
 10
2.4565713392
 20
4.9369699612
 30
0.0
  0
ENDSEC
  0
SECTION
  2
OBJECTS
  0
DICTIONARY
  5
C
100
AcDbDictionary
280
0
281
1
  3
ACAD_GROUP
350
D
  3
ACAD_MLINESTYLE
350
17
  3
ACAD_LAYOUT
350
1A
  3
ACAD_PLOTSETTINGS
350
19
  3
ACAD_PLOTSTYLENAME
350
E
  0
DICTIONARY
  5
D
102
{ACAD_REACTORS
330
C
102
}
100
AcDbDictionary
280
0
281
1
  0
ACDBDICTIONARYWDFLT
  5
E
102
{ACAD_REACTORS
330
C
102
}
100
AcDbDictionary
281
1
  3
Normal
350
F
100
AcDbDictionaryWithDefault
340
F
  0
DICTIONARY
  5
17
102
{ACAD_REACTORS
330
C
102
}
100
AcDbDictionary
280
0
281
1
  3
Standard
350
18
  0
DICTIONARY
  5
19
102
{ACAD_REACTORS
330
C
102
}
100
AcDbDictionary
281
1
  0
DICTIONARY
  5
1A
102
{ACAD_REACTORS
330
C
102
}
100
AcDbDictionary
281
1
  3
Model
350
2AF
  3
Layout1
350
2B0
  0
ACDBPLACEHOLDER
  5
F
102
{ACAD_REACTORS
330
E
102
}
  0
MLINESTYLE
  5
18
102
{ACAD_REACTORS
330
17
102
}
100
AcDbMlineStyle
  2
STANDARD
 70
0
  3

 62
256
 51
90.0
 52
90.0
 71
2
 49
0.5
 62
256
  6
BYLAYER
 49
-0.5
 62
256
  6
BYLAYER
  0
LAYOUT
  5
2AF
102
{ACAD_REACTORS
330
1A
102
}
100
AcDbPlotSettings
  1

  2
none_device
  4
ANSI_A_(11.00_x_8.50_Inches)
  6

 40
0.0
 41
0.0
 42
0.0
 43
0.0
 44
279.4
 45
215.9
 46
0.0
 47
0.0
 48
0.0
 49
0.0
140
0.0
141
0.0
142
1.0
143
1.0
 70
1024
 72
0
 73
0
 74
0
  7

 75
0
147
1.0
148
0.0
149
0.0
100
AcDbLayout
  1
Model
 70
0
 71
0
 10
0.0
 20
0.0
 11
11.0
 21
8.5
 12
0.0
 22
0.0
 32
0.0
 14
0.0
 24
0.0
 34
0.0
 15
0.0
 25
0.0
 35
0.0
146
0.0
 13
0.0
 23
0.0
 33
0.0
 16
1.0
 26
0.0
 36
0.0
 17
0.0
 27
1.0
 37
0.0
 76
0
330
21A
345
0
346
0
  0
LAYOUT
  5
2B0
102
{ACAD_REACTORS
330
1A
102
}
100
AcDbPlotSettings
  1

  2
none_device
  4
ANSI_A_(11.00_x_8.50_Inches)
  6

 40
0.0
 41
0.0
 42
0.0
 43
0.0
 44
279.4
 45
215.9
 46
0.0
 47
0.0
 48
0.0
 49
0.0
140
0.0
141
0.0
142
1.0
143
1.0
 70
0
 72
0
 73
0
 74
0
  7

 75
0
147
1.0
148
0.0
149
0.0
100
AcDbLayout
  1
Layout1
 70
0
 71
1
 10
0.0
 20
0.0
 11
11.0
 21
8.5
 12
0.0
 22
0.0
 32
0.0
 14
0.0
 24
0.0
 34
0.0
 15
0.0
 25
0.0
 35
0.0
146
0.0
 13
0.0
 23
0.0
 33
0.0
 16
1.0
 26
0.0
 36
0.0
 17
0.0
 27
1.0
 37
0.0
 76
0
330
21B
345
0
346
0
  0
ENDSEC
  0
EOF
