999
DXF file: 5-3272bp_top.dxf
999
Pro/ENGINEER 2023134 by Parametric Technology Corporation
  0
SECTION
  2
HEADER
  9
$ACADVER
  1
AC1032
  9
$DWGCODEPAGE
  3
ANSI_1252
  9
$EXTMAX
 10
11.0
 20
8.5
 30
0.0
  9
$EXTMIN
 10
0.0
 20
0.0
 30
0.0
  9
$LIMMIN
 10
0.0
 20
0.0
  9
$LIMMAX
 10
11.0
 20
8.5
  9
$VIEWCTR
 10
5.5
 20
4.25
  9
$VIEWSIZE
 40
8.5
  9
$CLAYER
  8
0
  9
$LTSCALE
 40
0.605
  9
$CELTYPE
  6
BYLAYER
  9
$DIMSCALE
 40
1.0
  9
$DIMASZ
 40
0.1
  9
$DIMEXO
 40
0.0625
  9
$DIMDLI
 40
0.418
  9
$DIMEXE
 40
0.125
  9
$DIMCEN
 40
0.099
  9
$DIMLFAC
 40
1.0
  9
$DIMBLK
  1
_FILLED
  9
$DIMALT
 70
1
  9
$DIMALTD
 70
2
  9
$DIMALTTD
 70
2
  9
$DIMALTF
 40
25.4
  9
$DIMTXT
 40
0.08
  9
$DIMTOL
 70
1
  9
$DIMLIM
 70
0
  9
$DIMTFAC
 40
1.0
  9
$DIMTP
 40
0.001
  9
$DIMTM
 40
0.001
  9
$DIMGAP
 40
0.09
  9
$DIMDSEP
 70
46
  9
$AUNITS
 70
0
  9
$PDMODE
 70
3
  9
$PDSIZE
 40
0.3125
  9
$HANDSEED
  5
293
  9
$TILEMODE
 70
1
  9
$MEASUREMENT
 70
0
  9
$INSUNITS
 70
1
  0
ENDSEC
  0
SECTION
  2
CLASSES
  0
CLASS
  1
ACDBDICTIONARYWDFLT
  2
AcDbDictionaryWithDefault
  3
AutoCAD 2000
 90
0
 91
1
280
0
281
0
  0
CLASS
  1
ACDBPLACEHOLDER
  2
AcDbPlaceHolder
  3
AutoCAD 2000
 90
0
 91
1
280
0
281
0
  0
CLASS
  1
LAYOUT
  2
AcDbLayout
  3
AutoCAD 2000
 90
0
 91
0
280
0
281
0
  0
ENDSEC
  0
SECTION
  2
TABLES
  0
TABLE
  2
VPORT
  5
8
100
AcDbSymbolTable
 70
2
  0
VPORT
  5
1F4
100
AcDbSymbolTableRecord
100
AcDbViewportTableRecord
  2
*ACTIVE
 70
0
 10
0.0
 20
0.0
 11
1.0
 21
1.0
 12
5.5
 22
4.25
 13
0.0
 23
0.0
 14
1.0
 24
1.0
 15
0.0
 25
0.0
 16
0.0
 26
0.0
 36
1.0
 17
0.0
 27
0.0
 37
0.0
 40
8.5
 41
1.2941176471
 42
50.0
 43
0.0
 44
0.0
 50
0.0
 51
0.0
 71
0
 72
100
 73
1
 74
1
 75
0
 76
0
 77
0
 78
0
  0
ENDTAB
  0
TABLE
  2
LTYPE
  5
5
100
AcDbSymbolTable
 70
6
  0
LTYPE
  5
14
100
AcDbSymbolTableRecord
100
AcDbLinetypeTableRecord
  2
BYBLOCK
 70
0
  3

 72
65
 73
0
 40
0.0
  0
LTYPE
  5
15
100
AcDbSymbolTableRecord
100
AcDbLinetypeTableRecord
  2
BYLAYER
 70
0
  3

 72
65
 73
0
 40
0.0
  0
LTYPE
  5
16
100
AcDbSymbolTableRecord
100
AcDbLinetypeTableRecord
  2
CONTINUOUS
 70
64
  3
Solid line
 72
65
 73
0
 40
0.0
  0
LTYPE
  5
1F5
100
AcDbSymbolTableRecord
100
AcDbLinetypeTableRecord
  2
CENTER
 70
64
  3
____ _ ____ _ ____ _ ____ _ ____ _ ____ _ ____
 72
65
 73
4
 40
0.6
 49
0.375
 74
0
 49
-0.075
 74
0
 49
0.075
 74
0
 49
-0.075
 74
0
  0
LTYPE
  5
1F6
100
AcDbSymbolTableRecord
100
AcDbLinetypeTableRecord
  2
HIDDEN
 70
64
  3
- - - - - - - - - - - - - - - - - - - -
 72
65
 73
2
 40
0.2
 49
0.1
 74
0
 49
-0.1
 74
0
  0
LTYPE
  5
1F7
100
AcDbSymbolTableRecord
100
AcDbLinetypeTableRecord
  2
PHANTOM
 70
64
  3
_____ _ _ _____ _ _ _____ _ _ _____
 72
65
 73
6
 40
0.8
 49
0.45
 74
0
 49
-0.05
 74
0
 49
0.1
 74
0
 49
-0.05
 74
0
 49
0.1
 74
0
 49
-0.05
 74
0
  0
LTYPE
  5
1F8
100
AcDbSymbolTableRecord
100
AcDbLinetypeTableRecord
  2
DOT
 70
64
  3
. . . . . . . . . . . . . . . . . . . .
 72
65
 73
2
 40
0.2
 49
0.1
 74
0
 49
-0.1
 74
0
  0
LTYPE
  5
1F9
100
AcDbSymbolTableRecord
100
AcDbLinetypeTableRecord
  2
DASHED
 70
64
  3
- - - - - - - - - - - - - - - - - - - -
 72
65
 73
2
 40
0.2
 49
0.1
 74
0
 49
-0.1
 74
0
  0
ENDTAB
  0
TABLE
  2
LAYER
  5
2
100
AcDbSymbolTable
 70
36
  0
LAYER
  5
10
100
AcDbSymbolTableRecord
100
AcDbLayerTableRecord
  2
0
 70
0
 62
7
  6
CONTINUOUS
370
-3
390
F
  0
LAYER
  5
1FA
100
AcDbSymbolTableRecord
100
AcDbLayerTableRecord
  2
DEFAULT_1
 70
0
 62
7
  6
CENTER
370
-3
390
F
  0
LAYER
  5
1FB
100
AcDbSymbolTableRecord
100
AcDbLayerTableRecord
  2
DEFAULT_2
 70
0
 62
8
  6
HIDDEN
370
-3
390
F
  0
LAYER
  5
1FC
100
AcDbSymbolTableRecord
100
AcDbLayerTableRecord
  2
DEFAULT_3
 70
0
 62
7
  6
PHANTOM
370
-3
390
F
  0
LAYER
  5
1FD
100
AcDbSymbolTableRecord
100
AcDbLayerTableRecord
  2
2-217_ASSY_DATUMS
 70
0
 62
7
  6
CONTINUOUS
370
-3
390
F
  0
LAYER
  5
1FE
100
AcDbSymbolTableRecord
100
AcDbLayerTableRecord
  2
3-992BP_ASSY_DATUMS
 70
0
 62
7
  6
CONTINUOUS
370
-3
390
F
  0
LAYER
  5
1FF
100
AcDbSymbolTableRecord
100
AcDbLayerTableRecord
  2
ALL_ASSEMBLY_MEMBERS
 70
0
 62
7
  6
CONTINUOUS
370
-3
390
F
  0
LAYER
  5
200
100
AcDbSymbolTableRecord
100
AcDbLayerTableRecord
  2
ALL_FEATURES
 70
0
 62
7
  6
CONTINUOUS
370
-3
390
F
  0
LAYER
  5
201
100
AcDbSymbolTableRecord
100
AcDbLayerTableRecord
  2
AXES_FEATURES
 70
0
 62
7
  6
CONTINUOUS
370
-3
390
F
  0
LAYER
  5
202
100
AcDbSymbolTableRecord
100
AcDbLayerTableRecord
  2
CHAMFER_FEATURES
 70
0
 62
7
  6
CONTINUOUS
370
-3
390
F
  0
LAYER
  5
203
100
AcDbSymbolTableRecord
100
AcDbLayerTableRecord
  2
COORDINATE_SYSTEMS
 70
0
 62
7
  6
CONTINUOUS
370
-3
390
F
  0
LAYER
  5
204
100
AcDbSymbolTableRecord
100
AcDbLayerTableRecord
  2
CUT_FEATURES
 70
0
 62
7
  6
CONTINUOUS
370
-3
390
F
  0
LAYER
  5
205
100
AcDbSymbolTableRecord
100
AcDbLayerTableRecord
  2
DATUM_CURVES
 70
0
 62
7
  6
CONTINUOUS
370
-3
390
F
  0
LAYER
  5
206
100
AcDbSymbolTableRecord
100
AcDbLayerTableRecord
  2
DATUM_PLANES
 70
0
 62
7
  6
CONTINUOUS
370
-3
390
F
  0
LAYER
  5
207
100
AcDbSymbolTableRecord
100
AcDbLayerTableRecord
  2
DATUM_POINTS
 70
0
 62
7
  6
CONTINUOUS
370
-3
390
F
  0
LAYER
  5
208
100
AcDbSymbolTableRecord
100
AcDbLayerTableRecord
  2
DEFAULT_COORDINATE_SYSTEM
 70
0
 62
7
  6
CONTINUOUS
370
-3
390
F
  0
LAYER
  5
209
100
AcDbSymbolTableRecord
100
AcDbLayerTableRecord
  2
DEFAULT_DATUM_AXES
 70
0
 62
7
  6
CONTINUOUS
370
-3
390
F
  0
LAYER
  5
20A
100
AcDbSymbolTableRecord
100
AcDbLayerTableRecord
  2
DEFAULT_DATUM_PLANES
 70
0
 62
7
  6
CONTINUOUS
370
-3
390
F
  0
LAYER
  5
20B
100
AcDbSymbolTableRecord
100
AcDbLayerTableRecord
  2
DEFAULT_SURFACES
 70
0
 62
7
  6
CONTINUOUS
370
-3
390
F
  0
LAYER
  5
20C
100
AcDbSymbolTableRecord
100
AcDbLayerTableRecord
  2
DIMENSIONS
 70
0
 62
7
  6
CONTINUOUS
370
-3
390
F
  0
LAYER
  5
20D
100
AcDbSymbolTableRecord
100
AcDbLayerTableRecord
  2
HOLE_FEATURES
 70
0
 62
7
  6
CONTINUOUS
370
-3
390
F
  0
LAYER
  5
20E
100
AcDbSymbolTableRecord
100
AcDbLayerTableRecord
  2
PART_REFERENCE_DIMENSIONS
 70
0
 62
7
  6
CONTINUOUS
370
-3
390
F
  0
LAYER
  5
20F
100
AcDbSymbolTableRecord
100
AcDbLayerTableRecord
  2
PLATED_AREA
 70
0
 62
7
  6
CONTINUOUS
370
-3
390
F
  0
LAYER
  5
210
100
AcDbSymbolTableRecord
100
AcDbLayerTableRecord
  2
POINTS
 70
0
 62
7
  6
CONTINUOUS
370
-3
390
F
  0
LAYER
  5
211
100
AcDbSymbolTableRecord
100
AcDbLayerTableRecord
  2
PROTRUSION_FEATURES
 70
0
 62
7
  6
CONTINUOUS
370
-3
390
F
  0
LAYER
  5
212
100
AcDbSymbolTableRecord
100
AcDbLayerTableRecord
  2
QUILTS
 70
0
 62
7
  6
CONTINUOUS
370
-3
390
F
  0
LAYER
  5
213
100
AcDbSymbolTableRecord
100
AcDbLayerTableRecord
  2
REFERENCE_DIMENSIONS
 70
0
 62
7
  6
CONTINUOUS
370
-3
390
F
  0
LAYER
  5
214
100
AcDbSymbolTableRecord
100
AcDbLayerTableRecord
  2
ROUND_FEATURES
 70
0
 62
7
  6
CONTINUOUS
370
-3
390
F
  0
LAYER
  5
215
100
AcDbSymbolTableRecord
100
AcDbLayerTableRecord
  2
SHELL_FEATURES
 70
0
 62
7
  6
CONTINUOUS
370
-3
390
F
  0
LAYER
  5
216
100
AcDbSymbolTableRecord
100
AcDbLayerTableRecord
  2
SURFACE_FEATURES
 70
0
 62
7
  6
CONTINUOUS
370
-3
390
F
  0
LAYER
  5
217
100
AcDbSymbolTableRecord
100
AcDbLayerTableRecord
  2
XSEC_DATUMS
 70
0
 62
7
  6
CONTINUOUS
370
-3
390
F
  0
ENDTAB
  0
TABLE
  2
STYLE
  5
3
100
AcDbSymbolTable
 70
1
  0
STYLE
  5
11
100
AcDbSymbolTableRecord
100
AcDbTextStyleTableRecord
  2
STANDARD
 70
0
 40
0.0
 41
0.8
 50
0.0
 71
0
 42
0.2
  3
txt
  4

  0
STYLE
  5
218
100
AcDbSymbolTableRecord
100
AcDbTextStyleTableRecord
  2
TEXTSTYLE_1
 70
0
 40
0.0
 41
0.8
 50
0.0
 71
0
 42
0.2
  3
gdt
  4

  0
ENDTAB
  0
TABLE
  2
VIEW
  5
6
100
AcDbSymbolTable
 70
0
  0
ENDTAB
  0
TABLE
  2
UCS
  5
7
100
AcDbSymbolTable
 70
0
  0
ENDTAB
  0
TABLE
  2
APPID
  5
9
100
AcDbSymbolTable
 70
1
  0
APPID
  5
219
100
AcDbSymbolTableRecord
100
AcDbRegAppTableRecord
  2
ACAD
 70
0
  0
ENDTAB
  0
TABLE
  2
BLOCK_RECORD
  5
1
100
AcDbSymbolTable
 70
0
  0
BLOCK_RECORD
  5
21A
100
AcDbSymbolTableRecord
100
AcDbBlockTableRecord
  2
*Model_Space
  0
BLOCK_RECORD
  5
21B
100
AcDbSymbolTableRecord
100
AcDbBlockTableRecord
  2
*Paper_Space
  0
BLOCK_RECORD
  5
21C
100
AcDbSymbolTableRecord
100
AcDbBlockTableRecord
  2
_FILLED
  0
ENDTAB
  0
TABLE
  2
DIMSTYLE
  5
A
100
AcDbSymbolTable
 70
1
100
AcDbDimStyleTable
 71
0
  0
DIMSTYLE
105
21D
100
AcDbSymbolTableRecord
100
AcDbDimStyleTableRecord
  2
STANDARD
 70
0
  3

  4

 40
1.0
 41
0.1
 42
0.0625
 43
0.38
 44
0.125
 45
0.0
 46
0.0
 47
0.001
 48
0.001
140
0.08
141
0.09
142
0.0
143
25.4
144
1.0
145
0.0
146
1.0
147
0.09
 71
1
 72
0
 73
1
 74
1
 75
0
 76
0
 77
0
 78
4
 79
1
170
1
171
2
172
0
173
0
174
0
175
0
176
0
177
0
178
0
270
2
179
3
271
3
272
3
273
2
274
2
275
0
280
0
281
0
282
0
283
1
284
4
285
0
286
0
287
3
288
0
340
11
278
46
341
21C
342
21C
343
21C
344
21C
  0
ENDTAB
  0
ENDSEC
  0
SECTION
  2
BLOCKS
  0
BLOCK
  5
20
100
AcDbEntity
  8
0
100
AcDbBlockBegin
  2
*Model_Space
 70
0
 10
0.0
 20
0.0
 30
0.0
  3
*Model_Space
  1

  0
ENDBLK
  5
21
100
AcDbEntity
  8
0
100
AcDbBlockEnd
  0
BLOCK
  5
1C
100
AcDbEntity
  8
0
100
AcDbBlockBegin
  2
*Paper_Space
 70
0
 10
0.0
 20
0.0
 30
0.0
  3
*Paper_Space
  1

  0
ENDBLK
  5
1D
100
AcDbEntity
  8
0
100
AcDbBlockEnd
  0
BLOCK
  5
21E
100
AcDbEntity
  8
0
100
AcDbBlockBegin
  2
_FILLED
 70
64
 10
0.0
 20
0.0
  3
_FILLED
  1

  0
SOLID
  5
21F
100
AcDbEntity
  8
0
  6
BYBLOCK
 62
0
100
AcDbTrace
 10
0.0
 20
0.0
 11
-1.0
 21
0.2
 12
-1.0
 22
-0.2
 13
-1.0
 23
-0.2
  0
ENDBLK
  5
220
100
AcDbEntity
  8
0
  6
BYBLOCK
 62
0
100
AcDbBlockEnd
  0
ENDSEC
  0
SECTION
  2
ENTITIES
  0
MTEXT
  5
221
100
AcDbEntity
  8
0
100
AcDbMText
 62
2
  6
CONTINUOUS
  7
STANDARD
 71
3
 72
1
 10
5.8717146433
 20
0.7804112954
 30
0.0
 11
1.0
 21
0.0
 31
0.0
 73
2
 44
0.9
  1
SCALE 1.000
 40
0.08
 41
0.704
  0
LINE
  5
222
100
AcDbEntity
  8
0
100
AcDbLine
 62
7
  6
CONTINUOUS
 10
0.0
 20
0.0
 11
0.0
 21
8.5
  0
LINE
  5
223
100
AcDbEntity
  8
0
100
AcDbLine
 62
7
  6
CONTINUOUS
 10
0.0
 20
0.0
 11
11.0
 21
0.0
  0
LINE
  5
224
100
AcDbEntity
  8
0
100
AcDbLine
 62
7
  6
CONTINUOUS
 10
0.0
 20
8.5
 11
11.0
 21
8.5
  0
LINE
  5
225
100
AcDbEntity
  8
0
100
AcDbLine
 62
7
  6
CONTINUOUS
 10
11.0
 20
0.0
 11
11.0
 21
8.5
  0
LINE
  5
226
100
AcDbEntity
  8
ALL_ASSEMBLY_MEMBERS
100
AcDbLine
 62
7
  6
CONTINUOUS
 10
2.1570713392
 20
4.9318629286
 11
2.1570713392
 21
5.071326189
  0
LINE
  5
227
100
AcDbEntity
  8
0
100
AcDbLine
 62
7
  6
CONTINUOUS
 10
4.9445713406
 20
1.507326189
 11
5.8695713377
 21
1.507326189
  0
LINE
  5
228
100
AcDbEntity
  8
0
100
AcDbLine
 62
7
  6
CONTINUOUS
 10
4.9195713392
 20
1.532326189
 11
5.8945713392
 21
1.532326189
  0
LINE
  5
229
100
AcDbEntity
  8
0
100
AcDbLine
 62
7
  6
CONTINUOUS
 10
5.8945713392
 20
1.582326189
 11
5.578355123
 21
1.582326189
  0
LINE
  5
22A
100
AcDbEntity
  8
0
100
AcDbLine
 62
7
  6
CONTINUOUS
 10
5.2357875554
 20
1.582326189
 11
4.9195713392
 21
1.582326189
  0
LINE
  5
22B
100
AcDbEntity
  8
0
100
AcDbLine
 62
7
  6
CONTINUOUS
 10
5.869571338
 20
1.607326189
 11
5.5695713392
 21
1.607326189
  0
LINE
  5
22C
100
AcDbEntity
  8
0
100
AcDbLine
 62
7
  6
CONTINUOUS
 10
5.2445713392
 20
1.607326189
 11
4.9445713403
 21
1.607326189
  0
LINE
  5
22D
100
AcDbEntity
  8
0
100
AcDbLine
 62
7
  6
CONTINUOUS
 10
5.0195713392
 20
1.632326189
 11
5.254419824
 21
1.632326189
  0
LINE
  5
22E
100
AcDbEntity
  8
0
100
AcDbLine
 62
7
  6
CONTINUOUS
 10
5.5597228543
 20
1.632326189
 11
5.7945713392
 21
1.632326189
  0
LINE
  5
22F
100
AcDbEntity
  8
0
100
AcDbLine
 62
7
  6
CONTINUOUS
 10
5.3675443121
 20
1.707326189
 11
5.3248743695
 21
1.707326189
  0
LINE
  5
230
100
AcDbEntity
  8
0
100
AcDbLine
 62
7
  6
CONTINUOUS
 10
5.4465983662
 20
1.707326189
 11
5.4892683089
 21
1.707326189
  0
LINE
  5
231
100
AcDbEntity
  8
0
100
AcDbLine
 62
7
  6
CONTINUOUS
 10
5.3675443121
 20
2.007326189
 11
5.3248743695
 21
2.007326189
  0
LINE
  5
232
100
AcDbEntity
  8
0
100
AcDbLine
 62
7
  6
CONTINUOUS
 10
5.4465983662
 20
2.007326189
 11
5.4892683089
 21
2.007326189
  0
LINE
  5
233
100
AcDbEntity
  8
0
100
AcDbLine
 62
7
  6
CONTINUOUS
 10
5.7945713392
 20
2.082326189
 11
5.5597228543
 21
2.082326189
  0
LINE
  5
234
100
AcDbEntity
  8
0
100
AcDbLine
 62
7
  6
CONTINUOUS
 10
5.254419824
 20
2.082326189
 11
5.0195713392
 21
2.082326189
  0
LINE
  5
235
100
AcDbEntity
  8
0
100
AcDbLine
 62
7
  6
CONTINUOUS
 10
4.9445713403
 20
2.107326189
 11
5.2445713392
 21
2.107326189
  0
LINE
  5
236
100
AcDbEntity
  8
0
100
AcDbLine
 62
7
  6
CONTINUOUS
 10
5.5695713392
 20
2.107326189
 11
5.869571338
 21
2.107326189
  0
LINE
  5
237
100
AcDbEntity
  8
0
100
AcDbLine
 62
7
  6
CONTINUOUS
 10
4.9195713392
 20
2.132326189
 11
5.2357875554
 21
2.132326189
  0
LINE
  5
238
100
AcDbEntity
  8
0
100
AcDbLine
 62
7
  6
CONTINUOUS
 10
5.578355123
 20
2.132326189
 11
5.8945713392
 21
2.132326189
  0
LINE
  5
239
100
AcDbEntity
  8
0
100
AcDbLine
 62
7
  6
CONTINUOUS
 10
5.8945713392
 20
2.182326189
 11
4.9195713392
 21
2.182326189
  0
LINE
  5
23A
100
AcDbEntity
  8
0
100
AcDbLine
 62
7
  6
CONTINUOUS
 10
5.8695713377
 20
2.207326189
 11
4.9445713406
 21
2.207326189
  0
LINE
  5
23B
100
AcDbEntity
  8
0
100
AcDbLine
 62
7
  6
CONTINUOUS
 10
5.8645713392
 20
2.238326189
 11
4.9495713392
 21
2.238326189
  0
LINE
  5
23C
100
AcDbEntity
  8
0
100
AcDbLine
 62
7
  6
CONTINUOUS
 10
5.8945713392
 20
2.268326189
 11
4.9195713392
 21
2.268326189
  0
LINE
  5
23D
100
AcDbEntity
  8
0
100
AcDbLine
 62
7
  6
CONTINUOUS
 10
4.2820713392
 20
4.688326189
 11
4.2820713392
 21
4.758326189
  0
LINE
  5
23E
100
AcDbEntity
  8
0
100
AcDbLine
 62
7
  6
CONTINUOUS
 10
4.3620713392
 20
4.438326189
 11
4.3620713392
 21
4.608326189
  0
LINE
  5
23F
100
AcDbEntity
  8
0
100
AcDbLine
 62
7
  6
CONTINUOUS
 10
4.9195713392
 20
4.368326189
 11
4.9195713392
 21
2.268326189
  0
LINE
  5
240
100
AcDbEntity
  8
0
100
AcDbLine
 62
7
  6
CONTINUOUS
 10
4.9195713392
 20
1.532326189
 11
4.9195713392
 21
1.582326189
  0
LINE
  5
241
100
AcDbEntity
  8
0
100
AcDbLine
 62
7
  6
CONTINUOUS
 10
4.9195713392
 20
2.132326189
 11
4.9195713392
 21
2.182326189
  0
LINE
  5
242
100
AcDbEntity
  8
0
100
AcDbLine
 62
7
  6
CONTINUOUS
 10
4.9820713392
 20
4.398326189
 11
4.9820713392
 21
4.408326189
  0
LINE
  5
243
100
AcDbEntity
  8
0
100
AcDbLine
 62
7
  6
CONTINUOUS
 10
5.0195713392
 20
2.082326189
 11
5.0195713392
 21
1.632326189
  0
LINE
  5
244
100
AcDbEntity
  8
ALL_ASSEMBLY_MEMBERS
100
AcDbLine
 62
7
  6
CONTINUOUS
 10
5.2195713392
 20
5.088326189
 11
5.2195713392
 21
5.071326189
  0
LINE
  5
245
100
AcDbEntity
  8
0
100
AcDbLine
 62
7
  6
CONTINUOUS
 10
5.3248743695
 20
1.707326189
 11
5.3248743695
 21
2.007326189
  0
LINE
  5
246
100
AcDbEntity
  8
0
100
AcDbLine
 62
7
  6
CONTINUOUS
 10
5.3445713392
 20
2.007326189
 11
5.3445713392
 21
1.707326189
  0
LINE
  5
247
100
AcDbEntity
  8
0
100
AcDbLine
 62
7
  6
CONTINUOUS
 10
5.3675443121
 20
2.007326189
 11
5.3675443121
 21
1.707326189
  0
LINE
  5
248
100
AcDbEntity
  8
0
100
AcDbLine
 62
7
  6
CONTINUOUS
 10
5.4465983662
 20
1.707326189
 11
5.4465983662
 21
2.007326189
  0
LINE
  5
249
100
AcDbEntity
  8
0
100
AcDbLine
 62
7
  6
CONTINUOUS
 10
5.8945713392
 20
4.368326189
 11
4.9195713392
 21
4.368326189
  0
LINE
  5
24A
100
AcDbEntity
  8
0
100
AcDbLine
 62
7
  6
CONTINUOUS
 10
5.8645713392
 20
4.398326189
 11
4.9495713392
 21
4.398326189
  0
LINE
  5
24B
100
AcDbEntity
  8
0
100
AcDbLine
 62
7
  6
CONTINUOUS
 10
6.4220713392
 20
4.408326189
 11
4.3920713392
 21
4.408326189
  0
LINE
  5
24C
100
AcDbEntity
  8
0
100
AcDbLine
 62
7
  6
CONTINUOUS
 10
6.4520713392
 20
4.438326189
 11
4.3620713392
 21
4.438326189
  0
LINE
  5
24D
100
AcDbEntity
  8
0
100
AcDbLine
 62
7
  6
CONTINUOUS
 10
5.4695713392
 20
1.707326189
 11
5.4695713392
 21
2.007326189
  0
LINE
  5
24E
100
AcDbEntity
  8
0
100
AcDbLine
 62
7
  6
CONTINUOUS
 10
5.4892683089
 20
2.007326189
 11
5.4892683089
 21
1.707326189
  0
LINE
  5
24F
100
AcDbEntity
  8
ALL_ASSEMBLY_MEMBERS
100
AcDbLine
 62
7
  6
CONTINUOUS
 10
5.5945713392
 20
5.088326189
 11
5.5945713392
 21
5.071326189
  0
LINE
  5
250
100
AcDbEntity
  8
0
100
AcDbLine
 62
7
  6
CONTINUOUS
 10
4.3620713392
 20
4.608326189
 11
6.4520713392
 21
4.608326189
  0
LINE
  5
251
100
AcDbEntity
  8
0
100
AcDbLine
 62
7
  6
CONTINUOUS
 10
4.3120713392
 20
4.658326189
 11
6.5020713392
 21
4.658326189
  0
LINE
  5
252
100
AcDbEntity
  8
0
100
AcDbLine
 62
7
  6
CONTINUOUS
 10
6.5320713392
 20
4.688326189
 11
4.2820713392
 21
4.688326189
  0
LINE
  5
253
100
AcDbEntity
  8
ALL_ASSEMBLY_MEMBERS
100
AcDbLine
 62
7
  6
CONTINUOUS
 10
8.4898880846
 20
4.758326189
 11
2.3242545938
 21
4.758326189
  0
LINE
  5
254
100
AcDbEntity
  8
ALL_ASSEMBLY_MEMBERS
100
AcDbLine
 62
7
  6
CONTINUOUS
 10
8.5492894904
 20
4.8002631982
 11
2.264853188
 21
4.8002631982
  0
LINE
  5
255
100
AcDbEntity
  8
ALL_ASSEMBLY_MEMBERS
100
AcDbLine
 62
7
  6
CONTINUOUS
 10
8.6186230229
 20
4.8738438384
 11
2.1955196555
 21
4.8738438384
  0
LINE
  5
256
100
AcDbEntity
  8
0
100
AcDbLine
 62
7
  6
CONTINUOUS
 10
5.7945713392
 20
2.082326189
 11
5.7945713392
 21
1.632326189
  0
LINE
  5
257
100
AcDbEntity
  8
0
100
AcDbLine
 62
7
  6
CONTINUOUS
 10
5.8320713392
 20
4.398326189
 11
5.8320713392
 21
4.408326189
  0
LINE
  5
258
100
AcDbEntity
  8
0
100
AcDbLine
 62
7
  6
CONTINUOUS
 10
5.8945713392
 20
4.368326189
 11
5.8945713392
 21
2.268326189
  0
LINE
  5
259
100
AcDbEntity
  8
0
100
AcDbLine
 62
7
  6
CONTINUOUS
 10
5.8945713392
 20
1.532326189
 11
5.8945713392
 21
1.582326189
  0
LINE
  5
25A
100
AcDbEntity
  8
0
100
AcDbLine
 62
7
  6
CONTINUOUS
 10
5.8945713392
 20
2.132326189
 11
5.8945713392
 21
2.182326189
  0
LINE
  5
25B
100
AcDbEntity
  8
ALL_ASSEMBLY_MEMBERS
100
AcDbLine
 62
7
  6
CONTINUOUS
 10
8.6570713392
 20
4.9318629286
 11
2.1570713392
 21
4.9318629286
  0
LINE
  5
25C
100
AcDbEntity
  8
ALL_ASSEMBLY_MEMBERS
100
AcDbLine
 62
7
  6
CONTINUOUS
 10
2.1570713392
 20
5.071326189
 11
8.6570713392
 21
5.071326189
  0
LINE
  5
25D
100
AcDbEntity
  8
ALL_ASSEMBLY_MEMBERS
100
AcDbLine
 62
7
  6
CONTINUOUS
 10
5.2195713392
 20
5.088326189
 11
5.5945713392
 21
5.088326189
  0
LINE
  5
25E
100
AcDbEntity
  8
0
100
AcDbLine
 62
7
  6
CONTINUOUS
 10
6.4520713392
 20
4.438326189
 11
6.4520713392
 21
4.608326189
  0
LINE
  5
25F
100
AcDbEntity
  8
0
100
AcDbLine
 62
7
  6
CONTINUOUS
 10
6.5320713392
 20
4.688326189
 11
6.5320713392
 21
4.758326189
  0
LINE
  5
260
100
AcDbEntity
  8
ALL_ASSEMBLY_MEMBERS
100
AcDbLine
 62
7
  6
CONTINUOUS
 10
8.6570713392
 20
4.9318629286
 11
8.6570713392
 21
5.071326189
  0
ARC
  5
261
100
AcDbEntity
  8
ALL_ASSEMBLY_MEMBERS
100
AcDbCircle
 62
7
  6
CONTINUOUS
 10
2.1466365566
 20
4.758326189
 40
0.1254347826
100
AcDbArc
 50
19.5319940446
 51
67.0635891141
  0
ARC
  5
262
100
AcDbEntity
  8
ALL_ASSEMBLY_MEMBERS
100
AcDbCircle
 62
7
  6
CONTINUOUS
 10
8.6675061218
 20
4.758326189
 40
0.1254347826
100
AcDbArc
 50
112.9364108859
 51
160.4680059554
  0
ARC
  5
263
100
AcDbEntity
  8
0
100
AcDbCircle
 62
7
  6
CONTINUOUS
 10
5.2445713392
 20
1.707326189
 40
0.1
100
AcDbArc
 50
270.0
 51
360.0
  0
ARC
  5
264
100
AcDbEntity
  8
0
100
AcDbCircle
 62
7
  6
CONTINUOUS
 10
5.5695713392
 20
1.707326189
 40
0.1
100
AcDbArc
 50
180.0
 51
270.0
  0
ARC
  5
265
100
AcDbEntity
  8
0
100
AcDbCircle
 62
7
  6
CONTINUOUS
 10
5.2445713392
 20
2.007326189
 40
0.1
100
AcDbArc
 50
0.0
 51
90.0
  0
ARC
  5
266
100
AcDbEntity
  8
0
100
AcDbCircle
 62
7
  6
CONTINUOUS
 10
5.5695713392
 20
2.007326189
 40
0.1
100
AcDbArc
 50
90.0
 51
180.0
  0
ARC
  5
267
100
AcDbEntity
  8
ALL_ASSEMBLY_MEMBERS
100
AcDbCircle
 62
7
  6
CONTINUOUS
 10
2.2200713392
 20
4.9318629286
 40
0.063
100
AcDbArc
 50
180.0
 51
247.0635891141
  0
ARC
  5
268
100
AcDbEntity
  8
ALL_ASSEMBLY_MEMBERS
100
AcDbCircle
 62
7
  6
CONTINUOUS
 10
8.5940713392
 20
4.9318629286
 40
0.063
100
AcDbArc
 50
292.9364108859
 51
360.0
  0
ARC
  5
269
100
AcDbEntity
  8
ALL_ASSEMBLY_MEMBERS
100
AcDbCircle
 62
7
  6
CONTINUOUS
 10
2.3242278494
 20
4.821326189
 40
0.063
100
AcDbArc
 50
199.5319940446
 51
270.0
  0
ARC
  5
26A
100
AcDbEntity
  8
ALL_ASSEMBLY_MEMBERS
100
AcDbCircle
 62
7
  6
CONTINUOUS
 10
8.4899148289
 20
4.821326189
 40
0.063
100
AcDbArc
 50
270.0
 51
340.4680059554
  0
ARC
  5
26B
100
AcDbEntity
  8
0
100
AcDbCircle
 62
7
  6
CONTINUOUS
 10
4.3120713392
 20
4.608326189
 40
0.05
100
AcDbArc
 50
0.0
 51
90.0
  0
ARC
  5
26C
100
AcDbEntity
  8
0
100
AcDbCircle
 62
7
  6
CONTINUOUS
 10
6.5020713392
 20
4.608326189
 40
0.05
100
AcDbArc
 50
90.0
 51
180.0
  0
ARC
  5
26D
100
AcDbEntity
  8
0
100
AcDbCircle
 62
7
  6
CONTINUOUS
 10
6.4220713392
 20
4.438326189
 40
0.03
100
AcDbArc
 50
270.0
 51
360.0
  0
ARC
  5
26E
100
AcDbEntity
  8
0
100
AcDbCircle
 62
7
  6
CONTINUOUS
 10
4.3920713392
 20
4.438326189
 40
0.03
100
AcDbArc
 50
180.0
 51
270.0
  0
ARC
  5
26F
100
AcDbEntity
  8
0
100
AcDbCircle
 62
7
  6
CONTINUOUS
 10
6.5020713392
 20
4.688326189
 40
0.03
100
AcDbArc
 50
270.0
 51
360.0
  0
ARC
  5
270
100
AcDbEntity
  8
0
100
AcDbCircle
 62
7
  6
CONTINUOUS
 10
4.3120713392
 20
4.688326189
 40
0.03
100
AcDbArc
 50
180.0
 51
270.0
  0
ARC
  5
271
100
AcDbEntity
  8
0
100
AcDbCircle
 62
7
  6
CONTINUOUS
 10
5.8645713392
 20
4.368326189
 40
0.03
100
AcDbArc
 50
0.0
 51
90.0
  0
ARC
  5
272
100
AcDbEntity
  8
0
100
AcDbCircle
 62
7
  6
CONTINUOUS
 10
4.9495713392
 20
4.368326189
 40
0.03
100
AcDbArc
 50
90.0
 51
180.0
  0
ARC
  5
273
100
AcDbEntity
  8
0
100
AcDbCircle
 62
7
  6
CONTINUOUS
 10
5.8645713392
 20
2.268326189
 40
0.03
100
AcDbArc
 50
270.0
 51
360.0
  0
ARC
  5
274
100
AcDbEntity
  8
0
100
AcDbCircle
 62
7
  6
CONTINUOUS
 10
4.9495713392
 20
2.268326189
 40
0.03
100
AcDbArc
 50
180.0
 51
270.0
  0
ARC
  5
275
100
AcDbEntity
  8
0
100
AcDbCircle
 62
7
  6
CONTINUOUS
 10
4.9445713392
 20
2.182326189
 40
0.025
100
AcDbArc
 50
90.0
 51
180.0
  0
ARC
  5
276
100
AcDbEntity
  8
0
100
AcDbCircle
 62
7
  6
CONTINUOUS
 10
5.8695713392
 20
2.182326189
 40
0.025
100
AcDbArc
 50
0.0
 51
90.0
  0
ARC
  5
277
100
AcDbEntity
  8
0
100
AcDbCircle
 62
7
  6
CONTINUOUS
 10
4.9445713392
 20
1.532326189
 40
0.025
100
AcDbArc
 50
180.0
 51
270.0
  0
ARC
  5
278
100
AcDbEntity
  8
0
100
AcDbCircle
 62
7
  6
CONTINUOUS
 10
5.8695713392
 20
1.532326189
 40
0.025
100
AcDbArc
 50
270.0
 51
360.0
  0
ARC
  5
279
100
AcDbEntity
  8
0
100
AcDbCircle
 62
7
  6
CONTINUOUS
 10
4.9945713392
 20
2.082326189
 40
0.025
100
AcDbArc
 50
0.0
 51
90.0
  0
ARC
  5
27A
100
AcDbEntity
  8
0
100
AcDbCircle
 62
7
  6
CONTINUOUS
 10
4.9945713392
 20
1.632326189
 40
0.025
100
AcDbArc
 50
270.0
 51
360.0
  0
ARC
  5
27B
100
AcDbEntity
  8
0
100
AcDbCircle
 62
7
  6
CONTINUOUS
 10
5.8195713392
 20
1.632326189
 40
0.025
100
AcDbArc
 50
180.0
 51
270.0
  0
ARC
  5
27C
100
AcDbEntity
  8
0
100
AcDbCircle
 62
7
  6
CONTINUOUS
 10
5.8195713392
 20
2.082326189
 40
0.025
100
AcDbArc
 50
90.0
 51
180.0
  0
ARC
  5
27D
100
AcDbEntity
  8
0
100
AcDbCircle
 62
7
  6
CONTINUOUS
 10
5.8695713392
 20
2.132326189
 40
0.025
100
AcDbArc
 50
270.0
 51
360.0
  0
ARC
  5
27E
100
AcDbEntity
  8
0
100
AcDbCircle
 62
7
  6
CONTINUOUS
 10
5.8695713392
 20
1.582326189
 40
0.025
100
AcDbArc
 50
0.0
 51
90.0
  0
ARC
  5
27F
100
AcDbEntity
  8
0
100
AcDbCircle
 62
7
  6
CONTINUOUS
 10
4.9445713392
 20
1.582326189
 40
0.025
100
AcDbArc
 50
90.0
 51
180.0
  0
ARC
  5
280
100
AcDbEntity
  8
0
100
AcDbCircle
 62
7
  6
CONTINUOUS
 10
4.9445713392
 20
2.132326189
 40
0.025
100
AcDbArc
 50
180.0
 51
270.0
  0
SPLINE
  5
281
100
AcDbEntity
  8
0
100
AcDbSpline
 62
7
  6
CONTINUOUS
 70
0
 71
3
 72
20
 73
16
 74
0
 42
0.0000001
 43
0.0000001
 44
0.0000000001
 40
0.0
 40
0.0
 40
0.0
 40
0.0
 40
0.0338104158
 40
0.0694536558
 40
0.1082572683
 40
0.1511816386
 40
0.1988547665
 40
0.2515385272
 40
0.3092517037
 40
0.3718745537
 40
0.4391775651
 40
0.5107738074
 40
0.6649362365
 40
0.830065431
 40
1.0
 40
1.0
 40
1.0
 40
1.0
 10
5.2445713392
 20
1.607326189
 30
0.0
 10
5.2448943777
 20
1.607326189
 30
0.0
 10
5.2455604732
 20
1.6074130908
 30
0.0
 10
5.246532609
 20
1.6077892792
 30
0.0
 10
5.2474800607
 20
1.6084014144
 30
0.0
 10
5.2483937355
 20
1.6092415073
 30
0.0
 10
5.2492647714
 20
1.6103022192
 30
0.0
 10
5.2500888534
 20
1.6115708191
 30
0.0
 10
5.2508599414
 20
1.6130352409
 30
0.0
 10
5.251571054
 20
1.6146826134
 30
0.0
 10
5.2522147496
 20
1.6164985945
 30
0.0
 10
5.2529959618
 20
1.6191887345
 30
0.0
 10
5.2537531396
 20
1.6228524716
 30
0.0
 10
5.2542953247
 20
1.6274998587
 30
0.0
 10
5.2544198352
 20
1.6307025646
 30
0.0
 10
5.254419824
 20
1.632326189
 30
0.0
  0
SPLINE
  5
282
100
AcDbEntity
  8
0
100
AcDbSpline
 62
7
  6
CONTINUOUS
 70
0
 71
3
 72
26
 73
22
 74
0
 42
0.0000001
 43
0.0000001
 44
0.0000000001
 40
0.0
 40
0.0
 40
0.0
 40
0.0
 40
0.0635201389
 40
0.1270970702
 40
0.1588789444
 40
0.1906486846
 40
0.2224096667
 40
0.2541639353
 40
0.3176268108
 40
0.34934808
 40
0.3810474805
 40
0.4443456401
 40
0.5074959616
 40
0.5390093402
 40
0.5704663639
 40
0.6331560533
 40
0.6955167547
 40
0.7574657582
 40
0.8189483354
 40
0.8799283788
 40
1.0
 40
1.0
 40
1.0
 40
1.0
 10
5.3675443121
 20
1.707326189
 30
0.0
 10
5.3675441155
 20
1.7030575721
 30
0.0
 10
5.3670792661
 20
1.6945100581
 30
0.0
 10
5.3653571915
 20
1.6839513528
 30
0.0
 10
5.3633043078
 20
1.6756548613
 30
0.0
 10
5.3614351435
 20
1.6695253287
 30
0.0
 10
5.3592436416
 20
1.6635054063
 30
0.0
 10
5.3559027014
 20
1.6556502768
 30
0.0
 10
5.3519472297
 20
1.6480715146
 30
0.0
 10
5.3474260773
 20
1.6408386544
 30
0.0
 10
5.3425435321
 20
1.6338576364
 30
0.0
 10
5.3357927914
 20
1.6256244062
 30
0.0
 10
5.3282605044
 20
1.618118316
 30
0.0
 10
5.3218289075
 20
1.6125940584
 30
0.0
 10
5.3151609221
 20
1.6074079129
 30
0.0
 10
5.3063978482
 20
1.6015602911
 30
0.0
 10
5.2953160087
 20
1.5955966069
 30
0.0
 10
5.2838035175
 20
1.5907195741
 30
0.0
 10
5.2719809631
 20
1.5869433538
 30
0.0
 10
5.2560585216
 20
1.5833935418
 30
0.0
 10
5.2438564885
 20
1.5823267195
 30
0.0
 10
5.2357875554
 20
1.582326189
 30
0.0
  0
SPLINE
  5
283
100
AcDbEntity
  8
0
100
AcDbSpline
 62
7
  6
CONTINUOUS
 70
0
 71
3
 72
22
 73
18
 74
0
 42
0.0000001
 43
0.0000001
 44
0.0000000001
 40
0.0
 40
0.0
 40
0.0
 40
0.0
 40
0.0641389569
 40
0.1283400809
 40
0.1924749744
 40
0.256488604
 40
0.3203752488
 40
0.3841101587
 40
0.4476291066
 40
0.5108760393
 40
0.5737788915
 40
0.6362714935
 40
0.6982911401
 40
0.759772606
 40
0.8207037844
 40
0.8810969964
 40
1.0
 40
1.0
 40
1.0
 40
1.0
 10
5.3248743695
 20
2.007326189
 30
0.0
 10
5.3248741915
 20
2.0097678171
 30
0.0
 10
5.3246482372
 20
2.014656316
 30
0.0
 10
5.3236414737
 20
2.0219238186
 30
0.0
 10
5.3219688051
 20
2.0290635038
 30
0.0
 10
5.3196429706
 20
2.0360051967
 30
0.0
 10
5.3166823187
 20
2.0426844437
 30
0.0
 10
5.3131104647
 20
2.0490363554
 30
0.0
 10
5.3089606151
 20
2.0549974733
 30
0.0
 10
5.3042677347
 20
2.060499911
 30
0.0
 10
5.2990851758
 20
2.0654880169
 30
0.0
 10
5.2934643455
 20
2.0699016052
 30
0.0
 10
5.2874732565
 20
2.0736978918
 30
0.0
 10
5.2811795531
 20
2.076836675
 30
0.0
 10
5.2746537359
 20
2.0792918966
 30
0.0
 10
5.2657979653
 20
2.0816167554
 30
0.0
 10
5.2589461981
 20
2.0823258456
 30
0.0
 10
5.254419824
 20
2.082326189
 30
0.0
  0
SPLINE
  5
284
100
AcDbEntity
  8
0
100
AcDbSpline
 62
7
  6
CONTINUOUS
 70
0
 71
3
 72
22
 73
18
 74
0
 42
0.0000001
 43
0.0000001
 44
0.0000000001
 40
0.0
 40
0.0
 40
0.0
 40
0.0
 40
0.1188988539
 40
0.179299041
 40
0.24024495
 40
0.3017400736
 40
0.3637727186
 40
0.4262760742
 40
0.4891809504
 40
0.5524247696
 40
0.6159342264
 40
0.6796537559
 40
0.7435248905
 40
0.8075241321
 40
0.871653854
 40
0.9358583187
 40
1.0
 40
1.0
 40
1.0
 40
1.0
 10
5.254419824
 20
1.632326189
 30
0.0
 10
5.2589460393
 20
1.632326611
 30
0.0
 10
5.2657979456
 20
1.63303538
 30
0.0
 10
5.2746542964
 20
1.6353607647
 30
0.0
 10
5.2811812642
 20
1.637816672
 30
0.0
 10
5.2874765659
 20
1.6409558665
 30
0.0
 10
5.2934680909
 20
1.6447541327
 30
0.0
 10
5.2990898098
 20
1.6491681251
 30
0.0
 10
5.3042722144
 20
1.6541569956
 30
0.0
 10
5.308963934
 20
1.6596598406
 30
0.0
 10
5.3131134636
 20
1.6656198848
 30
0.0
 10
5.3166835957
 20
1.6719710148
 30
0.0
 10
5.3196435391
 20
1.6786486492
 30
0.0
 10
5.3219689487
 20
1.685589088
 30
0.0
 10
5.3236412566
 20
1.6927282178
 30
0.0
 10
5.3246481275
 20
1.6999957283
 30
0.0
 10
5.3248742151
 20
1.7048844576
 30
0.0
 10
5.3248743695
 20
1.707326189
 30
0.0
  0
SPLINE
  5
285
100
AcDbEntity
  8
0
100
AcDbSpline
 62
7
  6
CONTINUOUS
 70
0
 71
3
 72
20
 73
16
 74
0
 42
0.0000001
 43
0.0000001
 44
0.0000000001
 40
0.0
 40
0.0
 40
0.0
 40
0.0
 40
0.0338099222
 40
0.069452766
 40
0.1082560878
 40
0.1511802682
 40
0.1988532917
 40
0.2515370163
 40
0.3092502164
 40
0.3718731443
 40
0.4391762762
 40
0.5107726689
 40
0.6649354768
 40
0.8300650868
 40
1.0
 40
1.0
 40
1.0
 40
1.0
 10
5.5695713392
 20
1.607326189
 30
0.0
 10
5.5692483059
 20
1.607326189
 30
0.0
 10
5.56858222
 20
1.6074130911
 30
0.0
 10
5.5676100982
 20
1.6077892797
 30
0.0
 10
5.5666626586
 20
1.6084014148
 30
0.0
 10
5.5657489941
 20
1.6092415074
 30
0.0
 10
5.5648779664
 20
1.6103022189
 30
0.0
 10
5.5640538901
 20
1.6115708181
 30
0.0
 10
5.5632828056
 20
1.6130352392
 30
0.0
 10
5.5625716942
 20
1.6146826113
 30
0.0
 10
5.5619279974
 20
1.6164985921
 30
0.0
 10
5.56114678
 20
1.6191887321
 30
0.0
 10
5.5603895906
 20
1.6228524695
 30
0.0
 10
5.5598473843
 20
1.627499857
 30
0.0
 10
5.5597228543
 20
1.630702564
 30
0.0
 10
5.5597228543
 20
1.632326189
 30
0.0
  0
SPLINE
  5
286
100
AcDbEntity
  8
0
100
AcDbSpline
 62
7
  6
CONTINUOUS
 70
0
 71
3
 72
20
 73
16
 74
0
 42
0.0000001
 43
0.0000001
 44
0.0000000001
 40
0.0
 40
0.0
 40
0.0
 40
0.0
 40
0.0338104158
 40
0.0694536558
 40
0.1082572683
 40
0.1511816386
 40
0.1988547665
 40
0.2515385272
 40
0.3092517037
 40
0.3718745537
 40
0.4391775651
 40
0.5107738074
 40
0.6649362365
 40
0.830065431
 40
1.0
 40
1.0
 40
1.0
 40
1.0
 10
5.5695713392
 20
2.107326189
 30
0.0
 10
5.5692483006
 20
2.107326189
 30
0.0
 10
5.5685822051
 20
2.1072392872
 30
0.0
 10
5.5676100694
 20
2.1068630987
 30
0.0
 10
5.5666626176
 20
2.1062509636
 30
0.0
 10
5.5657489428
 20
2.1054108707
 30
0.0
 10
5.564877907
 20
2.1043501588
 30
0.0
 10
5.5640538249
 20
2.1030815589
 30
0.0
 10
5.5632827369
 20
2.1016171371
 30
0.0
 10
5.5625716243
 20
2.0999697646
 30
0.0
 10
5.5619279288
 20
2.0981537834
 30
0.0
 10
5.5611467166
 20
2.0954636435
 30
0.0
 10
5.5603895388
 20
2.0917999064
 30
0.0
 10
5.5598473536
 20
2.0871525193
 30
0.0
 10
5.5597228432
 20
2.0839498133
 30
0.0
 10
5.5597228543
 20
2.082326189
 30
0.0
  0
SPLINE
  5
287
100
AcDbEntity
  8
0
100
AcDbSpline
 62
7
  6
CONTINUOUS
 70
0
 71
3
 72
15
 73
11
 74
0
 42
0.0000001
 43
0.0000001
 44
0.0000000001
 40
0.0
 40
0.0
 40
0.0
 40
0.0
 40
0.1201914474
 40
0.2426260068
 40
0.3669246525
 40
0.4925612642
 40
0.618997957
 40
0.7458542002
 40
0.8729000096
 40
1.0
 40
1.0
 40
1.0
 40
1.0
 10
5.2357875554
 20
2.132326189
 30
0.0
 10
5.2438549956
 20
2.1323257803
 30
0.0
 10
5.2601759005
 20
2.1309011025
 30
0.0
 10
5.2840732285
 20
2.1244394932
 30
0.0
 10
5.3067474564
 20
2.1135813848
 30
0.0
 10
5.3271963497
 20
2.098481032
 30
0.0
 10
5.3444221792
 20
2.0795364871
 30
0.0
 10
5.3575034218
 20
2.0573971051
 30
0.0
 10
5.3656869994
 20
2.0329728243
 30
0.0
 10
5.367543754
 20
2.0158573415
 30
0.0
 10
5.3675443121
 20
2.007326189
 30
0.0
  0
SPLINE
  5
288
100
AcDbEntity
  8
0
100
AcDbSpline
 62
7
  6
CONTINUOUS
 70
0
 71
3
 72
26
 73
22
 74
0
 42
0.0000001
 43
0.0000001
 44
0.0000000001
 40
0.0
 40
0.0
 40
0.0
 40
0.0
 40
0.0635201363
 40
0.127097061
 40
0.1588789318
 40
0.1906486694
 40
0.2224096497
 40
0.254163917
 40
0.31762679
 40
0.3493480569
 40
0.3810474545
 40
0.4443456081
 40
0.5074959241
 40
0.5390093019
 40
0.5704663257
 40
0.6331560184
 40
0.6955167285
 40
0.7574657403
 40
0.818948328
 40
0.8799283785
 40
1.0
 40
1.0
 40
1.0
 40
1.0
 10
5.4465983662
 20
2.007326189
 30
0.0
 10
5.4465985629
 20
2.0115948057
 30
0.0
 10
5.447063412
 20
2.0201423191
 30
0.0
 10
5.4487854866
 20
2.0307010236
 30
0.0
 10
5.45083837
 20
2.0389975142
 30
0.0
 10
5.4527075339
 20
2.0451270464
 30
0.0
 10
5.4548990355
 20
2.0511469685
 30
0.0
 10
5.4582399755
 20
2.0590020977
 30
0.0
 10
5.4621954464
 20
2.0665808598
 30
0.0
 10
5.4667165984
 20
2.0738137197
 30
0.0
 10
5.4715991431
 20
2.0807947371
 30
0.0
 10
5.4783498823
 20
2.0890279673
 30
0.0
 10
5.4858821688
 20
2.0965340568
 30
0.0
 10
5.4923137648
 20
2.1020583147
 30
0.0
 10
5.49898175
 20
2.107244461
 30
0.0
 10
5.5077448247
 20
2.1130920829
 30
0.0
 10
5.5188266647
 20
2.119055769
 30
0.0
 10
5.5303391576
 20
2.1239328026
 30
0.0
 10
5.5421617136
 20
2.1277090236
 30
0.0
 10
5.5580841562
 20
2.1312588363
 30
0.0
 10
5.5702861899
 20
2.1323256584
 30
0.0
 10
5.578355123
 20
2.132326189
 30
0.0
  0
SPLINE
  5
289
100
AcDbEntity
  8
0
100
AcDbSpline
 62
7
  6
CONTINUOUS
 70
0
 71
3
 72
15
 73
11
 74
0
 42
0.0000001
 43
0.0000001
 44
0.0000000001
 40
0.0
 40
0.0
 40
0.0
 40
0.0
 40
0.1201914784
 40
0.2426260683
 40
0.3669247036
 40
0.4925612988
 40
0.6189979765
 40
0.7458542056
 40
0.8729000072
 40
1.0
 40
1.0
 40
1.0
 40
1.0
 10
5.578355123
 20
1.582326189
 30
0.0
 10
5.5702876807
 20
1.5823265978
 30
0.0
 10
5.5539667717
 20
1.5837512767
 30
0.0
 10
5.5300694406
 20
1.5902128878
 30
0.0
 10
5.5073952136
 20
1.6010709987
 30
0.0
 10
5.4869463235
 20
1.616171351
 30
0.0
 10
5.4697204968
 20
1.6351158942
 30
0.0
 10
5.4566392561
 20
1.6572552743
 30
0.0
 10
5.448455679
 20
1.6816795539
 30
0.0
 10
5.4465989244
 20
1.6987950363
 30
0.0
 10
5.4465983662
 20
1.707326189
 30
0.0
  0
SPLINE
  5
28A
100
AcDbEntity
  8
0
100
AcDbSpline
 62
7
  6
CONTINUOUS
 70
0
 71
3
 72
22
 73
18
 74
0
 42
0.0000001
 43
0.0000001
 44
0.0000000001
 40
0.0
 40
0.0
 40
0.0
 40
0.0
 40
0.0641389569
 40
0.1283400809
 40
0.1924749744
 40
0.256488604
 40
0.3203752488
 40
0.3841101587
 40
0.4476291066
 40
0.5108760393
 40
0.5737788915
 40
0.6362714935
 40
0.6982911401
 40
0.759772606
 40
0.8207037844
 40
0.8810969964
 40
1.0
 40
1.0
 40
1.0
 40
1.0
 10
5.4892683089
 20
1.707326189
 30
0.0
 10
5.4892684869
 20
1.7048845609
 30
0.0
 10
5.4894944411
 20
1.6999960619
 30
0.0
 10
5.4905012047
 20
1.6927285594
 30
0.0
 10
5.4921738733
 20
1.6855888741
 30
0.0
 10
5.4944997077
 20
1.6786471813
 30
0.0
 10
5.4974603597
 20
1.6719679343
 30
0.0
 10
5.5010322137
 20
1.6656160225
 30
0.0
 10
5.5051820633
 20
1.6596549047
 30
0.0
 10
5.5098749437
 20
1.654152467
 30
0.0
 10
5.5150575025
 20
1.6491643611
 30
0.0
 10
5.5206783328
 20
1.6447507728
 30
0.0
 10
5.5266694218
 20
1.6409544862
 30
0.0
 10
5.5329631253
 20
1.637815703
 30
0.0
 10
5.5394889425
 20
1.6353604814
 30
0.0
 10
5.5483447131
 20
1.6330356226
 30
0.0
 10
5.5551964803
 20
1.6323265324
 30
0.0
 10
5.5597228543
 20
1.632326189
 30
0.0
  0
SPLINE
  5
28B
100
AcDbEntity
  8
0
100
AcDbSpline
 62
7
  6
CONTINUOUS
 70
0
 71
3
 72
20
 73
16
 74
0
 42
0.0000001
 43
0.0000001
 44
0.0000000001
 40
0.0
 40
0.0
 40
0.0
 40
0.0
 40
0.1734989371
 40
0.3418765844
 40
0.4986115137
 40
0.571130427
 40
0.6390569783
 40
0.7019548463
 40
0.7595461341
 40
0.8116591165
 40
0.8582561788
 40
0.899550652
 40
0.9361692564
 40
0.9691462627
 40
1.0
 40
1.0
 40
1.0
 40
1.0
 10
5.2357875554
 20
2.132326189
 30
0.0
 10
5.2357875579
 20
2.1307028158
 30
0.0
 10
5.235898469
 20
2.1275028942
 30
0.0
 10
5.2363814031
 20
2.1228589064
 30
0.0
 10
5.2370561406
 20
2.1191947928
 30
0.0
 10
5.2377533683
 20
2.1165019536
 30
0.0
 10
5.2383269949
 20
2.1146867793
 30
0.0
 10
5.2389605606
 20
2.1130402573
 30
0.0
 10
5.2396473331
 20
2.1115767745
 30
0.0
 10
5.2403809696
 20
2.1103091365
 30
0.0
 10
5.2411560098
 20
2.1092490845
 30
0.0
 10
5.2419691562
 20
2.1084084797
 30
0.0
 10
5.2428135128
 20
2.1077942599
 30
0.0
 10
5.2436827236
 20
2.1074146468
 30
0.0
 10
5.2442826507
 20
2.107326189
 30
0.0
 10
5.2445713391
 20
2.107326189
 30
0.0
  0
SPLINE
  5
28C
100
AcDbEntity
  8
0
100
AcDbSpline
 62
7
  6
CONTINUOUS
 70
0
 71
3
 72
20
 73
16
 74
0
 42
0.0000001
 43
0.0000001
 44
0.0000000001
 40
0.0
 40
0.0
 40
0.0
 40
0.0
 40
0.1734988355
 40
0.3418763327
 40
0.498611147
 40
0.5711300281
 40
0.6390565565
 40
0.7019544165
 40
0.7595457154
 40
0.8116587229
 40
0.8582558212
 40
0.8995503504
 40
0.9361690361
 40
0.9691461447
 40
1.0
 40
1.0
 40
1.0
 40
1.0
 10
5.2357875554
 20
1.582326189
 30
0.0
 10
5.2357875554
 20
1.5839495618
 30
0.0
 10
5.2358984618
 20
1.5871494825
 30
0.0
 10
5.236381391
 20
1.5917934692
 30
0.0
 10
5.2370561257
 20
1.5954575819
 30
0.0
 10
5.2377533518
 20
1.5981504209
 30
0.0
 10
5.238326978
 20
1.5999655955
 30
0.0
 10
5.238960544
 20
1.601612118
 30
0.0
 10
5.2396473171
 20
1.6030756014
 30
0.0
 10
5.2403809549
 20
1.6043432401
 30
0.0
 10
5.2411559973
 20
1.6054032926
 30
0.0
 10
5.2419691464
 20
1.6062438976
 30
0.0
 10
5.242813506
 20
1.6068581178
 30
0.0
 10
5.2436827202
 20
1.6072377311
 30
0.0
 10
5.2442826496
 20
1.607326189
 30
0.0
 10
5.2445713392
 20
1.607326189
 30
0.0
  0
SPLINE
  5
28D
100
AcDbEntity
  8
0
100
AcDbSpline
 62
7
  6
CONTINUOUS
 70
0
 71
3
 72
22
 73
18
 74
0
 42
0.0000001
 43
0.0000001
 44
0.0000000001
 40
0.0
 40
0.0
 40
0.0
 40
0.0
 40
0.1188988539
 40
0.179299041
 40
0.24024495
 40
0.3017400736
 40
0.3637727186
 40
0.4262760742
 40
0.4891809504
 40
0.5524247696
 40
0.6159342264
 40
0.6796537559
 40
0.7435248905
 40
0.8075241321
 40
0.871653854
 40
0.9358583187
 40
1.0
 40
1.0
 40
1.0
 40
1.0
 10
5.5597228543
 20
2.082326189
 30
0.0
 10
5.555196639
 20
2.0823257669
 30
0.0
 10
5.5483447328
 20
2.081616998
 30
0.0
 10
5.5394883819
 20
2.0792916133
 30
0.0
 10
5.5329614142
 20
2.076835706
 30
0.0
 10
5.5266661125
 20
2.0736965115
 30
0.0
 10
5.5206745875
 20
2.0698982453
 30
0.0
 10
5.5150528685
 20
2.0654842529
 30
0.0
 10
5.509870464
 20
2.0604953824
 30
0.0
 10
5.5051787444
 20
2.0549925374
 30
0.0
 10
5.5010292148
 20
2.0490324931
 30
0.0
 10
5.4974590826
 20
2.0426813632
 30
0.0
 10
5.4944991393
 20
2.0360037288
 30
0.0
 10
5.4921737297
 20
2.02906329
 30
0.0
 10
5.4905014218
 20
2.0219241602
 30
0.0
 10
5.4894945509
 20
2.0146566497
 30
0.0
 10
5.4892684632
 20
2.0097679203
 30
0.0
 10
5.4892683089
 20
2.007326189
 30
0.0
  0
SPLINE
  5
28E
100
AcDbEntity
  8
0
100
AcDbSpline
 62
7
  6
CONTINUOUS
 70
0
 71
3
 72
20
 73
16
 74
0
 42
0.0000001
 43
0.0000001
 44
0.0000000001
 40
0.0
 40
0.0
 40
0.0
 40
0.0
 40
0.0338099222
 40
0.0694527659
 40
0.1082560876
 40
0.1511802678
 40
0.1988532912
 40
0.2515370157
 40
0.3092502157
 40
0.3718731435
 40
0.4391762754
 40
0.5107726681
 40
0.6649354762
 40
0.8300650866
 40
1.0
 40
1.0
 40
1.0
 40
1.0
 10
5.2445713392
 20
2.107326189
 30
0.0
 10
5.2448943725
 20
2.107326189
 30
0.0
 10
5.2455604584
 20
2.1072392869
 30
0.0
 10
5.2465325801
 20
2.1068630983
 30
0.0
 10
5.2474800197
 20
2.1062509632
 30
0.0
 10
5.2483936842
 20
2.1054108706
 30
0.0
 10
5.2492647119
 20
2.1043501591
 30
0.0
 10
5.2500887882
 20
2.1030815599
 30
0.0
 10
5.2508598728
 20
2.1016171387
 30
0.0
 10
5.2515709842
 20
2.0999697667
 30
0.0
 10
5.252214681
 20
2.0981537859
 30
0.0
 10
5.2529958983
 20
2.0954636459
 30
0.0
 10
5.2537530877
 20
2.0917999085
 30
0.0
 10
5.2542952941
 20
2.0871525209
 30
0.0
 10
5.254419824
 20
2.0839498139
 30
0.0
 10
5.254419824
 20
2.082326189
 30
0.0
  0
SPLINE
  5
28F
100
AcDbEntity
  8
0
100
AcDbSpline
 62
7
  6
CONTINUOUS
 70
0
 71
3
 72
20
 73
16
 74
0
 42
0.0000001
 43
0.0000001
 44
0.0000000001
 40
0.0
 40
0.0
 40
0.0
 40
0.0
 40
0.1734989371
 40
0.3418765844
 40
0.4986115138
 40
0.571130427
 40
0.6390569784
 40
0.7019548464
 40
0.7595461341
 40
0.8116591166
 40
0.8582561788
 40
0.8995506521
 40
0.9361692564
 40
0.9691462628
 40
1.0
 40
1.0
 40
1.0
 40
1.0
 10
5.578355123
 20
1.582326189
 30
0.0
 10
5.5783551204
 20
1.5839495621
 30
0.0
 10
5.5782442093
 20
1.5871494837
 30
0.0
 10
5.5777612753
 20
1.5917934716
 30
0.0
 10
5.5770865377
 20
1.5954575852
 30
0.0
 10
5.57638931
 20
1.5981504243
 30
0.0
 10
5.5758156834
 20
1.5999655987
 30
0.0
 10
5.5751821177
 20
1.6016121207
 30
0.0
 10
5.5744953453
 20
1.6030756035
 30
0.0
 10
5.5737617088
 20
1.6043432414
 30
0.0
 10
5.5729866686
 20
1.6054032935
 30
0.0
 10
5.5721735222
 20
1.6062438983
 30
0.0
 10
5.5713291656
 20
1.6068581181
 30
0.0
 10
5.5704599547
 20
1.6072377311
 30
0.0
 10
5.5698600276
 20
1.607326189
 30
0.0
 10
5.5695713393
 20
1.607326189
 30
0.0
  0
SPLINE
  5
290
100
AcDbEntity
  8
0
100
AcDbSpline
 62
7
  6
CONTINUOUS
 70
0
 71
3
 72
20
 73
16
 74
0
 42
0.0000001
 43
0.0000001
 44
0.0000000001
 40
0.0
 40
0.0
 40
0.0
 40
0.0
 40
0.1734988355
 40
0.3418763328
 40
0.4986111472
 40
0.5711300283
 40
0.6390565567
 40
0.7019544167
 40
0.7595457156
 40
0.811658723
 40
0.8582558213
 40
0.8995503505
 40
0.9361690361
 40
0.9691461447
 40
1.0
 40
1.0
 40
1.0
 40
1.0
 10
5.578355123
 20
2.132326189
 30
0.0
 10
5.578355123
 20
2.1307028162
 30
0.0
 10
5.5782442165
 20
2.1275028955
 30
0.0
 10
5.5777612874
 20
2.1228589088
 30
0.0
 10
5.5770865527
 20
2.119194796
 30
0.0
 10
5.5763893265
 20
2.116501957
 30
0.0
 10
5.5758157003
 20
2.1146867824
 30
0.0
 10
5.5751821344
 20
2.11304026
 30
0.0
 10
5.5744953612
 20
2.1115767765
 30
0.0
 10
5.5737617234
 20
2.1103091379
 30
0.0
 10
5.5729866811
 20
2.1092490854
 30
0.0
 10
5.5721735319
 20
2.1084084804
 30
0.0
 10
5.5713291723
 20
2.1077942602
 30
0.0
 10
5.5704599581
 20
2.1074146469
 30
0.0
 10
5.5698600288
 20
2.107326189
 30
0.0
 10
5.5695713392
 20
2.107326189
 30
0.0
  0
ENDSEC
  0
SECTION
  2
OBJECTS
  0
DICTIONARY
  5
C
100
AcDbDictionary
280
0
281
1
  3
ACAD_GROUP
350
D
  3
ACAD_MLINESTYLE
350
17
  3
ACAD_LAYOUT
350
1A
  3
ACAD_PLOTSETTINGS
350
19
  3
ACAD_PLOTSTYLENAME
350
E
  0
DICTIONARY
  5
D
102
{ACAD_REACTORS
330
C
102
}
100
AcDbDictionary
280
0
281
1
  0
ACDBDICTIONARYWDFLT
  5
E
102
{ACAD_REACTORS
330
C
102
}
100
AcDbDictionary
281
1
  3
Normal
350
F
100
AcDbDictionaryWithDefault
340
F
  0
DICTIONARY
  5
17
102
{ACAD_REACTORS
330
C
102
}
100
AcDbDictionary
280
0
281
1
  3
Standard
350
18
  0
DICTIONARY
  5
19
102
{ACAD_REACTORS
330
C
102
}
100
AcDbDictionary
281
1
  0
DICTIONARY
  5
1A
102
{ACAD_REACTORS
330
C
102
}
100
AcDbDictionary
281
1
  3
Model
350
291
  3
Layout1
350
292
  0
ACDBPLACEHOLDER
  5
F
102
{ACAD_REACTORS
330
E
102
}
  0
MLINESTYLE
  5
18
102
{ACAD_REACTORS
330
17
102
}
100
AcDbMlineStyle
  2
STANDARD
 70
0
  3

 62
256
 51
90.0
 52
90.0
 71
2
 49
0.5
 62
256
  6
BYLAYER
 49
-0.5
 62
256
  6
BYLAYER
  0
LAYOUT
  5
291
102
{ACAD_REACTORS
330
1A
102
}
100
AcDbPlotSettings
  1

  2
none_device
  4
ANSI_A_(11.00_x_8.50_Inches)
  6

 40
0.0
 41
0.0
 42
0.0
 43
0.0
 44
279.4
 45
215.9
 46
0.0
 47
0.0
 48
0.0
 49
0.0
140
0.0
141
0.0
142
1.0
143
1.0
 70
1024
 72
0
 73
0
 74
0
  7

 75
0
147
1.0
148
0.0
149
0.0
100
AcDbLayout
  1
Model
 70
0
 71
0
 10
0.0
 20
0.0
 11
11.0
 21
8.5
 12
0.0
 22
0.0
 32
0.0
 14
0.0
 24
0.0
 34
0.0
 15
0.0
 25
0.0
 35
0.0
146
0.0
 13
0.0
 23
0.0
 33
0.0
 16
1.0
 26
0.0
 36
0.0
 17
0.0
 27
1.0
 37
0.0
 76
0
330
21A
345
0
346
0
  0
LAYOUT
  5
292
102
{ACAD_REACTORS
330
1A
102
}
100
AcDbPlotSettings
  1

  2
none_device
  4
ANSI_A_(11.00_x_8.50_Inches)
  6

 40
0.0
 41
0.0
 42
0.0
 43
0.0
 44
279.4
 45
215.9
 46
0.0
 47
0.0
 48
0.0
 49
0.0
140
0.0
141
0.0
142
1.0
143
1.0
 70
0
 72
0
 73
0
 74
0
  7

 75
0
147
1.0
148
0.0
149
0.0
100
AcDbLayout
  1
Layout1
 70
0
 71
1
 10
0.0
 20
0.0
 11
11.0
 21
8.5
 12
0.0
 22
0.0
 32
0.0
 14
0.0
 24
0.0
 34
0.0
 15
0.0
 25
0.0
 35
0.0
146
0.0
 13
0.0
 23
0.0
 33
0.0
 16
1.0
 26
0.0
 36
0.0
 17
0.0
 27
1.0
 37
0.0
 76
0
330
21B
345
0
346
0
  0
ENDSEC
  0
EOF
