999
DXF file: 910-4261_RIGHT.dxf
999
Pro/ENGINEER 2023134 by Parametric Technology Corporation
  0
SECTION
  2
HEADER
  9
$ACADVER
  1
AC1032
  9
$DWGCODEPAGE
  3
ANSI_1252
  9
$EXTMAX
 10
11.0
 20
8.5
 30
0.0
  9
$EXTMIN
 10
0.0
 20
0.0
 30
0.0
  9
$LIMMIN
 10
0.0
 20
0.0
  9
$LIMMAX
 10
11.0
 20
8.5
  9
$VIEWCTR
 10
5.5
 20
4.25
  9
$VIEWSIZE
 40
8.5
  9
$CLAYER
  8
0
  9
$LTSCALE
 40
0.605
  9
$CELTYPE
  6
BYLAYER
  9
$DIMSCALE
 40
1.0
  9
$DIMASZ
 40
0.1
  9
$DIMEXO
 40
0.0625
  9
$DIMDLI
 40
0.418
  9
$DIMEXE
 40
0.125
  9
$DIMCEN
 40
0.099
  9
$DIMLFAC
 40
1.0
  9
$DIMBLK
  1
_FILLED
  9
$DIMALT
 70
1
  9
$DIMALTD
 70
2
  9
$DIMALTTD
 70
2
  9
$DIMALTF
 40
25.4
  9
$DIMTXT
 40
0.08
  9
$DIMTOL
 70
1
  9
$DIMLIM
 70
0
  9
$DIMTFAC
 40
1.0
  9
$DIMTP
 40
0.001
  9
$DIMTM
 40
0.001
  9
$DIMGAP
 40
0.09
  9
$DIMDSEP
 70
46
  9
$AUNITS
 70
0
  9
$PDMODE
 70
3
  9
$PDSIZE
 40
0.3125
  9
$HANDSEED
  5
38F
  9
$TILEMODE
 70
1
  9
$MEASUREMENT
 70
0
  9
$INSUNITS
 70
1
  0
ENDSEC
  0
SECTION
  2
CLASSES
  0
CLASS
  1
ACDBDICTIONARYWDFLT
  2
AcDbDictionaryWithDefault
  3
AutoCAD 2000
 90
0
 91
1
280
0
281
0
  0
CLASS
  1
ACDBPLACEHOLDER
  2
AcDbPlaceHolder
  3
AutoCAD 2000
 90
0
 91
1
280
0
281
0
  0
CLASS
  1
LAYOUT
  2
AcDbLayout
  3
AutoCAD 2000
 90
0
 91
0
280
0
281
0
  0
ENDSEC
  0
SECTION
  2
TABLES
  0
TABLE
  2
VPORT
  5
8
100
AcDbSymbolTable
 70
2
  0
VPORT
  5
1F4
100
AcDbSymbolTableRecord
100
AcDbViewportTableRecord
  2
*ACTIVE
 70
0
 10
0.0
 20
0.0
 11
1.0
 21
1.0
 12
5.5
 22
4.25
 13
0.0
 23
0.0
 14
1.0
 24
1.0
 15
0.0
 25
0.0
 16
0.0
 26
0.0
 36
1.0
 17
0.0
 27
0.0
 37
0.0
 40
8.5
 41
1.2941176471
 42
50.0
 43
0.0
 44
0.0
 50
0.0
 51
0.0
 71
0
 72
100
 73
1
 74
1
 75
0
 76
0
 77
0
 78
0
  0
ENDTAB
  0
TABLE
  2
LTYPE
  5
5
100
AcDbSymbolTable
 70
6
  0
LTYPE
  5
14
100
AcDbSymbolTableRecord
100
AcDbLinetypeTableRecord
  2
BYBLOCK
 70
0
  3

 72
65
 73
0
 40
0.0
  0
LTYPE
  5
15
100
AcDbSymbolTableRecord
100
AcDbLinetypeTableRecord
  2
BYLAYER
 70
0
  3

 72
65
 73
0
 40
0.0
  0
LTYPE
  5
16
100
AcDbSymbolTableRecord
100
AcDbLinetypeTableRecord
  2
CONTINUOUS
 70
64
  3
Solid line
 72
65
 73
0
 40
0.0
  0
LTYPE
  5
1F5
100
AcDbSymbolTableRecord
100
AcDbLinetypeTableRecord
  2
CENTER
 70
64
  3
____ _ ____ _ ____ _ ____ _ ____ _ ____ _ ____
 72
65
 73
4
 40
0.6
 49
0.375
 74
0
 49
-0.075
 74
0
 49
0.075
 74
0
 49
-0.075
 74
0
  0
LTYPE
  5
1F6
100
AcDbSymbolTableRecord
100
AcDbLinetypeTableRecord
  2
HIDDEN
 70
64
  3
- - - - - - - - - - - - - - - - - - - -
 72
65
 73
2
 40
0.2
 49
0.1
 74
0
 49
-0.1
 74
0
  0
LTYPE
  5
1F7
100
AcDbSymbolTableRecord
100
AcDbLinetypeTableRecord
  2
PHANTOM
 70
64
  3
_____ _ _ _____ _ _ _____ _ _ _____
 72
65
 73
6
 40
0.8
 49
0.45
 74
0
 49
-0.05
 74
0
 49
0.1
 74
0
 49
-0.05
 74
0
 49
0.1
 74
0
 49
-0.05
 74
0
  0
LTYPE
  5
1F8
100
AcDbSymbolTableRecord
100
AcDbLinetypeTableRecord
  2
DOT
 70
64
  3
. . . . . . . . . . . . . . . . . . . .
 72
65
 73
2
 40
0.2
 49
0.1
 74
0
 49
-0.1
 74
0
  0
LTYPE
  5
1F9
100
AcDbSymbolTableRecord
100
AcDbLinetypeTableRecord
  2
DASHED
 70
64
  3
- - - - - - - - - - - - - - - - - - - -
 72
65
 73
2
 40
0.2
 49
0.1
 74
0
 49
-0.1
 74
0
  0
ENDTAB
  0
TABLE
  2
LAYER
  5
2
100
AcDbSymbolTable
 70
36
  0
LAYER
  5
10
100
AcDbSymbolTableRecord
100
AcDbLayerTableRecord
  2
0
 70
0
 62
7
  6
CONTINUOUS
370
-3
390
F
  0
LAYER
  5
1FA
100
AcDbSymbolTableRecord
100
AcDbLayerTableRecord
  2
DEFAULT_1
 70
0
 62
7
  6
CENTER
370
-3
390
F
  0
LAYER
  5
1FB
100
AcDbSymbolTableRecord
100
AcDbLayerTableRecord
  2
DEFAULT_2
 70
0
 62
8
  6
HIDDEN
370
-3
390
F
  0
LAYER
  5
1FC
100
AcDbSymbolTableRecord
100
AcDbLayerTableRecord
  2
DEFAULT_3
 70
0
 62
7
  6
PHANTOM
370
-3
390
F
  0
LAYER
  5
1FD
100
AcDbSymbolTableRecord
100
AcDbLayerTableRecord
  2
DEFAULT_COORDINATE_SYSTEM
 70
0
 62
7
  6
CONTINUOUS
370
-3
390
F
  0
LAYER
  5
1FE
100
AcDbSymbolTableRecord
100
AcDbLayerTableRecord
  2
DEFAULT_DATUM_AXES
 70
0
 62
7
  6
CONTINUOUS
370
-3
390
F
  0
LAYER
  5
1FF
100
AcDbSymbolTableRecord
100
AcDbLayerTableRecord
  2
DEFAULT_DATUM_PLANES
 70
0
 62
7
  6
CONTINUOUS
370
-3
390
F
  0
ENDTAB
  0
TABLE
  2
STYLE
  5
3
100
AcDbSymbolTable
 70
1
  0
STYLE
  5
11
100
AcDbSymbolTableRecord
100
AcDbTextStyleTableRecord
  2
STANDARD
 70
0
 40
0.0
 41
0.8
 50
0.0
 71
0
 42
0.2
  3
txt
  4

  0
STYLE
  5
200
100
AcDbSymbolTableRecord
100
AcDbTextStyleTableRecord
  2
TEXTSTYLE_1
 70
0
 40
0.0
 41
0.8
 50
0.0
 71
0
 42
0.2
  3
gdt
  4

  0
ENDTAB
  0
TABLE
  2
VIEW
  5
6
100
AcDbSymbolTable
 70
0
  0
ENDTAB
  0
TABLE
  2
UCS
  5
7
100
AcDbSymbolTable
 70
0
  0
ENDTAB
  0
TABLE
  2
APPID
  5
9
100
AcDbSymbolTable
 70
1
  0
APPID
  5
201
100
AcDbSymbolTableRecord
100
AcDbRegAppTableRecord
  2
ACAD
 70
0
  0
ENDTAB
  0
TABLE
  2
BLOCK_RECORD
  5
1
100
AcDbSymbolTable
 70
0
  0
BLOCK_RECORD
  5
202
100
AcDbSymbolTableRecord
100
AcDbBlockTableRecord
  2
*Model_Space
  0
BLOCK_RECORD
  5
203
100
AcDbSymbolTableRecord
100
AcDbBlockTableRecord
  2
*Paper_Space
  0
BLOCK_RECORD
  5
204
100
AcDbSymbolTableRecord
100
AcDbBlockTableRecord
  2
_FILLED
  0
ENDTAB
  0
TABLE
  2
DIMSTYLE
  5
A
100
AcDbSymbolTable
 70
1
100
AcDbDimStyleTable
 71
0
  0
DIMSTYLE
105
205
100
AcDbSymbolTableRecord
100
AcDbDimStyleTableRecord
  2
STANDARD
 70
0
  3

  4

 40
1.0
 41
0.1
 42
0.0625
 43
0.38
 44
0.125
 45
0.0
 46
0.0
 47
0.001
 48
0.001
140
0.08
141
0.09
142
0.0
143
25.4
144
1.0
145
0.0
146
1.0
147
0.09
 71
1
 72
0
 73
1
 74
1
 75
0
 76
0
 77
0
 78
4
 79
1
170
1
171
2
172
0
173
0
174
0
175
0
176
0
177
0
178
0
270
2
179
3
271
3
272
3
273
2
274
2
275
0
280
0
281
0
282
0
283
1
284
4
285
0
286
0
287
3
288
0
340
11
278
46
341
204
342
204
343
204
344
204
  0
ENDTAB
  0
ENDSEC
  0
SECTION
  2
BLOCKS
  0
BLOCK
  5
20
100
AcDbEntity
  8
0
100
AcDbBlockBegin
  2
*Model_Space
 70
0
 10
0.0
 20
0.0
 30
0.0
  3
*Model_Space
  1

  0
ENDBLK
  5
21
100
AcDbEntity
  8
0
100
AcDbBlockEnd
  0
BLOCK
  5
1C
100
AcDbEntity
  8
0
100
AcDbBlockBegin
  2
*Paper_Space
 70
0
 10
0.0
 20
0.0
 30
0.0
  3
*Paper_Space
  1

  0
ENDBLK
  5
1D
100
AcDbEntity
  8
0
100
AcDbBlockEnd
  0
BLOCK
  5
206
100
AcDbEntity
  8
0
100
AcDbBlockBegin
  2
_FILLED
 70
64
 10
0.0
 20
0.0
  3
_FILLED
  1

  0
SOLID
  5
207
100
AcDbEntity
  8
0
  6
BYBLOCK
 62
0
100
AcDbTrace
 10
0.0
 20
0.0
 11
-1.0
 21
0.2
 12
-1.0
 22
-0.2
 13
-1.0
 23
-0.2
  0
ENDBLK
  5
208
100
AcDbEntity
  8
0
  6
BYBLOCK
 62
0
100
AcDbBlockEnd
  0
ENDSEC
  0
SECTION
  2
ENTITIES
  0
LINE
  5
209
100
AcDbEntity
  8
0
100
AcDbLine
 62
7
  6
CONTINUOUS
 10
0.0
 20
0.0
 11
0.0
 21
8.5
  0
LINE
  5
20A
100
AcDbEntity
  8
0
100
AcDbLine
 62
7
  6
CONTINUOUS
 10
0.0
 20
0.0
 11
11.0
 21
0.0
  0
LINE
  5
20B
100
AcDbEntity
  8
0
100
AcDbLine
 62
7
  6
CONTINUOUS
 10
0.0
 20
8.5
 11
11.0
 21
8.5
  0
LINE
  5
20C
100
AcDbEntity
  8
0
100
AcDbLine
 62
7
  6
CONTINUOUS
 10
11.0
 20
0.0
 11
11.0
 21
8.5
  0
LINE
  5
20D
100
AcDbEntity
  8
0
100
AcDbLine
 62
7
  6
CONTINUOUS
 10
6.0977504537
 20
0.3467646873
 11
5.0215304537
 21
0.3467646873
  0
LINE
  5
20E
100
AcDbEntity
  8
0
100
AcDbLine
 62
7
  6
CONTINUOUS
 10
6.0977504537
 20
0.3568630339
 11
5.0215304537
 21
0.3568630339
  0
LINE
  5
20F
100
AcDbEntity
  8
0
100
AcDbLine
 62
7
  6
CONTINUOUS
 10
5.993292267
 20
0.4736750837
 11
5.1259886405
 21
0.4736750837
  0
LINE
  5
210
100
AcDbEntity
  8
0
100
AcDbLine
 62
7
  6
CONTINUOUS
 10
5.9849481093
 20
0.4849201273
 11
5.1343327982
 21
0.4849201273
  0
LINE
  5
211
100
AcDbEntity
  8
0
100
AcDbLine
 62
7
  6
CONTINUOUS
 10
5.2244845161
 20
0.5870646873
 11
5.8947963914
 21
0.5870646873
  0
LINE
  5
212
100
AcDbEntity
  8
0
100
AcDbLine
 62
7
  6
CONTINUOUS
 10
5.248435007
 20
7.2464575856
 11
5.2933355523
 21
7.2650560005
  0
LINE
  5
213
100
AcDbEntity
  8
0
100
AcDbLine
 62
7
  6
CONTINUOUS
 10
5.255016433
 20
7.2058338939
 11
5.2553160596
 21
7.2059580033
  0
LINE
  5
214
100
AcDbEntity
  8
0
100
AcDbLine
 62
7
  6
CONTINUOUS
 10
5.2582448077
 20
7.1691791643
 11
5.2585444342
 21
7.1693032737
  0
LINE
  5
215
100
AcDbEntity
  8
0
100
AcDbLine
 62
7
  6
CONTINUOUS
 10
5.2614731823
 20
7.1325244346
 11
5.2617728089
 21
7.132648544
  0
LINE
  5
216
100
AcDbEntity
  8
0
100
AcDbLine
 62
7
  6
CONTINUOUS
 10
5.3751301617
 20
6.8581322134
 11
5.3754297883
 21
6.8582563228
  0
LINE
  5
217
100
AcDbEntity
  8
0
100
AcDbLine
 62
7
  6
CONTINUOUS
 10
5.398766164
 20
6.8299305999
 11
5.3990657906
 21
6.8300547093
  0
LINE
  5
218
100
AcDbEntity
  8
0
100
AcDbLine
 62
7
  6
CONTINUOUS
 10
5.4224021663
 20
6.8017289864
 11
5.4227017929
 21
6.8018530958
  0
LINE
  5
219
100
AcDbEntity
  8
0
100
AcDbLine
 62
7
  6
CONTINUOUS
 10
5.4464736833
 20
6.7683499276
 11
5.4604298323
 21
6.7741307538
  0
LINE
  5
21A
100
AcDbEntity
  8
0
100
AcDbLine
 62
7
  6
CONTINUOUS
 10
3.9142787116
 20
7.3442589735
 11
3.9017522405
 21
7.201080754
  0
LINE
  5
21B
100
AcDbEntity
  8
0
100
AcDbLine
 62
7
  6
CONTINUOUS
 10
3.899713635
 20
7.1777791396
 11
3.8910836984
 21
7.0791385134
  0
LWPOLYLINE
  5
21C
100
AcDbEntity
  8
0
100
AcDbPolyline
 62
7
  6
CONTINUOUS
 90
44
 70
0
 10
5.5012291985
 20
6.03324414
 10
5.5010923717
 20
6.0331956514
 10
5.5008892704
 20
6.0331178657
 10
5.5006886111
 20
6.0330339813
 10
5.500490577
 20
6.0329440746
 10
5.5002953486
 20
6.0328482277
 10
5.5001031042
 20
6.0327465279
 10
5.4999140192
 20
6.0326390682
 10
5.499728266
 20
6.0325259465
 10
5.4995460142
 20
6.0324072661
 10
5.4993674301
 20
6.0322831353
 10
5.4991926766
 20
6.0321536673
 10
5.4990219131
 20
6.0320189802
 10
5.4988552956
 20
6.031879197
 10
5.4986929759
 20
6.0317344452
 10
5.4985351023
 20
6.0315848568
 10
5.4983818187
 20
6.0314305684
 10
5.498233265
 20
6.0312717208
 10
5.4980895768
 20
6.0311084588
 10
5.4979508852
 20
6.0309409314
 10
5.4978173167
 20
6.0307692916
 10
5.4976889932
 20
6.0305936958
 10
5.4975660318
 20
6.0304143044
 10
5.4974485447
 20
6.030231281
 10
5.497336639
 20
6.0300447926
 10
5.497230417
 20
6.0298550094
 10
5.4971299754
 20
6.0296621045
 10
5.497035406
 20
6.029466254
 10
5.4969467951
 20
6.0292676365
 10
5.4968642235
 20
6.0290664333
 10
5.4967877665
 20
6.0288628279
 10
5.4967174939
 20
6.0286570062
 10
5.4966534698
 20
6.0284491559
 10
5.4965957527
 20
6.0282394667
 10
5.4965443951
 20
6.02802813
 10
5.4964994441
 20
6.0278153385
 10
5.4964609405
 20
6.0276012863
 10
5.4964289195
 20
6.027386169
 10
5.4964034104
 20
6.0271701826
 10
5.4963844364
 20
6.0269535242
 10
5.4963720147
 20
6.0267363917
 10
5.4963661569
 20
6.026518983
 10
5.4963668681
 20
6.0263014966
 10
5.4963700388
 20
6.0261825068
  0
LINE
  5
21D
100
AcDbEntity
  8
0
100
AcDbLine
 62
7
  6
CONTINUOUS
 10
4.1119449018
 20
7.3269654227
 11
4.0994184307
 21
7.1837872032
  0
LINE
  5
21E
100
AcDbEntity
  8
0
100
AcDbLine
 62
7
  6
CONTINUOUS
 10
4.0973797824
 20
7.1604855925
 11
4.0887498458
 21
7.0618449663
  0
LWPOLYLINE
  5
21F
100
AcDbEntity
  8
0
100
AcDbPolyline
 62
7
  6
CONTINUOUS
 90
36
 70
0
 10
5.5080252537
 20
5.5874651985
 10
5.5082063209
 20
5.5875795584
 10
5.5083877961
 20
5.5877019611
 10
5.5085655623
 20
5.5878298948
 10
5.5087394529
 20
5.5879632536
 10
5.5089092957
 20
5.5881019194
 10
5.5090749132
 20
5.5882457602
 10
5.5092361517
 20
5.5883946555
 10
5.5093928486
 20
5.5885484682
 10
5.5095448222
 20
5.5887070304
 10
5.5096919262
 20
5.5888701968
 10
5.5098340209
 20
5.5890378204
 10
5.5099709468
 20
5.5892097187
 10
5.5101025731
 20
5.5893857304
 10
5.5102287775
 20
5.5895656948
 10
5.5103494253
 20
5.5897494209
 10
5.5104644001
 20
5.5899367293
 10
5.5105736004
 20
5.5901274525
 10
5.5106769245
 20
5.5903214112
 10
5.510774276
 20
5.5905184224
 10
5.510865566
 20
5.590718304
 10
5.5109507117
 20
5.590920873
 10
5.5110296343
 20
5.5911259405
 10
5.5111022608
 20
5.5913333153
 10
5.5111685251
 20
5.591542808
 10
5.5112283657
 20
5.5917542233
 10
5.5112817271
 20
5.5919673644
 10
5.5113285604
 20
5.5921820365
 10
5.5113688219
 20
5.5923980398
 10
5.5114024739
 20
5.5926151731
 10
5.5114294852
 20
5.5928332381
 10
5.5114498302
 20
5.5930520319
 10
5.5114634894
 20
5.5932713507
 10
5.5114704496
 20
5.5934909941
 10
5.5114707033
 20
5.5937107589
 10
5.5114670337
 20
5.5938604625
  0
LINE
  5
220
100
AcDbEntity
  8
0
100
AcDbLine
 62
7
  6
CONTINUOUS
 10
5.4035003395
 20
5.6191723576
 11
5.5084668239
 21
5.6797747857
  0
LINE
  5
221
100
AcDbEntity
  8
0
100
AcDbLine
 62
7
  6
CONTINUOUS
 10
5.715780568
 20
5.3641207964
 11
5.5920109622
 21
5.2926623812
  0
LINE
  5
222
100
AcDbEntity
  8
0
100
AcDbLine
 62
7
  6
CONTINUOUS
 10
5.0215304537
 20
0.3568630339
 11
5.0215304537
 21
0.3467646873
  0
LINE
  5
223
100
AcDbEntity
  8
0
100
AcDbLine
 62
7
  6
CONTINUOUS
 10
5.2761758868
 20
5.9044418526
 11
5.2761758868
 21
5.7308198054
  0
LWPOLYLINE
  5
224
100
AcDbEntity
  8
0
100
AcDbPolyline
 62
7
  6
CONTINUOUS
 90
12
 70
0
 10
5.4314927751
 20
5.5160898784
 10
5.4312433688
 20
5.514740827
 10
5.4309605602
 20
5.5131045118
 10
5.4306988412
 20
5.5114659331
 10
5.4304583055
 20
5.5098261884
 10
5.4302388515
 20
5.5081851299
 10
5.4300402168
 20
5.5065413317
 10
5.4298624014
 20
5.5048952121
 10
5.4297054078
 20
5.5032471977
 10
5.4295690977
 20
5.5015958605
 10
5.4294535132
 20
5.4999416197
 10
5.4293613985
 20
5.4983384972
  0
LINE
  5
225
100
AcDbEntity
  8
0
100
AcDbLine
 62
7
  6
CONTINUOUS
 10
5.4314996732
 20
5.5161260514
 11
5.4314927833
 21
5.5160899213
  0
LINE
  5
226
100
AcDbEntity
  8
0
100
AcDbLine
 62
7
  6
CONTINUOUS
 10
5.5114670182
 20
5.593860462
 11
5.4963699998
 21
6.0261825054
  0
LINE
  5
227
100
AcDbEntity
  8
0
100
AcDbLine
 62
7
  6
CONTINUOUS
 10
5.371129831
 20
5.4201881618
 11
5.371129831
 21
5.5631049922
  0
LINE
  5
228
100
AcDbEntity
  8
0
100
AcDbLine
 62
7
  6
CONTINUOUS
 10
5.3824750994
 20
0.5870646873
 11
5.3824750994
 21
5.2039300416
  0
LINE
  5
229
100
AcDbEntity
  8
0
100
AcDbLine
 62
7
  6
CONTINUOUS
 10
5.3824750994
 20
5.2117253172
 11
5.3824750994
 21
5.395445657
  0
LINE
  5
22A
100
AcDbEntity
  8
0
100
AcDbLine
 62
7
  6
CONTINUOUS
 10
5.3824750994
 20
5.587847497
 11
5.3824750994
 21
5.7308198054
  0
LINE
  5
22B
100
AcDbEntity
  8
0
100
AcDbLine
 62
7
  6
CONTINUOUS
 10
5.3824750994
 20
5.9044418526
 11
5.3824750994
 21
6.1258985455
  0
LINE
  5
22C
100
AcDbEntity
  8
0
100
AcDbLine
 62
7
  6
CONTINUOUS
 10
5.4604298323
 20
6.2284418526
 11
5.4604298323
 21
7.2680892991
  0
LINE
  5
22D
100
AcDbEntity
  8
0
100
AcDbLine
 62
7
  6
CONTINUOUS
 10
5.4903404537
 20
5.4075439815
 11
5.4903404537
 21
5.4322894624
  0
LINE
  5
22E
100
AcDbEntity
  8
0
100
AcDbLine
 62
7
  6
CONTINUOUS
 10
5.4957404537
 20
5.4111944016
 11
5.4957404537
 21
5.4273709209
  0
LINE
  5
22F
100
AcDbEntity
  8
0
100
AcDbLine
 62
7
  6
CONTINUOUS
 10
5.6078138892
 20
5.593860462
 11
5.6229109076
 21
6.0261825054
  0
LINE
  5
230
100
AcDbEntity
  8
0
100
AcDbLine
 62
7
  6
CONTINUOUS
 10
5.4293613709
 20
5.4983384575
 11
5.4293646771
 21
5.4984025105
  0
LWPOLYLINE
  5
231
100
AcDbEntity
  8
0
100
AcDbPolyline
 62
7
  6
CONTINUOUS
 90
12
 70
0
 10
5.6898868036
 20
5.498948391
 10
5.6898220383
 20
5.5000255384
 10
5.6897056346
 20
5.5016746304
 10
5.6895686142
 20
5.5033206278
 10
5.6894110928
 20
5.5049630817
 10
5.6892329526
 20
5.5066035458
 10
5.6890342307
 20
5.5082415312
 10
5.6888149617
 20
5.5098765607
 10
5.6885748638
 20
5.5115102033
 10
5.6883137758
 20
5.513142655
 10
5.6880317437
 20
5.5147727453
 10
5.687788133
 20
5.5160898752
  0
LINE
  5
232
100
AcDbEntity
  8
0
100
AcDbLine
 62
7
  6
CONTINUOUS
 10
5.6898867729
 20
5.4989486974
 11
5.6899159352
 21
5.4984081992
  0
LINE
  5
233
100
AcDbEntity
  8
0
100
AcDbLine
 62
7
  6
CONTINUOUS
 10
5.6235404537
 20
5.4273709209
 11
5.6235404537
 21
5.4111944016
  0
LINE
  5
234
100
AcDbEntity
  8
0
100
AcDbLine
 62
7
  6
CONTINUOUS
 10
5.6289404537
 20
5.4322894624
 11
5.6289404537
 21
5.4075439815
  0
LINE
  5
235
100
AcDbEntity
  8
0
100
AcDbLine
 62
7
  6
CONTINUOUS
 10
5.6588510752
 20
6.2284418526
 11
5.6588510752
 21
7.2680892991
  0
LINE
  5
236
100
AcDbEntity
  8
0
100
AcDbLine
 62
7
  6
CONTINUOUS
 10
5.7368058081
 20
0.5870646873
 11
5.7368058081
 21
5.2039300416
  0
LINE
  5
237
100
AcDbEntity
  8
0
100
AcDbLine
 62
7
  6
CONTINUOUS
 10
5.7368058081
 20
5.2117253172
 11
5.7368058081
 21
5.395445657
  0
LINE
  5
238
100
AcDbEntity
  8
0
100
AcDbLine
 62
7
  6
CONTINUOUS
 10
5.7368058081
 20
5.587847497
 11
5.7368058081
 21
6.1258985455
  0
LINE
  5
239
100
AcDbEntity
  8
0
100
AcDbLine
 62
7
  6
CONTINUOUS
 10
5.7481510765
 20
5.5631049922
 11
5.7481510765
 21
5.4201881618
  0
LWPOLYLINE
  5
23A
100
AcDbEntity
  8
0
100
AcDbPolyline
 62
7
  6
CONTINUOUS
 90
36
 70
0
 10
5.6078138737
 20
5.5938604625
 10
5.6078102042
 20
5.5937107591
 10
5.6078104579
 20
5.5934909943
 10
5.607817418
 20
5.5932713509
 10
5.6078310772
 20
5.5930520322
 10
5.6078514222
 20
5.5928332384
 10
5.6078784335
 20
5.5926151734
 10
5.6079120855
 20
5.5923980401
 10
5.607952347
 20
5.5921820368
 10
5.6079991803
 20
5.5919673647
 10
5.6080525416
 20
5.5917542237
 10
5.6081123822
 20
5.5915428083
 10
5.6081786465
 20
5.5913333157
 10
5.608251273
 20
5.5911259408
 10
5.6083301956
 20
5.5909208733
 10
5.6084153413
 20
5.5907183043
 10
5.6085066313
 20
5.5905184228
 10
5.6086039828
 20
5.5903214115
 10
5.6087073068
 20
5.5901274529
 10
5.6088165071
 20
5.5899367298
 10
5.6089314818
 20
5.5897494214
 10
5.6090521295
 20
5.5895656954
 10
5.6091783338
 20
5.5893857311
 10
5.60930996
 20
5.5892097195
 10
5.6094468859
 20
5.5890378212
 10
5.6095889805
 20
5.5888701976
 10
5.6097360845
 20
5.5887070311
 10
5.6098880583
 20
5.5885484689
 10
5.6100447553
 20
5.588394656
 10
5.6102059941
 20
5.5882457604
 10
5.610371612
 20
5.5881019192
 10
5.6105414553
 20
5.587963253
 10
5.6107153467
 20
5.5878298937
 10
5.6108931138
 20
5.5877019594
 10
5.6110745901
 20
5.5875795561
 10
5.6112556538
 20
5.5874651985
  0
LWPOLYLINE
  5
23B
100
AcDbEntity
  8
0
100
AcDbPolyline
 62
7
  6
CONTINUOUS
 90
44
 70
0
 10
5.6229108686
 20
6.0261825068
 10
5.6229140393
 20
6.0263014966
 10
5.6229147505
 20
6.026518983
 10
5.6229088927
 20
6.0267363917
 10
5.6228964711
 20
6.0269535242
 10
5.6228774971
 20
6.0271701826
 10
5.6228519879
 20
6.027386169
 10
5.622819967
 20
6.0276012863
 10
5.6227814634
 20
6.0278153385
 10
5.6227365123
 20
6.02802813
 10
5.6226851548
 20
6.0282394667
 10
5.6226274377
 20
6.0284491559
 10
5.6225634136
 20
6.0286570062
 10
5.622493141
 20
6.0288628279
 10
5.622416684
 20
6.0290664333
 10
5.6223341123
 20
6.0292676365
 10
5.6222455014
 20
6.029466254
 10
5.622150932
 20
6.0296621045
 10
5.6220504905
 20
6.0298550094
 10
5.6219442684
 20
6.0300447926
 10
5.6218323628
 20
6.030231281
 10
5.6217148756
 20
6.0304143044
 10
5.6215919142
 20
6.0305936958
 10
5.6214635907
 20
6.0307692916
 10
5.6213300222
 20
6.0309409314
 10
5.6211913306
 20
6.0311084588
 10
5.6210476424
 20
6.0312717208
 10
5.6208990888
 20
6.0314305684
 10
5.6207458052
 20
6.0315848568
 10
5.6205879315
 20
6.0317344452
 10
5.6204256119
 20
6.031879197
 10
5.6202589943
 20
6.0320189802
 10
5.6200882309
 20
6.0321536673
 10
5.6199134774
 20
6.0322831353
 10
5.6197348932
 20
6.0324072661
 10
5.6195526414
 20
6.0325259465
 10
5.6193668883
 20
6.0326390682
 10
5.6191778032
 20
6.0327465279
 10
5.6189855588
 20
6.0328482277
 10
5.6187903305
 20
6.0329440746
 10
5.6185922963
 20
6.0330339813
 10
5.618391637
 20
6.0331178657
 10
5.6181885357
 20
6.0331956514
 10
5.618051709
 20
6.03324414
  0
LINE
  5
23C
100
AcDbEntity
  8
0
100
AcDbLine
 62
7
  6
CONTINUOUS
 10
6.0977504537
 20
0.3568630339
 11
6.0977504537
 21
0.3467646873
  0
LINE
  5
23D
100
AcDbEntity
  8
0
100
AcDbLine
 62
7
  6
CONTINUOUS
 10
5.3824750994
 20
5.2039300416
 11
5.7368058081
 21
5.2039300416
  0
LINE
  5
23E
100
AcDbEntity
  8
0
100
AcDbLine
 62
7
  6
CONTINUOUS
 10
5.3860184069
 20
5.2081820101
 11
5.7332625005
 21
5.2081820101
  0
LINE
  5
23F
100
AcDbEntity
  8
0
100
AcDbLine
 62
7
  6
CONTINUOUS
 10
5.7368058081
 20
5.2117253172
 11
5.3824750994
 21
5.2117253172
  0
LINE
  5
240
100
AcDbEntity
  8
0
100
AcDbLine
 62
7
  6
CONTINUOUS
 10
5.2748138891
 20
7.0255573614
 11
5.2713800666
 21
7.0410463338
  0
LINE
  5
241
100
AcDbEntity
  8
0
100
AcDbLine
 62
7
  6
CONTINUOUS
 10
5.2701466933
 20
7.0466097209
 11
5.2669364719
 21
7.0610900942
  0
LINE
  5
242
100
AcDbEntity
  8
0
100
AcDbLine
 62
7
  6
CONTINUOUS
 10
5.2700084849
 20
7.0671925163
 11
5.264066177
 21
7.0939965353
  0
LINE
  5
243
100
AcDbEntity
  8
0
100
AcDbLine
 62
7
  6
CONTINUOUS
 10
5.26713819
 20
7.1000989579
 11
5.2604046797
 21
7.1304718602
  0
LINE
  5
244
100
AcDbEntity
  8
0
100
AcDbLine
 62
7
  6
CONTINUOUS
 10
5.263909815
 20
7.136753689
 11
5.2611419116
 21
7.1492388945
  0
LINE
  5
245
100
AcDbEntity
  8
0
100
AcDbLine
 62
7
  6
CONTINUOUS
 10
5.259914486
 20
7.1547754537
 11
5.257176305
 21
7.1671265899
  0
LINE
  5
246
100
AcDbEntity
  8
0
100
AcDbLine
 62
7
  6
CONTINUOUS
 10
5.2606814402
 20
7.1734084194
 11
5.2539479303
 21
7.2037813198
  0
LINE
  5
247
100
AcDbEntity
  8
0
100
AcDbLine
 62
7
  6
CONTINUOUS
 10
5.6877881247
 20
5.5160899188
 11
5.6877812689
 21
5.51612587
  0
LINE
  5
248
100
AcDbEntity
  8
0
100
AcDbLine
 62
7
  6
CONTINUOUS
 10
5.6530231347
 20
5.3916525928
 11
5.6272103759
 21
5.3916525928
  0
LINE
  5
249
100
AcDbEntity
  8
0
100
AcDbLine
 62
7
  6
CONTINUOUS
 10
5.4920705316
 20
5.3916525928
 11
5.4662577728
 21
5.3916525928
  0
LINE
  5
24A
100
AcDbEntity
  8
0
100
AcDbLine
 62
7
  6
CONTINUOUS
 10
5.6805648264
 20
5.5228212328
 11
5.6566298954
 21
5.5228212328
  0
LINE
  5
24B
100
AcDbEntity
  8
0
100
AcDbLine
 62
7
  6
CONTINUOUS
 10
5.462651012
 20
5.5228212328
 11
5.4387162225
 21
5.5228212328
  0
LINE
  5
24C
100
AcDbEntity
  8
0
100
AcDbLine
 62
7
  6
CONTINUOUS
 10
5.5272699452
 20
5.2926623812
 11
5.4035003395
 21
5.3641207964
  0
LINE
  5
24D
100
AcDbEntity
  8
0
100
AcDbLine
 62
7
  6
CONTINUOUS
 10
5.2749082392
 20
7.0252581229
 11
5.3087814452
 21
6.9434809697
  0
LINE
  5
24E
100
AcDbEntity
  8
0
100
AcDbLine
 62
7
  6
CONTINUOUS
 10
5.3089263231
 20
6.9432026604
 11
5.2748138891
 21
7.0255573614
  0
LINE
  5
24F
100
AcDbEntity
  8
0
100
AcDbLine
 62
7
  6
CONTINUOUS
 10
5.2669364719
 20
7.0610900942
 11
5.3284815843
 21
6.912507049
  0
LINE
  5
250
100
AcDbEntity
  8
0
100
AcDbLine
 62
7
  6
CONTINUOUS
 10
5.2679607378
 20
7.0631236504
 11
5.330643791
 21
6.911793373
  0
LINE
  5
251
100
AcDbEntity
  8
0
100
AcDbLine
 62
7
  6
CONTINUOUS
 10
5.3349688897
 20
6.9103642262
 11
5.2700084849
 21
7.0671925163
  0
LINE
  5
252
100
AcDbEntity
  8
0
100
AcDbLine
 62
7
  6
CONTINUOUS
 10
5.264066177
 20
7.0939965353
 11
5.349720347
 21
6.8872090764
  0
LINE
  5
253
100
AcDbEntity
  8
0
100
AcDbLine
 62
7
  6
CONTINUOUS
 10
5.2650904433
 20
7.0960300898
 11
5.3518825528
 21
6.8864954019
  0
LINE
  5
254
100
AcDbEntity
  8
0
100
AcDbLine
 62
7
  6
CONTINUOUS
 10
5.3562076526
 20
6.8850662533
 11
5.26713819
 21
7.1000989579
  0
LINE
  5
255
100
AcDbEntity
  8
0
100
AcDbLine
 62
7
  6
CONTINUOUS
 10
5.2604046797
 20
7.1304718602
 11
5.372923227
 21
6.8588280572
  0
LINE
  5
256
100
AcDbEntity
  8
0
100
AcDbLine
 62
7
  6
CONTINUOUS
 10
5.2614731823
 20
7.1325244346
 11
5.3751301617
 21
6.8581322134
  0
LINE
  5
257
100
AcDbEntity
  8
0
100
AcDbLine
 62
7
  6
CONTINUOUS
 10
5.3754297883
 20
6.8582563228
 11
5.2617728089
 21
7.132648544
  0
LINE
  5
258
100
AcDbEntity
  8
0
100
AcDbLine
 62
7
  6
CONTINUOUS
 10
5.3798436557
 20
6.8568646385
 11
5.263909815
 21
7.136753689
  0
LINE
  5
259
100
AcDbEntity
  8
0
100
AcDbLine
 62
7
  6
CONTINUOUS
 10
5.257176305
 20
7.1671265899
 11
5.3965592293
 21
6.8306264437
  0
LINE
  5
25A
100
AcDbEntity
  8
0
100
AcDbLine
 62
7
  6
CONTINUOUS
 10
5.2582448077
 20
7.1691791643
 11
5.398766164
 21
6.8299305999
  0
LINE
  5
25B
100
AcDbEntity
  8
0
100
AcDbLine
 62
7
  6
CONTINUOUS
 10
5.3990657906
 20
6.8300547093
 11
5.2585444342
 21
7.1693032737
  0
LINE
  5
25C
100
AcDbEntity
  8
0
100
AcDbLine
 62
7
  6
CONTINUOUS
 10
5.4034796584
 20
6.8286630243
 11
5.2606814402
 21
7.1734084194
  0
LINE
  5
25D
100
AcDbEntity
  8
0
100
AcDbLine
 62
7
  6
CONTINUOUS
 10
5.2539479303
 20
7.2037813198
 11
5.4201952318
 21
6.8024248299
  0
LINE
  5
25E
100
AcDbEntity
  8
0
100
AcDbLine
 62
7
  6
CONTINUOUS
 10
5.4224021663
 20
6.8017289864
 11
5.255016433
 21
7.2058338939
  0
LINE
  5
25F
100
AcDbEntity
  8
0
100
AcDbLine
 62
7
  6
CONTINUOUS
 10
5.2553160596
 20
7.2059580033
 11
5.4227017929
 21
6.8018530958
  0
LINE
  5
260
100
AcDbEntity
  8
0
100
AcDbLine
 62
7
  6
CONTINUOUS
 10
5.4370662817
 20
6.7722468972
 11
5.2445385433
 21
7.2370499746
  0
LINE
  5
261
100
AcDbEntity
  8
0
100
AcDbLine
 62
7
  6
CONTINUOUS
 10
5.2761758868
 20
5.7308198054
 11
5.3824750994
 21
5.7308198054
  0
LINE
  5
262
100
AcDbEntity
  8
0
100
AcDbLine
 62
7
  6
CONTINUOUS
 10
5.6108140835
 20
5.6797747857
 11
5.715780568
 21
5.6191723576
  0
LINE
  5
263
100
AcDbEntity
  8
0
100
AcDbLine
 62
7
  6
CONTINUOUS
 10
5.248435007
 20
7.2464575856
 11
5.4464736833
 21
6.7683499276
  0
LINE
  5
264
100
AcDbEntity
  8
0
100
AcDbLine
 62
7
  6
CONTINUOUS
 10
5.4604298323
 20
6.8616547295
 11
5.2933355523
 21
7.2650560005
  0
LINE
  5
265
100
AcDbEntity
  8
0
100
AcDbLine
 62
7
  6
CONTINUOUS
 10
5.3502563047
 20
7.2276645026
 11
5.4604298323
 21
6.9616820839
  0
LINE
  5
266
100
AcDbEntity
  8
0
100
AcDbLine
 62
7
  6
CONTINUOUS
 10
5.6180517132
 20
6.0332441529
 11
5.6048663005
 21
6.0325266147
  0
LINE
  5
267
100
AcDbEntity
  8
0
100
AcDbLine
 62
7
  6
CONTINUOUS
 10
5.6229109076
 20
6.0261825054
 11
5.6088555437
 21
6.0254936462
  0
LINE
  5
268
100
AcDbEntity
  8
0
100
AcDbLine
 62
7
  6
CONTINUOUS
 10
5.2761758868
 20
5.9044418526
 11
5.3824750994
 21
5.9044418526
  0
LINE
  5
269
100
AcDbEntity
  8
0
100
AcDbLine
 62
7
  6
CONTINUOUS
 10
5.3824750994
 20
6.1258985455
 11
5.7368058081
 21
6.1258985455
  0
LINE
  5
26A
100
AcDbEntity
  8
0
100
AcDbLine
 62
7
  6
CONTINUOUS
 10
5.3599773401
 20
6.1294418526
 11
5.7593035674
 21
6.1294418526
  0
LINE
  5
26B
100
AcDbEntity
  8
0
100
AcDbLine
 62
7
  6
CONTINUOUS
 10
5.356387735
 20
6.1333152301
 11
5.7628931724
 21
6.1333152301
  0
LINE
  5
26C
100
AcDbEntity
  8
0
100
AcDbLine
 62
7
  6
CONTINUOUS
 10
5.5104253638
 20
6.0254936457
 11
5.4963699998
 21
6.0261825054
  0
LINE
  5
26D
100
AcDbEntity
  8
0
100
AcDbLine
 62
7
  6
CONTINUOUS
 10
5.5144146442
 20
6.0325266224
 11
5.5012291985
 21
6.03324414
  0
LINE
  5
26E
100
AcDbEntity
  8
0
100
AcDbLine
 62
7
  6
CONTINUOUS
 10
5.3089263231
 20
6.9432026604
 11
5.3174506013
 21
6.9298222239
  0
LINE
  5
26F
100
AcDbEntity
  8
0
100
AcDbLine
 62
7
  6
CONTINUOUS
 10
5.3205123835
 20
6.9250161886
 11
5.3284815843
 21
6.912507049
  0
LINE
  5
270
100
AcDbEntity
  8
0
100
AcDbLine
 62
7
  6
CONTINUOUS
 10
5.3349688897
 20
6.9103642262
 11
5.349720347
 21
6.8872090764
  0
LINE
  5
271
100
AcDbEntity
  8
0
100
AcDbLine
 62
7
  6
CONTINUOUS
 10
5.3562076526
 20
6.8850662533
 11
5.372923227
 21
6.8588280572
  0
LINE
  5
272
100
AcDbEntity
  8
0
100
AcDbLine
 62
7
  6
CONTINUOUS
 10
5.3798436557
 20
6.8568646385
 11
5.3867148259
 21
6.8460790617
  0
LINE
  5
273
100
AcDbEntity
  8
0
100
AcDbLine
 62
7
  6
CONTINUOUS
 10
5.3897618435
 20
6.8412962022
 11
5.3965592293
 21
6.8306264437
  0
LINE
  5
274
100
AcDbEntity
  8
0
100
AcDbLine
 62
7
  6
CONTINUOUS
 10
5.4034796584
 20
6.8286630243
 11
5.4201952318
 21
6.8024248299
  0
LINE
  5
275
100
AcDbEntity
  8
0
100
AcDbLine
 62
7
  6
CONTINUOUS
 10
5.3949404537
 20
6.1789418526
 11
5.7243404537
 21
6.1789418526
  0
LINE
  5
276
100
AcDbEntity
  8
0
100
AcDbLine
 62
7
  6
CONTINUOUS
 10
5.4318404537
 20
6.2284418526
 11
5.6874404537
 21
6.2284418526
  0
LINE
  5
277
100
AcDbEntity
  8
0
100
AcDbLine
 62
7
  6
CONTINUOUS
 10
3.8877000918
 20
7.0559532254
 11
4.0880559649
 21
7.0384243578
  0
LINE
  5
278
100
AcDbEntity
  8
0
100
AcDbLine
 62
7
  6
CONTINUOUS
 10
4.0903221749
 20
7.0599016824
 11
3.8891978088
 21
7.0774977844
  0
LINE
  5
279
100
AcDbEntity
  8
0
100
AcDbLine
 62
7
  6
CONTINUOUS
 10
4.0887498458
 20
7.0618449663
 11
3.8910836984
 21
7.0791385134
  0
LINE
  5
27A
100
AcDbEntity
  8
0
100
AcDbLine
 62
7
  6
CONTINUOUS
 10
5.3502563047
 20
7.2276645026
 11
5.4604298323
 21
7.2189570297
  0
LINE
  5
27B
100
AcDbEntity
  8
0
100
AcDbLine
 62
7
  6
CONTINUOUS
 10
4.0973797824
 20
7.1604855925
 11
3.899713635
 21
7.1777791396
  0
LINE
  5
27C
100
AcDbEntity
  8
0
100
AcDbLine
 62
7
  6
CONTINUOUS
 10
4.0993298132
 20
7.1621218626
 11
3.8980773648
 21
7.1797291704
  0
LINE
  5
27D
100
AcDbEntity
  8
0
100
AcDbLine
 62
7
  6
CONTINUOUS
 10
3.9004073991
 20
7.2011984124
 11
4.1007632722
 21
7.1836695448
  0
LINE
  5
27E
100
AcDbEntity
  8
0
100
AcDbLine
 62
7
  6
CONTINUOUS
 10
4.1119449018
 20
7.3269654227
 11
3.9142787116
 21
7.3442589735
  0
LINE
  5
27F
100
AcDbEntity
  8
0
100
AcDbLine
 62
7
  6
CONTINUOUS
 10
5.4604298323
 20
7.2680892991
 11
5.6588510752
 21
7.2680892991
  0
ARC
  5
280
100
AcDbEntity
  8
0
100
AcDbCircle
 62
7
  6
CONTINUOUS
 10
4.7849021217
 20
7.2680900793
 40
0.8739498063
100
AcDbArc
 50
359.9999488512
 51
175.0000512297
  0
ARC
  5
281
100
AcDbEntity
  8
0
100
AcDbCircle
 62
7
  6
CONTINUOUS
 10
4.7849021217
 20
7.2680900793
 40
0.6755257694
100
AcDbArc
 50
359.9999338271
 51
175.0000662776
  0
ARC
  5
282
100
AcDbEntity
  8
0
100
AcDbCircle
 62
7
  6
CONTINUOUS
 10
4.0998219901
 20
7.1729106421
 40
0.0108
100
AcDbArc
 50
267.3880154634
 51
85.0
  0
ARC
  5
283
100
AcDbEntity
  8
0
100
AcDbCircle
 62
7
  6
CONTINUOUS
 10
4.0889972469
 20
7.0491832606
 40
0.0108
100
AcDbArc
 50
265.0
 51
82.9532869023
  0
ARC
  5
284
100
AcDbEntity
  8
0
100
AcDbCircle
 62
7
  6
CONTINUOUS
 10
3.899466117
 20
7.1904395096
 40
0.0108
100
AcDbArc
 50
85.0
 51
262.6119845366
  0
ARC
  5
285
100
AcDbEntity
  8
0
100
AcDbCircle
 62
7
  6
CONTINUOUS
 10
3.8886413738
 20
7.0667121281
 40
0.0108
100
AcDbArc
 50
87.0467130977
 51
265.0
  0
ARC
  5
286
100
AcDbEntity
  8
0
100
AcDbCircle
 62
7
  6
CONTINUOUS
 10
4.0905429963
 20
7.061688086
 40
0.0018
100
AcDbArc
 50
175.0
 51
262.9532869024
  0
ARC
  5
287
100
AcDbEntity
  8
0
100
AcDbCircle
 62
7
  6
CONTINUOUS
 10
3.8892905479
 20
7.0792953937
 40
0.0018
100
AcDbArc
 50
267.0467130977
 51
355.0
  0
ARC
  5
288
100
AcDbEntity
  8
0
100
AcDbCircle
 62
7
  6
CONTINUOUS
 10
4.0991729328
 20
7.1603287122
 40
0.0018
100
AcDbArc
 50
84.9999999998
 51
175.0
  0
ARC
  5
289
100
AcDbEntity
  8
0
100
AcDbCircle
 62
7
  6
CONTINUOUS
 10
3.8979204845
 20
7.1779360199
 40
0.0018
100
AcDbArc
 50
355.0
 51
85.0000000002
  0
ARC
  5
28A
100
AcDbEntity
  8
0
100
AcDbCircle
 62
7
  6
CONTINUOUS
 10
5.2439469939
 20
0.2630803752
 40
0.24138
100
AcDbArc
 50
119.2540695195
 51
157.1371210089
  0
ARC
  5
28B
100
AcDbEntity
  8
0
100
AcDbCircle
 62
7
  6
CONTINUOUS
 10
5.8753339136
 20
0.2630803752
 40
0.24138
100
AcDbArc
 50
22.8628789911
 51
60.7459304805
  0
ARC
  5
28C
100
AcDbEntity
  8
0
100
AcDbCircle
 62
7
  6
CONTINUOUS
 10
5.2714538472
 20
0.4547542873
 40
0.1404
100
AcDbArc
 50
109.5445312884
 51
167.5928966499
  0
ARC
  5
28D
100
AcDbEntity
  8
0
100
AcDbCircle
 62
7
  6
CONTINUOUS
 10
5.8478270602
 20
0.4547542873
 40
0.1404
100
AcDbArc
 50
12.4071033501
 51
70.4554687116
  0
ARC
  5
28E
100
AcDbEntity
  8
0
100
AcDbCircle
 62
7
  6
CONTINUOUS
 10
5.1176321576
 20
0.488594172
 40
0.0171
100
AcDbArc
 50
299.2540695195
 51
347.5928966499
  0
ARC
  5
28F
100
AcDbEntity
  8
0
100
AcDbCircle
 62
7
  6
CONTINUOUS
 10
6.0016487499
 20
0.488594172
 40
0.0171
100
AcDbArc
 50
192.4071033501
 51
240.7459304805
  0
ARC
  5
290
100
AcDbEntity
  8
0
100
AcDbCircle
 62
7
  6
CONTINUOUS
 10
5.4072474305
 20
6.1294418526
 40
0.0510069767
100
AcDbArc
 50
103.9621148137
 51
175.6448696366
  0
ARC
  5
291
100
AcDbEntity
  8
0
100
AcDbCircle
 62
7
  6
CONTINUOUS
 10
5.4444138232
 20
6.1805653408
 40
0.0495
100
AcDbArc
 50
104.7147806926
 51
181.879509247
  0
ARC
  5
292
100
AcDbEntity
  8
0
100
AcDbCircle
 62
7
  6
CONTINUOUS
 10
5.3867270679
 20
5.2039300416
 40
0.0042519685
100
AcDbArc
 50
90.0
 51
180.0
  0
ARC
  5
293
100
AcDbEntity
  8
0
100
AcDbCircle
 62
7
  6
CONTINUOUS
 10
5.3599773401
 20
6.1330418526
 40
0.0036
100
AcDbArc
 50
175.6448696366
 51
270.0
  0
ARC
  5
294
100
AcDbEntity
  8
0
100
AcDbCircle
 62
7
  6
CONTINUOUS
 10
5.3860184065
 20
5.2117253172
 40
0.0035433071
100
AcDbArc
 50
180.0
 51
270.0
  0
ARC
  5
295
100
AcDbEntity
  8
0
100
AcDbCircle
 62
7
  6
CONTINUOUS
 10
5.3860184065
 20
6.1258985455
 40
0.0035433071
100
AcDbArc
 50
90.0
 51
180.0
  0
ARC
  5
296
100
AcDbEntity
  8
0
100
AcDbCircle
 62
7
  6
CONTINUOUS
 10
5.4344433778
 20
5.5155637891
 40
0.0029969205
100
AcDbArc
 50
167.0928085914
 51
169.1785793148
  0
ARC
  5
297
100
AcDbEntity
  8
0
100
AcDbCircle
 62
7
  6
CONTINUOUS
 10
5.3614316623
 20
7.3690635726
 40
0.14184
100
AcDbArc
 50
246.1011479569
 51
265.4810692104
  0
ARC
  5
298
100
AcDbEntity
  8
0
100
AcDbCircle
 62
7
  6
CONTINUOUS
 10
5.4437183625
 20
6.7750018602
 40
0.0072
100
AcDbArc
 50
202.5
 51
292.5
  0
ARC
  5
299
100
AcDbEntity
  8
0
100
AcDbCircle
 62
7
  6
CONTINUOUS
 10
5.2511903277
 20
7.239805653
 40
0.0072
100
AcDbArc
 50
112.5
 51
202.5
  0
ARC
  5
29A
100
AcDbEntity
  8
0
100
AcDbCircle
 62
7
  6
CONTINUOUS
 10
5.2539383992
 20
7.2092839696
 40
0.0036
100
AcDbArc
 50
292.5
 51
325.1317573789
  0
ARC
  5
29B
100
AcDbEntity
  8
0
100
AcDbCircle
 62
7
  6
CONTINUOUS
 10
5.4240794533
 20
6.7985271295
 40
0.0036
100
AcDbArc
 50
79.8682426211
 51
112.5
  0
ARC
  5
29C
100
AcDbEntity
  8
0
100
AcDbCircle
 62
7
  6
CONTINUOUS
 10
5.2571667739
 20
7.17262924
 40
0.0036
100
AcDbArc
 50
292.5
 51
12.4999486749
  0
ARC
  5
29D
100
AcDbEntity
  8
0
100
AcDbCircle
 62
7
  6
CONTINUOUS
 10
5.400443451
 20
6.826728743
 40
0.0036
100
AcDbArc
 50
32.5000513251
 51
112.5
  0
ARC
  5
29E
100
AcDbEntity
  8
0
100
AcDbCircle
 62
7
  6
CONTINUOUS
 10
5.3768074487
 20
6.8549303565
 40
0.0036
100
AcDbArc
 50
32.5000633043
 51
112.5
  0
ARC
  5
29F
100
AcDbEntity
  8
0
100
AcDbCircle
 62
7
  6
CONTINUOUS
 10
5.3319326846
 20
6.9084299412
 40
0.0036
100
AcDbArc
 50
32.5001222301
 51
110.9672257124
  0
ARC
  5
2A0
100
AcDbEntity
  8
0
100
AcDbCircle
 62
7
  6
CONTINUOUS
 10
5.3531714464
 20
6.88313197
 40
0.0036
100
AcDbArc
 50
32.5000874532
 51
110.9672257125
  0
ARC
  5
2A1
100
AcDbEntity
  8
0
100
AcDbCircle
 62
7
  6
CONTINUOUS
 10
5.2603951485
 20
7.1359745103
 40
0.0036
100
AcDbArc
 50
292.5
 51
12.4999366957
  0
ARC
  5
2A2
100
AcDbEntity
  8
0
100
AcDbCircle
 62
7
  6
CONTINUOUS
 10
5.2664938177
 20
7.0664133412
 40
0.0036
100
AcDbArc
 50
294.0327742875
 51
12.4998777699
  0
ARC
  5
2A3
100
AcDbEntity
  8
0
100
AcDbCircle
 62
7
  6
CONTINUOUS
 10
5.2636235232
 20
7.0993197806
 40
0.0036
100
AcDbArc
 50
294.0327742875
 51
12.4999125468
  0
ARC
  5
2A4
100
AcDbEntity
  8
0
100
AcDbCircle
 62
7
  6
CONTINUOUS
 10
5.3744413315
 20
6.8597951966
 40
0.0018
100
AcDbArc
 50
212.5000032006
 51
292.5
  0
ARC
  5
2A5
100
AcDbEntity
  8
0
100
AcDbCircle
 62
7
  6
CONTINUOUS
 10
5.3104444296
 20
6.9441697969
 40
0.0018
100
AcDbArc
 50
202.4998990127
 51
212.4998928466
  0
ARC
  5
2A6
100
AcDbEntity
  8
0
100
AcDbCircle
 62
7
  6
CONTINUOUS
 10
5.2765712212
 20
7.025946956
 40
0.0018
100
AcDbArc
 50
192.5001071534
 51
202.5001009872
  0
ARC
  5
2A7
100
AcDbEntity
  8
0
100
AcDbCircle
 62
7
  6
CONTINUOUS
 10
5.3980773338
 20
6.8315935831
 40
0.0018
100
AcDbArc
 50
212.5000037312
 51
292.5
  0
ARC
  5
2A8
100
AcDbEntity
  8
0
100
AcDbCircle
 62
7
  6
CONTINUOUS
 10
5.2557052632
 20
7.2041709108
 40
0.0018
100
AcDbArc
 50
112.5
 51
192.4999875767
  0
ARC
  5
2A9
100
AcDbEntity
  8
0
100
AcDbCircle
 62
7
  6
CONTINUOUS
 10
5.2686938042
 20
7.0614796876
 40
0.0018
100
AcDbArc
 50
114.0327742878
 51
192.5000683522
  0
ARC
  5
2AA
100
AcDbEntity
  8
0
100
AcDbCircle
 62
7
  6
CONTINUOUS
 10
5.3299996901
 20
6.9134741865
 40
0.0018
100
AcDbArc
 50
212.4999316478
 51
290.9672257122
  0
ARC
  5
2AB
100
AcDbEntity
  8
0
100
AcDbCircle
 62
7
  6
CONTINUOUS
 10
5.2658235097
 20
7.094386127
 40
0.0018
100
AcDbArc
 50
114.0327742876
 51
192.5000143458
  0
ARC
  5
2AC
100
AcDbEntity
  8
0
100
AcDbCircle
 62
7
  6
CONTINUOUS
 10
5.3512384518
 20
6.8881762154
 40
0.0018
100
AcDbArc
 50
212.4999856542
 51
290.9672257124
  0
ARC
  5
2AD
100
AcDbEntity
  8
0
100
AcDbCircle
 62
7
  6
CONTINUOUS
 10
5.2621620125
 20
7.1308614514
 40
0.0018
100
AcDbArc
 50
112.5
 51
192.4999967994
  0
ARC
  5
2AE
100
AcDbEntity
  8
0
100
AcDbCircle
 62
7
  6
CONTINUOUS
 10
5.4217133362
 20
6.8033919696
 40
0.0018
100
AcDbArc
 50
212.5000124233
 51
292.5
  0
ARC
  5
2AF
100
AcDbEntity
  8
0
100
AcDbCircle
 62
7
  6
CONTINUOUS
 10
5.2589336378
 20
7.1675161811
 40
0.0018
100
AcDbArc
 50
112.5
 51
192.4999962688
  0
ARC
  5
2B0
100
AcDbEntity
  8
0
100
AcDbCircle
 62
7
  6
CONTINUOUS
 10
5.5596404537
 20
5.491646577
 40
0.2016
100
AcDbArc
 50
320.7601335863
 51
339.2398664137
  0
ARC
  5
2B1
100
AcDbEntity
  8
0
100
AcDbCircle
 62
7
  6
CONTINUOUS
 10
5.5596404537
 20
5.491646577
 40
0.2016
100
AcDbArc
 50
20.7601335863
 51
39.2398664137
  0
ARC
  5
2B2
100
AcDbEntity
  8
0
100
AcDbCircle
 62
7
  6
CONTINUOUS
 10
5.5596404537
 20
5.491646577
 40
0.2016
100
AcDbArc
 50
140.7601335863
 51
159.2398664137
  0
ARC
  5
2B3
100
AcDbEntity
  8
0
100
AcDbCircle
 62
7
  6
CONTINUOUS
 10
5.5596404537
 20
5.491646577
 40
0.2016
100
AcDbArc
 50
200.7601335863
 51
219.2398664137
  0
ARC
  5
2B4
100
AcDbEntity
  8
0
100
AcDbCircle
 62
7
  6
CONTINUOUS
 10
5.5596404537
 20
5.491646577
 40
0.2016
100
AcDbArc
 50
260.7601335863
 51
279.2398664137
  0
ARC
  5
2B5
100
AcDbEntity
  8
0
100
AcDbCircle
 62
7
  6
CONTINUOUS
 10
5.5596404537
 20
5.491646577
 40
0.1855730831
100
AcDbArc
 50
105.8992015596
 51
74.1007984403
  0
ARC
  5
2B6
100
AcDbEntity
  8
0
100
AcDbCircle
 62
7
  6
CONTINUOUS
 10
5.5596404537
 20
5.491646577
 40
0.1732509499
100
AcDbArc
 50
106.9098723693
 51
73.0901276307
  0
ARC
  5
2B7
100
AcDbEntity
  8
0
100
AcDbCircle
 62
7
  6
CONTINUOUS
 10
5.5577316739
 20
5.524650674
 40
0.1656954935
100
AcDbArc
 50
61.4724562443
 51
71.2920383804
  0
ARC
  5
2B8
100
AcDbEntity
  8
0
100
AcDbCircle
 62
7
  6
CONTINUOUS
 10
5.5596404537
 20
5.491646577
 40
0.130458056
100
AcDbArc
 50
111.9802346523
 51
169.1847925786
  0
ARC
  5
2B9
100
AcDbEntity
  8
0
100
AcDbCircle
 62
7
  6
CONTINUOUS
 10
5.5596404537
 20
5.491646577
 40
0.130458056
100
AcDbArc
 50
10.8151343925
 51
68.0197653478
  0
ARC
  5
2BA
100
AcDbEntity
  8
0
100
AcDbCircle
 62
7
  6
CONTINUOUS
 10
5.5596404537
 20
5.491646577
 40
0.124878056
100
AcDbArc
 50
14.4562404271
 51
67.085600804
  0
ARC
  5
2BB
100
AcDbEntity
  8
0
100
AcDbCircle
 62
7
  6
CONTINUOUS
 10
5.5596404537
 20
5.491646577
 40
0.124878056
100
AcDbArc
 50
112.9143990907
 51
165.5437433676
  0
ARC
  5
2BC
100
AcDbEntity
  8
0
100
AcDbCircle
 62
7
  6
CONTINUOUS
 10
5.5596113358
 20
5.509280931
 40
0.100155945
100
AcDbArc
 50
69.0867665675
 51
89.9833425622
  0
ARC
  5
2BD
100
AcDbEntity
  8
0
100
AcDbCircle
 62
7
  6
CONTINUOUS
 10
5.5596694364
 20
5.5092815761
 40
0.1001552944
100
AcDbArc
 50
90.0165801734
 51
110.9132952053
  0
CIRCLE
  5
2BE
100
AcDbEntity
  8
0
100
AcDbCircle
 62
7
  6
CONTINUOUS
 10
5.5596404537
 20
5.5029851597
 40
0.099
  0
CIRCLE
  5
2BF
100
AcDbEntity
  8
0
100
AcDbCircle
 62
7
  6
CONTINUOUS
 10
5.5596404537
 20
5.5029851597
 40
0.0927
  0
CIRCLE
  5
2C0
100
AcDbEntity
  8
0
100
AcDbCircle
 62
7
  6
CONTINUOUS
 10
5.5596404537
 20
5.5029851597
 40
0.0783
  0
ARC
  5
2C1
100
AcDbEntity
  8
0
100
AcDbCircle
 62
7
  6
CONTINUOUS
 10
5.5551360218
 20
5.4075391179
 40
0.0738044321
100
AcDbArc
 50
347.5697090352
 51
0.0037756643
  0
ARC
  5
2C2
100
AcDbEntity
  8
0
100
AcDbCircle
 62
7
  6
CONTINUOUS
 10
5.5641444828
 20
5.4075390741
 40
0.0738040292
100
AcDbArc
 50
179.9961902649
 51
192.4303250356
  0
CIRCLE
  5
2C3
100
AcDbEntity
  8
0
100
AcDbCircle
 62
7
  6
CONTINUOUS
 10
5.5596404537
 20
5.5029851597
 40
0.0729
  0
CIRCLE
  5
2C4
100
AcDbEntity
  8
0
100
AcDbCircle
 62
7
  6
CONTINUOUS
 10
5.5596404537
 20
5.5029851597
 40
0.0693
  0
ARC
  5
2C5
100
AcDbEntity
  8
0
100
AcDbCircle
 62
7
  6
CONTINUOUS
 10
5.5596404537
 20
5.4111944016
 40
0.0639
100
AcDbArc
 50
180.0
 51
360.0
  0
ARC
  5
2C6
100
AcDbEntity
  8
0
100
AcDbCircle
 62
7
  6
CONTINUOUS
 10
5.5596404537
 20
5.8629851597
 40
0.18
100
AcDbArc
 50
71.0642907132
 51
108.9357092868
  0
ARC
  5
2C7
100
AcDbEntity
  8
0
100
AcDbCircle
 62
7
  6
CONTINUOUS
 10
5.7325538395
 20
5.2039300416
 40
0.0042519685
100
AcDbArc
 50
0.0
 51
90.0
  0
ARC
  5
2C8
100
AcDbEntity
  8
0
100
AcDbCircle
 62
7
  6
CONTINUOUS
 10
5.733262501
 20
5.2117253172
 40
0.0035433071
100
AcDbArc
 50
270.0
 51
360.0
  0
ARC
  5
2C9
100
AcDbEntity
  8
0
100
AcDbCircle
 62
7
  6
CONTINUOUS
 10
5.712033477
 20
6.1294418526
 40
0.0510069767
100
AcDbArc
 50
4.3551303634
 51
76.0378851863
  0
ARC
  5
2CA
100
AcDbEntity
  8
0
100
AcDbCircle
 62
7
  6
CONTINUOUS
 10
5.6748670843
 20
6.1805653408
 40
0.0495
100
AcDbArc
 50
358.120490753
 51
75.2852193074
  0
ARC
  5
2CB
100
AcDbEntity
  8
0
100
AcDbCircle
 62
7
  6
CONTINUOUS
 10
5.7593035674
 20
6.1330418526
 40
0.0036
100
AcDbArc
 50
270.0
 51
4.3551303634
  0
ARC
  5
2CC
100
AcDbEntity
  8
0
100
AcDbCircle
 62
7
  6
CONTINUOUS
 10
5.733262501
 20
6.1258985455
 40
0.0035433071
100
AcDbArc
 50
0.0
 51
90.0
  0
LINE
  5
2CD
100
AcDbEntity
  8
0
100
AcDbLine
 62
7
  6
CONTINUOUS
 10
5.2770742056
 20
7.0295217999
 11
5.2775225784
 21
7.0288027606
  0
SPLINE
  5
2CE
100
AcDbEntity
  8
0
100
AcDbSpline
 62
7
  6
CONTINUOUS
 70
0
 71
3
 72
21
 73
17
 74
0
 42
0.0000001
 43
0.0000001
 44
0.0000000001
 40
0.0
 40
0.0
 40
0.0
 40
0.0
 40
0.0082816265
 40
0.0171467686
 40
0.0270876354
 40
0.0384483596
 40
0.066198886
 40
0.1013549882
 40
0.1441450234
 40
0.1944748179
 40
0.2520579663
 40
0.3164737831
 40
0.4636118506
 40
0.6307722644
 40
0.8118267969
 40
1.0
 40
1.0
 40
1.0
 40
1.0
 10
5.293797916
 20
6.9882467338
 30
0.0
 10
5.29380543
 20
6.9882498455
 30
0.0
 10
5.2938220042
 20
6.9882540427
 30
0.0
 10
5.2938488482
 20
6.9882535041
 30
0.0
 10
5.2938778235
 20
6.988246519
 30
0.0
 10
5.2939222768
 20
6.988227542
 30
0.0
 10
5.2939829757
 20
6.9881861139
 30
0.0
 10
5.2940596039
 20
6.9881158866
 30
0.0
 10
5.2941440481
 20
6.9880221973
 30
0.0
 10
5.2942355555
 20
6.9879057921
 30
0.0
 10
5.2943333311
 20
6.9877675904
 30
0.0
 10
5.2944772989
 20
6.9875458776
 30
0.0
 10
5.2946642013
 20
6.9872240906
 30
0.0
 10
5.2948890375
 20
6.9867925787
 30
0.0
 10
5.2951146297
 20
6.9863164557
 30
0.0
 10
5.295258822
 20
6.9859836814
 30
0.0
 10
5.2953295392
 20
6.985812955
 30
0.0
  0
SPLINE
  5
2CF
100
AcDbEntity
  8
0
100
AcDbSpline
 62
7
  6
CONTINUOUS
 70
0
 71
3
 72
23
 73
19
 74
0
 42
0.0000001
 43
0.0000001
 44
0.0000000001
 40
0.0
 40
0.0
 40
0.0
 40
0.0
 40
0.0127908587
 40
0.0224825908
 40
0.0347876407
 40
0.0497951536
 40
0.0675073443
 40
0.0878790283
 40
0.1108340448
 40
0.1640684476
 40
0.2262021306
 40
0.295988949
 40
0.3719956319
 40
0.5362231144
 40
0.7050996221
 40
0.8642350538
 40
0.9358229032
 40
1.0
 40
1.0
 40
1.0
 40
1.0
 10
5.3105223538
 20
6.9469408745
 30
0.0
 10
5.3105413577
 20
6.9469499286
 30
0.0
 10
5.3105828617
 20
6.9469409586
 30
0.0
 10
5.3106317684
 20
6.9469135457
 30
0.0
 10
5.3106814608
 20
6.9468774122
 30
0.0
 10
5.3107371266
 20
6.9468286362
 30
0.0
 10
5.3107993959
 20
6.9467672178
 30
0.0
 10
5.3108676275
 20
6.9466934771
 30
0.0
 10
5.3109714083
 20
6.9465730881
 30
0.0
 10
5.311112428
 20
6.9463942612
 30
0.0
 10
5.3112917787
 20
6.9461478547
 30
0.0
 10
5.3114847583
 20
6.9458652109
 30
0.0
 10
5.3117619608
 20
6.9454368204
 30
0.0
 10
5.3121094008
 20
6.9448598722
 30
0.0
 10
5.3125025882
 20
6.9441514287
 30
0.0
 10
5.3128012175
 20
6.9435652762
 30
0.0
 10
5.313006823
 20
6.943125607
 30
0.0
 10
5.3130960807
 20
6.9429207288
 30
0.0
 10
5.3131364995
 20
6.9428231493
 30
0.0
  0
SPLINE
  5
2D0
100
AcDbEntity
  8
0
100
AcDbSpline
 62
7
  6
CONTINUOUS
 70
0
 71
3
 72
12
 73
8
 74
0
 42
0.0000001
 43
0.0000001
 44
0.0000000001
 40
0.0
 40
0.0
 40
0.0
 40
0.0
 40
0.0987100887
 40
0.181353222
 40
0.2901654989
 40
0.5896465258
 40
1.0
 40
1.0
 40
1.0
 40
1.0
 10
5.2587828687
 20
7.1859630584
 30
0.0
 10
5.2587852688
 20
7.1859636011
 30
0.0
 10
5.2587897669
 20
7.1859605045
 30
0.0
 10
5.2587942137
 20
7.1859551459
 30
0.0
 10
5.2588011142
 20
7.1859448571
 30
0.0
 10
5.2588103471
 20
7.1859267108
 30
0.0
 10
5.2588174467
 20
7.185910468
 30
0.0
 10
5.2588213615
 20
7.1859010169
 30
0.0
  0
LINE
  5
2D1
100
AcDbEntity
  8
0
100
AcDbLine
 62
7
  6
CONTINUOUS
 10
5.273556348
 20
7.1500563073
 11
5.2738915857
 21
7.1495182799
  0
SPLINE
  5
2D2
100
AcDbEntity
  8
0
100
AcDbSpline
 62
7
  6
CONTINUOUS
 70
0
 71
3
 72
19
 73
15
 74
0
 42
0.0000001
 43
0.0000001
 44
0.0000000001
 40
0.0
 40
0.0
 40
0.0
 40
0.0
 40
0.018707859
 40
0.0406203172
 40
0.0677957064
 40
0.1012588426
 40
0.141469422
 40
0.1885850721
 40
0.242596587
 40
0.3033865424
 40
0.4444434816
 40
0.6095748729
 40
0.7958886226
 40
1.0
 40
1.0
 40
1.0
 40
1.0
 10
5.3001767168
 20
7.0853463049
 30
0.0
 10
5.3001866868
 20
7.0853495694
 30
0.0
 10
5.300210231
 20
7.0853513274
 30
0.0
 10
5.3002469483
 20
7.085339454
 30
0.0
 10
5.300286562
 20
7.0853149917
 30
0.0
 10
5.3003295669
 20
7.0852780304
 30
0.0
 10
5.3003760269
 20
7.0852286218
 30
0.0
 10
5.3004258078
 20
7.0851668754
 30
0.0
 10
5.3004786977
 20
7.085093025
 30
0.0
 10
5.3005569665
 20
7.0849727316
 30
0.0
 10
5.300659588
 20
7.0847941895
 30
0.0
 10
5.3007855028
 20
7.0845483054
 30
0.0
 10
5.3009170406
 20
7.0842658283
 30
0.0
 10
5.3010033883
 20
7.0840646
 30
0.0
 10
5.3010471903
 20
7.0839588527
 30
0.0
  0
SPLINE
  5
2D3
100
AcDbEntity
  8
0
100
AcDbSpline
 62
7
  6
CONTINUOUS
 70
0
 71
3
 72
21
 73
17
 74
0
 42
0.0000001
 43
0.0000001
 44
0.0000000001
 40
0.0
 40
0.0
 40
0.0
 40
0.0
 40
0.0082738066
 40
0.0171484339
 40
0.0271169192
 40
0.0385221152
 40
0.0663998697
 40
0.1017160408
 40
0.1446789077
 40
0.1951759633
 40
0.2529039944
 40
0.3174281059
 40
0.4646318039
 40
0.631628201
 40
0.8123145081
 40
1.0
 40
1.0
 40
1.0
 40
1.0
 10
5.3333732961
 20
7.0046393934
 30
0.0
 10
5.333380805
 20
7.0046425034
 30
0.0
 10
5.3333973934
 20
7.0046466827
 30
0.0
 10
5.3334242727
 20
7.0046460908
 30
0.0
 10
5.3334533225
 20
7.0046390402
 30
0.0
 10
5.3334979506
 20
7.0046199421
 30
0.0
 10
5.3335589477
 20
7.0045783451
 30
0.0
 10
5.3336360302
 20
7.0045079035
 30
0.0
 10
5.3337210159
 20
7.0044139946
 30
0.0
 10
5.3338131145
 20
7.0042973961
 30
0.0
 10
5.3339114944
 20
7.004159058
 30
0.0
 10
5.334056212
 20
7.0039373705
 30
0.0
 10
5.3342438988
 20
7.0036159045
 30
0.0
 10
5.3344693427
 20
7.0031850678
 30
0.0
 10
5.3346950961
 20
7.0027099614
 30
0.0
 10
5.334839121
 20
7.0023779159
 30
0.0
 10
5.3349096748
 20
7.002207584
 30
0.0
  0
SPLINE
  5
2D4
100
AcDbEntity
  8
0
100
AcDbSpline
 62
7
  6
CONTINUOUS
 70
0
 71
3
 72
23
 73
19
 74
0
 42
0.0000001
 43
0.0000001
 44
0.0000000001
 40
0.0
 40
0.0
 40
0.0
 40
0.0
 40
0.0068912357
 40
0.014752691
 40
0.0242527265
 40
0.035759071
 40
0.0494534062
 40
0.0654167594
 40
0.1041829953
 40
0.151856484
 40
0.2078809861
 40
0.2714852419
 40
0.3417372111
 40
0.4175754033
 40
0.4978348553
 40
0.6665835059
 40
0.8375157341
 40
1.0
 40
1.0
 40
1.0
 40
1.0
 10
5.3665749784
 20
6.923916717
 30
0.0
 10
5.3665835359
 20
6.9239210529
 30
0.0
 10
5.366604005
 20
6.9239263952
 30
0.0
 10
5.3666380532
 20
6.9239228501
 30
0.0
 10
5.3666761234
 20
6.9239092265
 30
0.0
 10
5.3667185078
 20
6.9238857598
 30
0.0
 10
5.3667652941
 20
6.9238525261
 30
0.0
 10
5.3668382302
 20
6.9237911413
 30
0.0
 10
5.3669382706
 20
6.9236892102
 30
0.0
 10
5.3670664998
 20
6.9235378026
 30
0.0
 10
5.3672074854
 20
6.9233523069
 30
0.0
 10
5.3673589666
 20
6.9231356229
 30
0.0
 10
5.367518495
 20
6.9228911029
 30
0.0
 10
5.3676835172
 20
6.9226226304
 30
0.0
 10
5.3679111537
 20
6.9222318456
 30
0.0
 10
5.368188998
 20
6.9217172886
 30
0.0
 10
5.3684974101
 20
6.9210897712
 30
0.0
 10
5.3686855981
 20
6.9206652912
 30
0.0
 10
5.3687721588
 20
6.9204563151
 30
0.0
  0
LINE
  5
2D5
100
AcDbEntity
  8
0
100
AcDbLine
 62
7
  6
CONTINUOUS
 10
5.3932066658
 20
6.8591717902
 11
5.3937127376
 21
6.8587014091
  0
SPLINE
  5
2D6
100
AcDbEntity
  8
0
100
AcDbSpline
 62
7
  6
CONTINUOUS
 70
0
 71
3
 72
15
 73
11
 74
0
 42
0.0000001
 43
0.0000001
 44
0.0000000001
 40
0.0
 40
0.0
 40
0.0
 40
0.0
 40
0.1036683517
 40
0.2262132874
 40
0.3617403563
 40
0.5036798395
 40
0.6451297487
 40
0.779214099
 40
0.8994301991
 40
1.0
 40
1.0
 40
1.0
 40
1.0
 10
5.3937127376
 20
6.8587014091
 30
0.0
 10
5.3938060646
 20
6.8585809001
 30
0.0
 10
5.3940016513
 20
6.8583117083
 30
0.0
 10
5.3942985384
 20
6.8578703437
 30
0.0
 10
5.3946127163
 20
6.8573730744
 30
0.0
 10
5.3949287166
 20
6.8568443227
 30
0.0
 10
5.3952310432
 20
6.8563100723
 30
0.0
 10
5.395505012
 20
6.8557966574
 30
0.0
 10
5.3957373363
 20
6.855329407
 30
0.0
 10
5.3958711764
 20
6.8550334976
 30
0.0
 10
5.3959277622
 20
6.8548968874
 30
0.0
  0
LINE
  5
2D7
100
AcDbEntity
  8
0
100
AcDbLine
 62
7
  6
CONTINUOUS
 10
5.4079890757
 20
6.8232375218
 11
5.4083270992
 21
6.8228246564
  0
LINE
  5
2D8
100
AcDbEntity
  8
0
100
AcDbLine
 62
7
  6
CONTINUOUS
 10
5.4083270992
 20
6.8228246564
 11
5.4108438062
 21
6.8188204676
  0
LINE
  5
2D9
100
AcDbEntity
  8
0
100
AcDbLine
 62
7
  6
CONTINUOUS
 10
5.4108438062
 20
6.8188204676
 11
5.4109979845
 21
6.8185141496
  0
LINE
  5
2DA
100
AcDbEntity
  8
0
100
AcDbLine
 62
7
  6
CONTINUOUS
 10
5.2684065875
 20
7.1341070767
 11
5.2686126106
 21
7.133776326
  0
SPLINE
  5
2DB
100
AcDbEntity
  8
0
100
AcDbSpline
 62
7
  6
CONTINUOUS
 70
0
 71
3
 72
18
 73
14
 74
0
 42
0.0000001
 43
0.0000001
 44
0.0000000001
 40
0.0
 40
0.0
 40
0.0
 40
0.0
 40
0.018878944
 40
0.0407835171
 40
0.0677733401
 40
0.1009153618
 40
0.1407027032
 40
0.1873355008
 40
0.3011071085
 40
0.441400492
 40
0.6063773278
 40
0.7935595364
 40
1.0
 40
1.0
 40
1.0
 40
1.0
 10
5.2916073447
 20
7.0776322594
 30
0.0
 10
5.2916162404
 20
7.0776351796
 30
0.0
 10
5.2916371058
 20
7.0776369169
 30
0.0
 10
5.2916696878
 20
7.0776267785
 30
0.0
 10
5.2917046883
 20
7.0776055658
 30
0.0
 10
5.2917425461
 20
7.0775733771
 30
0.0
 10
5.2917833659
 20
7.0775302607
 30
0.0
 10
5.291845825
 20
7.0774529929
 30
0.0
 10
5.2919289067
 20
7.0773288555
 30
0.0
 10
5.2920324338
 20
7.0771485699
 30
0.0
 10
5.2921435093
 20
7.0769309708
 30
0.0
 10
5.2922602397
 20
7.0766796857
 30
0.0
 10
5.2923371473
 20
7.0765002296
 30
0.0
 10
5.292376327
 20
7.0764056415
 30
0.0
  0
SPLINE
  5
2DC
100
AcDbEntity
  8
0
100
AcDbSpline
 62
7
  6
CONTINUOUS
 70
0
 71
3
 72
21
 73
17
 74
0
 42
0.0000001
 43
0.0000001
 44
0.0000000001
 40
0.0
 40
0.0
 40
0.0
 40
0.0
 40
0.0082742289
 40
0.0171478803
 40
0.027114074
 40
0.038515819
 40
0.0663842922
 40
0.1016894
 40
0.1446408136
 40
0.1951271851
 40
0.2528463051
 40
0.3173640881
 40
0.4645650827
 40
0.6315731249
 40
0.8122834357
 40
1.0
 40
1.0
 40
1.0
 40
1.0
 10
5.3233023169
 20
7.0004678572
 30
0.0
 10
5.3233098259
 20
7.0004709672
 30
0.0
 10
5.3233264127
 20
7.0004751475
 30
0.0
 10
5.3233532883
 20
7.0004745581
 30
0.0
 10
5.323382331
 20
7.0004675101
 30
0.0
 10
5.3234269432
 20
7.0004484167
 30
0.0
 10
5.3234879128
 20
7.0004068249
 30
0.0
 10
5.3235649532
 20
7.0003363891
 30
0.0
 10
5.3236498885
 20
7.0002424848
 30
0.0
 10
5.3237419313
 20
7.0001258879
 30
0.0
 10
5.3238402527
 20
6.9999875472
 30
0.0
 10
5.3239848933
 20
6.9997658421
 30
0.0
 10
5.3241724932
 20
6.9994443386
 30
0.0
 10
5.3243978606
 20
6.999013446
 30
0.0
 10
5.3246235763
 20
6.9985382711
 30
0.0
 10
5.3247676037
 20
6.9982061826
 30
0.0
 10
5.3248381666
 20
6.9980358287
 30
0.0
  0
SPLINE
  5
2DD
100
AcDbEntity
  8
0
100
AcDbSpline
 62
7
  6
CONTINUOUS
 70
0
 71
3
 72
23
 73
19
 74
0
 42
0.0000001
 43
0.0000001
 44
0.0000000001
 40
0.0
 40
0.0
 40
0.0
 40
0.0
 40
0.0066300889
 40
0.0143483683
 40
0.0238428348
 40
0.0354680788
 40
0.0493901234
 40
0.0656729436
 40
0.1053058881
 40
0.1540671298
 40
0.2113073012
 40
0.2761575923
 40
0.3475827581
 40
0.4244146283
 40
0.5053785637
 40
0.6742346551
 40
0.842870042
 40
1.0
 40
1.0
 40
1.0
 40
1.0
 10
5.3550035212
 20
6.9232829145
 30
0.0
 10
5.3550121182
 20
6.9232872625
 30
0.0
 10
5.3550330758
 20
6.9232923027
 30
0.0
 10
5.3550678814
 20
6.9232874702
 30
0.0
 10
5.3551070916
 20
6.9232720176
 30
0.0
 10
5.3551510847
 20
6.9232461082
 30
0.0
 10
5.3551999301
 20
6.9232097994
 30
0.0
 10
5.3552764893
 20
6.9231430789
 30
0.0
 10
5.3553819054
 20
6.92303308
 30
0.0
 10
5.3555175082
 20
6.9228705125
 30
0.0
 10
5.3556669022
 20
6.9226721251
 30
0.0
 10
5.3558275165
 20
6.9224412589
 30
0.0
 10
5.3559965652
 20
6.9221817646
 30
0.0
 10
5.3561711477
 20
6.9218980721
 30
0.0
 10
5.3564106534
 20
6.9214882446
 30
0.0
 10
5.3567009518
 20
6.9209537672
 30
0.0
 10
5.3570198297
 20
6.9203094909
 30
0.0
 10
5.357212631
 20
6.9198769569
 30
0.0
 10
5.3573000057
 20
6.9196660157
 30
0.0
  0
LINE
  5
2DE
100
AcDbEntity
  8
0
100
AcDbLine
 62
7
  6
CONTINUOUS
 10
5.3782166173
 20
6.8667675005
 11
5.37868189
 21
6.8663033168
  0
SPLINE
  5
2DF
100
AcDbEntity
  8
0
100
AcDbSpline
 62
7
  6
CONTINUOUS
 70
0
 71
3
 72
16
 73
12
 74
0
 42
0.0000001
 43
0.0000001
 44
0.0000000001
 40
0.0
 40
0.0
 40
0.0
 40
0.0
 40
0.1063071009
 40
0.2337393524
 40
0.3749511983
 40
0.5217576512
 40
0.6656338689
 40
0.7982248316
 40
0.9118490297
 40
0.9594575533
 40
1.0
 40
1.0
 40
1.0
 40
1.0
 10
5.37868189
 20
6.8663033168
 30
0.0
 10
5.3787822767
 20
6.8661717663
 30
0.0
 10
5.3789948853
 20
6.8658763502
 30
0.0
 10
5.3793208222
 20
6.8653921271
 30
0.0
 10
5.3796685855
 20
6.8648468253
 30
0.0
 10
5.3800178276
 20
6.8642723128
 30
0.0
 10
5.380348239
 20
6.8637022143
 30
0.0
 10
5.3806406562
 20
6.8631699887
 30
0.0
 10
5.3808498472
 20
6.8627631409
 30
0.0
 10
5.3809842955
 20
6.8624792618
 30
0.0
 10
5.3810395702
 20
6.8623536354
 30
0.0
 10
5.3810637208
 20
6.8622953306
 30
0.0
  0
LINE
  5
2E0
100
AcDbEntity
  8
0
100
AcDbLine
 62
7
  6
CONTINUOUS
 10
5.2657500378
 20
7.1113936575
 11
5.2658253168
 21
7.1112727825
  0
SPLINE
  5
2E1
100
AcDbEntity
  8
0
100
AcDbSpline
 62
7
  6
CONTINUOUS
 70
0
 71
3
 72
12
 73
8
 74
0
 42
0.0000001
 43
0.0000001
 44
0.0000000001
 40
0.0
 40
0.0
 40
0.0
 40
0.0
 40
0.4103534904
 40
0.7098345185
 40
0.8186467885
 40
0.9012899163
 40
1.0
 40
1.0
 40
1.0
 40
1.0
 10
5.4109979845
 20
6.8185141496
 30
0.0
 10
5.4110018993
 20
6.8185046986
 30
0.0
 10
5.4110083646
 20
6.818488193
 30
0.0
 10
5.4110146672
 20
6.8184688329
 30
0.0
 10
5.4110170631
 20
6.8184566783
 30
0.0
 10
5.4110177079
 20
6.8184497448
 30
0.0
 10
5.4110167169
 20
6.8184443745
 30
0.0
 10
5.4110146359
 20
6.8184430612
 30
0.0
  0
LINE
  5
2E2
100
AcDbEntity
  8
0
100
AcDbLine
 62
7
  6
CONTINUOUS
 10
5.3959277622
 20
6.8548968874
 11
5.3960711562
 21
6.8542793957
  0
SPLINE
  5
2E3
100
AcDbEntity
  8
0
100
AcDbSpline
 62
7
  6
CONTINUOUS
 70
0
 71
3
 72
19
 73
15
 74
0
 42
0.0000001
 43
0.0000001
 44
0.0000000001
 40
0.0
 40
0.0
 40
0.0
 40
0.0
 40
0.204111375
 40
0.3904251109
 40
0.5555564961
 40
0.6966134515
 40
0.7574034092
 40
0.8114149238
 40
0.8585305733
 40
0.8987411545
 40
0.9322042926
 40
0.9593796835
 40
0.9812921417
 40
1.0
 40
1.0
 40
1.0
 40
1.0
 10
5.3687721588
 20
6.9204563151
 30
0.0
 10
5.3688159608
 20
6.9203505678
 30
0.0
 10
5.3688971937
 20
6.9201472209
 30
0.0
 10
5.3690039238
 20
6.9198544681
 30
0.0
 10
5.369088755
 20
6.9195915666
 30
0.0
 10
5.3691424389
 20
6.9193927539
 30
0.0
 10
5.3691721548
 20
6.9192523492
 30
0.0
 10
5.3691869761
 20
6.9191627303
 30
0.0
 10
5.369195437
 20
6.9190838686
 30
0.0
 10
5.369197522
 20
6.9190160793
 30
0.0
 10
5.3691932485
 20
6.9189595347
 30
0.0
 10
5.3691825349
 20
6.918914226
 30
0.0
 10
5.3691649675
 20
6.9188798672
 30
0.0
 10
5.3691470762
 20
6.9188644621
 30
0.0
 10
5.369137718
 20
6.9188597206
 30
0.0
  0
SPLINE
  5
2E4
100
AcDbEntity
  8
0
100
AcDbSpline
 62
7
  6
CONTINUOUS
 70
0
 71
3
 72
21
 73
17
 74
0
 42
0.0000001
 43
0.0000001
 44
0.0000000001
 40
0.0
 40
0.0
 40
0.0
 40
0.0
 40
0.1876854869
 40
0.3683718496
 40
0.535368186
 40
0.6825719691
 40
0.7470960435
 40
0.8048240162
 40
0.8553210827
 40
0.8982839747
 40
0.9336001256
 40
0.961477849
 40
0.9728830489
 40
0.9828515469
 40
0.9917261853
 40
1.0
 40
1.0
 40
1.0
 40
1.0
 10
5.3349096748
 20
7.002207584
 30
0.0
 10
5.3349802286
 20
7.0020372521
 30
0.0
 10
5.3351131792
 20
7.0017006194
 30
0.0
 10
5.3352894984
 20
7.0012050368
 30
0.0
 10
5.335434733
 20
7.0007409762
 30
0.0
 10
5.3355293293
 20
7.0003809508
 30
0.0
 10
5.3355837552
 20
7.0001218633
 30
0.0
 10
5.3356120099
 20
6.9999544786
 30
0.0
 10
5.3356293339
 20
6.9998069073
 30
0.0
 10
5.3356356435
 20
6.9996804097
 30
0.0
 10
5.3356309478
 20
6.9995760945
 30
0.0
 10
5.3356172298
 20
6.9995035496
 30
0.0
 10
5.3355991774
 20
6.9994584884
 30
0.0
 10
5.3355836216
 20
6.9994329615
 30
0.0
 10
5.3355650336
 20
6.9994135363
 30
0.0
 10
5.3355503486
 20
6.9994047618
 30
0.0
 10
5.3355428399
 20
6.9994016513
 30
0.0
  0
SPLINE
  5
2E5
100
AcDbEntity
  8
0
100
AcDbSpline
 62
7
  6
CONTINUOUS
 70
0
 71
3
 72
23
 73
19
 74
0
 42
0.0000001
 43
0.0000001
 44
0.0000000001
 40
0.0
 40
0.0
 40
0.0
 40
0.0
 40
0.1624842591
 40
0.3334164863
 40
0.5021651392
 40
0.5824245939
 40
0.6582627895
 40
0.7285147568
 40
0.7921190133
 40
0.8481435171
 40
0.8958170005
 40
0.9345832367
 40
0.9505465931
 40
0.9642409294
 40
0.9757472737
 40
0.9852473091
 40
0.9931087642
 40
1.0
 40
1.0
 40
1.0
 40
1.0
 10
5.3010471903
 20
7.0839588527
 30
0.0
 10
5.301133751
 20
7.0837498766
 30
0.0
 10
5.3013008347
 20
7.083316655
 30
0.0
 10
5.3015264762
 20
7.0826548528
 30
0.0
 10
5.3016938573
 20
7.0820945406
 30
0.0
 10
5.3018092206
 20
7.0816572506
 30
0.0
 10
5.301882371
 20
7.0813507236
 30
0.0
 10
5.3019424692
 20
7.0810650182
 30
0.0
 10
5.3019885745
 20
7.080804686
 30
0.0
 10
5.3020200479
 20
7.0805738289
 30
0.0
 10
5.3020364376
 20
7.0803760959
 30
0.0
 10
5.3020377744
 20
7.0802332805
 30
0.0
 10
5.3020296064
 20
7.0801383012
 30
0.0
 10
5.3020200234
 20
7.0800817185
 30
0.0
 10
5.3020066465
 20
7.0800351547
 30
0.0
 10
5.3019893601
 20
7.0799986018
 30
0.0
 10
5.3019677911
 20
7.0799720193
 30
0.0
 10
5.3019495397
 20
7.079961323
 30
0.0
 10
5.3019404227
 20
7.0799583379
 30
0.0
  0
SPLINE
  5
2E6
100
AcDbEntity
  8
0
100
AcDbSpline
 62
7
  6
CONTINUOUS
 70
0
 71
3
 72
24
 73
20
 74
0
 42
0.0000001
 43
0.0000001
 44
0.0000000001
 40
0.0
 40
0.0
 40
0.0
 40
0.0
 40
0.0583239131
 40
0.125519228
 40
0.2801103047
 40
0.4493604599
 40
0.6173881171
 40
0.6959755813
 40
0.768446717
 40
0.8331111201
 40
0.8884826288
 40
0.912290144
 40
0.9333381149
 40
0.9515278992
 40
0.9667916946
 40
0.9791082203
 40
0.9841796172
 40
0.9885502316
 40
1.0
 40
1.0
 40
1.0
 40
1.0
 10
5.2738915857
 20
7.1495182799
 30
0.0
 10
5.2739296685
 20
7.1494263397
 30
0.0
 10
5.2740072213
 20
7.149226647
 30
0.0
 10
5.2741669842
 20
7.1487761563
 30
0.0
 10
5.274367338
 20
7.1481395166
 30
0.0
 10
5.2745917682
 20
7.1473307026
 30
0.0
 10
5.2747592738
 20
7.1466410163
 30
0.0
 10
5.2748727876
 20
7.1461085084
 30
0.0
 10
5.2749418056
 20
7.1457469216
 30
0.0
 10
5.2749950462
 20
7.145422762
 30
0.0
 10
5.2750268369
 20
7.1451793162
 30
0.0
 10
5.2750426171
 20
7.145009015
 30
0.0
 10
5.2750492666
 20
7.1449016235
 30
0.0
 10
5.275051383
 20
7.1448086382
 30
0.0
 10
5.2750489183
 20
7.1447304837
 30
0.0
 10
5.2750429892
 20
7.1446751273
 30
0.0
 10
5.275035209
 20
7.1446385313
 30
0.0
 10
5.2750253055
 20
7.1446052206
 30
0.0
 10
5.2750091938
 20
7.1445763024
 30
0.0
 10
5.2749902927
 20
7.1445713614
 30
0.0
  0
LINE
  5
2E7
100
AcDbEntity
  8
0
100
AcDbLine
 62
7
  6
CONTINUOUS
 10
5.2588213615
 20
7.1859010169
 11
5.2589289331
 21
7.1855754216
  0
LINE
  5
2E8
100
AcDbEntity
  8
0
100
AcDbLine
 62
7
  6
CONTINUOUS
 10
5.2589289331
 20
7.1855754216
 11
5.2600007033
 21
7.180841947
  0
LINE
  5
2E9
100
AcDbEntity
  8
0
100
AcDbLine
 62
7
  6
CONTINUOUS
 10
5.2600007033
 20
7.180841947
 11
5.2600336701
 21
7.1804334686
  0
LINE
  5
2EA
100
AcDbEntity
  8
0
100
AcDbLine
 62
7
  6
CONTINUOUS
 10
5.2837845848
 20
7.0673970857
 11
5.2844184836
 21
7.0663849091
  0
SPLINE
  5
2EB
100
AcDbEntity
  8
0
100
AcDbSpline
 62
7
  6
CONTINUOUS
 70
0
 71
3
 72
21
 73
17
 74
0
 42
0.0000001
 43
0.0000001
 44
0.0000000001
 40
0.0
 40
0.0
 40
0.0
 40
0.0
 40
0.0082764689
 40
0.0171493944
 40
0.0271115807
 40
0.0385061599
 40
0.0663528165
 40
0.1016293643
 40
0.1445491977
 40
0.1950044612
 40
0.2526961795
 40
0.3171930444
 40
0.4643798251
 40
0.6314164561
 40
0.8121938045
 40
1.0
 40
1.0
 40
1.0
 40
1.0
 10
5.3129676313
 20
6.9961870902
 30
0.0
 10
5.3129751422
 20
6.9961902009
 30
0.0
 10
5.3129917283
 20
6.9961943852
 30
0.0
 10
5.3130186009
 20
6.9961938077
 30
0.0
 10
5.3130476343
 20
6.9961867745
 30
0.0
 10
5.3130922217
 20
6.9961677083
 30
0.0
 10
5.3131531481
 20
6.9961261556
 30
0.0
 10
5.3132301213
 20
6.9960557696
 30
0.0
 10
5.3133149757
 20
6.9959619174
 30
0.0
 10
5.3134069301
 20
6.9958453687
 30
0.0
 10
5.313505162
 20
6.9957070659
 30
0.0
 10
5.3136496959
 20
6.9954853734
 30
0.0
 10
5.3138371896
 20
6.9951638278
 30
0.0
 10
5.3140624834
 20
6.9947328224
 30
0.0
 10
5.3142881971
 20
6.994257462
 30
0.0
 10
5.3144322639
 20
6.9939252344
 30
0.0
 10
5.3145028585
 20
6.993754804
 30
0.0
  0
SPLINE
  5
2EC
100
AcDbEntity
  8
0
100
AcDbSpline
 62
7
  6
CONTINUOUS
 70
0
 71
3
 72
24
 73
20
 74
0
 42
0.0000001
 43
0.0000001
 44
0.0000000001
 40
0.0
 40
0.0
 40
0.0
 40
0.0
 40
0.0062479379
 40
0.013772949
 40
0.0232848347
 40
0.0351134205
 40
0.0493977432
 40
0.0661790046
 40
0.085444906
 40
0.1071486929
 40
0.1575579044
 40
0.216627016
 40
0.2833420528
 40
0.356513825
 40
0.4348149519
 40
0.5168081876
 40
0.6857600509
 40
0.8508943843
 40
1.0
 40
1.0
 40
1.0
 40
1.0
 10
5.3421577715
 20
6.9249503172
 30
0.0
 10
5.3421663346
 20
6.9249546226
 30
0.0
 10
5.3421878646
 20
6.9249590396
 30
0.0
 10
5.3422234294
 20
6.9249521114
 30
0.0
 10
5.3422640142
 20
6.9249338476
 30
0.0
 10
5.3423100963
 20
6.9249042253
 30
0.0
 10
5.3423617111
 20
6.9248632975
 30
0.0
 10
5.3424186969
 20
6.9248111307
 30
0.0
 10
5.3424808105
 20
6.9247479171
 30
0.0
 10
5.3425748547
 20
6.9246439255
 30
0.0
 10
5.3427021047
 20
6.9244878743
 30
0.0
 10
5.3428633952
 20
6.9242709169
 30
0.0
 10
5.3430369166
 20
6.9240197749
 30
0.0
 10
5.3432193934
 20
6.9237391416
 30
0.0
 10
5.3434073832
 20
6.923434264
 30
0.0
 10
5.3436632018
 20
6.9229987337
 30
0.0
 10
5.3439700591
 20
6.9224388521
 30
0.0
 10
5.3443018491
 20
6.9217758579
 30
0.0
 10
5.3444997006
 20
6.9213360202
 30
0.0
 10
5.3445872329
 20
6.9211246986
 30
0.0
  0
LINE
  5
2ED
100
AcDbEntity
  8
0
100
AcDbLine
 62
7
  6
CONTINUOUS
 10
5.3631803982
 20
6.8762368246
 11
5.3632126394
 21
6.8760981227
  0
LINE
  5
2EE
100
AcDbEntity
  8
0
100
AcDbLine
 62
7
  6
CONTINUOUS
 10
5.3445872329
 20
6.9211246986
 11
5.3448547157
 21
6.9199607475
  0
SPLINE
  5
2EF
100
AcDbEntity
  8
0
100
AcDbSpline
 62
7
  6
CONTINUOUS
 70
0
 71
3
 72
21
 73
17
 74
0
 42
0.0000001
 43
0.0000001
 44
0.0000000001
 40
0.0
 40
0.0
 40
0.0
 40
0.0
 40
0.1878061935
 40
0.3685835292
 40
0.5356201766
 40
0.6828069557
 40
0.747303824
 40
0.8049955463
 40
0.8554508088
 40
0.8983706402
 40
0.9336471884
 40
0.9614938457
 40
0.9728884238
 40
0.9828506084
 40
0.9917235323
 40
1.0
 40
1.0
 40
1.0
 40
1.0
 10
5.3145028585
 20
6.993754804
 30
0.0
 10
5.3145734531
 20
6.9935843735
 30
0.0
 10
5.3147065029
 20
6.9932475825
 30
0.0
 10
5.3148830297
 20
6.9927518482
 30
0.0
 10
5.3150284898
 20
6.9922877746
 30
0.0
 10
5.3151232788
 20
6.9919278295
 30
0.0
 10
5.3151778383
 20
6.9916688683
 30
0.0
 10
5.3152061726
 20
6.991501613
 30
0.0
 10
5.3152235634
 20
6.991354179
 30
0.0
 10
5.3152299258
 20
6.9912278144
 30
0.0
 10
5.315225268
 20
6.9911236157
 30
0.0
 10
5.3152115687
 20
6.991051152
 30
0.0
 10
5.3151935225
 20
6.9910061422
 30
0.0
 10
5.315177966
 20
6.9909806392
 30
0.0
 10
5.3151593726
 20
6.990961229
 30
0.0
 10
5.3151446856
 20
6.9909524597
 30
0.0
 10
5.315137175
 20
6.9909493482
 30
0.0
  0
SPLINE
  5
2F0
100
AcDbEntity
  8
0
100
AcDbSpline
 62
7
  6
CONTINUOUS
 70
0
 71
3
 72
24
 73
20
 74
0
 42
0.0000001
 43
0.0000001
 44
0.0000000001
 40
0.0
 40
0.0
 40
0.0
 40
0.0
 40
0.1491056083
 40
0.3142399445
 40
0.4831918067
 40
0.565185048
 40
0.6434861738
 40
0.7166579451
 40
0.7833729862
 40
0.8424420907
 40
0.8928513018
 40
0.9145550928
 40
0.9338209954
 40
0.9506022564
 40
0.9648865787
 40
0.9767151645
 40
0.9862270506
 40
0.993752062
 40
1.0
 40
1.0
 40
1.0
 40
1.0
 10
5.2844184836
 20
7.0663849091
 30
0.0
 10
5.2845060159
 20
7.0661735874
 30
0.0
 10
5.284677126
 20
7.0657226731
 30
0.0
 10
5.2849113227
 20
7.0650192545
 30
0.0
 10
5.2850902379
 20
7.0644063775
 30
0.0
 10
5.2852173133
 20
7.06391752
 30
0.0
 10
5.2852999654
 20
7.0635690101
 30
0.0
 10
5.2853693725
 20
7.0632415419
 30
0.0
 10
5.2854242586
 20
7.0629412594
 30
0.0
 10
5.2854636211
 20
7.0626737978
 30
0.0
 10
5.2854839866
 20
7.0624734736
 30
0.0
 10
5.2854910205
 20
7.0623334412
 30
0.0
 10
5.2854917983
 20
7.0622448214
 30
0.0
 10
5.2854883907
 20
7.0621676389
 30
0.0
 10
5.2854808339
 20
7.0621022014
 30
0.0
 10
5.2854691951
 20
7.0620486703
 30
0.0
 10
5.2854534117
 20
7.0620070581
 30
0.0
 10
5.2854331625
 20
7.061977011
 30
0.0
 10
5.2854148153
 20
7.0619649102
 30
0.0
 10
5.2854057159
 20
7.0619618996
 30
0.0
  0
LINE
  5
2F1
100
AcDbEntity
  8
0
100
AcDbLine
 62
7
  6
CONTINUOUS
 10
5.2658253168
 20
7.1112727825
 11
5.2659044208
 21
7.1110560402
  0
LINE
  5
2F2
100
AcDbEntity
  8
0
100
AcDbLine
 62
7
  6
CONTINUOUS
 10
5.2659044208
 20
7.1110560402
 11
5.2670068089
 21
7.1063201291
  0
LINE
  5
2F3
100
AcDbEntity
  8
0
100
AcDbLine
 62
7
  6
CONTINUOUS
 10
5.2670068089
 20
7.1063201291
 11
5.2670254893
 21
7.1058629585
  0
LINE
  5
2F4
100
AcDbEntity
  8
0
100
AcDbLine
 62
7
  6
CONTINUOUS
 10
5.3602037251
 20
6.8809107979
 11
5.3605912997
 21
6.8804698812
  0
LINE
  5
2F5
100
AcDbEntity
  8
0
100
AcDbLine
 62
7
  6
CONTINUOUS
 10
5.3605912997
 20
6.8804698812
 11
5.3630830698
 21
6.8764460265
  0
LINE
  5
2F6
100
AcDbEntity
  8
0
100
AcDbLine
 62
7
  6
CONTINUOUS
 10
5.3630830698
 20
6.8764460265
 11
5.3631803982
 21
6.8762368246
  0
LINE
  5
2F7
100
AcDbEntity
  8
0
100
AcDbLine
 62
7
  6
CONTINUOUS
 10
5.2683913508
 20
7.0782128425
 11
5.2684665518
 21
7.0780921568
  0
LINE
  5
2F8
100
AcDbEntity
  8
0
100
AcDbLine
 62
7
  6
CONTINUOUS
 10
5.2817978668
 20
7.0453900599
 11
5.2824310839
 21
7.0443787957
  0
SPLINE
  5
2F9
100
AcDbEntity
  8
0
100
AcDbSpline
 62
7
  6
CONTINUOUS
 70
0
 71
3
 72
21
 73
17
 74
0
 42
0.0000001
 43
0.0000001
 44
0.0000000001
 40
0.0
 40
0.0
 40
0.0
 40
0.0
 40
0.0082800617
 40
0.0171517679
 40
0.0271073257
 40
0.038490041
 40
0.0663004337
 40
0.1015293114
 40
0.144396251
 40
0.194799245
 40
0.2524447672
 40
0.3169062194
 40
0.4640684744
 40
0.6311527286
 40
0.8120427775
 40
1.0
 40
1.0
 40
1.0
 40
1.0
 10
5.3034918794
 20
6.9922621052
 30
0.0
 10
5.3034993933
 20
6.992265217
 30
0.0
 10
5.3035159784
 20
6.9922694081
 30
0.0
 10
5.3035428459
 20
6.9922688507
 30
0.0
 10
5.3035718645
 20
6.9922618429
 30
0.0
 10
5.3036164117
 20
6.9922428236
 30
0.0
 10
5.3036772689
 20
6.9922013392
 30
0.0
 10
5.3037541351
 20
6.9921310403
 30
0.0
 10
5.3038388608
 20
6.9920372804
 30
0.0
 10
5.3039306755
 20
6.9919208179
 30
0.0
 10
5.3040287668
 20
6.9917825846
 30
0.0
 10
5.3041731359
 20
6.9915609213
 30
0.0
 10
5.30436047
 20
6.9912393138
 30
0.0
 10
5.3045856597
 20
6.9908081257
 30
0.0
 10
5.3048113846
 20
6.9903324555
 30
0.0
 10
5.304955522
 20
6.9899999922
 30
0.0
 10
5.3050261707
 20
6.9898294313
 30
0.0
  0
LINE
  5
2FA
100
AcDbEntity
  8
0
100
AcDbLine
 62
7
  6
CONTINUOUS
 10
5.2701466933
 20
7.0466097209
 11
5.2713800666
 21
7.0410463338
  0
LINE
  5
2FB
100
AcDbEntity
  8
0
100
AcDbLine
 62
7
  6
CONTINUOUS
 10
5.3174506013
 20
6.9298222239
 11
5.3205123835
 21
6.9250161886
  0
LINE
  5
2FC
100
AcDbEntity
  8
0
100
AcDbLine
 62
7
  6
CONTINUOUS
 10
5.3131364995
 20
6.9428231493
 11
5.3133278896
 21
6.9419976643
  0
SPLINE
  5
2FD
100
AcDbEntity
  8
0
100
AcDbSpline
 62
7
  6
CONTINUOUS
 70
0
 71
3
 72
21
 73
17
 74
0
 42
0.0000001
 43
0.0000001
 44
0.0000000001
 40
0.0
 40
0.0
 40
0.0
 40
0.0
 40
0.1881732036
 40
0.3692277501
 40
0.5363881467
 40
0.6835262223
 40
0.7479420332
 40
0.805525174
 40
0.8558549697
 40
0.8986450081
 40
0.9338011087
 40
0.961551632
 40
0.9729123575
 40
0.9828532267
 40
0.9917183713
 40
1.0
 40
1.0
 40
1.0
 40
1.0
 10
5.2953295392
 20
6.985812955
 30
0.0
 10
5.2954002563
 20
6.9856422286
 30
0.0
 10
5.295533604
 20
6.9853049624
 30
0.0
 10
5.2957107559
 20
6.9848087748
 30
0.0
 10
5.2958568978
 20
6.9843446666
 30
0.0
 10
5.2959522756
 20
6.9839849689
 30
0.0
 10
5.2960072496
 20
6.9837263936
 30
0.0
 10
5.2960358352
 20
6.9835595325
 30
0.0
 10
5.2960534406
 20
6.9834125161
 30
0.0
 10
5.2960599779
 20
6.9832865567
 30
0.0
 10
5.2960554518
 20
6.9831827142
 30
0.0
 10
5.2960418252
 20
6.9831104995
 30
0.0
 10
5.2960238108
 20
6.9830656475
 30
0.0
 10
5.2960082614
 20
6.9830402196
 30
0.0
 10
5.2959896606
 20
6.9830208572
 30
0.0
 10
5.295974973
 20
6.9830121053
 30
0.0
 10
5.2959674595
 20
6.9830089924
 30
0.0
  0
SPLINE
  5
2FE
100
AcDbEntity
  8
0
100
AcDbSpline
 62
7
  6
CONTINUOUS
 70
0
 71
3
 72
23
 73
19
 74
0
 42
0.0000001
 43
0.0000001
 44
0.0000000001
 40
0.0
 40
0.0
 40
0.0
 40
0.0
 40
0.064177097
 40
0.1357649536
 40
0.2949003804
 40
0.4637768912
 40
0.6280043716
 40
0.7040110449
 40
0.7737978664
 40
0.8359315621
 40
0.8891659566
 40
0.9121209738
 40
0.9324926584
 40
0.9502048498
 40
0.9652123619
 40
0.977517411
 40
0.9872091422
 40
1.0
 40
1.0
 40
1.0
 40
1.0
 10
5.2775225784
 20
7.0288027606
 30
0.0
 10
5.2775629971
 20
7.0287051811
 30
0.0
 10
5.2776447531
 20
7.0284971955
 30
0.0
 10
5.2778102612
 20
7.0280409174
 30
0.0
 10
5.2780135708
 20
7.0274152822
 30
0.0
 10
5.2782364905
 20
7.0266363115
 30
0.0
 10
5.2783987774
 20
7.0259826704
 30
0.0
 10
5.2785056834
 20
7.0254837407
 30
0.0
 10
5.2785690855
 20
7.0251474242
 30
0.0
 10
5.2786165012
 20
7.0248463684
 30
0.0
 10
5.278643235
 20
7.0246202028
 30
0.0
 10
5.2786549787
 20
7.0244616907
 30
0.0
 10
5.2786588742
 20
7.0243613011
 30
0.0
 10
5.2786582725
 20
7.0242738408
 30
0.0
 10
5.2786534007
 20
7.0241999893
 30
0.0
 10
5.2786438131
 20
7.0241393012
 30
0.0
 10
5.2786286147
 20
7.0240853351
 30
0.0
 10
5.2786056097
 20
7.0240496446
 30
0.0
 10
5.2785857697
 20
7.024042609
 30
0.0
  0
LINE
  5
2FF
100
AcDbEntity
  8
0
100
AcDbLine
 62
7
  6
CONTINUOUS
 10
5.341585788
 20
6.9015667052
 11
5.3416179505
 21
6.9014281924
  0
LINE
  5
300
100
AcDbEntity
  8
0
100
AcDbLine
 62
7
  6
CONTINUOUS
 10
5.327621257
 20
6.9352800668
 11
5.3278885767
 21
6.9341172429
  0
SPLINE
  5
301
100
AcDbEntity
  8
0
100
AcDbSpline
 62
7
  6
CONTINUOUS
 70
0
 71
3
 72
21
 73
17
 74
0
 42
0.0000001
 43
0.0000001
 44
0.0000000001
 40
0.0
 40
0.0
 40
0.0
 40
0.0
 40
0.187957221
 40
0.3688472571
 40
0.5359315279
 40
0.6830937795
 40
0.7475552358
 40
0.805200763
 40
0.8556037557
 40
0.8984706928
 40
0.9336995714
 40
0.9615099654
 40
0.9728926796
 40
0.9828482354
 40
0.9917199397
 40
1.0
 40
1.0
 40
1.0
 40
1.0
 10
5.3050261707
 20
6.9898294313
 30
0.0
 10
5.3050968193
 20
6.9896588704
 30
0.0
 10
5.3052299858
 20
6.9893218629
 30
0.0
 10
5.3054067238
 20
6.9888259016
 30
0.0
 10
5.3055523866
 20
6.9883617724
 30
0.0
 10
5.3056473323
 20
6.9880018963
 30
0.0
 10
5.3057019876
 20
6.9877430723
 30
0.0
 10
5.3057303723
 20
6.9875759656
 30
0.0
 10
5.3057478009
 20
6.9874286914
 30
0.0
 10
5.305754189
 20
6.987302483
 30
0.0
 10
5.3057495452
 20
6.9871984216
 30
0.0
 10
5.3057358466
 20
6.9871260551
 30
0.0
 10
5.3057177956
 20
6.9870811068
 30
0.0
 10
5.3057022316
 20
6.9870556323
 30
0.0
 10
5.3056836276
 20
6.98703624
 30
0.0
 10
5.3056689366
 20
6.9870274761
 30
0.0
 10
5.3056614231
 20
6.9870243633
 30
0.0
  0
SPLINE
  5
302
100
AcDbEntity
  8
0
100
AcDbSpline
 62
7
  6
CONTINUOUS
 70
0
 71
3
 72
24
 73
20
 74
0
 42
0.0000001
 43
0.0000001
 44
0.0000000001
 40
0.0
 40
0.0
 40
0.0
 40
0.0
 40
0.1490518132
 40
0.3141295593
 40
0.4829892204
 40
0.5649233786
 40
0.6431632749
 40
0.7162798788
 40
0.7829556053
 40
0.8420112581
 40
0.8924415577
 40
0.9141708815
 40
0.9334727285
 40
0.950300529
 40
0.9646411498
 40
0.9765344966
 40
0.9861159268
 40
0.9937070495
 40
1.0
 40
1.0
 40
1.0
 40
1.0
 10
5.2824310839
 20
7.0443787957
 30
0.0
 10
5.2825186606
 20
7.0441673668
 30
0.0
 10
5.2826899294
 20
7.0437162488
 30
0.0
 10
5.2829244945
 20
7.0430126037
 30
0.0
 10
5.2831037822
 20
7.0423995912
 30
0.0
 10
5.2832311398
 20
7.0419106911
 30
0.0
 10
5.2833139786
 20
7.0415621827
 30
0.0
 10
5.2833835513
 20
7.0412346967
 30
0.0
 10
5.2834385804
 20
7.0409343393
 30
0.0
 10
5.2834780638
 20
7.0406667071
 30
0.0
 10
5.2834985096
 20
7.0404661641
 30
0.0
 10
5.2835056006
 20
7.0403258857
 30
0.0
 10
5.2835064146
 20
7.0402370235
 30
0.0
 10
5.2835030383
 20
7.0401595596
 30
0.0
 10
5.2834955054
 20
7.040093803
 30
0.0
 10
5.2834838853
 20
7.0400399221
 30
0.0
 10
5.2834681157
 20
7.0399979365
 30
0.0
 10
5.2834479047
 20
7.0399675134
 30
0.0
 10
5.2834295798
 20
7.0399550644
 30
0.0
 10
5.2834204551
 20
7.0399518874
 30
0.0
  0
LINE
  5
303
100
AcDbEntity
  8
0
100
AcDbLine
 62
7
  6
CONTINUOUS
 10
5.2684665518
 20
7.0780921568
 11
5.2685458535
 21
7.0778750146
  0
LINE
  5
304
100
AcDbEntity
  8
0
100
AcDbLine
 62
7
  6
CONTINUOUS
 10
5.2685458535
 20
7.0778750146
 11
5.2696511501
 21
7.0731289605
  0
LINE
  5
305
100
AcDbEntity
  8
0
100
AcDbLine
 62
7
  6
CONTINUOUS
 10
5.2696511501
 20
7.0731289605
 11
5.2696688549
 21
7.0726738091
  0
SPLINE
  5
306
100
AcDbEntity
  8
0
100
AcDbSpline
 62
7
  6
CONTINUOUS
 70
0
 71
3
 72
24
 73
20
 74
0
 42
0.0000001
 43
0.0000001
 44
0.0000000001
 40
0.0
 40
0.0
 40
0.0
 40
0.0
 40
0.0062929503
 40
0.0138840727
 40
0.0234655024
 40
0.0353588495
 40
0.0496994707
 40
0.0665272717
 40
0.0858291174
 40
0.107558437
 40
0.1579887384
 40
0.217044399
 40
0.2837201196
 40
0.3568367246
 40
0.4350766222
 40
0.5170107735
 40
0.6858704369
 40
0.8509481798
 40
1.0
 40
1.0
 40
1.0
 40
1.0
 10
5.3251905513
 20
6.9391099547
 30
0.0
 10
5.3251992499
 20
6.9391141604
 30
0.0
 10
5.3252210104
 20
6.9391183153
 30
0.0
 10
5.3252568141
 20
6.9391110942
 30
0.0
 10
5.3252976531
 20
6.9390925567
 30
0.0
 10
5.3253439693
 20
6.9390626738
 30
0.0
 10
5.3253957928
 20
6.9390215035
 30
0.0
 10
5.3254529555
 20
6.9389691156
 30
0.0
 10
5.325515215
 20
6.9389057049
 30
0.0
 10
5.3256093926
 20
6.9388014991
 30
0.0
 10
5.3257367406
 20
6.9386452364
 30
0.0
 10
5.3258980662
 20
6.9384280729
 30
0.0
 10
5.3260715396
 20
6.9381767766
 30
0.0
 10
5.3262539118
 20
6.9378960137
 30
0.0
 10
5.3264417685
 20
6.9375910052
 30
0.0
 10
5.3266974176
 20
6.9371552452
 30
0.0
 10
5.3270041074
 20
6.9365950044
 30
0.0
 10
5.3273357971
 20
6.9359315896
 30
0.0
 10
5.3275336803
 20
6.9354914956
 30
0.0
 10
5.327621257
 20
6.9352800668
 30
0.0
  0
LINE
  5
307
100
AcDbEntity
  8
0
100
AcDbLine
 62
7
  6
CONTINUOUS
 10
5.3386045943
 20
6.9062482123
 11
5.3389911576
 21
6.9058100776
  0
LINE
  5
308
100
AcDbEntity
  8
0
100
AcDbLine
 62
7
  6
CONTINUOUS
 10
5.3389911576
 20
6.9058100776
 11
5.3414883166
 21
6.9017763294
  0
LINE
  5
309
100
AcDbEntity
  8
0
100
AcDbLine
 62
7
  6
CONTINUOUS
 10
5.3414883166
 20
6.9017763294
 11
5.341585788
 21
6.9015667052
  0
LINE
  5
30A
100
AcDbEntity
  8
0
100
AcDbLine
 62
7
  6
CONTINUOUS
 10
5.259914486
 20
7.1547754537
 11
5.2611419116
 21
7.1492388945
  0
LINE
  5
30B
100
AcDbEntity
  8
0
100
AcDbLine
 62
7
  6
CONTINUOUS
 10
5.3867148259
 20
6.8460790617
 11
5.3897618435
 21
6.8412962022
  0
LINE
  5
30C
100
AcDbEntity
  8
0
100
AcDbLine
 62
7
  6
CONTINUOUS
 10
5.3810637208
 20
6.8622953306
 11
5.3811519165
 21
6.8619157743
  0
SPLINE
  5
30D
100
AcDbEntity
  8
0
100
AcDbSpline
 62
7
  6
CONTINUOUS
 70
0
 71
3
 72
18
 73
14
 74
0
 42
0.0000001
 43
0.0000001
 44
0.0000000001
 40
0.0
 40
0.0
 40
0.0
 40
0.0
 40
0.2064404615
 40
0.393622657
 40
0.5585994815
 40
0.6988928813
 40
0.8126644944
 40
0.8592972913
 40
0.8990846328
 40
0.9322266564
 40
0.9592164813
 40
0.981121056
 40
1.0
 40
1.0
 40
1.0
 40
1.0
 10
5.3573000057
 20
6.9196660157
 30
0.0
 10
5.3573391854
 20
6.9195714277
 30
0.0
 10
5.3574116981
 20
6.9193901512
 30
0.0
 10
5.3575068426
 20
6.9191299249
 30
0.0
 10
5.3575821663
 20
6.9188975168
 30
0.0
 10
5.3576364426
 20
6.918696831
 30
0.0
 10
5.3576654735
 20
6.9185503049
 30
0.0
 10
5.3576759448
 20
6.9184515031
 30
0.0
 10
5.3576775688
 20
6.9183921512
 30
0.0
 10
5.3576735601
 20
6.9183426209
 30
0.0
 10
5.3576638106
 20
6.9183028722
 30
0.0
 10
5.3576479406
 20
6.9182726642
 30
0.0
 10
5.3576319581
 20
6.9182591386
 30
0.0
 10
5.357623603
 20
6.9182549133
 30
0.0
  0
SPLINE
  5
30E
100
AcDbEntity
  8
0
100
AcDbSpline
 62
7
  6
CONTINUOUS
 70
0
 71
3
 72
21
 73
17
 74
0
 42
0.0000001
 43
0.0000001
 44
0.0000000001
 40
0.0
 40
0.0
 40
0.0
 40
0.0
 40
0.1877165619
 40
0.3684268601
 40
0.5354349186
 40
0.6826359124
 40
0.7471536986
 40
0.8048728221
 40
0.8553591927
 40
0.8983106044
 40
0.9336157126
 40
0.961484186
 40
0.97288593
 40
0.9828521221
 40
0.9917257721
 40
1.0
 40
1.0
 40
1.0
 40
1.0
 10
5.3248381666
 20
6.9980358287
 30
0.0
 10
5.3249087295
 20
6.9978654749
 30
0.0
 10
5.3250417087
 20
6.9975288101
 30
0.0
 10
5.325218103
 20
6.9970332056
 30
0.0
 10
5.3253634313
 20
6.9965691596
 30
0.0
 10
5.3254581154
 20
6.9962091692
 30
0.0
 10
5.3255126082
 20
6.9959501236
 30
0.0
 10
5.3255409062
 20
6.9957827783
 30
0.0
 10
5.3255582685
 20
6.9956352477
 30
0.0
 10
5.3255646106
 20
6.995508789
 30
0.0
 10
5.3255599404
 20
6.9954045076
 30
0.0
 10
5.3255462383
 20
6.9953319858
 30
0.0
 10
5.3255281938
 20
6.9952869391
 30
0.0
 10
5.3255126412
 20
6.9952614191
 30
0.0
 10
5.325494054
 20
6.9952419984
 30
0.0
 10
5.3254793695
 20
6.9952332258
 30
0.0
 10
5.3254718607
 20
6.9952301151
 30
0.0
  0
SPLINE
  5
30F
100
AcDbEntity
  8
0
100
AcDbSpline
 62
7
  6
CONTINUOUS
 70
0
 71
3
 72
23
 73
19
 74
0
 42
0.0000001
 43
0.0000001
 44
0.0000000001
 40
0.0
 40
0.0
 40
0.0
 40
0.0
 40
0.1571299508
 40
0.3257653386
 40
0.4946214304
 40
0.57558537
 40
0.652417242
 40
0.7238424054
 40
0.7886926996
 40
0.8459328698
 40
0.8946941048
 40
0.9343270551
 40
0.9506098768
 40
0.9645319212
 40
0.976157165
 40
0.9856516312
 40
0.993369911
 40
1.0
 40
1.0
 40
1.0
 40
1.0
 10
5.292376327
 20
7.0764056415
 30
0.0
 10
5.2924637017
 20
7.0761947003
 30
0.0
 10
5.2926332182
 20
7.0757525215
 30
0.0
 10
5.2928633096
 20
7.0750714686
 30
0.0
 10
5.2930359703
 20
7.0744882641
 30
0.0
 10
5.2931564059
 20
7.0740291162
 30
0.0
 10
5.2932335584
 20
7.0737050668
 30
0.0
 10
5.2932975131
 20
7.0734020412
 30
0.0
 10
5.2933471888
 20
7.0731252226
 30
0.0
 10
5.2933818323
 20
7.072879304
 30
0.0
 10
5.2934008992
 20
7.0726684658
 30
0.0
 10
5.2934041398
 20
7.0725161444
 30
0.0
 10
5.2933971827
 20
7.0724148303
 30
0.0
 10
5.293388318
 20
7.0723546172
 30
0.0
 10
5.2933755309
 20
7.0723051887
 30
0.0
 10
5.2933587318
 20
7.0722665362
 30
0.0
 10
5.2933375375
 20
7.0722385079
 30
0.0
 10
5.2933191544
 20
7.0722272526
 30
0.0
 10
5.2933100009
 20
7.0722242481
 30
0.0
  0
SPLINE
  5
310
100
AcDbEntity
  8
0
100
AcDbSpline
 62
7
  6
CONTINUOUS
 70
0
 71
3
 72
27
 73
23
 74
0
 42
0.0000001
 43
0.0000001
 44
0.0000000001
 40
0.0
 40
0.0
 40
0.0
 40
0.0
 40
0.0494093096
 40
0.1097352719
 40
0.1794138931
 40
0.2566087188
 40
0.4252025289
 40
0.5121241957
 40
0.5977202061
 40
0.6797169016
 40
0.7559388812
 40
0.824373436
 40
0.8832249471
 40
0.9085722292
 40
0.9309811547
 40
0.9503186292
 40
0.9664809455
 40
0.9794049943
 40
0.9890966245
 40
0.9927759579
 40
0.9957391549
 40
1.0
 40
1.0
 40
1.0
 40
1.0
 10
5.2686126106
 20
7.133776326
 30
0.0
 10
5.2686462707
 20
7.1336950633
 30
0.0
 10
5.268715687
 20
7.1335123813
 30
0.0
 10
5.2688193275
 20
7.1332102445
 30
0.0
 10
5.2689305508
 20
7.1328585234
 30
0.0
 10
5.2690895475
 20
7.1323198844
 30
0.0
 10
5.2692431159
 20
7.1317477353
 30
0.0
 10
5.2693883261
 20
7.1311580962
 30
0.0
 10
5.2694902565
 20
7.1307166067
 30
0.0
 10
5.2695813848
 20
7.1302922253
 30
0.0
 10
5.2696592856
 20
7.1298963045
 30
0.0
 10
5.2697219097
 20
7.1295394481
 30
0.0
 10
5.2697619413
 20
7.1292706424
 30
0.0
 10
5.2697844033
 20
7.1290821809
 30
0.0
 10
5.2697957286
 20
7.1289632639
 30
0.0
 10
5.2698023479
 20
7.1288603703
 30
0.0
 10
5.2698043265
 20
7.128774146
 30
0.0
 10
5.2698015922
 20
7.1287051233
 30
0.0
 10
5.2697954191
 20
7.1286585815
 30
0.0
 10
5.2697870193
 20
7.1286305617
 30
0.0
 10
5.2697790461
 20
7.1286130707
 30
0.0
 10
5.2697690311
 20
7.1286027873
 30
0.0
 10
5.269761706
 20
7.1286008183
 30
0.0
  0
LINE
  5
311
100
AcDbEntity
  8
0
100
AcDbLine
 62
7
  6
CONTINUOUS
 10
5.4110146359
 20
6.8184430612
 11
5.4106732278
 21
6.818866832
  0
LINE
  5
312
100
AcDbEntity
  8
0
100
AcDbLine
 62
7
  6
CONTINUOUS
 10
5.4106732278
 20
6.818866832
 11
5.4081590941
 21
6.8228623634
  0
LINE
  5
313
100
AcDbEntity
  8
0
100
AcDbLine
 62
7
  6
CONTINUOUS
 10
5.4081590941
 20
6.8228623634
 11
5.4080054451
 21
6.8231662554
  0
LINE
  5
314
100
AcDbEntity
  8
0
100
AcDbLine
 62
7
  6
CONTINUOUS
 10
5.6877881332
 20
5.5160898726
 11
5.6876269238
 21
5.515995066
  0
LINE
  5
315
100
AcDbEntity
  8
0
100
AcDbLine
 62
7
  6
CONTINUOUS
 10
5.6876269238
 20
5.515995066
 11
5.6874729126
 21
5.5159417947
  0
LINE
  5
316
100
AcDbEntity
  8
0
100
AcDbLine
 62
7
  6
CONTINUOUS
 10
5.6874729126
 20
5.5159417947
 11
5.6824833761
 21
5.5148269964
  0
LINE
  5
317
100
AcDbEntity
  8
0
100
AcDbLine
 62
7
  6
CONTINUOUS
 10
5.4314927835
 20
5.5160899212
 11
5.4316539925
 21
5.5159951159
  0
LINE
  5
318
100
AcDbEntity
  8
0
100
AcDbLine
 62
7
  6
CONTINUOUS
 10
5.4316539925
 20
5.5159951159
 11
5.4318080032
 21
5.5159418461
  0
LINE
  5
319
100
AcDbEntity
  8
0
100
AcDbLine
 62
7
  6
CONTINUOUS
 10
5.4318080032
 20
5.5159418461
 11
5.4367975217
 21
5.5148269441
  0
SPLINE
  5
31A
100
AcDbEntity
  8
0
100
AcDbSpline
 62
7
  6
CONTINUOUS
 70
0
 71
3
 72
21
 73
17
 74
0
 42
0.0000001
 43
0.0000001
 44
0.0000000001
 40
0.0
 40
0.0
 40
0.0
 40
0.0
 40
0.0923301189
 40
0.1423365578
 40
0.1950771957
 40
0.2506472152
 40
0.3089979417
 40
0.3699743117
 40
0.433402965
 40
0.5667546284
 40
0.6362126399
 40
0.7071517021
 40
0.7792920118
 40
0.8523466809
 40
0.9260209799
 40
1.0
 40
1.0
 40
1.0
 40
1.0
 10
5.43152218
 20
5.5162332186
 30
0.0
 10
5.4315906221
 20
5.516532039
 30
0.0
 10
5.4317659858
 20
5.5169777267
 30
0.0
 10
5.432092472
 20
5.5175373564
 30
0.0
 10
5.4323972353
 20
5.5179665745
 30
0.0
 10
5.4327503857
 20
5.5183930592
 30
0.0
 10
5.4331478239
 20
5.5188168965
 30
0.0
 10
5.4335860306
 20
5.519236974
 30
0.0
 10
5.4342299791
 20
5.5198010156
 30
0.0
 10
5.4349281936
 20
5.5203443503
 30
0.0
 10
5.4356662573
 20
5.5208748381
 30
0.0
 10
5.4362487997
 20
5.5212732432
 30
0.0
 10
5.4368493901
 20
5.5216660675
 30
0.0
 10
5.4374631019
 20
5.5220552661
 30
0.0
 10
5.4380865491
 20
5.5224404132
 30
0.0
 10
5.4385061586
 20
5.5226939286
 30
0.0
 10
5.4387162225
 20
5.5228212328
 30
0.0
  0
LINE
  5
31B
100
AcDbEntity
  8
0
100
AcDbLine
 62
7
  6
CONTINUOUS
 10
5.6353209974
 20
5.3176686958
 11
5.6368650445
 21
5.3130638525
  0
LINE
  5
31C
100
AcDbEntity
  8
0
100
AcDbLine
 62
7
  6
CONTINUOUS
 10
5.269761706
 20
7.1286008183
 11
5.2695537028
 21
7.1289310368
  0
SPLINE
  5
31D
100
AcDbEntity
  8
0
100
AcDbSpline
 62
7
  6
CONTINUOUS
 70
0
 71
3
 72
18
 73
14
 74
0
 42
0.0000001
 43
0.0000001
 44
0.0000000001
 40
0.0
 40
0.0
 40
0.0
 40
0.0
 40
0.0191643592
 40
0.0413171716
 40
0.0684973154
 40
0.1017740032
 40
0.1416480535
 40
0.1883265195
 40
0.3020846528
 40
0.4422515728
 40
0.6070112873
 40
0.7939041346
 40
1.0
 40
1.0
 40
1.0
 40
1.0
 10
5.2933100009
 20
7.0722242481
 30
0.0
 10
5.2933009548
 20
7.0722212789
 30
0.0
 10
5.2932798102
 20
7.0722194252
 30
0.0
 10
5.2932467323
 20
7.0722293645
 30
0.0
 10
5.2932112092
 20
7.0722504075
 30
0.0
 10
5.2931728285
 20
7.0722824311
 30
0.0
 10
5.2931314924
 20
7.072325385
 30
0.0
 10
5.2930683396
 20
7.0724023908
 30
0.0
 10
5.2929844488
 20
7.0725262535
 30
0.0
 10
5.2928801217
 20
7.0727062978
 30
0.0
 10
5.2927684332
 20
7.0729237146
 30
0.0
 10
5.2926513185
 20
7.073174892
 30
0.0
 10
5.2925743244
 20
7.0733543417
 30
0.0
 10
5.2925351417
 20
7.073448937
 30
0.0
  0
SPLINE
  5
31E
100
AcDbEntity
  8
0
100
AcDbSpline
 62
7
  6
CONTINUOUS
 70
0
 71
3
 72
25
 73
21
 74
0
 42
0.0000001
 43
0.0000001
 44
0.0000000001
 40
0.0
 40
0.0
 40
0.0
 40
0.0
 40
0.0699765911
 40
0.1393898318
 40
0.2081189721
 40
0.2760610541
 40
0.3431255013
 40
0.4092371095
 40
0.4743320361
 40
0.5383495309
 40
0.6012293608
 40
0.6629054752
 40
0.7232890954
 40
0.7822722973
 40
0.839694685
 40
0.8953403679
 40
0.9224122247
 40
0.9489175388
 40
0.9748001339
 40
1.0
 40
1.0
 40
1.0
 40
1.0
 10
5.6899159324
 20
5.4984081981
 30
0.0
 10
5.6900526956
 20
5.4957731452
 30
0.0
 10
5.6901679699
 20
5.4905147751
 30
0.0
 10
5.6898789993
 20
5.482668414
 30
0.0
 10
5.6891506494
 20
5.4749276705
 30
0.0
 10
5.6880112083
 20
5.4673266634
 30
0.0
 10
5.6864933037
 20
5.4598931794
 30
0.0
 10
5.6846325392
 20
5.4526492262
 30
0.0
 10
5.6824665922
 20
5.4456111312
 30
0.0
 10
5.6800348215
 20
5.4387900658
 30
0.0
 10
5.677378039
 20
5.4321926482
 30
0.0
 10
5.6745385597
 20
5.4258219356
 30
0.0
 10
5.6715618539
 20
5.4196774607
 30
0.0
 10
5.6684966948
 20
5.4137570918
 30
0.0
 10
5.6653991391
 20
5.4080565168
 30
0.0
 10
5.6628219696
 20
5.40344331
 30
0.0
 10
5.6608112356
 20
5.3998490671
 30
0.0
 10
5.6593574185
 20
5.3972292172
 30
0.0
 10
5.6579576798
 20
5.3946601601
 30
0.0
 10
5.6570578496
 20
5.3929569908
 30
0.0
 10
5.6566220348
 20
5.3921126202
 30
0.0
  0
SPLINE
  5
31F
100
AcDbEntity
  8
0
100
AcDbSpline
 62
7
  6
CONTINUOUS
 70
0
 71
3
 72
21
 73
17
 74
0
 42
0.0000001
 43
0.0000001
 44
0.0000000001
 40
0.0
 40
0.0
 40
0.0
 40
0.0
 40
0.0082760628
 40
0.0171631594
 40
0.0271504495
 40
0.0385783475
 40
0.066503459
 40
0.1018625095
 40
0.144859658
 40
0.1953806835
 40
0.2531217995
 40
0.3176486305
 40
0.4648298866
 40
0.6317752444
 40
0.8123922636
 40
1.0
 40
1.0
 40
1.0
 40
1.0
 10
5.3254718607
 20
6.9952301151
 30
0.0
 10
5.3254643456
 20
6.9952270019
 30
0.0
 10
5.3254477338
 20
6.9952228173
 30
0.0
 10
5.3254208076
 20
6.9952233875
 30
0.0
 10
5.3253916761
 20
6.995230394
 30
0.0
 10
5.3253468885
 20
6.9952494102
 30
0.0
 10
5.325285607
 20
6.9952908553
 30
0.0
 10
5.3252080871
 20
6.9953610896
 30
0.0
 10
5.325122571
 20
6.9954547508
 30
0.0
 10
5.3250298684
 20
6.9955710717
 30
0.0
 10
5.3249308323
 20
6.9957091121
 30
0.0
 10
5.3247851696
 20
6.9959303591
 30
0.0
 10
5.3245963194
 20
6.9962513224
 30
0.0
 10
5.3243697154
 20
6.9966817209
 30
0.0
 10
5.3241431664
 20
6.9971565815
 30
0.0
 10
5.3239989365
 20
6.9974886176
 30
0.0
 10
5.3239283706
 20
6.9976589789
 30
0.0
  0
SPLINE
  5
320
100
AcDbEntity
  8
0
100
AcDbSpline
 62
7
  6
CONTINUOUS
 70
0
 71
3
 72
9
 73
5
 74
0
 42
0.0000001
 43
0.0000001
 44
0.0000000001
 40
0.0
 40
0.0
 40
0.0
 40
0.0
 40
0.5061416073
 40
1.0
 40
1.0
 40
1.0
 40
1.0
 10
5.6038808217
 20
5.2995076555
 30
0.0
 10
5.6096695013
 20
5.3011797346
 30
0.0
 10
5.6209306929
 20
5.3051246567
 30
0.0
 10
5.6316972013
 20
5.3102607795
 30
0.0
 10
5.6368650358
 20
5.3130638887
 30
0.0
  0
SPLINE
  5
321
100
AcDbEntity
  8
0
100
AcDbSpline
 62
7
  6
CONTINUOUS
 70
0
 71
3
 72
23
 73
19
 74
0
 42
0.0000001
 43
0.0000001
 44
0.0000000001
 40
0.0
 40
0.0
 40
0.0
 40
0.0
 40
0.0065301505
 40
0.0141718752
 40
0.0236131563
 40
0.0352041171
 40
0.0491053519
 40
0.0653781412
 40
0.1050129111
 40
0.1537945649
 40
0.2110654473
 40
0.2759509728
 40
0.3474116689
 40
0.4242768065
 40
0.5052703152
 40
0.6741724154
 40
0.8428402662
 40
1.0
 40
1.0
 40
1.0
 40
1.0
 10
5.357623603
 20
6.9182549133
 30
0.0
 10
5.3576151373
 20
6.918250632
 30
0.0
 10
5.3575944017
 20
6.9182457431
 30
0.0
 10
5.3575599762
 20
6.9182507991
 30
0.0
 10
5.3575211047
 20
6.9182664149
 30
0.0
 10
5.3574773923
 20
6.9182924614
 30
0.0
 10
5.3574287647
 20
6.9183288764
 30
0.0
 10
5.3573524102
 20
6.9183957299
 30
0.0
 10
5.3572470855
 20
6.9185057814
 30
0.0
 10
5.3571113516
 20
6.9186682749
 30
0.0
 10
5.3569615858
 20
6.9188664669
 30
0.0
 10
5.3568003846
 20
6.9190970265
 30
0.0
 10
5.3566305733
 20
6.9193561208
 30
0.0
 10
5.3564551032
 20
6.919639347
 30
0.0
 10
5.3562143152
 20
6.9200484849
 30
0.0
 10
5.355922446
 20
6.9205821378
 30
0.0
 10
5.3556021713
 20
6.9212257297
 30
0.0
 10
5.355408971
 20
6.9216580856
 30
0.0
 10
5.3553215989
 20
6.9218690206
 30
0.0
  0
SPLINE
  5
322
100
AcDbEntity
  8
0
100
AcDbSpline
 62
7
  6
CONTINUOUS
 70
0
 71
3
 72
11
 73
7
 74
0
 42
0.0000001
 43
0.0000001
 44
0.0000000001
 40
0.0
 40
0.0
 40
0.0
 40
0.0
 40
0.2566704124
 40
0.5087839298
 40
0.7564909121
 40
1.0
 40
1.0
 40
1.0
 40
1.0
 10
5.6368650375
 20
5.3130639091
 30
0.0
 10
5.6402980621
 20
5.3149261099
 30
0.0
 10
5.6469779354
 20
5.3188536679
 30
0.0
 10
5.6564934515
 20
5.3253452455
 30
0.0
 10
5.6654122628
 20
5.3323132521
 30
0.0
 10
5.6710086213
 20
5.3372761306
 30
0.0
 10
5.6737051167
 20
5.339817422
 30
0.0
  0
LINE
  5
323
100
AcDbEntity
  8
0
100
AcDbLine
 62
7
  6
CONTINUOUS
 10
5.3811519165
 20
6.8619157743
 11
5.3806769669
 21
6.862401313
  0
SPLINE
  5
324
100
AcDbEntity
  8
0
100
AcDbSpline
 62
7
  6
CONTINUOUS
 70
0
 71
3
 72
16
 73
12
 74
0
 42
0.0000001
 43
0.0000001
 44
0.0000000001
 40
0.0
 40
0.0
 40
0.0
 40
0.0
 40
0.1073392197
 40
0.2353320257
 40
0.3766818858
 40
0.5232955544
 40
0.6667696139
 40
0.7988839056
 40
0.9120897685
 40
0.9595490847
 40
1.0
 40
1.0
 40
1.0
 40
1.0
 10
5.3806769669
 20
6.862401313
 30
0.0
 10
5.3805768833
 20
6.862534047
 30
0.0
 10
5.3803649353
 20
6.8628306782
 30
0.0
 10
5.380039658
 20
6.8633150016
 30
0.0
 10
5.379692866
 20
6.8638579539
 30
0.0
 10
5.3793447035
 20
6.8644283001
 30
0.0
 10
5.3790153666
 20
6.8649932377
 30
0.0
 10
5.3787239776
 20
6.8655202207
 30
0.0
 10
5.3785156574
 20
6.8659230944
 30
0.0
 10
5.3783819297
 20
6.8662044246
 30
0.0
 10
5.3783270105
 20
6.866329042
 30
0.0
 10
5.3783030366
 20
6.8663869202
 30
0.0
  0
SPLINE
  5
325
100
AcDbEntity
  8
0
100
AcDbSpline
 62
7
  6
CONTINUOUS
 70
0
 71
3
 72
11
 73
7
 74
0
 42
0.0000001
 43
0.0000001
 44
0.0000000001
 40
0.0
 40
0.0
 40
0.0
 40
0.0
 40
0.2435093634
 40
0.4912166174
 40
0.743330177
 40
1.0
 40
1.0
 40
1.0
 40
1.0
 10
5.6737051202
 20
5.6434757279
 30
0.0
 10
5.6710086217
 20
5.6460170228
 30
0.0
 10
5.6654122568
 20
5.6509799078
 30
0.0
 10
5.6564934357
 20
5.6579479187
 30
0.0
 10
5.6469779205
 20
5.6644394923
 30
0.0
 10
5.6402980544
 20
5.6683670476
 30
0.0
 10
5.6368650377
 20
5.6702292452
 30
0.0
  0
LINE
  5
326
100
AcDbEntity
  8
0
100
AcDbLine
 62
7
  6
CONTINUOUS
 10
5.6353210263
 20
5.665624454
 11
5.6368650694
 21
5.6702293163
  0
SPLINE
  5
327
100
AcDbEntity
  8
0
100
AcDbSpline
 62
7
  6
CONTINUOUS
 70
0
 71
3
 72
31
 73
27
 74
0
 42
0.0000001
 43
0.0000001
 44
0.0000000001
 40
0.0
 40
0.0
 40
0.0
 40
0.0
 40
0.0002654954
 40
0.0005966562
 40
0.0010600222
 40
0.0023831587
 40
0.0042344833
 40
0.0066135743
 40
0.0095200101
 40
0.0129532146
 40
0.0169120128
 40
0.0264011129
 40
0.037976762
 40
0.0516273165
 40
0.0673366865
 40
0.0850876835
 40
0.1048624695
 40
0.1503990598
 40
0.203768448
 40
0.2647661299
 40
0.3331744507
 40
0.4087668985
 40
0.491308389
 40
0.5805604943
 40
0.7782489975
 40
1.0
 40
1.0
 40
1.0
 40
1.0
 10
5.6078138892
 20
5.593860462
 30
0.0
 10
5.6078134165
 20
5.5938610753
 30
0.0
 10
5.6078117262
 20
5.5938617921
 30
0.0
 10
5.6078093149
 20
5.5938636882
 30
0.0
 10
5.6078041545
 20
5.5938671147
 30
0.0
 10
5.6077954755
 20
5.5938731957
 30
0.0
 10
5.6077821104
 20
5.5938823566
 30
0.0
 10
5.6077649782
 20
5.5938941737
 30
0.0
 10
5.6077440289
 20
5.5939085882
 30
0.0
 10
5.6077192864
 20
5.5939256157
 30
0.0
 10
5.6076787168
 20
5.5939535108
 30
0.0
 10
5.6076185534
 20
5.5939948233
 30
0.0
 10
5.607535031
 20
5.5940520529
 30
0.0
 10
5.6074364688
 20
5.5941194283
 30
0.0
 10
5.6073229267
 20
5.5941968046
 30
0.0
 10
5.6071944811
 20
5.5942840287
 30
0.0
 10
5.6069938244
 20
5.5944197636
 30
0.0
 10
5.6067065131
 20
5.5946128004
 30
0.0
 10
5.6063182189
 20
5.5948711119
 30
0.0
 10
5.6058727664
 20
5.5951639244
 30
0.0
 10
5.6053711166
 20
5.5954892217
 30
0.0
 10
5.6048142986
 20
5.5958449024
 30
0.0
 10
5.6042033218
 20
5.5962286916
 30
0.0
 10
5.6032860938
 20
5.5967943348
 30
0.0
 10
5.6020125727
 20
5.597555601
 30
0.0
 10
5.6009499432
 20
5.5981618818
 30
0.0
 10
5.6003847703
 20
5.5984762974
 30
0.0
  0
LINE
  5
328
100
AcDbEntity
  8
0
100
AcDbLine
 62
7
  6
CONTINUOUS
 10
5.2670254893
 20
7.1058629585
 11
5.2669492435
 21
7.1059835611
  0
LINE
  5
329
100
AcDbEntity
  8
0
100
AcDbLine
 62
7
  6
CONTINUOUS
 10
5.2785857697
 20
7.024042609
 11
5.2781269407
 21
7.0247579402
  0
LINE
  5
32A
100
AcDbEntity
  8
0
100
AcDbLine
 62
7
  6
CONTINUOUS
 10
5.2854057159
 20
7.0619618996
 11
5.2847652556
 21
7.0629719051
  0
SPLINE
  5
32B
100
AcDbEntity
  8
0
100
AcDbSpline
 62
7
  6
CONTINUOUS
 70
0
 71
3
 72
12
 73
8
 74
0
 42
0.0000001
 43
0.0000001
 44
0.0000000001
 40
0.0
 40
0.0
 40
0.0
 40
0.0
 40
0.4094031029
 40
0.7083745212
 40
0.8171515103
 40
0.8999645881
 40
1.0
 40
1.0
 40
1.0
 40
1.0
 10
5.4080054451
 20
6.8231662554
 30
0.0
 10
5.4080015298
 20
6.8231757078
 30
0.0
 10
5.4079950714
 20
6.8231922214
 30
0.0
 10
5.4079888053
 20
6.8232116155
 30
0.0
 10
5.4079864716
 20
6.8232237966
 30
0.0
 10
5.4079858699
 20
6.8232308028
 30
0.0
 10
5.4079869616
 20
6.8232361876
 30
0.0
 10
5.4079890757
 20
6.8232375218
 30
0.0
  0
LINE
  5
32C
100
AcDbEntity
  8
0
100
AcDbLine
 62
7
  6
CONTINUOUS
 10
5.3933477894
 20
6.8585529691
 11
5.3932066658
 21
6.8591717902
  0
SPLINE
  5
32D
100
AcDbEntity
  8
0
100
AcDbSpline
 62
7
  6
CONTINUOUS
 70
0
 71
3
 72
19
 73
15
 74
0
 42
0.0000001
 43
0.0000001
 44
0.0000000001
 40
0.0
 40
0.0
 40
0.0
 40
0.0
 40
0.2038464985
 40
0.3899393068
 40
0.55490789
 40
0.6958745858
 40
0.7566515635
 40
0.8106747511
 40
0.8578287618
 40
0.8981083969
 40
0.931675029
 40
0.958992834
 40
0.9810877209
 40
1.0
 40
1.0
 40
1.0
 40
1.0
 10
5.3669356055
 20
6.9223176234
 30
0.0
 10
5.3668918018
 20
6.922423375
 30
0.0
 10
5.3668106334
 20
6.922626772
 30
0.0
 10
5.3667042337
 20
6.9229197052
 30
0.0
 10
5.3666199307
 20
6.9231828895
 30
0.0
 10
5.3665668476
 20
6.9233820001
 30
0.0
 10
5.366537687
 20
6.9235226662
 30
0.0
 10
5.3665232756
 20
6.9236124975
 30
0.0
 10
5.3665152362
 20
6.9236915787
 30
0.0
 10
5.3665135758
 20
6.9237595911
 30
0.0
 10
5.3665182727
 20
6.9238163577
 30
0.0
 10
5.3665294057
 20
6.9238618805
 30
0.0
 10
5.3665473826
 20
6.9238964174
 30
0.0
 10
5.3665655053
 20
6.9239119172
 30
0.0
 10
5.3665749784
 20
6.923916717
 30
0.0
  0
SPLINE
  5
32E
100
AcDbEntity
  8
0
100
AcDbSpline
 62
7
  6
CONTINUOUS
 70
0
 71
3
 72
21
 73
17
 74
0
 42
0.0000001
 43
0.0000001
 44
0.0000000001
 40
0.0
 40
0.0
 40
0.0
 40
0.0
 40
0.1875912294
 40
0.3681980786
 40
0.5351430127
 40
0.6823329613
 40
0.7468660197
 40
0.804613548
 40
0.8551402977
 40
0.8981415862
 40
0.9335024824
 40
0.9614268566
 40
0.9728535209
 40
0.9828392819
 40
0.9917248573
 40
1.0
 40
1.0
 40
1.0
 40
1.0
 10
5.3340001503
 20
7.0018308466
 30
0.0
 10
5.3339295957
 20
7.0020011807
 30
0.0
 10
5.3337967962
 20
7.0023378946
 30
0.0
 10
5.3336211486
 20
7.0028337741
 30
0.0
 10
5.3334769237
 20
7.0032982683
 30
0.0
 10
5.3333833713
 20
7.0036587125
 30
0.0
 10
5.3333298083
 20
7.0039181345
 30
0.0
 10
5.3333021456
 20
7.0040857652
 30
0.0
 10
5.3332853678
 20
7.0042335637
 30
0.0
 10
5.3332795395
 20
7.0043602603
 30
0.0
 10
5.3332846334
 20
7.0044647387
 30
0.0
 10
5.3332986197
 20
7.0045373799
 30
0.0
 10
5.3333168198
 20
7.004582498
 30
0.0
 10
5.3333324518
 20
7.004608052
 30
0.0
 10
5.3333510803
 20
7.004627495
 30
0.0
 10
5.3333657821
 20
7.0046362813
 30
0.0
 10
5.3333732961
 20
7.0046393934
 30
0.0
  0
SPLINE
  5
32F
100
AcDbEntity
  8
0
100
AcDbSpline
 62
7
  6
CONTINUOUS
 70
0
 71
3
 72
21
 73
17
 74
0
 42
0.0000001
 43
0.0000001
 44
0.0000000001
 40
0.0
 40
0.0
 40
0.0
 40
0.0
 40
0.0082882619
 40
0.0171908514
 40
0.0271897229
 40
0.038621679
 40
0.066525334
 40
0.1018243874
 40
0.1447313316
 40
0.1951440779
 40
0.2527731252
 40
0.3171987027
 40
0.4642596544
 40
0.6312480244
 40
0.812075867
 40
1.0
 40
1.0
 40
1.0
 40
1.0
 10
5.2959674595
 20
6.9830089924
 30
0.0
 10
5.2959599273
 20
6.9830058718
 30
0.0
 10
5.2959432829
 20
6.9830016621
 30
0.0
 10
5.2959162983
 20
6.9830021516
 30
0.0
 10
5.2958870825
 20
6.9830090307
 30
0.0
 10
5.2958421585
 20
6.9830278066
 30
0.0
 10
5.2957806296
 20
6.9830688476
 30
0.0
 10
5.2957027276
 20
6.9831385341
 30
0.0
 10
5.2956167445
 20
6.9832315606
 30
0.0
 10
5.2955234898
 20
6.9833472031
 30
0.0
 10
5.2954238211
 20
6.9834845676
 30
0.0
 10
5.2952771373
 20
6.9837050037
 30
0.0
 10
5.2950868903
 20
6.9840252965
 30
0.0
 10
5.2948587181
 20
6.9844554686
 30
0.0
 10
5.2946308443
 20
6.9849307982
 30
0.0
 10
5.2944860768
 20
6.9852634925
 30
0.0
 10
5.2944153346
 20
6.9854342791
 30
0.0
  0
SPLINE
  5
330
100
AcDbEntity
  8
0
100
AcDbSpline
 62
7
  6
CONTINUOUS
 70
0
 71
3
 72
23
 73
19
 74
0
 42
0.0000001
 43
0.0000001
 44
0.0000000001
 40
0.0
 40
0.0
 40
0.0
 40
0.0
 40
0.162499804
 40
0.3334502092
 40
0.5022305869
 40
0.5825122885
 40
0.6583762706
 40
0.7286562558
 40
0.7922887483
 40
0.8483384929
 40
0.8960298271
 40
0.9348002303
 40
0.950757145
 40
0.9644374251
 40
0.9759187473
 40
0.9853797602
 40
0.993183872
 40
1.0
 40
1.0
 40
1.0
 40
1.0
 10
5.3010646947
 20
7.0813440697
 30
0.0
 10
5.3009781368
 20
7.0815530388
 30
0.0
 10
5.3008113584
 20
7.0819863747
 30
0.0
 10
5.3005868509
 20
7.0826485707
 30
0.0
 10
5.3004208003
 20
7.0832093089
 30
0.0
 10
5.3003065559
 20
7.083646947
 30
0.0
 10
5.3002341871
 20
7.0839537264
 30
0.0
 10
5.3001747809
 20
7.084239654
 30
0.0
 10
5.3001292349
 20
7.0845001642
 30
0.0
 10
5.3000981538
 20
7.0847311421
 30
0.0
 10
5.3000819668
 20
7.0849289295
 30
0.0
 10
5.3000806303
 20
7.0850717413
 30
0.0
 10
5.3000886803
 20
7.0851666935
 30
0.0
 10
5.300098126
 20
7.0852232255
 30
0.0
 10
5.3001113168
 20
7.08526972
 30
0.0
 10
5.300128361
 20
7.0853061895
 30
0.0
 10
5.3001496376
 20
7.0853326923
 30
0.0
 10
5.3001677004
 20
7.0853433526
 30
0.0
 10
5.3001767168
 20
7.0853463049
 30
0.0
  0
SPLINE
  5
331
100
AcDbEntity
  8
0
100
AcDbSpline
 62
7
  6
CONTINUOUS
 70
0
 71
3
 72
23
 73
19
 74
0
 42
0.0000001
 43
0.0000001
 44
0.0000000001
 40
0.0
 40
0.0
 40
0.0
 40
0.0
 40
0.0583414337
 40
0.1255530663
 40
0.2801827485
 40
0.4494871507
 40
0.6175815753
 40
0.7686952806
 40
0.8333821364
 40
0.8887643339
 40
0.9125709721
 40
0.933612812
 40
0.9517899177
 40
0.9670331752
 40
0.9793184414
 40
0.9843689317
 40
0.9887140313
 40
1.0
 40
1.0
 40
1.0
 40
1.0
 10
5.2746525096
 20
7.1451087235
 30
0.0
 10
5.2746144292
 20
7.1452006576
 30
0.0
 10
5.2745370087
 20
7.1454003825
 30
0.0
 10
5.2743779092
 20
7.1458510557
 30
0.0
 10
5.2741790307
 20
7.1464881004
 30
0.0
 10
5.2739566134
 20
7.1472974485
 30
0.0
 10
5.2737618246
 20
7.1481077154
 30
0.0
 10
5.273630839
 20
7.1487494917
 30
0.0
 10
5.2735556742
 20
7.1492059279
 30
0.0
 10
5.2735235535
 20
7.1494492905
 30
0.0
 10
5.2735073393
 20
7.1496194928
 30
0.0
 10
5.2735003238
 20
7.149726787
 30
0.0
 10
5.2734977925
 20
7.1498196577
 30
0.0
 10
5.2734998015
 20
7.1498976877
 30
0.0
 10
5.2735053056
 20
7.1499529315
 30
0.0
 10
5.2735127253
 20
7.1499894627
 30
0.0
 10
5.2735221893
 20
7.1500224812
 30
0.0
 10
5.2735377243
 20
7.1500514383
 30
0.0
 10
5.273556348
 20
7.1500563073
 30
0.0
  0
LINE
  5
332
100
AcDbEntity
  8
0
100
AcDbLine
 62
7
  6
CONTINUOUS
 10
5.2599948521
 20
7.1804954365
 11
5.2598886218
 21
7.1808189413
  0
LINE
  5
333
100
AcDbEntity
  8
0
100
AcDbLine
 62
7
  6
CONTINUOUS
 10
5.2598886218
 20
7.1808189413
 11
5.2588200876
 21
7.1855469272
  0
LINE
  5
334
100
AcDbEntity
  8
0
100
AcDbLine
 62
7
  6
CONTINUOUS
 10
5.2588200876
 20
7.1855469272
 11
5.2587828687
 21
7.1859630584
  0
SPLINE
  5
335
100
AcDbEntity
  8
0
100
AcDbSpline
 62
7
  6
CONTINUOUS
 70
0
 71
3
 72
21
 73
17
 74
0
 42
0.0000001
 43
0.0000001
 44
0.0000000001
 40
0.0
 40
0.0
 40
0.0
 40
0.0
 40
0.0082791094
 40
0.0171694993
 40
0.0271589389
 40
0.0385872044
 40
0.0665065766
 40
0.1018518685
 40
0.1448292508
 40
0.1953271756
 40
0.2530448331
 40
0.3175508408
 40
0.4647083318
 40
0.6316641204
 40
0.8123259951
 40
1.0
 40
1.0
 40
1.0
 40
1.0
 10
5.315137175
 20
6.9909493482
 30
0.0
 10
5.3151296561
 20
6.9909462333
 30
0.0
 10
5.3151130374
 20
6.9909420433
 30
0.0
 10
5.3150860992
 20
6.9909425967
 30
0.0
 10
5.3150569515
 20
6.9909495775
 30
0.0
 10
5.3150121395
 20
6.9909685458
 30
0.0
 10
5.3149508146
 20
6.9910099115
 30
0.0
 10
5.3148732291
 20
6.9910800394
 30
0.0
 10
5.3147876341
 20
6.9911735783
 30
0.0
 10
5.3146948383
 20
6.9912897698
 30
0.0
 10
5.3145956954
 20
6.9914276829
 30
0.0
 10
5.3144498575
 20
6.9916487812
 30
0.0
 10
5.3142607654
 20
6.9919696285
 30
0.0
 10
5.3140338868
 20
6.9923999997
 30
0.0
 10
5.3138071
 20
6.9928749665
 30
0.0
 10
5.3136627691
 20
6.993207137
 30
0.0
 10
5.3135921678
 20
6.9933775835
 30
0.0
  0
SPLINE
  5
336
100
AcDbEntity
  8
0
100
AcDbSpline
 62
7
  6
CONTINUOUS
 70
0
 71
3
 72
24
 73
20
 74
0
 42
0.0000001
 43
0.0000001
 44
0.0000000001
 40
0.0
 40
0.0
 40
0.0
 40
0.0
 40
0.0061081366
 40
0.013525959
 40
0.0229631406
 40
0.034742122
 40
0.0489958027
 40
0.0657603142
 40
0.0850210043
 40
0.1067276917
 40
0.1571619602
 40
0.2162712104
 40
0.2830333134
 40
0.3562532039
 40
0.4345998539
 40
0.5166345099
 40
0.6856552401
 40
0.8508441566
 40
1.0
 40
1.0
 40
1.0
 40
1.0
 10
5.3448547157
 20
6.9199607475
 30
0.0
 10
5.3448463473
 20
6.9199565399
 30
0.0
 10
5.3448251452
 20
6.9199523605
 30
0.0
 10
5.3447901743
 20
6.9199596326
 30
0.0
 10
5.3447501274
 20
6.9199781558
 30
0.0
 10
5.3447045082
 20
6.92000801
 30
0.0
 10
5.344653279
 20
6.9200491373
 30
0.0
 10
5.3445965976
 20
6.9201014702
 30
0.0
 10
5.3445347075
 20
6.9201648137
 30
0.0
 10
5.3444408422
 20
6.9202689416
 30
0.0
 10
5.3443135856
 20
6.920425017
 30
0.0
 10
5.344151957
 20
6.9206418085
 30
0.0
 10
5.3439777808
 20
6.920892609
 30
0.0
 10
5.3437943796
 20
6.9211727473
 30
0.0
 10
5.343605262
 20
6.9214770139
 30
0.0
 10
5.3433477679
 20
6.9219116159
 30
0.0
 10
5.3430387879
 20
6.922470353
 30
0.0
 10
5.3427050498
 20
6.9231323711
 30
0.0
 10
5.3425066089
 20
6.9235719468
 30
0.0
 10
5.3424190795
 20
6.9237832616
 30
0.0
  0
LINE
  5
337
100
AcDbEntity
  8
0
100
AcDbLine
 62
7
  6
CONTINUOUS
 10
5.3632126394
 20
6.8760981227
 11
5.3628176392
 21
6.87655975
  0
LINE
  5
338
100
AcDbEntity
  8
0
100
AcDbLine
 62
7
  6
CONTINUOUS
 10
5.3628176392
 20
6.87655975
 11
5.3603319657
 21
6.8805642665
  0
LINE
  5
339
100
AcDbEntity
  8
0
100
AcDbLine
 62
7
  6
CONTINUOUS
 10
5.3603319657
 20
6.8805642665
 11
5.3602350901
 21
6.8807716051
  0
SPLINE
  5
33A
100
AcDbEntity
  8
0
100
AcDbSpline
 62
7
  6
CONTINUOUS
 70
0
 71
3
 72
23
 73
19
 74
0
 42
0.0000001
 43
0.0000001
 44
0.0000000001
 40
0.0
 40
0.0
 40
0.0
 40
0.0
 40
0.0122461964
 40
0.0217749893
 40
0.0339699794
 40
0.0489067347
 40
0.0665786924
 40
0.0869354188
 40
0.109894438
 40
0.1631817084
 40
0.225403545
 40
0.2952932311
 40
0.3714039753
 40
0.5358170874
 40
0.7048470424
 40
0.8641165088
 40
0.9357653324
 40
1.0
 40
1.0
 40
1.0
 40
1.0
 10
5.3133278896
 20
6.9419976643
 30
0.0
 10
5.3133097102
 20
6.941989005
 30
0.0
 10
5.3132695158
 20
6.9419994013
 30
0.0
 10
5.3132227032
 20
6.9420272632
 30
0.0
 10
5.313174222
 20
6.9420640798
 30
0.0
 10
5.3131196877
 20
6.9421134324
 30
0.0
 10
5.3130583663
 20
6.9421754034
 30
0.0
 10
5.3129909226
 20
6.9422496231
 30
0.0
 10
5.3128879504
 20
6.9423706077
 30
0.0
 10
5.312747418
 20
6.9425498447
 30
0.0
 10
5.3125678539
 20
6.9427962497
 30
0.0
 10
5.3123738795
 20
6.9430784256
 30
0.0
 10
5.3120943728
 20
6.9435055428
 30
0.0
 10
5.3117426769
 20
6.9440800436
 30
0.0
 10
5.3113437928
 20
6.9447853697
 30
0.0
 10
5.3110411761
 20
6.9453694951
 30
0.0
 10
5.3108337594
 20
6.9458083067
 30
0.0
 10
5.3107441475
 20
6.946013037
 30
0.0
 10
5.3107037282
 20
6.9461106179
 30
0.0
  0
LINE
  5
33B
100
AcDbEntity
  8
0
100
AcDbLine
 62
7
  6
CONTINUOUS
 10
5.3602350901
 20
6.8807716051
 11
5.3602037251
 21
6.8809107979
  0
LINE
  5
33C
100
AcDbEntity
  8
0
100
AcDbLine
 62
7
  6
CONTINUOUS
 10
5.3424190795
 20
6.9237832616
 11
5.3421577715
 21
6.9249503172
  0
SPLINE
  5
33D
100
AcDbEntity
  8
0
100
AcDbSpline
 62
7
  6
CONTINUOUS
 70
0
 71
3
 72
21
 73
17
 74
0
 42
0.0000001
 43
0.0000001
 44
0.0000000001
 40
0.0
 40
0.0
 40
0.0
 40
0.0
 40
0.1876739986
 40
0.3683358643
 40
0.5352916649
 40
0.6824491591
 40
0.7469551679
 40
0.8046728262
 40
0.8551707508
 40
0.8981481335
 40
0.9334934267
 40
0.961412799
 40
0.9728410637
 40
0.9828305019
 40
0.9917208909
 40
1.0
 40
1.0
 40
1.0
 40
1.0
 10
5.3135921678
 20
6.9933775835
 30
0.0
 10
5.3135215666
 20
6.99354803
 30
0.0
 10
5.3133887439
 20
6.9938849674
 30
0.0
 10
5.3132132541
 20
6.9943811821
 30
0.0
 10
5.3130693632
 20
6.9948459279
 30
0.0
 10
5.3129761982
 20
6.9952065095
 30
0.0
 10
5.312922981
 20
6.9954659726
 30
0.0
 10
5.3128955664
 20
6.9956335965
 30
0.0
 10
5.3128790231
 20
6.9957813729
 30
0.0
 10
5.3128734059
 20
6.9959080397
 30
0.0
 10
5.3128786793
 20
6.9960124888
 30
0.0
 10
5.3128927925
 20
6.996085102
 30
0.0
 10
5.3129110668
 20
6.9961302015
 30
0.0
 10
5.3129267411
 20
6.9961557482
 30
0.0
 10
5.312945398
 20
6.9961751876
 30
0.0
 10
5.312960112
 20
6.9961839761
 30
0.0
 10
5.3129676313
 20
6.9961870902
 30
0.0
  0
SPLINE
  5
33E
100
AcDbEntity
  8
0
100
AcDbSpline
 62
7
  6
CONTINUOUS
 70
0
 71
3
 72
24
 73
20
 74
0
 42
0.0000001
 43
0.0000001
 44
0.0000000001
 40
0.0
 40
0.0
 40
0.0
 40
0.0
 40
0.1491558339
 40
0.3143447502
 40
0.4833654817
 40
0.5654001384
 40
0.6437467874
 40
0.7169666797
 40
0.7837287853
 40
0.8428380301
 40
0.8932723039
 40
0.9149789953
 40
0.9342396862
 40
0.9510041969
 40
0.9652578767
 40
0.9770368585
 40
0.9864740409
 40
0.9938918635
 40
1.0
 40
1.0
 40
1.0
 40
1.0
 10
5.2847652556
 20
7.0629719051
 30
0.0
 10
5.2846777261
 20
7.06318322
 30
0.0
 10
5.284507218
 20
7.0636343658
 30
0.0
 10
5.284275089
 20
7.0643384718
 30
0.0
 10
5.284098484
 20
7.0649520404
 30
0.0
 10
5.2839732499
 20
7.0654414262
 30
0.0
 10
5.2838918273
 20
7.0657903016
 30
0.0
 10
5.2838234238
 20
7.0661180735
 30
0.0
 10
5.2837692422
 20
7.0664185773
 30
0.0
 10
5.2837302361
 20
7.0666861608
 30
0.0
 10
5.2837098582
 20
7.0668865068
 30
0.0
 10
5.2837026014
 20
7.0670265091
 30
0.0
 10
5.2837015737
 20
7.0671150626
 30
0.0
 10
5.2837046486
 20
7.0671921475
 30
0.0
 10
5.2837117917
 20
7.0672574533
 30
0.0
 10
5.2837229393
 20
7.0673108211
 30
0.0
 10
5.2837381589
 20
7.0673522364
 30
0.0
 10
5.2837577449
 20
7.0673821067
 30
0.0
 10
5.2837756923
 20
7.0673941436
 30
0.0
 10
5.2837845848
 20
7.0673970857
 30
0.0
  0
LINE
  5
33F
100
AcDbEntity
  8
0
100
AcDbLine
 62
7
  6
CONTINUOUS
 10
5.2669492435
 20
7.1059835611
 11
5.2668531033
 21
7.1062538212
  0
LINE
  5
340
100
AcDbEntity
  8
0
100
AcDbLine
 62
7
  6
CONTINUOUS
 10
5.2668531033
 20
7.1062538212
 11
5.265776373
 21
7.1109209301
  0
LINE
  5
341
100
AcDbEntity
  8
0
100
AcDbLine
 62
7
  6
CONTINUOUS
 10
5.265776373
 20
7.1109209301
 11
5.2657500378
 21
7.1113936575
  0
LINE
  5
342
100
AcDbEntity
  8
0
100
AcDbLine
 62
7
  6
CONTINUOUS
 10
5.2696688549
 20
7.0726738091
 11
5.2695923572
 21
7.0727940943
  0
SPLINE
  5
343
100
AcDbEntity
  8
0
100
AcDbSpline
 62
7
  6
CONTINUOUS
 70
0
 71
3
 72
12
 73
8
 74
0
 42
0.0000001
 43
0.0000001
 44
0.0000000001
 40
0.0
 40
0.0
 40
0.0
 40
0.0
 40
0.1000354148
 40
0.1828484976
 40
0.2916254966
 40
0.5905969166
 40
1.0
 40
1.0
 40
1.0
 40
1.0
 10
5.2600336701
 20
7.1804334686
 30
0.0
 10
5.2600312318
 20
7.1804329171
 30
0.0
 10
5.2600266522
 20
7.1804359528
 30
0.0
 10
5.2600221236
 20
7.1804413324
 30
0.0
 10
5.2600151604
 20
7.1804515959
 30
0.0
 10
5.2600058775
 20
7.1804697404
 30
0.0
 10
5.2599987674
 20
7.1804859841
 30
0.0
 10
5.2599948521
 20
7.1804954365
 30
0.0
  0
LINE
  5
344
100
AcDbEntity
  8
0
100
AcDbLine
 62
7
  6
CONTINUOUS
 10
5.2834204551
 20
7.0399518874
 11
5.2827784355
 21
7.0409600868
  0
LINE
  5
345
100
AcDbEntity
  8
0
100
AcDbLine
 62
7
  6
CONTINUOUS
 10
5.2749902927
 20
7.1445713614
 11
5.2746525096
 21
7.1451087235
  0
SPLINE
  5
346
100
AcDbEntity
  8
0
100
AcDbSpline
 62
7
  6
CONTINUOUS
 70
0
 71
3
 72
21
 73
17
 74
0
 42
0.0000001
 43
0.0000001
 44
0.0000000001
 40
0.0
 40
0.0
 40
0.0
 40
0.0
 40
0.0082839945
 40
0.0171795338
 40
0.0271721118
 40
0.0386004531
 40
0.0665090739
 40
0.1018301788
 40
0.1447733789
 40
0.1952316459
 40
0.2529092305
 40
0.3173798106
 40
0.4644972998
 40
0.6314718016
 40
0.8122114603
 40
1.0
 40
1.0
 40
1.0
 40
1.0
 10
5.3056614231
 20
6.9870243633
 30
0.0
 10
5.3056538979
 20
6.9870212458
 30
0.0
 10
5.3056372682
 20
6.9870170469
 30
0.0
 10
5.3056103112
 20
6.9870175724
 30
0.0
 10
5.3055811382
 20
6.9870245106
 30
0.0
 10
5.3055362884
 20
6.9870433993
 30
0.0
 10
5.3054748957
 20
6.9870846332
 30
0.0
 10
5.3053972076
 20
6.9871545842
 30
0.0
 10
5.3053114882
 20
6.9872479197
 30
0.0
 10
5.3052185453
 20
6.9873638962
 30
0.0
 10
5.305119232
 20
6.9875015976
 30
0.0
 10
5.3049731121
 20
6.9877224501
 30
0.0
 10
5.3047836273
 20
6.9880431071
 30
0.0
 10
5.3045562991
 20
6.9884734381
 30
0.0
 10
5.304329119
 20
6.9889485892
 30
0.0
 10
5.3041846189
 20
6.989280989
 30
0.0
 10
5.3041139577
 20
6.9894515803
 30
0.0
  0
SPLINE
  5
347
100
AcDbEntity
  8
0
100
AcDbSpline
 62
7
  6
CONTINUOUS
 70
0
 71
3
 72
24
 73
20
 74
0
 42
0.0000001
 43
0.0000001
 44
0.0000000001
 40
0.0
 40
0.0
 40
0.0
 40
0.0
 40
0.0061058688
 40
0.0135534976
 40
0.0230349355
 40
0.034862069
 40
0.0491622478
 40
0.0659685451
 40
0.0852646091
 40
0.1069992005
 40
0.1574657883
 40
0.2165771342
 40
0.2833163937
 40
0.3564963949
 40
0.4347950267
 40
0.5167819437
 40
0.6857300291
 40
0.8508809783
 40
1.0
 40
1.0
 40
1.0
 40
1.0
 10
5.3278885767
 20
6.9341172429
 30
0.0
 10
5.3278801406
 20
6.9341131639
 30
0.0
 10
5.3278588231
 20
6.9341093218
 30
0.0
 10
5.3278238171
 20
6.9341169927
 30
0.0
 10
5.3277836972
 20
6.9341358736
 30
0.0
 10
5.3277379986
 20
6.9341660659
 30
0.0
 10
5.327686688
 20
6.9342075054
 30
0.0
 10
5.3276299281
 20
6.9342601203
 30
0.0
 10
5.3275679625
 20
6.9343237114
 30
0.0
 10
5.3274740163
 20
6.9344281107
 30
0.0
 10
5.3273466501
 20
6.9345844206
 30
0.0
 10
5.3271848621
 20
6.9348013784
 30
0.0
 10
5.3270105048
 20
6.9350522298
 30
0.0
 10
5.3268268895
 20
6.9353323376
 30
0.0
 10
5.3266375179
 20
6.935636531
 30
0.0
 10
5.3263796164
 20
6.9360710505
 30
0.0
 10
5.3260700659
 20
6.9366297659
 30
0.0
 10
5.3257357424
 20
6.9372918874
 30
0.0
 10
5.3255370558
 20
6.9377316456
 30
0.0
 10
5.3254494795
 20
6.9379430737
 30
0.0
  0
SPLINE
  5
348
100
AcDbEntity
  8
0
100
AcDbSpline
 62
7
  6
CONTINUOUS
 70
0
 71
3
 72
27
 73
23
 74
0
 42
0.0000001
 43
0.0000001
 44
0.0000000001
 40
0.0
 40
0.0
 40
0.0
 40
0.0
 40
0.0413070587
 40
0.0898642791
 40
0.1532771478
 40
0.2286709834
 40
0.2700417482
 40
0.3134325325
 40
0.3585089067
 40
0.404905929
 40
0.4522180176
 40
0.5000000006
 40
0.5477819826
 40
0.595094071
 40
0.6414910934
 40
0.6865674675
 40
0.7299582518
 40
0.7713290166
 40
0.8467228522
 40
0.9101357209
 40
0.9586929414
 40
1.0
 40
1.0
 40
1.0
 40
1.0
 10
5.3824750994
 20
5.7308198054
 30
0.0
 10
5.383571984
 20
5.7330585117
 30
0.0
 10
5.3859021599
 20
5.7379568004
 30
0.0
 10
5.389644282
 20
5.7464185171
 30
0.0
 10
5.3938215481
 20
5.7569307315
 30
0.0
 10
5.3972894654
 20
5.7672458415
 30
0.0
 10
5.3998870036
 20
5.776558415
 30
0.0
 10
5.401683949
 20
5.7841883279
 30
0.0
 10
5.403189443
 20
5.7921905253
 30
0.0
 10
5.4043288851
 20
5.8004925999
 30
0.0
 10
5.4050403484
 20
5.8090066334
 30
0.0
 10
5.4052823838
 20
5.817630829
 30
0.0
 10
5.4050403484
 20
5.8262550247
 30
0.0
 10
5.4043288851
 20
5.8347690581
 30
0.0
 10
5.403189443
 20
5.8430711327
 30
0.0
 10
5.401683949
 20
5.8510733301
 30
0.0
 10
5.3998870036
 20
5.858703243
 30
0.0
 10
5.3972894654
 20
5.8680158165
 30
0.0
 10
5.3938215481
 20
5.8783309265
 30
0.0
 10
5.389644282
 20
5.8888431409
 30
0.0
 10
5.3859021599
 20
5.8973048576
 30
0.0
 10
5.383571984
 20
5.9022031462
 30
0.0
 10
5.3824750994
 20
5.9044418526
 30
0.0
  0
SPLINE
  5
349
100
AcDbEntity
  8
0
100
AcDbSpline
 62
7
  6
CONTINUOUS
 70
0
 71
3
 72
19
 73
15
 74
0
 42
0.0000001
 43
0.0000001
 44
0.0000000001
 40
0.0
 40
0.0
 40
0.0
 40
0.0
 40
0.0189122794
 40
0.0410071661
 40
0.0683249705
 40
0.1018916016
 40
0.1421712354
 40
0.189325246
 40
0.2433484323
 40
0.3041254073
 40
0.4450920891
 40
0.6100606766
 40
0.7961534969
 40
1.0
 40
1.0
 40
1.0
 40
1.0
 10
5.3019404227
 20
7.0799583379
 30
0.0
 10
5.3019303302
 20
7.0799550334
 30
0.0
 10
5.3019065556
 20
7.0799531787
 30
0.0
 10
5.3018694227
 20
7.0799648884
 30
0.0
 10
5.301829361
 20
7.0799892057
 30
0.0
 10
5.3017858997
 20
7.0800260245
 30
0.0
 10
5.3017389818
 20
7.0800752906
 30
0.0
 10
5.3016887477
 20
7.0801368941
 30
0.0
 10
5.3016354177
 20
7.0802106048
 30
0.0
 10
5.3015565715
 20
7.0803306905
 30
0.0
 10
5.3014533144
 20
7.0805090184
 30
0.0
 10
5.3013268263
 20
7.080754729
 30
0.0
 10
5.3011949271
 20
7.0810371
 30
0.0
 10
5.3011084985
 20
7.081238318
 30
0.0
 10
5.3010646947
 20
7.0813440697
 30
0.0
  0
LINE
  5
34A
100
AcDbEntity
  8
0
100
AcDbLine
 62
7
  6
CONTINUOUS
 10
5.4367975289
 20
5.5148269829
 11
5.4387162225
 21
5.5228212328
  0
SPLINE
  5
34B
100
AcDbEntity
  8
0
100
AcDbSpline
 62
7
  6
CONTINUOUS
 70
0
 71
3
 72
27
 73
23
 74
0
 42
0.0000001
 43
0.0000001
 44
0.0000000001
 40
0.0
 40
0.0
 40
0.0
 40
0.0
 40
0.0243725054
 40
0.0494959024
 40
0.0753056345
 40
0.101742776
 40
0.1287560623
 40
0.1563048346
 40
0.1843560824
 40
0.212879588
 40
0.2712455076
 40
0.3312525893
 40
0.3927909376
 40
0.455775987
 40
0.5201325622
 40
0.5857827771
 40
0.6526348537
 40
0.7205749519
 40
0.7894616549
 40
0.8591254801
 40
0.9293735897
 40
1.0
 40
1.0
 40
1.0
 40
1.0
 10
5.4662577728
 20
5.3916525928
 30
0.0
 10
5.4658064719
 20
5.3926024001
 30
0.0
 10
5.4648685462
 20
5.3945211236
 30
0.0
 10
5.4633968151
 20
5.3974178917
 30
0.0
 10
5.4618569553
 20
5.4003797552
 30
0.0
 10
5.4602675738
 20
5.403407715
 30
0.0
 10
5.4586459461
 20
5.406503495
 30
0.0
 10
5.4570051443
 20
5.4096678265
 30
0.0
 10
5.4553557363
 20
5.4129010395
 30
0.0
 10
5.453144686
 20
5.4173401514
 30
0.0
 10
5.4504233241
 20
5.4230651065
 30
0.0
 10
5.4473132129
 20
5.4301789587
 30
0.0
 10
5.4444029872
 20
5.4375921212
 30
0.0
 10
5.4417555163
 20
5.4453024959
 30
0.0
 10
5.4394321547
 20
5.4533022503
 30
0.0
 10
5.4374918914
 20
5.4615755961
 30
0.0
 10
5.435991426
 20
5.4700975951
 30
0.0
 10
5.4349838778
 20
5.4788330461
 30
0.0
 10
5.4345166899
 20
5.4877360296
 30
0.0
 10
5.4346291813
 20
5.4967507655
 30
0.0
 10
5.435349839
 20
5.5058126119
 30
0.0
 10
5.4362451671
 20
5.5118302244
 30
0.0
 10
5.4367975289
 20
5.5148269829
 30
0.0
  0
LINE
  5
34C
100
AcDbEntity
  8
0
100
AcDbLine
 62
7
  6
CONTINUOUS
 10
5.3107037282
 20
6.9461106179
 11
5.3105223538
 21
6.9469408745
  0
SPLINE
  5
34D
100
AcDbEntity
  8
0
100
AcDbSpline
 62
7
  6
CONTINUOUS
 70
0
 71
3
 72
21
 73
17
 74
0
 42
0.0000001
 43
0.0000001
 44
0.0000000001
 40
0.0
 40
0.0
 40
0.0
 40
0.0
 40
0.1879241452
 40
0.3687519931
 40
0.5357403583
 40
0.6828013031
 40
0.7472268808
 40
0.8048559294
 40
0.855268675
 40
0.8981756158
 40
0.9334746654
 40
0.9613783192
 40
0.9728102758
 40
0.9828091483
 40
0.9917117386
 40
1.0
 40
1.0
 40
1.0
 40
1.0
 10
5.2944153346
 20
6.9854342791
 30
0.0
 10
5.2943445925
 20
6.9856050657
 30
0.0
 10
5.2942117082
 20
6.9859426823
 30
0.0
 10
5.2940367305
 20
6.9864399222
 30
0.0
 10
5.293893895
 20
6.9869054419
 30
0.0
 10
5.2938019388
 20
6.987266448
 30
0.0
 10
5.2937497881
 20
6.987526041
 30
0.0
 10
5.2937231331
 20
6.9876936488
 30
0.0
 10
5.2937073025
 20
6.9878413614
 30
0.0
 10
5.293702322
 20
6.9879679403
 30
0.0
 10
5.2937081313
 20
6.9880723011
 30
0.0
 10
5.2937226184
 20
6.988144829
 30
0.0
 10
5.2937411079
 20
6.9881898716
 30
0.0
 10
5.2937569024
 20
6.9882153946
 30
0.0
 10
5.2937756372
 20
6.9882348217
 30
0.0
 10
5.2937903833
 20
6.9882436143
 30
0.0
 10
5.293797916
 20
6.9882467338
 30
0.0
  0
SPLINE
  5
34E
100
AcDbEntity
  8
0
100
AcDbSpline
 62
7
  6
CONTINUOUS
 70
0
 71
3
 72
23
 73
19
 74
0
 42
0.0000001
 43
0.0000001
 44
0.0000000001
 40
0.0
 40
0.0
 40
0.0
 40
0.0
 40
0.0642346728
 40
0.1358835016
 40
0.2951529712
 40
0.4641829253
 40
0.6285960377
 40
0.7047067752
 40
0.7745964639
 40
0.836818295
 40
0.8901055553
 40
0.9130645773
 40
0.9334213072
 40
0.9510932649
 40
0.9660300188
 40
0.9782250086
 40
0.9877538023
 40
1.0
 40
1.0
 40
1.0
 40
1.0
 10
5.2781269407
 20
7.0247579402
 30
0.0
 10
5.2780865213
 20
7.0248555211
 30
0.0
 10
5.2780051203
 20
7.0250636524
 30
0.0
 10
5.2778414994
 20
7.0255206049
 30
0.0
 10
5.2776424427
 20
7.0261476262
 30
0.0
 10
5.2774257555
 20
7.0269284207
 30
0.0
 10
5.2772682087
 20
7.0275833407
 30
0.0
 10
5.2771638322
 20
7.0280829993
 30
0.0
 10
5.2771014643
 20
7.0284196883
 30
0.0
 10
5.2770542008
 20
7.028720894
 30
0.0
 10
5.2770268324
 20
7.0289470051
 30
0.0
 10
5.2770140957
 20
7.0291053665
 30
0.0
 10
5.2770093044
 20
7.0292055376
 30
0.0
 10
5.277008845
 20
7.0292927185
 30
0.0
 10
5.277012509
 20
7.0293661776
 30
0.0
 10
5.2770207572
 20
7.0294264923
 30
0.0
 10
5.2770341573
 20
7.0294792951
 30
0.0
 10
5.2770552278
 20
7.0295150681
 30
0.0
 10
5.2770742056
 20
7.0295217999
 30
0.0
  0
SPLINE
  5
34F
100
AcDbEntity
  8
0
100
AcDbSpline
 62
7
  6
CONTINUOUS
 70
0
 71
3
 72
21
 73
17
 74
0
 42
0.0000001
 43
0.0000001
 44
0.0000000001
 40
0.0
 40
0.0
 40
0.0
 40
0.0
 40
0.0082751394
 40
0.0171607075
 40
0.0271464586
 40
0.0385731216
 40
0.0664975284
 40
0.1018584631
 40
0.144859745
 40
0.1953864878
 40
0.2531340621
 40
0.3176671537
 40
0.4648570256
 40
0.6318019925
 40
0.8124087978
 40
1.0
 40
1.0
 40
1.0
 40
1.0
 10
5.3355428399
 20
6.9994016513
 30
0.0
 10
5.3355353262
 20
6.9993985387
 30
0.0
 10
5.3355187175
 20
6.9993943558
 30
0.0
 10
5.3354917969
 20
6.9993949317
 30
0.0
 10
5.335462674
 20
6.9994019476
 30
0.0
 10
5.3354179013
 20
6.9994209815
 30
0.0
 10
5.3353566464
 20
6.9994624569
 30
0.0
 10
5.335279167
 20
6.9995327324
 30
0.0
 10
5.3351937002
 20
6.9996264417
 30
0.0
 10
5.3351010545
 20
6.9997428147
 30
0.0
 10
5.3350020823
 20
6.9998809081
 30
0.0
 10
5.3348565179
 20
7.0001022219
 30
0.0
 10
5.334667797
 20
7.0004232459
 30
0.0
 10
5.3344413324
 20
7.0008536753
 30
0.0
 10
5.3342148943
 20
7.0013285166
 30
0.0
 10
5.334070705
 20
7.0016605126
 30
0.0
 10
5.3340001503
 20
7.0018308466
 30
0.0
  0
LINE
  5
350
100
AcDbEntity
  8
0
100
AcDbLine
 62
7
  6
CONTINUOUS
 10
5.3386355567
 20
6.9061090657
 11
5.3386045943
 21
6.9062482123
  0
LINE
  5
351
100
AcDbEntity
  8
0
100
AcDbLine
 62
7
  6
CONTINUOUS
 10
5.3254494795
 20
6.9379430737
 11
5.3251905513
 21
6.9391099547
  0
SPLINE
  5
352
100
AcDbEntity
  8
0
100
AcDbSpline
 62
7
  6
CONTINUOUS
 70
0
 71
3
 72
9
 73
5
 74
0
 42
0.0000001
 43
0.0000001
 44
0.0000000001
 40
0.0
 40
0.0
 40
0.0
 40
0.0
 40
0.5000003292
 40
1.0
 40
1.0
 40
1.0
 40
1.0
 10
5.51489999
 20
6.0254936474
 30
0.0
 10
5.516336153
 20
5.955049804
 30
0.0
 10
5.5192635928
 20
5.8141633263
 30
0.0
 10
5.5223344132
 20
5.6732798787
 30
0.0
 10
5.5239183399
 20
5.6028392956
 30
0.0
  0
SPLINE
  5
353
100
AcDbEntity
  8
0
100
AcDbSpline
 62
7
  6
CONTINUOUS
 70
0
 71
3
 72
10
 73
6
 74
0
 42
0.0000001
 43
0.0000001
 44
0.0000000001
 40
0.0
 40
0.0
 40
0.0
 40
0.0
 40
0.2514634005
 40
0.5023436607
 40
1.0
 40
1.0
 40
1.0
 40
1.0
 10
5.5596404537
 20
6.0301714612
 30
0.0
 10
5.5558639591
 20
6.0301714607
 30
0.0
 10
5.5483178364
 20
6.0299763126
 30
0.0
 10
5.5333412121
 20
6.028809771
 30
0.0
 10
5.5222082423
 20
6.0270581571
 30
0.0
 10
5.51489999
 20
6.0254936474
 30
0.0
  0
SPLINE
  5
354
100
AcDbEntity
  8
0
100
AcDbSpline
 62
7
  6
CONTINUOUS
 70
0
 71
3
 72
10
 73
6
 74
0
 42
0.0000001
 43
0.0000001
 44
0.0000000001
 40
0.0
 40
0.0
 40
0.0
 40
0.0
 40
0.4976563401
 40
0.7485366009
 40
1.0
 40
1.0
 40
1.0
 40
1.0
 10
5.6043809174
 20
6.0254936472
 30
0.0
 10
5.5970726648
 20
6.0270581556
 30
0.0
 10
5.5859396955
 20
6.0288097718
 30
0.0
 10
5.570963071
 20
6.029976313
 30
0.0
 10
5.5634169484
 20
6.0301714603
 30
0.0
 10
5.5596404537
 20
6.0301714612
 30
0.0
  0
SPLINE
  5
355
100
AcDbEntity
  8
0
100
AcDbSpline
 62
7
  6
CONTINUOUS
 70
0
 71
3
 72
9
 73
5
 74
0
 42
0.0000001
 43
0.0000001
 44
0.0000000001
 40
0.0
 40
0.0
 40
0.0
 40
0.0
 40
0.4999996708
 40
1.0
 40
1.0
 40
1.0
 40
1.0
 10
5.595362563
 20
5.602839295
 30
0.0
 10
5.5969464898
 20
5.6732798782
 30
0.0
 10
5.6000173187
 20
5.8141633258
 30
0.0
 10
5.6029447535
 20
5.9550498037
 30
0.0
 10
5.6043809174
 20
6.0254936472
 30
0.0
  0
SPLINE
  5
356
100
AcDbEntity
  8
0
100
AcDbSpline
 62
7
  6
CONTINUOUS
 70
0
 71
3
 72
21
 73
17
 74
0
 42
0.0000001
 43
0.0000001
 44
0.0000000001
 40
0.0
 40
0.0
 40
0.0
 40
0.0
 40
0.1877885319
 40
0.368528183
 40
0.5355026947
 40
0.682620188
 40
0.7470907689
 40
0.8047683536
 40
0.8552266206
 40
0.898169822
 40
0.9334909288
 40
0.9613995499
 40
0.9728278905
 40
0.9828204672
 40
0.9917160056
 40
1.0
 40
1.0
 40
1.0
 40
1.0
 10
5.3041139577
 20
6.9894515803
 30
0.0
 10
5.3040432964
 20
6.9896221717
 30
0.0
 10
5.3039104313
 20
6.9899593908
 30
0.0
 10
5.3037350893
 20
6.9904560139
 30
0.0
 10
5.3035915447
 20
6.9909210492
 30
0.0
 10
5.3034987919
 20
6.9912817739
 30
0.0
 10
5.303445948
 20
6.9915412626
 30
0.0
 10
5.3034188035
 20
6.9917088573
 30
0.0
 10
5.3034025163
 20
6.9918565856
 30
0.0
 10
5.3033971308
 20
6.9919831966
 30
0.0
 10
5.3034026019
 20
6.9920875932
 30
0.0
 10
5.3034168562
 20
6.9921601611
 30
0.0
 10
5.3034352136
 20
6.9922052311
 30
0.0
 10
5.3034509359
 20
6.9922307656
 30
0.0
 10
5.3034696258
 20
6.9922501986
 30
0.0
 10
5.3034843538
 20
6.9922589885
 30
0.0
 10
5.3034918794
 20
6.9922621052
 30
0.0
  0
SPLINE
  5
357
100
AcDbEntity
  8
0
100
AcDbSpline
 62
7
  6
CONTINUOUS
 70
0
 71
3
 72
24
 73
20
 74
0
 42
0.0000001
 43
0.0000001
 44
0.0000000001
 40
0.0
 40
0.0
 40
0.0
 40
0.0
 40
0.1491190116
 40
0.3142699594
 40
0.4832180463
 40
0.5652049627
 40
0.6435035936
 40
0.7166835975
 40
0.7834228604
 40
0.842534201
 40
0.8930007955
 40
0.9147353913
 40
0.9340314558
 40
0.9508377519
 40
0.9651379295
 40
0.9769650635
 40
0.9864465022
 40
0.9938941314
 40
1.0
 40
1.0
 40
1.0
 40
1.0
 10
5.2827784355
 20
7.0409600868
 30
0.0
 10
5.2826908591
 20
7.0411715148
 30
0.0
 10
5.2825203957
 20
7.0416229634
 30
0.0
 10
5.2822886076
 20
7.0423275564
 30
0.0
 10
5.2821124213
 20
7.0429415132
 30
0.0
 10
5.2819875335
 20
7.0434311287
 30
0.0
 10
5.2819063422
 20
7.0437801319
 30
0.0
 10
5.2818381118
 20
7.0441080337
 30
0.0
 10
5.2817840223
 20
7.0444087016
 30
0.0
 10
5.2817450113
 20
7.0446765154
 30
0.0
 10
5.281724545
 20
7.0448771047
 30
0.0
 10
5.2817171536
 20
7.0450173561
 30
0.0
 10
5.2817160041
 20
7.0451061381
 30
0.0
 10
5.2817189351
 20
7.0451834778
 30
0.0
 10
5.2817259151
 20
7.045249062
 30
0.0
 10
5.2817368797
 20
7.045302725
 30
0.0
 10
5.2817518979
 20
7.0453444449
 30
0.0
 10
5.2817712267
 20
7.045374622
 30
0.0
 10
5.2817890173
 20
7.0453869789
 30
0.0
 10
5.2817978668
 20
7.0453900599
 30
0.0
  0
LINE
  5
358
100
AcDbEntity
  8
0
100
AcDbLine
 62
7
  6
CONTINUOUS
 10
5.6003847703
 20
5.5984762974
 11
5.6004754001
 21
5.6028392952
  0
LINE
  5
359
100
AcDbEntity
  8
0
100
AcDbLine
 62
7
  6
CONTINUOUS
 10
5.6004754001
 20
5.6028392952
 11
5.6088555437
 21
6.0254936462
  0
LINE
  5
35A
100
AcDbEntity
  8
0
100
AcDbLine
 62
7
  6
CONTINUOUS
 10
5.2695923572
 20
7.0727940943
 11
5.2694964319
 21
7.0730640894
  0
LINE
  5
35B
100
AcDbEntity
  8
0
100
AcDbLine
 62
7
  6
CONTINUOUS
 10
5.2694964319
 20
7.0730640894
 11
5.2684192992
 21
7.0777368087
  0
LINE
  5
35C
100
AcDbEntity
  8
0
100
AcDbLine
 62
7
  6
CONTINUOUS
 10
5.2684192992
 20
7.0777368087
 11
5.2683913508
 21
7.0782128425
  0
LINE
  5
35D
100
AcDbEntity
  8
0
100
AcDbLine
 62
7
  6
CONTINUOUS
 10
5.3416179505
 20
6.9014281924
 11
5.3412214003
 21
6.9018940981
  0
LINE
  5
35E
100
AcDbEntity
  8
0
100
AcDbLine
 62
7
  6
CONTINUOUS
 10
5.3412214003
 20
6.9018940981
 11
5.3387324089
 21
6.9059019675
  0
LINE
  5
35F
100
AcDbEntity
  8
0
100
AcDbLine
 62
7
  6
CONTINUOUS
 10
5.3387324089
 20
6.9059019675
 11
5.3386355567
 21
6.9061090657
  0
LINE
  5
360
100
AcDbEntity
  8
0
100
AcDbLine
 62
7
  6
CONTINUOUS
 10
5.5104253638
 20
6.0254936457
 11
5.5188054795
 21
5.6028392986
  0
LINE
  5
361
100
AcDbEntity
  8
0
100
AcDbLine
 62
7
  6
CONTINUOUS
 10
5.5188054795
 20
5.6028392986
 11
5.5188961358
 21
5.5984762933
  0
SPLINE
  5
362
100
AcDbEntity
  8
0
100
AcDbSpline
 62
7
  6
CONTINUOUS
 70
0
 71
3
 72
36
 73
32
 74
0
 42
0.0000001
 43
0.0000001
 44
0.0000000001
 40
0.0
 40
0.0
 40
0.0
 40
0.0
 40
0.2217542963
 40
0.3237222758
 40
0.4194483203
 40
0.508701175
 40
0.5912427199
 40
0.6668358944
 40
0.7352456328
 40
0.7962419765
 40
0.8496095617
 40
0.873369098
 40
0.8951477307
 40
0.9149226925
 40
0.9326724166
 40
0.9483797784
 40
0.9620286286
 40
0.9736036178
 40
0.9786095854
 40
0.9830926537
 40
0.987051411
 40
0.9904844446
 40
0.9933905051
 40
0.9957690275
 40
0.997619625
 40
0.998346831
 40
0.9989419107
 40
0.9994048158
 40
0.9997354979
 40
0.9999339088
 40
1.0
 40
1.0
 40
1.0
 40
1.0
 10
5.5188961358
 20
5.5984762933
 30
0.0
 10
5.5183309538
 20
5.5981618721
 30
0.0
 10
5.5175108003
 20
5.5976939537
 30
0.0
 10
5.5164578657
 20
5.597071129
 30
0.0
 10
5.5157416396
 20
5.5966381981
 30
0.0
 10
5.5150775247
 20
5.5962286499
 30
0.0
 10
5.5144665349
 20
5.5958448708
 30
0.0
 10
5.5139097105
 20
5.5954891854
 30
0.0
 10
5.5134080786
 20
5.5951638542
 30
0.0
 10
5.5129626183
 20
5.5948710612
 30
0.0
 10
5.5126271924
 20
5.5946479629
 30
0.0
 10
5.5123876048
 20
5.5944873131
 30
0.0
 10
5.5122296249
 20
5.5943808793
 30
0.0
 10
5.5120863715
 20
5.5942839579
 30
0.0
 10
5.5119579274
 20
5.5941967471
 30
0.0
 10
5.5118443857
 20
5.5941193956
 30
0.0
 10
5.5117458246
 20
5.5940520408
 30
0.0
 10
5.5116730956
 20
5.5940022031
 30
0.0
 10
5.5116224489
 20
5.5939674317
 30
0.0
 10
5.5115901259
 20
5.5939452168
 30
0.0
 10
5.5115615916
 20
5.5939255877
 30
0.0
 10
5.5115368528
 20
5.5939085593
 30
0.0
 10
5.5115159099
 20
5.5938941369
 30
0.0
 10
5.5114987759
 20
5.5938823429
 30
0.0
 10
5.5114868607
 20
5.5938741211
 30
0.0
 10
5.5114792569
 20
5.5938689041
 30
0.0
 10
5.5114749346
 20
5.5938658809
 30
0.0
 10
5.5114716892
 20
5.5938637619
 30
0.0
 10
5.5114691036
 20
5.5938617159
 30
0.0
 10
5.5114680301
 20
5.5938614409
 30
0.0
 10
5.5114670261
 20
5.5938602694
 30
0.0
 10
5.5114670182
 20
5.5938604619
 30
0.0
  0
SPLINE
  5
363
100
AcDbEntity
  8
0
100
AcDbSpline
 62
7
  6
CONTINUOUS
 70
0
 71
3
 72
24
 73
20
 74
0
 42
0.0000001
 43
0.0000001
 44
0.0000000001
 40
0.0
 40
0.0
 40
0.0
 40
0.0
 40
0.1895881192
 40
0.3715007215
 40
0.4575025985
 40
0.5391540105
 40
0.6157263178
 40
0.686546204
 40
0.7510060552
 40
0.8085763256
 40
0.858822541
 40
0.9014328212
 40
0.9362711284
 40
0.9508207236
 40
0.9635305162
 40
0.9745229062
 40
0.9840087069
 40
0.9923306382
 40
1.0
 40
1.0
 40
1.0
 40
1.0
 10
5.5239183489
 20
5.6028392985
 30
0.0
 10
5.5240767432
 20
5.602406464
 30
0.0
 10
5.524374333
 20
5.6015535787
 30
0.0
 10
5.5247075484
 20
5.6004921987
 30
0.0
 10
5.5249398541
 20
5.5996746916
 30
0.0
 10
5.5250908196
 20
5.5991004247
 30
0.0
 10
5.5252204407
 20
5.5985588424
 30
0.0
 10
5.5253275339
 20
5.5980550023
 30
0.0
 10
5.525411157
 20
5.5975935945
 30
0.0
 10
5.5254706005
 20
5.5971789045
 30
0.0
 10
5.5255054784
 20
5.5968146701
 30
0.0
 10
5.5255155634
 20
5.5965041925
 30
0.0
 10
5.5255030831
 20
5.5962803014
 30
0.0
 10
5.5254779831
 20
5.596131273
 30
0.0
 10
5.5254540246
 20
5.5960412389
 30
0.0
 10
5.5254237992
 20
5.5959661477
 30
0.0
 10
5.5253870766
 20
5.5959060267
 30
0.0
 10
5.5253434537
 20
5.5958611648
 30
0.0
 10
5.5253089667
 20
5.5958417548
 30
0.0
 10
5.52529148
 20
5.5958352858
 30
0.0
  0
SPLINE
  5
364
100
AcDbEntity
  8
0
100
AcDbSpline
 62
7
  6
CONTINUOUS
 70
0
 71
3
 72
24
 73
20
 74
0
 42
0.0000001
 43
0.0000001
 44
0.0000000001
 40
0.0
 40
0.0
 40
0.0
 40
0.0
 40
0.1895869458
 40
0.3714983648
 40
0.4574997954
 40
0.539150908
 40
0.6157230937
 40
0.6865430558
 40
0.7510031879
 40
0.8085739382
 40
0.8588208125
 40
0.901431889
 40
0.9362710482
 40
0.950821041
 40
0.9635311695
 40
0.974523782
 40
0.9840096102
 40
0.9923312697
 40
1.0
 40
1.0
 40
1.0
 40
1.0
 10
5.5953625531
 20
5.6028392983
 30
0.0
 10
5.5952041123
 20
5.6024064816
 30
0.0
 10
5.5949064542
 20
5.6015536212
 30
0.0
 10
5.5945732025
 20
5.6004922538
 30
0.0
 10
5.5943408917
 20
5.5996747488
 30
0.0
 10
5.594189932
 20
5.5991004797
 30
0.0
 10
5.5940603243
 20
5.5985588923
 30
0.0
 10
5.5939532502
 20
5.598055045
 30
0.0
 10
5.5938696497
 20
5.5975936288
 30
0.0
 10
5.5938102302
 20
5.5971789299
 30
0.0
 10
5.5937753759
 20
5.5968146867
 30
0.0
 10
5.5937653123
 20
5.5965042014
 30
0.0
 10
5.5937778078
 20
5.5962803052
 30
0.0
 10
5.5938029169
 20
5.5961312738
 30
0.0
 10
5.5938268802
 20
5.5960412381
 30
0.0
 10
5.5938571083
 20
5.5959661461
 30
0.0
 10
5.5938938314
 20
5.5959060252
 30
0.0
 10
5.593937452
 20
5.5958611639
 30
0.0
 10
5.5939719369
 20
5.5958417542
 30
0.0
 10
5.5939894223
 20
5.5958352857
 30
0.0
  0
SPLINE
  5
365
100
AcDbEntity
  8
0
100
AcDbSpline
 62
7
  6
CONTINUOUS
 70
0
 71
3
 72
15
 73
11
 74
0
 42
0.0000001
 43
0.0000001
 44
0.0000000001
 40
0.0
 40
0.0
 40
0.0
 40
0.0
 40
0.134647375
 40
0.2666965435
 40
0.3957324039
 40
0.5215905121
 40
0.6443945417
 40
0.7645650461
 40
0.8827964323
 40
1.0
 40
1.0
 40
1.0
 40
1.0
 10
5.6003847707
 20
5.5984762972
 30
0.0
 10
5.6003320923
 20
5.598126599
 30
0.0
 10
5.6002732917
 20
5.5974260958
 30
0.0
 10
5.6003291141
 20
5.5963849637
 30
0.0
 10
5.6005286076
 20
5.5953846861
 30
0.0
 10
5.6008677336
 20
5.594448254
 30
0.0
 10
5.6013392283
 20
5.5935971574
 30
0.0
 10
5.6019328791
 20
5.5928512445
 30
0.0
 10
5.6026349747
 20
5.5922283872
 30
0.0
 10
5.6031661444
 20
5.5919042726
 30
0.0
 10
5.6034422041
 20
5.5917680764
 30
0.0
  0
SPLINE
  5
366
100
AcDbEntity
  8
0
100
AcDbSpline
 62
7
  6
CONTINUOUS
 70
0
 71
3
 72
15
 73
11
 74
0
 42
0.0000001
 43
0.0000001
 44
0.0000000001
 40
0.0
 40
0.0
 40
0.0
 40
0.0
 40
0.1346474297
 40
0.2666959806
 40
0.3957306143
 40
0.5215872177
 40
0.6443900187
 40
0.7645602188
 40
0.8827929065
 40
1.0
 40
1.0
 40
1.0
 40
1.0
 10
5.5188961347
 20
5.5984762932
 30
0.0
 10
5.5189488095
 20
5.5981265939
 30
0.0
 10
5.5190076071
 20
5.5974260916
 30
0.0
 10
5.5189517923
 20
5.5963849629
 30
0.0
 10
5.5187523116
 20
5.5953846906
 30
0.0
 10
5.5184131987
 20
5.5944482635
 30
0.0
 10
5.5179417124
 20
5.5935971698
 30
0.0
 10
5.517348061
 20
5.5928512563
 30
0.0
 10
5.5166459526
 20
5.5922283935
 30
0.0
 10
5.51611477
 20
5.5919042744
 30
0.0
 10
5.5158387016
 20
5.5917680739
 30
0.0
  0
LINE
  5
367
100
AcDbEntity
  8
0
100
AcDbLine
 62
7
  6
CONTINUOUS
 10
5.5239183399
 20
5.6028392937
 11
5.518805506
 21
5.6028392974
  0
SPLINE
  5
368
100
AcDbEntity
  8
0
100
AcDbSpline
 62
7
  6
CONTINUOUS
 70
0
 71
3
 72
15
 73
11
 74
0
 42
0.0000001
 43
0.0000001
 44
0.0000000001
 40
0.0
 40
0.0
 40
0.0
 40
0.0
 40
0.1311558441
 40
0.2605800086
 40
0.3882212727
 40
0.5140485339
 40
0.6380846255
 40
0.7603753112
 40
0.8809856145
 40
1.0
 40
1.0
 40
1.0
 40
1.0
 10
5.5084015908
 20
5.6815916711
 30
0.0
 10
5.5053353376
 20
5.680554022
 30
0.0
 10
5.4993029866
 20
5.6783110489
 30
0.0
 10
5.4905278406
 20
5.6744506208
 30
0.0
 10
5.4821033707
 20
5.6701576494
 30
0.0
 10
5.4740440306
 20
5.665473277
 30
0.0
 10
5.466358334
 20
5.6604358321
 30
0.0
 10
5.4590490912
 20
5.655081751
 30
0.0
 10
5.452116157
 20
5.649443807
 30
0.0
 10
5.4477140921
 20
5.645490123
 30
0.0
 10
5.4455763399
 20
5.6434755838
 30
0.0
  0
SPLINE
  5
369
100
AcDbEntity
  8
0
100
AcDbSpline
 62
7
  6
CONTINUOUS
 70
0
 71
3
 72
12
 73
8
 74
0
 42
0.0000001
 43
0.0000001
 44
0.0000000001
 40
0.0
 40
0.0
 40
0.0
 40
0.0
 40
0.1432470329
 40
0.2835376521
 40
0.4198844449
 40
0.5512732101
 40
1.0
 40
1.0
 40
1.0
 40
1.0
 10
5.5239181455
 20
5.6028398496
 30
0.0
 10
5.5236610849
 20
5.6026526404
 30
0.0
 10
5.5231577045
 20
5.602274594
 30
0.0
 10
5.5224253
 20
5.6016978901
 30
0.0
 10
5.5217271296
 20
5.6011206202
 30
0.0
 10
5.5205246207
 20
5.600079574
 30
0.0
 10
5.5195897532
 20
5.5991912971
 30
0.0
 10
5.5188961314
 20
5.5984762925
 30
0.0
  0
SPLINE
  5
36A
100
AcDbEntity
  8
0
100
AcDbSpline
 62
7
  6
CONTINUOUS
 70
0
 71
3
 72
17
 73
13
 74
0
 42
0.0000001
 43
0.0000001
 44
0.0000000001
 40
0.0
 40
0.0
 40
0.0
 40
0.0
 40
0.1473226312
 40
0.2916121019
 40
0.4301223787
 40
0.5606969151
 40
0.6820986578
 40
0.7943617234
 40
0.8476117136
 40
0.8993213115
 40
0.9499426126
 40
1.0
 40
1.0
 40
1.0
 40
1.0
 10
5.6289404537
 20
5.4075439815
 30
0.0
 10
5.6285885137
 20
5.4075439815
 30
0.0
 10
5.6278909676
 20
5.4075899118
 30
0.0
 10
5.6268809042
 20
5.4077948174
 30
0.0
 10
5.6259474004
 20
5.4081280924
 30
0.0
 10
5.6251252532
 20
5.4085781808
 30
0.0
 10
5.6244452328
 20
5.4091294226
 30
0.0
 10
5.6240112241
 20
5.4096686444
 30
0.0
 10
5.6237669292
 20
5.4101279352
 30
0.0
 10
5.6236367572
 20
5.410477327
 30
0.0
 10
5.62355805
 20
5.410833948
 30
0.0
 10
5.6235404537
 20
5.4110748192
 30
0.0
 10
5.6235404537
 20
5.4111944016
 30
0.0
  0
SPLINE
  5
36B
100
AcDbEntity
  8
0
100
AcDbSpline
 62
7
  6
CONTINUOUS
 70
0
 71
3
 72
15
 73
11
 74
0
 42
0.0000001
 43
0.0000001
 44
0.0000000001
 40
0.0
 40
0.0
 40
0.0
 40
0.0
 40
0.118477047
 40
0.2386977475
 40
0.3607632781
 40
0.4847389525
 40
0.6106817281
 40
0.738580277
 40
0.8683989287
 40
1.0
 40
1.0
 40
1.0
 40
1.0
 10
5.4455763517
 20
5.3398175619
 30
0.0
 10
5.4479151581
 20
5.3376135562
 30
0.0
 10
5.4527445275
 20
5.3332956817
 30
0.0
 10
5.4603832569
 20
5.3271719891
 30
0.0
 10
5.4684721025
 20
5.3213947515
 30
0.0
 10
5.4770105775
 20
5.3160079218
 30
0.0
 10
5.4859925073
 20
5.3110604534
 30
0.0
 10
5.4954038514
 20
5.3066031083
 30
0.0
 10
5.505220585
 20
5.3026923883
 30
0.0
 10
5.5119699167
 20
5.3004982527
 30
0.0
 10
5.5153993755
 20
5.2995076768
 30
0.0
  0
SPLINE
  5
36C
100
AcDbEntity
  8
0
100
AcDbSpline
 62
7
  6
CONTINUOUS
 70
0
 71
3
 72
16
 73
12
 74
0
 42
0.0000001
 43
0.0000001
 44
0.0000000001
 40
0.0
 40
0.0
 40
0.0
 40
0.0
 40
0.2774011662
 40
0.4130391138
 40
0.5432054626
 40
0.6664868477
 40
0.7826275081
 40
0.8384409147
 40
0.8930247328
 40
0.946737344
 40
1.0
 40
1.0
 40
1.0
 40
1.0
 10
5.4920705315
 20
5.3916525931
 30
0.0
 10
5.4928447548
 20
5.3917245922
 30
0.0
 10
5.4939918713
 20
5.3920265803
 30
0.0
 10
5.4953249571
 20
5.392773473
 30
0.0
 10
5.4961707248
 20
5.3934730618
 30
0.0
 10
5.4968270063
 20
5.394284105
 30
0.0
 10
5.4971945627
 20
5.3950354242
 30
0.0
 10
5.4973595763
 20
5.3956502592
 30
0.0
 10
5.4974189408
 20
5.3961079064
 30
0.0
 10
5.497414507
 20
5.3965621564
 30
0.0
 10
5.497368872
 20
5.3968597446
 30
0.0
 10
5.4973357204
 20
5.3970053142
 30
0.0
  0
SPLINE
  5
36D
100
AcDbEntity
  8
0
100
AcDbSpline
 62
7
  6
CONTINUOUS
 70
0
 71
3
 72
16
 73
12
 74
0
 42
0.0000001
 43
0.0000001
 44
0.0000000001
 40
0.0
 40
0.0
 40
0.0
 40
0.0
 40
0.2774012351
 40
0.4130392137
 40
0.5432055832
 40
0.6664869705
 40
0.7826276085
 40
0.8384410032
 40
0.8930248127
 40
0.9467374354
 40
1.0
 40
1.0
 40
1.0
 40
1.0
 10
5.6272103761
 20
5.391652594
 30
0.0
 10
5.6264361527
 20
5.3917245921
 30
0.0
 10
5.6252890366
 20
5.3920265821
 30
0.0
 10
5.6239559507
 20
5.3927734743
 30
0.0
 10
5.623110183
 20
5.3934730631
 30
0.0
 10
5.6224539014
 20
5.3942841059
 30
0.0
 10
5.6220863448
 20
5.3950354247
 30
0.0
 10
5.6219213312
 20
5.3956502594
 30
0.0
 10
5.6218619666
 20
5.3961079064
 30
0.0
 10
5.6218664004
 20
5.3965621561
 30
0.0
 10
5.6219120353
 20
5.3968597439
 30
0.0
 10
5.6219451869
 20
5.3970053133
 30
0.0
  0
SPLINE
  5
36E
100
AcDbEntity
  8
0
100
AcDbSpline
 62
7
  6
CONTINUOUS
 70
0
 71
3
 72
10
 73
6
 74
0
 42
0.0000001
 43
0.0000001
 44
0.0000000001
 40
0.0
 40
0.0
 40
0.0
 40
0.0
 40
0.4976506626
 40
0.7485332412
 40
1.0
 40
1.0
 40
1.0
 40
1.0
 10
5.6048663005
 20
6.0325266147
 30
0.0
 10
5.5974856955
 20
6.0341548429
 30
0.0
 10
5.5862340618
 20
6.0359799096
 30
0.0
 10
5.5710910678
 20
6.0371958323
 30
0.0
 10
5.5634596066
 20
6.0373993029
 30
0.0
 10
5.5596404537
 20
6.0373993033
 30
0.0
  0
SPLINE
  5
36F
100
AcDbEntity
  8
0
100
AcDbSpline
 62
7
  6
CONTINUOUS
 70
0
 71
3
 72
17
 73
13
 74
0
 42
0.0000001
 43
0.0000001
 44
0.0000000001
 40
0.0
 40
0.0
 40
0.0
 40
0.0
 40
0.1473226313
 40
0.291612102
 40
0.4301223788
 40
0.5606969153
 40
0.6820986579
 40
0.7943617236
 40
0.8476117137
 40
0.8993213116
 40
0.9499426127
 40
1.0
 40
1.0
 40
1.0
 40
1.0
 10
5.4903404537
 20
5.4075439815
 30
0.0
 10
5.4906923938
 20
5.4075439815
 30
0.0
 10
5.4913899398
 20
5.4075899118
 30
0.0
 10
5.4924000032
 20
5.4077948174
 30
0.0
 10
5.4933335071
 20
5.4081280924
 30
0.0
 10
5.4941556542
 20
5.4085781808
 30
0.0
 10
5.4948356746
 20
5.4091294226
 30
0.0
 10
5.4952696834
 20
5.4096686444
 30
0.0
 10
5.4955139782
 20
5.4101279352
 30
0.0
 10
5.4956441502
 20
5.410477327
 30
0.0
 10
5.4957228575
 20
5.410833948
 30
0.0
 10
5.4957404537
 20
5.4110748192
 30
0.0
 10
5.4957404537
 20
5.4111944016
 30
0.0
  0
SPLINE
  5
370
100
AcDbEntity
  8
0
100
AcDbSpline
 62
7
  6
CONTINUOUS
 70
0
 71
3
 72
10
 73
6
 74
0
 42
0.0000001
 43
0.0000001
 44
0.0000000001
 40
0.0
 40
0.0
 40
0.0
 40
0.0
 40
0.2514668015
 40
0.5023493669
 40
1.0
 40
1.0
 40
1.0
 40
1.0
 10
5.5596404537
 20
6.0373993033
 30
0.0
 10
5.5558213034
 20
6.0373993031
 30
0.0
 10
5.5481898481
 20
6.037195833
 30
0.0
 10
5.5330468667
 20
6.0359799116
 30
0.0
 10
5.5217952427
 20
6.0341548489
 30
0.0
 10
5.5144146442
 20
6.0325266224
 30
0.0
  0
SPLINE
  5
371
100
AcDbEntity
  8
0
100
AcDbSpline
 62
7
  6
CONTINUOUS
 70
0
 71
3
 72
11
 73
7
 74
0
 42
0.0000001
 43
0.0000001
 44
0.0000000001
 40
0.0
 40
0.0
 40
0.0
 40
0.0
 40
0.2294023772
 40
0.4730685964
 40
0.7306643155
 40
1.0
 40
1.0
 40
1.0
 40
1.0
 10
5.4626588743
 20
5.3921126169
 30
0.0
 10
5.4629031056
 20
5.3919694044
 30
0.0
 10
5.4634424769
 20
5.3917323451
 30
0.0
 10
5.464328716
 20
5.391540433
 30
0.0
 10
5.4652835686
 20
5.3915061089
 30
0.0
 10
5.4659318404
 20
5.3915872956
 30
0.0
 10
5.4662577712
 20
5.3916525961
 30
0.0
  0
LINE
  5
372
100
AcDbEntity
  8
0
100
AcDbLine
 62
7
  6
CONTINUOUS
 10
5.5104253639
 20
6.0254936477
 11
5.5148999904
 21
6.0254936477
  0
SPLINE
  5
373
100
AcDbEntity
  8
0
100
AcDbSpline
 62
7
  6
CONTINUOUS
 70
0
 71
3
 72
13
 73
9
 74
0
 42
0.0000001
 43
0.0000001
 44
0.0000000001
 40
0.0
 40
0.0
 40
0.0
 40
0.0
 40
0.1130124917
 40
0.229821367
 40
0.3507212346
 40
0.4755911948
 40
0.7344189795
 40
1.0
 40
1.0
 40
1.0
 40
1.0
 10
5.5144144438
 20
6.0325265809
 30
0.0
 10
5.5141201297
 20
6.0323979843
 30
0.0
 10
5.5135447836
 20
6.0320802796
 30
0.0
 10
5.512764087
 20
6.0314537131
 30
0.0
 10
5.5120705262
 20
6.0306858567
 30
0.0
 10
5.5112758733
 20
6.0294866878
 30
0.0
 10
5.5105941832
 20
6.0277467244
 30
0.0
 10
5.510418567
 20
6.0262483997
 30
0.0
 10
5.5104253639
 20
6.0254936477
 30
0.0
  0
SPLINE
  5
374
100
AcDbEntity
  8
0
100
AcDbSpline
 62
7
  6
CONTINUOUS
 70
0
 71
3
 72
20
 73
16
 74
0
 42
0.0000001
 43
0.0000001
 44
0.0000000001
 40
0.0
 40
0.0
 40
0.0
 40
0.0
 40
0.0844053679
 40
0.1682055236
 40
0.2508338354
 40
0.3317387272
 40
0.4862324433
 40
0.6276210225
 40
0.7522509716
 40
0.8072901909
 40
0.8570358735
 40
0.9012429796
 40
0.9397679042
 40
0.9726044372
 40
1.0
 40
1.0
 40
1.0
 40
1.0
 10
5.5148999904
 20
6.0254936477
 30
0.0
 10
5.5148580845
 20
6.0256893906
 30
0.0
 10
5.5147755304
 20
6.0260796878
 30
0.0
 10
5.5146617455
 20
6.0266636159
 30
0.0
 10
5.5145582318
 20
6.0272410197
 30
0.0
 10
5.514437414
 20
6.0279855487
 30
0.0
 10
5.5143172217
 20
6.028871264
 30
0.0
 10
5.5142232824
 20
6.0298644224
 30
0.0
 10
5.5141890039
 20
6.0306255492
 30
0.0
 10
5.5141913681
 20
6.0311697322
 30
0.0
 10
5.5142065332
 20
6.0315228757
 30
0.0
 10
5.5142350572
 20
6.0318358965
 30
0.0
 10
5.5142771303
 20
6.0321070503
 30
0.0
 10
5.5143333765
 20
6.0323346406
 30
0.0
 10
5.5143843695
 20
6.0324689882
 30
0.0
 10
5.5144144438
 20
6.0325265809
 30
0.0
  0
SPLINE
  5
375
100
AcDbEntity
  8
0
100
AcDbSpline
 62
7
  6
CONTINUOUS
 70
0
 71
3
 72
18
 73
14
 74
0
 42
0.0000001
 43
0.0000001
 44
0.0000000001
 40
0.0
 40
0.0
 40
0.0
 40
0.0
 40
0.027247281
 40
0.0600914578
 40
0.0986640924
 40
0.1429183455
 40
0.192691355
 40
0.2477383461
 40
0.3723554513
 40
0.5137429295
 40
0.6682498804
 40
0.8317920611
 40
1.0
 40
1.0
 40
1.0
 40
1.0
 10
5.6048664636
 20
6.0325265809
 30
0.0
 10
5.6048951015
 20
6.0324686565
 30
0.0
 10
5.6049456945
 20
6.0323347309
 30
0.0
 10
5.6050019138
 20
6.032107307
 30
0.0
 10
5.6050450097
 20
6.0318361273
 30
0.0
 10
5.6050745899
 20
6.0315229095
 30
0.0
 10
5.605090407
 20
6.0311696144
 30
0.0
 10
5.605092936
 20
6.0306253961
 30
0.0
 10
5.6050575681
 20
6.0298643639
 30
0.0
 10
5.6049631924
 20
6.028871321
 30
0.0
 10
5.6048171282
 20
6.0277913384
 30
0.0
 10
5.6046232791
 20
6.0266543898
 30
0.0
 10
5.604466446
 20
6.0258832769
 30
0.0
 10
5.604380917
 20
6.0254936477
 30
0.0
  0
SPLINE
  5
376
100
AcDbEntity
  8
0
100
AcDbSpline
 62
7
  6
CONTINUOUS
 70
0
 71
3
 72
16
 73
12
 74
0
 42
0.0000001
 43
0.0000001
 44
0.0000000001
 40
0.0
 40
0.0
 40
0.0
 40
0.0
 40
0.0666637871
 40
0.133328541
 40
0.2660057884
 40
0.5246486984
 40
0.6494023774
 40
0.7702490072
 40
0.8870661625
 40
0.9440342751
 40
1.0
 40
1.0
 40
1.0
 40
1.0
 10
5.6088555435
 20
6.0254936477
 30
0.0
 10
5.6088576978
 20
6.0256832298
 30
0.0
 10
5.6088489042
 20
6.0260626398
 30
0.0
 10
5.6087835137
 20
6.0268168412
 30
0.0
 10
5.6085474864
 20
6.0281004649
 30
0.0
 10
5.6080047637
 20
6.0294867515
 30
0.0
 10
5.6072108371
 20
6.0306860836
 30
0.0
 10
5.6065169037
 20
6.0314538853
 30
0.0
 10
5.6058594803
 20
6.0319802125
 30
0.0
 10
5.6053006186
 20
6.0323200893
 30
0.0
 10
5.605012134
 20
6.0324624341
 30
0.0
 10
5.6048664636
 20
6.0325265809
 30
0.0
  0
LINE
  5
377
100
AcDbEntity
  8
0
100
AcDbLine
 62
7
  6
CONTINUOUS
 10
5.604380917
 20
6.0254936477
 11
5.6088555435
 21
6.0254936477
  0
SPLINE
  5
378
100
AcDbEntity
  8
0
100
AcDbSpline
 62
7
  6
CONTINUOUS
 70
0
 71
3
 72
11
 73
7
 74
0
 42
0.0000001
 43
0.0000001
 44
0.0000000001
 40
0.0
 40
0.0
 40
0.0
 40
0.0
 40
0.2294024734
 40
0.473068695
 40
0.73066437
 40
1.0
 40
1.0
 40
1.0
 40
1.0
 10
5.6566220342
 20
5.392112619
 30
0.0
 10
5.6563778031
 20
5.3919694056
 30
0.0
 10
5.655838431
 20
5.3917323463
 30
0.0
 10
5.6549521917
 20
5.391540433
 30
0.0
 10
5.6539973384
 20
5.3915061077
 30
0.0
 10
5.6533490665
 20
5.3915872949
 30
0.0
 10
5.6530231352
 20
5.3916525939
 30
0.0
  0
SPLINE
  5
379
100
AcDbEntity
  8
0
100
AcDbSpline
 62
7
  6
CONTINUOUS
 70
0
 71
3
 72
20
 73
16
 74
0
 42
0.0000001
 43
0.0000001
 44
0.0000000001
 40
0.0
 40
0.0
 40
0.0
 40
0.0
 40
0.0743180098
 40
0.1483197317
 40
0.2216799275
 40
0.2940943652
 40
0.4348899428
 40
0.5684060792
 40
0.6318167776
 40
0.6926964651
 40
0.7508596714
 40
0.8061660871
 40
0.8586120909
 40
0.9082909472
 40
1.0
 40
1.0
 40
1.0
 40
1.0
 10
5.680564685
 20
5.5228212328
 30
0.0
 10
5.6807780959
 20
5.5226920841
 30
0.0
 10
5.6812041305
 20
5.5224345306
 30
0.0
 10
5.6818370903
 20
5.5220433592
 30
0.0
 10
5.6824599459
 20
5.5216480788
 30
0.0
 10
5.6832642217
 20
5.5211204353
 30
0.0
 10
5.6842175079
 20
5.5204522513
 30
0.0
 10
5.685110624
 20
5.5197526443
 30
0.0
 10
5.6857584321
 20
5.5191785537
 30
0.0
 10
5.6861975571
 20
5.5187513308
 30
0.0
 10
5.686594183
 20
5.518320562
 30
0.0
 10
5.6869445029
 20
5.5178871321
 30
0.0
 10
5.6872437967
 20
5.5174506243
 30
0.0
 10
5.6875601309
 20
5.5168818505
 30
0.0
 10
5.6877234181
 20
5.5164287475
 30
0.0
 10
5.6877811681
 20
5.5161263941
 30
0.0
  0
LINE
  5
37A
100
AcDbEntity
  8
0
100
AcDbLine
 62
7
  6
CONTINUOUS
 10
5.6004754027
 20
5.6028392952
 11
5.5953633744
 21
5.6028392811
  0
SPLINE
  5
37B
100
AcDbEntity
  8
0
100
AcDbSpline
 62
7
  6
CONTINUOUS
 70
0
 71
3
 72
14
 73
10
 74
0
 42
0.0000001
 43
0.0000001
 44
0.0000000001
 40
0.0
 40
0.0
 40
0.0
 40
0.0
 40
0.0971552758
 40
0.2057347339
 40
0.4487788229
 40
0.5801511001
 40
0.7164862516
 40
0.85676731
 40
1.0
 40
1.0
 40
1.0
 40
1.0
 10
5.6003847705
 20
5.598476295
 30
0.0
 10
5.6002347437
 20
5.5986312755
 30
0.0
 10
5.5999136661
 20
5.5989561982
 30
0.0
 10
5.5992006094
 20
5.5996521639
 30
0.0
 10
5.5984112701
 20
5.6003785111
 30
0.0
 10
5.5975538245
 20
5.6011206668
 30
0.0
 10
5.5968554581
 20
5.6016976647
 30
0.0
 10
5.5961232945
 20
5.602274677
 30
0.0
 10
5.595619877
 20
5.6026526838
 30
0.0
 10
5.5953627226
 20
5.6028397563
 30
0.0
  0
SPLINE
  5
37C
100
AcDbEntity
  8
0
100
AcDbSpline
 62
7
  6
CONTINUOUS
 70
0
 71
3
 72
24
 73
20
 74
0
 42
0.0000001
 43
0.0000001
 44
0.0000000001
 40
0.0
 40
0.0
 40
0.0
 40
0.0
 40
0.0489531479
 40
0.1011765785
 40
0.156403055
 40
0.1850499559
 40
0.2143191576
 40
0.2441645288
 40
0.2745397931
 40
0.3366570322
 40
0.4002920825
 40
0.4650877744
 40
0.5307423936
 40
0.5970140827
 40
0.6637179451
 40
0.7307176398
 40
0.797914621
 40
0.8652381168
 40
1.0
 40
1.0
 40
1.0
 40
1.0
 10
5.6566220348
 20
5.3921126202
 30
0.0
 10
5.655740965
 20
5.390405494
 30
0.0
 10
5.6538290261
 20
5.3869231125
 30
0.0
 10
5.6505697235
 20
5.3817180555
 30
0.0
 10
5.6474496985
 20
5.3773778195
 30
0.0
 10
5.6446757482
 20
5.3739099157
 30
0.0
 10
5.6424300666
 20
5.3712977059
 30
0.0
 10
5.6400447645
 20
5.3687190553
 30
0.0
 10
5.6366550579
 20
5.3653179106
 30
0.0
 10
5.6320868084
 20
5.3612253723
 30
0.0
 10
5.6261490507
 20
5.3566685482
 30
0.0
 10
5.6197684958
 20
5.3524960328
 30
0.0
 10
5.6130055861
 20
5.3487585074
 30
0.0
 10
5.6059218566
 20
5.3454896828
 30
0.0
 10
5.598576015
 20
5.3427102794
 30
0.0
 10
5.5910223533
 20
5.3404314263
 30
0.0
 10
5.5833089791
 20
5.3386581635
 30
0.0
 10
5.5728720767
 20
5.3369696367
 30
0.0
 10
5.5649289571
 20
5.336463973
 30
0.0
 10
5.5596404537
 20
5.3364639592
 30
0.0
  0
SPLINE
  5
37D
100
AcDbEntity
  8
0
100
AcDbSpline
 62
7
  6
CONTINUOUS
 70
0
 71
3
 72
23
 73
19
 74
0
 42
0.0000001
 43
0.0000001
 44
0.0000000001
 40
0.0
 40
0.0
 40
0.0
 40
0.0
 40
0.0068161276
 40
0.0146202397
 40
0.0240812529
 40
0.0355625753
 40
0.0492428545
 40
0.065199766
 40
0.1039701663
 40
0.1516615047
 40
0.2077112482
 40
0.271343739
 40
0.3416237249
 40
0.4174877057
 40
0.4977694061
 40
0.6665497803
 40
0.8375001873
 40
1.0
 40
1.0
 40
1.0
 40
1.0
 10
5.369137718
 20
6.9188597206
 30
0.0
 10
5.3691292548
 20
6.9188554326
 30
0.0
 10
5.3691089446
 20
6.9188501982
 30
0.0
 10
5.3690751594
 20
6.9188538937
 30
0.0
 10
5.3690373195
 20
6.9188676295
 30
0.0
 10
5.3689951156
 20
6.9188911788
 30
0.0
 10
5.3689484623
 20
6.9189244738
 30
0.0
 10
5.3688756288
 20
6.9189859229
 30
0.0
 10
5.3687755907
 20
6.9190878511
 30
0.0
 10
5.3686471798
 20
6.919239154
 30
0.0
 10
5.3685058313
 20
6.9194244576
 30
0.0
 10
5.3683538288
 20
6.919640872
 30
0.0
 10
5.3681936539
 20
6.9198850599
 30
0.0
 10
5.3680279006
 20
6.9201531581
 30
0.0
 10
5.3677992268
 20
6.920543398
 30
0.0
 10
5.3675201404
 20
6.9210573153
 30
0.0
 10
5.367210648
 20
6.9216843093
 30
0.0
 10
5.3670221634
 20
6.9221086543
 30
0.0
 10
5.3669356055
 20
6.9223176234
 30
0.0
  0
SPLINE
  5
37E
100
AcDbEntity
  8
0
100
AcDbSpline
 62
7
  6
CONTINUOUS
 70
0
 71
3
 72
22
 73
18
 74
0
 42
0.0000001
 43
0.0000001
 44
0.0000000001
 40
0.0
 40
0.0
 40
0.0
 40
0.0
 40
0.1347645405
 40
0.2020893875
 40
0.2692876691
 40
0.3362887056
 40
0.4029938707
 40
0.4692668883
 40
0.5349227375
 40
0.599719715
 40
0.6633560004
 40
0.7254754975
 40
0.7856873696
 40
0.8435940979
 40
0.8988223535
 40
0.9510463001
 40
1.0
 40
1.0
 40
1.0
 40
1.0
 10
5.5596404537
 20
5.3364639592
 30
0.0
 10
5.5543519476
 20
5.3364639669
 30
0.0
 10
5.5464088283
 20
5.3369696787
 30
0.0
 10
5.5359719097
 20
5.3386581422
 30
0.0
 10
5.5282585416
 20
5.3404314534
 30
0.0
 10
5.5207048663
 20
5.3427102714
 30
0.0
 10
5.5133590293
 20
5.3454897033
 30
0.0
 10
5.5062752865
 20
5.3487584986
 30
0.0
 10
5.499512394
 20
5.3524960807
 30
0.0
 10
5.4931318337
 20
5.356668517
 30
0.0
 10
5.4871940357
 20
5.3612256166
 30
0.0
 10
5.4817528112
 20
5.3660993799
 30
0.0
 10
5.4768484425
 20
5.3712049325
 30
0.0
 10
5.4725018414
 20
5.3764452016
 30
0.0
 10
5.4687110567
 20
5.3817179231
 30
0.0
 10
5.4654518333
 20
5.3869231752
 30
0.0
 10
5.4635399208
 20
5.3904055001
 30
0.0
 10
5.4626588726
 20
5.3921126202
 30
0.0
  0
SPLINE
  5
37F
100
AcDbEntity
  8
0
100
AcDbSpline
 62
7
  6
CONTINUOUS
 70
0
 71
3
 72
25
 73
21
 74
0
 42
0.0000001
 43
0.0000001
 44
0.0000000001
 40
0.0
 40
0.0
 40
0.0
 40
0.0
 40
0.0252014782
 40
0.0510856241
 40
0.0775920763
 40
0.1046644886
 40
0.1603105331
 40
0.2177339825
 40
0.2767179253
 40
0.3371018587
 40
0.398777352
 40
0.4616569167
 40
0.5256736165
 40
0.5907667762
 40
0.6568774805
 40
0.7239406533
 40
0.7918811145
 40
0.8606099833
 40
0.9300226275
 40
1.0
 40
1.0
 40
1.0
 40
1.0
 10
5.4626588726
 20
5.3921126202
 30
0.0
 10
5.4622233039
 20
5.3929565262
 30
0.0
 10
5.4613239746
 20
5.3946587506
 30
0.0
 10
5.4599250222
 20
5.3972263645
 30
0.0
 10
5.4584720561
 20
5.3998447118
 30
0.0
 10
5.4564625602
 20
5.4034368236
 30
0.0
 10
5.4538869579
 20
5.4080472554
 30
0.0
 10
5.4507910631
 20
5.4137442677
 30
0.0
 10
5.4477274143
 20
5.4196608737
 30
0.0
 10
5.4447519835
 20
5.4258013003
 30
0.0
 10
5.4419135182
 20
5.4321677253
 30
0.0
 10
5.4392573415
 20
5.4387605826
 30
0.0
 10
5.4368257678
 20
5.4455768568
 30
0.0
 10
5.4346595578
 20
5.4526099738
 30
0.0
 10
5.4327979328
 20
5.4598487807
 30
0.0
 10
5.4312785877
 20
5.4672770398
 30
0.0
 10
5.4301370694
 20
5.4748728111
 30
0.0
 10
5.429405948
 20
5.4826083727
 30
0.0
 10
5.4291135451
 20
5.4904497481
 30
0.0
 10
5.4292260842
 20
5.4957049322
 30
0.0
 10
5.4293613743
 20
5.49833846
 30
0.0
  0
LINE
  5
380
100
AcDbEntity
  8
0
100
AcDbLine
 62
7
  6
CONTINUOUS
 10
5.3783030366
 20
6.8663869202
 11
5.3782166173
 21
6.8667675005
  0
SPLINE
  5
381
100
AcDbEntity
  8
0
100
AcDbSpline
 62
7
  6
CONTINUOUS
 70
0
 71
3
 72
18
 73
14
 74
0
 42
0.0000001
 43
0.0000001
 44
0.0000000001
 40
0.0
 40
0.0
 40
0.0
 40
0.0
 40
0.2060958609
 40
0.392988697
 40
0.5577484036
 40
0.6979153369
 40
0.8116734768
 40
0.8583519436
 40
0.8982259946
 40
0.9315026832
 40
0.958682828
 40
0.9808356407
 40
1.0
 40
1.0
 40
1.0
 40
1.0
 10
5.3553215989
 20
6.9218690206
 30
0.0
 10
5.3552824163
 20
6.9219636158
 30
0.0
 10
5.3552099692
 20
6.922144949
 30
0.0
 10
5.3551151726
 20
6.9224053708
 30
0.0
 10
5.3550404114
 20
6.9226380834
 30
0.0
 10
5.3549868712
 20
6.9228391644
 30
0.0
 10
5.3549586068
 20
6.9229860682
 30
0.0
 10
5.3549488112
 20
6.9230851754
 30
0.0
 10
5.3549476673
 20
6.9231447774
 30
0.0
 10
5.3549521624
 20
6.9231945607
 30
0.0
 10
5.3549624014
 20
6.923234559
 30
0.0
 10
5.3549787629
 20
6.9232649768
 30
0.0
 10
5.3549950251
 20
6.9232786175
 30
0.0
 10
5.3550035212
 20
6.9232829145
 30
0.0
  0
SPLINE
  5
382
100
AcDbEntity
  8
0
100
AcDbSpline
 62
7
  6
CONTINUOUS
 70
0
 71
3
 72
40
 73
36
 74
0
 42
0.0000001
 43
0.0000001
 44
0.0000000001
 40
0.0
 40
0.0
 40
0.0
 40
0.0
 40
0.0233928242
 40
0.0483317836
 40
0.0747746351
 40
0.1026525586
 40
0.1318661146
 40
0.1469378443
 40
0.1622927876
 40
0.1937646623
 40
0.2261198758
 40
0.2591887672
 40
0.2928125473
 40
0.3268520587
 40
0.361191906
 40
0.3957404083
 40
0.4304266001
 40
0.465195586
 40
0.5000032673
 40
0.5348109472
 40
0.569579932
 40
0.6042661258
 40
0.6388146296
 40
0.6731544753
 40
0.7071939828
 40
0.740817748
 40
0.7738866146
 40
0.8062419113
 40
0.8377138139
 40
0.8681337781
 40
0.8973474549
 40
0.9252253082
 40
0.9516681555
 40
0.9766071672
 40
1.0
 40
1.0
 40
1.0
 40
1.0
 10
5.6272103759
 20
5.3916525928
 30
0.0
 10
5.6268796331
 20
5.3902617417
 30
0.0
 10
5.6260997669
 20
5.3874101197
 30
0.0
 10
5.6245922773
 20
5.3830922393
 30
0.0
 10
5.6226649269
 20
5.3786432672
 30
0.0
 10
5.6202806563
 20
5.3741233738
 30
0.0
 10
5.6179161534
 20
5.3703943213
 30
0.0
 10
5.6157783619
 20
5.3674410948
 30
0.0
 10
5.61343354
 20
5.3644713563
 30
0.0
 10
5.6101927544
 20
5.3608689581
 30
0.0
 10
5.6058613444
 20
5.3568201558
 30
0.0
 10
5.601087916
 20
5.3530849478
 30
0.0
 10
5.5959168473
 20
5.3497296787
 30
0.0
 10
5.5903999813
 20
5.3468094932
 30
0.0
 10
5.5845937034
 20
5.3443681945
 30
0.0
 10
5.578556291
 20
5.3424388952
 30
0.0
 10
5.5723463254
 20
5.3410453335
 30
0.0
 10
5.5660218995
 20
5.3402032608
 30
0.0
 10
5.5596404556
 20
5.3399216095
 30
0.0
 10
5.5532590119
 20
5.3402032634
 30
0.0
 10
5.5469345858
 20
5.3410453329
 30
0.0
 10
5.5407246191
 20
5.3424388915
 30
0.0
 10
5.5346872074
 20
5.3443681926
 30
0.0
 10
5.5288809295
 20
5.3468094933
 30
0.0
 10
5.5233640682
 20
5.349729676
 30
0.0
 10
5.5181929903
 20
5.3530849546
 30
0.0
 10
5.5134196349
 20
5.3568201763
 30
0.0
 10
5.5090879904
 20
5.3608689881
 30
0.0
 10
5.505231111
 20
5.3651564024
 30
0.0
 10
5.5018675444
 20
5.3696016357
 30
0.0
 10
5.4990001273
 20
5.3741231787
 30
0.0
 10
5.4966159803
 20
5.3786432992
 30
0.0
 10
5.4946886287
 20
5.3830922257
 30
0.0
 10
5.4931810778
 20
5.3874100989
 30
0.0
 10
5.492401236
 20
5.3902617321
 30
0.0
 10
5.4920705316
 20
5.3916525928
 30
0.0
  0
SPLINE
  5
383
100
AcDbEntity
  8
0
100
AcDbSpline
 62
7
  6
CONTINUOUS
 70
0
 71
3
 72
26
 73
22
 74
0
 42
0.0000001
 43
0.0000001
 44
0.0000000001
 40
0.0
 40
0.0
 40
0.0
 40
0.0
 40
0.0480244255
 40
0.099500209
 40
0.1541819672
 40
0.1826324137
 40
0.2117563554
 40
0.2415036547
 40
0.2718221197
 40
0.3026552996
 40
0.3339489782
 40
0.3656507847
 40
0.3977089457
 40
0.4626981418
 40
0.5285980192
 40
0.595146614
 40
0.6621458915
 40
0.7294515297
 40
0.7969603627
 40
0.8645989637
 40
1.0
 40
1.0
 40
1.0
 40
1.0
 10
5.6530231347
 20
5.3916525928
 30
0.0
 10
5.6522004752
 20
5.3900466593
 30
0.0
 10
5.6504062187
 20
5.3867643409
 30
0.0
 10
5.6473257151
 20
5.3818540424
 30
0.0
 10
5.6443559248
 20
5.377754675
 30
0.0
 10
5.6417016044
 20
5.3744759307
 30
0.0
 10
5.6395446113
 20
5.3720027533
 30
0.0
 10
5.6372478545
 20
5.3695614688
 30
0.0
 10
5.634812851
 20
5.3671655107
 30
0.0
 10
5.6322447477
 20
5.3648256189
 30
0.0
 10
5.6295483923
 20
5.3625531904
 30
0.0
 10
5.6267293452
 20
5.3603590458
 30
0.0
 10
5.6228002542
 20
5.3575355643
 30
0.0
 10
5.6176259848
 20
5.3542511567
 30
0.0
 10
5.6110797032
 20
5.3507481927
 30
0.0
 10
5.6042297887
 20
5.3476939779
 30
0.0
 10
5.5971352347
 20
5.3451044494
 30
0.0
 10
5.5898488151
 20
5.3429865265
 30
0.0
 10
5.582416381
 20
5.3413417912
 30
0.0
 10
5.5723676815
 20
5.3397780093
 30
0.0
 10
5.5647277622
 20
5.3393106968
 30
0.0
 10
5.5596404537
 20
5.3393106783
 30
0.0
  0
SPLINE
  5
384
100
AcDbEntity
  8
0
100
AcDbSpline
 62
7
  6
CONTINUOUS
 70
0
 71
3
 72
22
 73
18
 74
0
 42
0.0000001
 43
0.0000001
 44
0.0000000001
 40
0.0
 40
0.0
 40
0.0
 40
0.0
 40
0.1354069973
 40
0.2030485846
 40
0.2705603849
 40
0.3378689872
 40
0.4048712215
 40
0.4714227559
 40
0.537325477
 40
0.6023175384
 40
0.6660685218
 40
0.7281870434
 40
0.7882445
 40
0.8458111913
 40
0.9004955589
 40
0.951973454
 40
1.0
 40
1.0
 40
1.0
 40
1.0
 10
5.5596404537
 20
5.3393106783
 30
0.0
 10
5.5545531436
 20
5.339310689
 30
0.0
 10
5.5469132255
 20
5.3397780472
 30
0.0
 10
5.5368645147
 20
5.3413417749
 30
0.0
 10
5.5294320831
 20
5.3429865407
 30
0.0
 10
5.5221456609
 20
5.3451044487
 30
0.0
 10
5.5150510922
 20
5.3476939853
 30
0.0
 10
5.5082012135
 20
5.3507481598
 30
0.0
 10
5.5016548019
 20
5.3542512849
 30
0.0
 10
5.4954748586
 20
5.3581741327
 30
0.0
 10
5.4897252266
 20
5.3624710336
 30
0.0
 10
5.4844642421
 20
5.3670770498
 30
0.0
 10
5.4797368027
 20
5.3719086287
 30
0.0
 10
5.4755672794
 20
5.376868542
 30
0.0
 10
5.4719550286
 20
5.3818538138
 30
0.0
 10
5.4688746853
 20
5.3867643786
 30
0.0
 10
5.4670804167
 20
5.3900466504
 30
0.0
 10
5.4662577728
 20
5.3916525928
 30
0.0
  0
LINE
  5
385
100
AcDbEntity
  8
0
100
AcDbLine
 62
7
  6
CONTINUOUS
 10
5.680564685
 20
5.5228212328
 11
5.6824833785
 21
5.5148269829
  0
SPLINE
  5
386
100
AcDbEntity
  8
0
100
AcDbSpline
 62
7
  6
CONTINUOUS
 70
0
 71
3
 72
27
 73
23
 74
0
 42
0.0000001
 43
0.0000001
 44
0.0000000001
 40
0.0
 40
0.0
 40
0.0
 40
0.0
 40
0.1408122207
 40
0.2793093899
 40
0.3134161324
 40
0.3472669116
 40
0.3808449568
 40
0.4141353036
 40
0.4797947601
 40
0.5441602674
 40
0.6071542005
 40
0.6687010657
 40
0.7287166543
 40
0.7870906081
 40
0.8156180136
 40
0.8436730807
 40
0.8712257178
 40
0.8982430118
 40
0.9246841206
 40
0.9504974455
 40
0.9756241551
 40
1.0
 40
1.0
 40
1.0
 40
1.0
 10
5.6824833785
 20
5.5148269829
 30
0.0
 10
5.6835843953
 20
5.50885298
 30
0.0
 10
5.6849513953
 20
5.4968376992
 30
0.0
 10
5.684671897
 20
5.4832793345
 30
0.0
 10
5.6837872381
 20
5.4744162998
 30
0.0
 10
5.6832199633
 20
5.4700722063
 30
0.0
 10
5.6825297009
 20
5.4657817464
 30
0.0
 10
5.6814581668
 20
5.4601651532
 30
0.0
 10
5.6798484489
 20
5.4533022172
 30
0.0
 10
5.6775254652
 20
5.4453024649
 30
0.0
 10
5.6748776686
 20
5.4375921803
 30
0.0
 10
5.6719677696
 20
5.4301788988
 30
0.0
 10
5.6688573835
 20
5.4230651707
 30
0.0
 10
5.6661361909
 20
5.4173401484
 30
0.0
 10
5.6639252146
 20
5.4129010174
 30
0.0
 10
5.6622758934
 20
5.4096677711
 30
0.0
 10
5.6606350907
 20
5.4065034351
 30
0.0
 10
5.6590133264
 20
5.4034077037
 30
0.0
 10
5.6574237643
 20
5.4003798171
 30
0.0
 10
5.655883936
 20
5.3974179361
 30
0.0
 10
5.6544123337
 20
5.3945211183
 30
0.0
 10
5.6534744431
 20
5.3926023927
 30
0.0
 10
5.6530231347
 20
5.3916525928
 30
0.0
  0
SPLINE
  5
387
100
AcDbEntity
  8
0
100
AcDbSpline
 62
7
  6
CONTINUOUS
 70
0
 71
3
 72
21
 73
17
 74
0
 42
0.0000001
 43
0.0000001
 44
0.0000000001
 40
0.0
 40
0.0
 40
0.0
 40
0.0
 40
0.1876077309
 40
0.3682247401
 40
0.5351701111
 40
0.6823513699
 40
0.7468782023
 40
0.8046193195
 40
0.8551403447
 40
0.8981374932
 40
0.9334965447
 40
0.961421656
 40
0.9728495532
 40
0.982836842
 40
0.9917239376
 40
1.0
 40
1.0
 40
1.0
 40
1.0
 10
5.3239283706
 20
6.9976589789
 30
0.0
 10
5.3238578046
 20
6.9978293401
 30
0.0
 10
5.3237250056
 20
6.998166111
 30
0.0
 10
5.3235494228
 20
6.9986620825
 30
0.0
 10
5.3234053183
 20
6.9991266534
 30
0.0
 10
5.3233119002
 20
6.9994871461
 30
0.0
 10
5.323258454
 20
6.9997465904
 30
0.0
 10
5.3232308738
 20
6.9999142288
 30
0.0
 10
5.3232141732
 20
7.0000620308
 30
0.0
 10
5.3232084137
 20
7.0001887282
 30
0.0
 10
5.3232135655
 20
7.0002932062
 30
0.0
 10
5.3232275919
 20
7.0003658448
 30
0.0
 10
5.323245815
 20
7.0004109609
 30
0.0
 10
5.3232614597
 20
7.0004365144
 30
0.0
 10
5.3232800963
 20
7.0004559573
 30
0.0
 10
5.3232948015
 20
7.0004647446
 30
0.0
 10
5.3233023169
 20
7.0004678572
 30
0.0
  0
SPLINE
  5
388
100
AcDbEntity
  8
0
100
AcDbSpline
 62
7
  6
CONTINUOUS
 70
0
 71
3
 72
23
 73
19
 74
0
 42
0.0000001
 43
0.0000001
 44
0.0000000001
 40
0.0
 40
0.0
 40
0.0
 40
0.0
 40
0.1571597245
 40
0.3258275742
 40
0.4947296768
 40
0.5757231867
 40
0.6525883245
 40
0.7240490203
 40
0.7889345487
 40
0.8462054298
 40
0.8949870796
 40
0.9346218576
 40
0.9508946481
 40
0.9647958825
 40
0.976386843
 40
0.9858281239
 40
0.9934698492
 40
1.0
 40
1.0
 40
1.0
 40
1.0
 10
5.2925351417
 20
7.073448937
 30
0.0
 10
5.2924477696
 20
7.0736598719
 30
0.0
 10
5.292278661
 20
7.0741022069
 30
0.0
 10
5.2920500413
 20
7.0747837635
 30
0.0
 10
5.2918790744
 20
7.0753674958
 30
0.0
 10
5.2917600331
 20
7.0758270628
 30
0.0
 10
5.2916838379
 20
7.0761514101
 30
0.0
 10
5.2916207053
 20
7.0764546921
 30
0.0
 10
5.2915716615
 20
7.0767317089
 30
0.0
 10
5.2915374191
 20
7.0769777521
 30
0.0
 10
5.2915184972
 20
7.0771886308
 30
0.0
 10
5.2915151548
 20
7.0773409248
 30
0.0
 10
5.291521873
 20
7.0774421881
 30
0.0
 10
5.2915305086
 20
7.0775023223
 30
0.0
 10
5.2915430003
 20
7.0775516494
 30
0.0
 10
5.2915594446
 20
7.0775901777
 30
0.0
 10
5.2915802119
 20
7.0776180953
 30
0.0
 10
5.2915983312
 20
7.0776293006
 30
0.0
 10
5.2916073447
 20
7.0776322594
 30
0.0
  0
SPLINE
  5
389
100
AcDbEntity
  8
0
100
AcDbSpline
 62
7
  6
CONTINUOUS
 70
0
 71
3
 72
16
 73
12
 74
0
 42
0.0000001
 43
0.0000001
 44
0.0000000001
 40
0.0
 40
0.0
 40
0.0
 40
0.0
 40
0.0404508388
 40
0.0879100305
 40
0.2011155501
 40
0.3332294535
 40
0.4767031788
 40
0.6233166786
 40
0.7646666424
 40
0.8926599113
 40
1.0
 40
1.0
 40
1.0
 40
1.0
 10
5.2695537028
 20
7.1289310368
 30
0.0
 10
5.269529729
 20
7.1289889146
 30
0.0
 10
5.2694804452
 20
7.1291158653
 30
0.0
 10
5.2693760751
 20
7.1294093536
 30
0.0
 10
5.2692385059
 20
7.1298415297
 30
0.0
 10
5.2690719167
 20
7.130420202
 30
0.0
 10
5.2689053227
 20
7.1310525454
 30
0.0
 10
5.2687482156
 20
7.1317020257
 30
0.0
 10
5.2686095094
 20
7.1323311678
 30
0.0
 10
5.2684970463
 20
7.1329036415
 30
0.0
 10
5.2684371656
 20
7.1332632618
 30
0.0
 10
5.2684140779
 20
7.1334278892
 30
0.0
  0
LINE
  5
38A
100
AcDbEntity
  8
0
100
AcDbLine
 62
7
  6
CONTINUOUS
 10
5.2684140779
 20
7.1334278892
 11
5.2684065875
 21
7.1341070767
  0
LINE
  5
38B
100
AcDbEntity
  8
0
100
AcDbLine
 62
7
  6
CONTINUOUS
 10
5.3960711562
 20
6.8542793957
 11
5.3955550885
 21
6.8547692237
  0
SPLINE
  5
38C
100
AcDbEntity
  8
0
100
AcDbSpline
 62
7
  6
CONTINUOUS
 70
0
 71
3
 72
15
 73
11
 74
0
 42
0.0000001
 43
0.0000001
 44
0.0000000001
 40
0.0
 40
0.0
 40
0.0
 40
0.0
 40
0.1045641657
 40
0.2276050208
 40
0.3632700314
 40
0.5050629592
 40
0.6461778835
 40
0.7798471973
 40
0.8996792392
 40
1.0
 40
1.0
 40
1.0
 40
1.0
 10
5.3955550885
 20
6.8547692237
 30
0.0
 10
5.395461971
 20
6.8548905831
 30
0.0
 10
5.3952668461
 20
6.8551605414
 30
0.0
 10
5.3949704322
 20
6.8556016977
 30
0.0
 10
5.3946570701
 20
6.8560968265
 30
0.0
 10
5.394342095
 20
6.8566220002
 30
0.0
 10
5.3940409074
 20
6.8571518458
 30
0.0
 10
5.3937681195
 20
6.8576607002
 30
0.0
 10
5.3935369441
 20
6.8581238866
 30
0.0
 10
5.3934039518
 20
6.858417381
 30
0.0
 10
5.3933477894
 20
6.8585529691
 30
0.0
  0
ENDSEC
  0
SECTION
  2
OBJECTS
  0
DICTIONARY
  5
C
100
AcDbDictionary
280
0
281
1
  3
ACAD_GROUP
350
D
  3
ACAD_MLINESTYLE
350
17
  3
ACAD_LAYOUT
350
1A
  3
ACAD_PLOTSETTINGS
350
19
  3
ACAD_PLOTSTYLENAME
350
E
  0
DICTIONARY
  5
D
102
{ACAD_REACTORS
330
C
102
}
100
AcDbDictionary
280
0
281
1
  0
ACDBDICTIONARYWDFLT
  5
E
102
{ACAD_REACTORS
330
C
102
}
100
AcDbDictionary
281
1
  3
Normal
350
F
100
AcDbDictionaryWithDefault
340
F
  0
DICTIONARY
  5
17
102
{ACAD_REACTORS
330
C
102
}
100
AcDbDictionary
280
0
281
1
  3
Standard
350
18
  0
DICTIONARY
  5
19
102
{ACAD_REACTORS
330
C
102
}
100
AcDbDictionary
281
1
  0
DICTIONARY
  5
1A
102
{ACAD_REACTORS
330
C
102
}
100
AcDbDictionary
281
1
  3
Model
350
38D
  3
Layout1
350
38E
  0
ACDBPLACEHOLDER
  5
F
102
{ACAD_REACTORS
330
E
102
}
  0
MLINESTYLE
  5
18
102
{ACAD_REACTORS
330
17
102
}
100
AcDbMlineStyle
  2
STANDARD
 70
0
  3

 62
256
 51
90.0
 52
90.0
 71
2
 49
0.5
 62
256
  6
BYLAYER
 49
-0.5
 62
256
  6
BYLAYER
  0
LAYOUT
  5
38D
102
{ACAD_REACTORS
330
1A
102
}
100
AcDbPlotSettings
  1

  2
none_device
  4
ANSI_A_(11.00_x_8.50_Inches)
  6

 40
0.0
 41
0.0
 42
0.0
 43
0.0
 44
279.4
 45
215.9
 46
0.0
 47
0.0
 48
0.0
 49
0.0
140
0.0
141
0.0
142
1.0
143
1.0
 70
1024
 72
0
 73
0
 74
0
  7

 75
0
147
1.0
148
0.0
149
0.0
100
AcDbLayout
  1
Model
 70
0
 71
0
 10
0.0
 20
0.0
 11
11.0
 21
8.5
 12
0.0
 22
0.0
 32
0.0
 14
0.0
 24
0.0
 34
0.0
 15
0.0
 25
0.0
 35
0.0
146
0.0
 13
0.0
 23
0.0
 33
0.0
 16
1.0
 26
0.0
 36
0.0
 17
0.0
 27
1.0
 37
0.0
 76
0
330
202
345
0
346
0
  0
LAYOUT
  5
38E
102
{ACAD_REACTORS
330
1A
102
}
100
AcDbPlotSettings
  1

  2
none_device
  4
ANSI_A_(11.00_x_8.50_Inches)
  6

 40
0.0
 41
0.0
 42
0.0
 43
0.0
 44
279.4
 45
215.9
 46
0.0
 47
0.0
 48
0.0
 49
0.0
140
0.0
141
0.0
142
1.0
143
1.0
 70
0
 72
0
 73
0
 74
0
  7

 75
0
147
1.0
148
0.0
149
0.0
100
AcDbLayout
  1
Layout1
 70
0
 71
1
 10
0.0
 20
0.0
 11
11.0
 21
8.5
 12
0.0
 22
0.0
 32
0.0
 14
0.0
 24
0.0
 34
0.0
 15
0.0
 25
0.0
 35
0.0
146
0.0
 13
0.0
 23
0.0
 33
0.0
 16
1.0
 26
0.0
 36
0.0
 17
0.0
 27
1.0
 37
0.0
 76
0
330
203
345
0
346
0
  0
ENDSEC
  0
EOF
