999
DXF file: 910-4261_TOP.dxf
999
Pro/ENGINEER 2023134 by Parametric Technology Corporation
  0
SECTION
  2
HEADER
  9
$ACADVER
  1
AC1032
  9
$DWGCODEPAGE
  3
ANSI_1252
  9
$EXTMAX
 10
11.0
 20
8.5
 30
0.0
  9
$EXTMIN
 10
0.0
 20
0.0
 30
0.0
  9
$LIMMIN
 10
0.0
 20
0.0
  9
$LIMMAX
 10
11.0
 20
8.5
  9
$VIEWCTR
 10
5.5
 20
4.25
  9
$VIEWSIZE
 40
8.5
  9
$CLAYER
  8
0
  9
$LTSCALE
 40
0.605
  9
$CELTYPE
  6
BYLAYER
  9
$DIMSCALE
 40
1.0
  9
$DIMASZ
 40
0.1
  9
$DIMEXO
 40
0.0625
  9
$DIMDLI
 40
0.418
  9
$DIMEXE
 40
0.125
  9
$DIMCEN
 40
0.099
  9
$DIMLFAC
 40
1.0
  9
$DIMBLK
  1
_FILLED
  9
$DIMALT
 70
1
  9
$DIMALTD
 70
2
  9
$DIMALTTD
 70
2
  9
$DIMALTF
 40
25.4
  9
$DIMTXT
 40
0.08
  9
$DIMTOL
 70
1
  9
$DIMLIM
 70
0
  9
$DIMTFAC
 40
1.0
  9
$DIMTP
 40
0.001
  9
$DIMTM
 40
0.001
  9
$DIMGAP
 40
0.09
  9
$DIMDSEP
 70
46
  9
$AUNITS
 70
0
  9
$PDMODE
 70
3
  9
$PDSIZE
 40
0.3125
  9
$HANDSEED
  5
2BE
  9
$TILEMODE
 70
1
  9
$MEASUREMENT
 70
0
  9
$INSUNITS
 70
1
  0
ENDSEC
  0
SECTION
  2
CLASSES
  0
CLASS
  1
ACDBDICTIONARYWDFLT
  2
AcDbDictionaryWithDefault
  3
AutoCAD 2000
 90
0
 91
1
280
0
281
0
  0
CLASS
  1
ACDBPLACEHOLDER
  2
AcDbPlaceHolder
  3
AutoCAD 2000
 90
0
 91
1
280
0
281
0
  0
CLASS
  1
LAYOUT
  2
AcDbLayout
  3
AutoCAD 2000
 90
0
 91
0
280
0
281
0
  0
ENDSEC
  0
SECTION
  2
TABLES
  0
TABLE
  2
VPORT
  5
8
100
AcDbSymbolTable
 70
2
  0
VPORT
  5
1F4
100
AcDbSymbolTableRecord
100
AcDbViewportTableRecord
  2
*ACTIVE
 70
0
 10
0.0
 20
0.0
 11
1.0
 21
1.0
 12
5.5
 22
4.25
 13
0.0
 23
0.0
 14
1.0
 24
1.0
 15
0.0
 25
0.0
 16
0.0
 26
0.0
 36
1.0
 17
0.0
 27
0.0
 37
0.0
 40
8.5
 41
1.2941176471
 42
50.0
 43
0.0
 44
0.0
 50
0.0
 51
0.0
 71
0
 72
100
 73
1
 74
1
 75
0
 76
0
 77
0
 78
0
  0
ENDTAB
  0
TABLE
  2
LTYPE
  5
5
100
AcDbSymbolTable
 70
6
  0
LTYPE
  5
14
100
AcDbSymbolTableRecord
100
AcDbLinetypeTableRecord
  2
BYBLOCK
 70
0
  3

 72
65
 73
0
 40
0.0
  0
LTYPE
  5
15
100
AcDbSymbolTableRecord
100
AcDbLinetypeTableRecord
  2
BYLAYER
 70
0
  3

 72
65
 73
0
 40
0.0
  0
LTYPE
  5
16
100
AcDbSymbolTableRecord
100
AcDbLinetypeTableRecord
  2
CONTINUOUS
 70
64
  3
Solid line
 72
65
 73
0
 40
0.0
  0
LTYPE
  5
1F5
100
AcDbSymbolTableRecord
100
AcDbLinetypeTableRecord
  2
CENTER
 70
64
  3
____ _ ____ _ ____ _ ____ _ ____ _ ____ _ ____
 72
65
 73
4
 40
0.6
 49
0.375
 74
0
 49
-0.075
 74
0
 49
0.075
 74
0
 49
-0.075
 74
0
  0
LTYPE
  5
1F6
100
AcDbSymbolTableRecord
100
AcDbLinetypeTableRecord
  2
HIDDEN
 70
64
  3
- - - - - - - - - - - - - - - - - - - -
 72
65
 73
2
 40
0.2
 49
0.1
 74
0
 49
-0.1
 74
0
  0
LTYPE
  5
1F7
100
AcDbSymbolTableRecord
100
AcDbLinetypeTableRecord
  2
PHANTOM
 70
64
  3
_____ _ _ _____ _ _ _____ _ _ _____
 72
65
 73
6
 40
0.8
 49
0.45
 74
0
 49
-0.05
 74
0
 49
0.1
 74
0
 49
-0.05
 74
0
 49
0.1
 74
0
 49
-0.05
 74
0
  0
LTYPE
  5
1F8
100
AcDbSymbolTableRecord
100
AcDbLinetypeTableRecord
  2
DOT
 70
64
  3
. . . . . . . . . . . . . . . . . . . .
 72
65
 73
2
 40
0.2
 49
0.1
 74
0
 49
-0.1
 74
0
  0
LTYPE
  5
1F9
100
AcDbSymbolTableRecord
100
AcDbLinetypeTableRecord
  2
DASHED
 70
64
  3
- - - - - - - - - - - - - - - - - - - -
 72
65
 73
2
 40
0.2
 49
0.1
 74
0
 49
-0.1
 74
0
  0
ENDTAB
  0
TABLE
  2
LAYER
  5
2
100
AcDbSymbolTable
 70
36
  0
LAYER
  5
10
100
AcDbSymbolTableRecord
100
AcDbLayerTableRecord
  2
0
 70
0
 62
7
  6
CONTINUOUS
370
-3
390
F
  0
LAYER
  5
1FA
100
AcDbSymbolTableRecord
100
AcDbLayerTableRecord
  2
DEFAULT_1
 70
0
 62
7
  6
CENTER
370
-3
390
F
  0
LAYER
  5
1FB
100
AcDbSymbolTableRecord
100
AcDbLayerTableRecord
  2
DEFAULT_2
 70
0
 62
8
  6
HIDDEN
370
-3
390
F
  0
LAYER
  5
1FC
100
AcDbSymbolTableRecord
100
AcDbLayerTableRecord
  2
DEFAULT_3
 70
0
 62
7
  6
PHANTOM
370
-3
390
F
  0
LAYER
  5
1FD
100
AcDbSymbolTableRecord
100
AcDbLayerTableRecord
  2
DEFAULT_COORDINATE_SYSTEM
 70
0
 62
7
  6
CONTINUOUS
370
-3
390
F
  0
LAYER
  5
1FE
100
AcDbSymbolTableRecord
100
AcDbLayerTableRecord
  2
DEFAULT_DATUM_AXES
 70
0
 62
7
  6
CONTINUOUS
370
-3
390
F
  0
LAYER
  5
1FF
100
AcDbSymbolTableRecord
100
AcDbLayerTableRecord
  2
DEFAULT_DATUM_PLANES
 70
0
 62
7
  6
CONTINUOUS
370
-3
390
F
  0
ENDTAB
  0
TABLE
  2
STYLE
  5
3
100
AcDbSymbolTable
 70
1
  0
STYLE
  5
11
100
AcDbSymbolTableRecord
100
AcDbTextStyleTableRecord
  2
STANDARD
 70
0
 40
0.0
 41
0.8
 50
0.0
 71
0
 42
0.2
  3
txt
  4

  0
STYLE
  5
200
100
AcDbSymbolTableRecord
100
AcDbTextStyleTableRecord
  2
TEXTSTYLE_1
 70
0
 40
0.0
 41
0.8
 50
0.0
 71
0
 42
0.2
  3
gdt
  4

  0
ENDTAB
  0
TABLE
  2
VIEW
  5
6
100
AcDbSymbolTable
 70
0
  0
ENDTAB
  0
TABLE
  2
UCS
  5
7
100
AcDbSymbolTable
 70
0
  0
ENDTAB
  0
TABLE
  2
APPID
  5
9
100
AcDbSymbolTable
 70
1
  0
APPID
  5
201
100
AcDbSymbolTableRecord
100
AcDbRegAppTableRecord
  2
ACAD
 70
0
  0
ENDTAB
  0
TABLE
  2
BLOCK_RECORD
  5
1
100
AcDbSymbolTable
 70
0
  0
BLOCK_RECORD
  5
202
100
AcDbSymbolTableRecord
100
AcDbBlockTableRecord
  2
*Model_Space
  0
BLOCK_RECORD
  5
203
100
AcDbSymbolTableRecord
100
AcDbBlockTableRecord
  2
*Paper_Space
  0
BLOCK_RECORD
  5
204
100
AcDbSymbolTableRecord
100
AcDbBlockTableRecord
  2
_FILLED
  0
ENDTAB
  0
TABLE
  2
DIMSTYLE
  5
A
100
AcDbSymbolTable
 70
1
100
AcDbDimStyleTable
 71
0
  0
DIMSTYLE
105
205
100
AcDbSymbolTableRecord
100
AcDbDimStyleTableRecord
  2
STANDARD
 70
0
  3

  4

 40
1.0
 41
0.1
 42
0.0625
 43
0.38
 44
0.125
 45
0.0
 46
0.0
 47
0.001
 48
0.001
140
0.08
141
0.09
142
0.0
143
25.4
144
1.0
145
0.0
146
1.0
147
0.09
 71
1
 72
0
 73
1
 74
1
 75
0
 76
0
 77
0
 78
4
 79
1
170
1
171
2
172
0
173
0
174
0
175
0
176
0
177
0
178
0
270
2
179
3
271
3
272
3
273
2
274
2
275
0
280
0
281
0
282
0
283
1
284
4
285
0
286
0
287
3
288
0
340
11
278
46
341
204
342
204
343
204
344
204
  0
ENDTAB
  0
ENDSEC
  0
SECTION
  2
BLOCKS
  0
BLOCK
  5
20
100
AcDbEntity
  8
0
100
AcDbBlockBegin
  2
*Model_Space
 70
0
 10
0.0
 20
0.0
 30
0.0
  3
*Model_Space
  1

  0
ENDBLK
  5
21
100
AcDbEntity
  8
0
100
AcDbBlockEnd
  0
BLOCK
  5
1C
100
AcDbEntity
  8
0
100
AcDbBlockBegin
  2
*Paper_Space
 70
0
 10
0.0
 20
0.0
 30
0.0
  3
*Paper_Space
  1

  0
ENDBLK
  5
1D
100
AcDbEntity
  8
0
100
AcDbBlockEnd
  0
BLOCK
  5
206
100
AcDbEntity
  8
0
100
AcDbBlockBegin
  2
_FILLED
 70
64
 10
0.0
 20
0.0
  3
_FILLED
  1

  0
SOLID
  5
207
100
AcDbEntity
  8
0
  6
BYBLOCK
 62
0
100
AcDbTrace
 10
0.0
 20
0.0
 11
-1.0
 21
0.2
 12
-1.0
 22
-0.2
 13
-1.0
 23
-0.2
  0
ENDBLK
  5
208
100
AcDbEntity
  8
0
  6
BYBLOCK
 62
0
100
AcDbBlockEnd
  0
ENDSEC
  0
SECTION
  2
ENTITIES
  0
LINE
  5
209
100
AcDbEntity
  8
0
100
AcDbLine
 62
7
  6
CONTINUOUS
 10
0.0
 20
0.0
 11
0.0
 21
8.5
  0
LINE
  5
20A
100
AcDbEntity
  8
0
100
AcDbLine
 62
7
  6
CONTINUOUS
 10
0.0
 20
0.0
 11
11.0
 21
0.0
  0
LINE
  5
20B
100
AcDbEntity
  8
0
100
AcDbLine
 62
7
  6
CONTINUOUS
 10
0.0
 20
8.5
 11
11.0
 21
8.5
  0
LINE
  5
20C
100
AcDbEntity
  8
0
100
AcDbLine
 62
7
  6
CONTINUOUS
 10
11.0
 20
0.0
 11
11.0
 21
8.5
  0
LINE
  5
20D
100
AcDbEntity
  8
0
100
AcDbLine
 62
7
  6
CONTINUOUS
 10
4.3141390501
 20
4.7006883558
 11
4.3864948751
 21
4.8288202756
  0
LINE
  5
20E
100
AcDbEntity
  8
0
100
AcDbLine
 62
7
  6
CONTINUOUS
 10
4.2532440362
 20
4.6489611144
 11
4.2532440368
 21
4.6040605692
  0
LINE
  5
20F
100
AcDbEntity
  8
0
100
AcDbLine
 62
7
  6
CONTINUOUS
 10
4.417912725
 20
4.8693962874
 11
4.417912725
 21
4.8729395945
  0
LINE
  5
210
100
AcDbEntity
  8
0
100
AcDbLine
 62
7
  6
CONTINUOUS
 10
4.7707440362
 20
4.6489611212
 11
4.7707440368
 21
4.6040605759
  0
LINE
  5
211
100
AcDbEntity
  8
0
100
AcDbLine
 62
7
  6
CONTINUOUS
 10
4.7098490209
 20
4.7006883609
 11
4.6374931926
 21
4.8288202788
  0
LINE
  5
212
100
AcDbEntity
  8
0
100
AcDbLine
 62
7
  6
CONTINUOUS
 10
5.1134311151
 20
3.257191563
 11
5.1134289673
 21
4.8162461269
  0
LINE
  5
213
100
AcDbEntity
  8
0
100
AcDbLine
 62
7
  6
CONTINUOUS
 10
4.7198303707
 20
4.6875218232
 11
4.7199917594
 21
4.6873841397
  0
LINE
  5
214
100
AcDbEntity
  8
0
100
AcDbLine
 62
7
  6
CONTINUOUS
 10
4.4179127308
 20
4.8729396041
 11
4.41487785
 21
4.874768408
  0
LINE
  5
215
100
AcDbEntity
  8
0
100
AcDbLine
 62
7
  6
CONTINUOUS
 10
5.3118545033
 20
4.8162461269
 11
5.311852358
 21
3.257191563
  0
LINE
  5
216
100
AcDbEntity
  8
0
100
AcDbLine
 62
7
  6
CONTINUOUS
 10
5.6421234178
 20
4.6350558374
 11
5.6375696915
 21
4.6277360583
  0
LINE
  5
217
100
AcDbEntity
  8
0
100
AcDbLine
 62
7
  6
CONTINUOUS
 10
5.6375696745
 20
4.6277360583
 11
5.5687880357
 21
4.6277360583
  0
LINE
  5
218
100
AcDbEntity
  8
0
100
AcDbLine
 62
7
  6
CONTINUOUS
 10
5.3122773467
 20
4.6390813268
 11
5.5687880357
 21
4.6390813268
  0
LWPOLYLINE
  5
219
100
AcDbEntity
  8
0
100
AcDbPolyline
 62
7
  6
CONTINUOUS
 90
32
 70
0
 10
5.857001832
 20
4.685792783
 10
5.8572121003
 20
4.6857961845
 10
5.8575778232
 20
4.6858128201
 10
5.8579410979
 20
4.6858433378
 10
5.8583016214
 20
4.6858880444
 10
5.8586593474
 20
4.6859472702
 10
5.8590139656
 20
4.6860213142
 10
5.8593645897
 20
4.6861103145
 10
5.8597108872
 20
4.6862144871
 10
5.8600524168
 20
4.6863340134
 10
5.860388016
 20
4.6864687597
 10
5.8607172689
 20
4.6866187945
 10
5.8610395641
 20
4.6867840833
 10
5.861353446
 20
4.6869640434
 10
5.861658434
 20
4.6871584854
 10
5.861953989
 20
4.6873671481
 10
5.8622387039
 20
4.6875890134
 10
5.8625119699
 20
4.6878234483
 10
5.8627736604
 20
4.6880701771
 10
5.8630232533
 20
4.6883285327
 10
5.863260323
 20
4.6885978375
 10
5.8634848149
 20
4.6888777799
 10
5.8636968223
 20
4.6891682936
 10
5.8638962003
 20
4.6894690548
 10
5.8640827427
 20
4.6897796205
 10
5.8642564756
 20
4.6900999129
 10
5.8644173053
 20
4.690429672
 10
5.8645651736
 20
4.6907686965
 10
5.8647001914
 20
4.6911172313
 10
5.8648223718
 20
4.691475422
 10
5.8649316365
 20
4.6918431999
 10
5.8650014172
 20
4.692110423
  0
LINE
  5
21A
100
AcDbEntity
  8
0
100
AcDbLine
 62
7
  6
CONTINUOUS
 10
5.6294266258
 20
4.6601065668
 11
5.5687880357
 21
4.6601065668
  0
LINE
  5
21B
100
AcDbEntity
  8
0
100
AcDbLine
 62
7
  6
CONTINUOUS
 10
5.0393948921
 20
4.7099474685
 11
4.7158356948
 21
4.7099474685
  0
LINE
  5
21C
100
AcDbEntity
  8
0
100
AcDbLine
 62
7
  6
CONTINUOUS
 10
5.9781377995
 20
4.7172466811
 11
5.8791377995
 21
4.7172466811
  0
LINE
  5
21D
100
AcDbEntity
  8
0
100
AcDbLine
 62
7
  6
CONTINUOUS
 10
6.0033377995
 20
4.7469466811
 11
5.9961377995
 21
4.7469466811
  0
LINE
  5
21E
100
AcDbEntity
  8
0
100
AcDbLine
 62
7
  6
CONTINUOUS
 10
5.5687880357
 20
4.6277360583
 11
5.5687880357
 21
5.0047573039
  0
LINE
  5
21F
100
AcDbEntity
  8
0
100
AcDbLine
 62
7
  6
CONTINUOUS
 10
5.8737377995
 20
4.7599966811
 11
5.8653401344
 21
4.7599966811
  0
LINE
  5
220
100
AcDbEntity
  8
0
100
AcDbLine
 62
7
  6
CONTINUOUS
 10
4.3514420472
 20
4.7667466811
 11
4.0217499662
 21
4.7667466811
  0
LINE
  5
221
100
AcDbEntity
  8
0
100
AcDbLine
 62
7
  6
CONTINUOUS
 10
5.6294266258
 20
4.7838761726
 11
5.5687880357
 21
4.7838761726
  0
LINE
  5
222
100
AcDbEntity
  8
0
100
AcDbLine
 62
7
  6
CONTINUOUS
 10
5.6294266258
 20
4.8486171896
 11
5.5687880357
 21
4.8486171896
  0
LINE
  5
223
100
AcDbEntity
  8
0
100
AcDbLine
 62
7
  6
CONTINUOUS
 10
5.6294266258
 20
4.6277360583
 11
5.6294266258
 21
4.6601065668
  0
LINE
  5
224
100
AcDbEntity
  8
0
100
AcDbLine
 62
7
  6
CONTINUOUS
 10
5.6294266258
 20
4.7838761726
 11
5.6294266258
 21
4.8486171896
  0
LINE
  5
225
100
AcDbEntity
  8
0
100
AcDbLine
 62
7
  6
CONTINUOUS
 10
5.6294266258
 20
4.9723867954
 11
5.6294266258
 21
5.0047573039
  0
LINE
  5
226
100
AcDbEntity
  8
0
100
AcDbLine
 62
7
  6
CONTINUOUS
 10
5.6421234178
 20
4.6350558374
 11
5.6421234178
 21
4.9974375248
  0
LINE
  5
227
100
AcDbEntity
  8
0
100
AcDbLine
 62
7
  6
CONTINUOUS
 10
5.6807102027
 20
4.6409415337
 11
5.6807102027
 21
4.9915518285
  0
LINE
  5
228
100
AcDbEntity
  8
0
100
AcDbLine
 62
7
  6
CONTINUOUS
 10
4.4167194999
 20
4.8657466811
 11
4.0217499662
 21
4.8657466811
  0
LINE
  5
229
100
AcDbEntity
  8
0
100
AcDbLine
 62
7
  6
CONTINUOUS
 10
4.4211114219
 20
4.8693962874
 11
4.417912725
 21
4.8693962874
  0
LINE
  5
22A
100
AcDbEntity
  8
0
100
AcDbLine
 62
7
  6
CONTINUOUS
 10
5.8737377995
 20
4.8724966811
 11
5.8653401344
 21
4.8724966811
  0
LINE
  5
22B
100
AcDbEntity
  8
0
100
AcDbLine
 62
7
  6
CONTINUOUS
 10
4.4179127241
 20
4.8729395945
 11
4.4257528069
 21
4.8729395945
  0
LINE
  5
22C
100
AcDbEntity
  8
0
100
AcDbLine
 62
7
  6
CONTINUOUS
 10
6.0033377995
 20
4.8855466811
 11
5.9961377995
 21
4.8855466811
  0
LINE
  5
22D
100
AcDbEntity
  8
0
100
AcDbLine
 62
7
  6
CONTINUOUS
 10
5.9781377995
 20
4.9152466811
 11
5.8791377995
 21
4.9152466811
  0
LINE
  5
22E
100
AcDbEntity
  8
0
100
AcDbLine
 62
7
  6
CONTINUOUS
 10
5.0393948921
 20
4.9225458937
 11
4.5666654174
 21
4.9225458937
  0
LINE
  5
22F
100
AcDbEntity
  8
0
100
AcDbLine
 62
7
  6
CONTINUOUS
 10
5.7381929611
 20
4.6429957312
 11
5.7381929611
 21
4.989497631
  0
LWPOLYLINE
  5
230
100
AcDbEntity
  8
0
100
AcDbPolyline
 62
7
  6
CONTINUOUS
 90
22
 70
0
 10
5.8830471762
 20
4.8610409052
 10
5.8826954331
 20
4.8591972947
 10
5.8823086393
 20
4.857070291
 10
5.8819410762
 20
4.8549370715
 10
5.8815928912
 20
4.8527980483
 10
5.881264208
 20
4.8506536192
 10
5.8809551356
 20
4.8485041636
 10
5.880665788
 20
4.846350092
 10
5.8803962716
 20
4.8441918171
 10
5.8801466657
 20
4.8420297232
 10
5.8799170488
 20
4.8398642236
 10
5.8797074982
 20
4.8376957357
 10
5.8795180716
 20
4.8355246502
 10
5.8793488155
 20
4.8333513839
 10
5.879199775
 20
4.8311763469
 10
5.8790709795
 20
4.8289999234
 10
5.8789624478
 20
4.8268225324
 10
5.8788741961
 20
4.8246445893
 10
5.8788062235
 20
4.8224664655
 10
5.8787585237
 20
4.8202885492
 10
5.8787310816
 20
4.8181112765
 10
5.8787236622
 20
4.8162466811
  0
LWPOLYLINE
  5
231
100
AcDbEntity
  8
0
100
AcDbPolyline
 62
7
  6
CONTINUOUS
 90
19
 70
0
 10
5.8650010088
 20
4.6921087685
 10
5.8650155365
 20
4.6921685065
 10
5.8650580184
 20
4.692354225
 10
5.8650964753
 20
4.6925389793
 10
5.865131006
 20
4.6927216039
 10
5.8651620391
 20
4.6929027098
 10
5.8651902069
 20
4.6930847587
 10
5.8652156666
 20
4.6932679819
 10
5.8652384656
 20
4.6934519205
 10
5.8652588727
 20
4.6936380871
 10
5.8652769495
 20
4.6938267279
 10
5.8652926906
 20
4.6940174868
 10
5.8653061726
 20
4.6942109871
 10
5.8653174079
 20
4.6944072669
 10
5.8653263882
 20
4.6946060958
 10
5.8653331238
 20
4.6948077252
 10
5.8653376154
 20
4.6950123269
 10
5.8653398578
 20
4.6952198882
 10
5.8653401344
 20
4.6953220297
  0
LINE
  5
232
100
AcDbEntity
  8
0
100
AcDbLine
 62
7
  6
CONTINUOUS
 10
5.6294266258
 20
4.9723867954
 11
5.5687880357
 21
4.9723867954
  0
LINE
  5
233
100
AcDbEntity
  8
0
100
AcDbLine
 62
7
  6
CONTINUOUS
 10
5.3122773467
 20
4.9934120354
 11
5.5687880357
 21
4.9934120354
  0
LINE
  5
234
100
AcDbEntity
  8
0
100
AcDbLine
 62
7
  6
CONTINUOUS
 10
5.5687880357
 20
5.0047573039
 11
5.6375696745
 21
5.0047573039
  0
LWPOLYLINE
  5
235
100
AcDbEntity
  8
0
100
AcDbPolyline
 62
7
  6
CONTINUOUS
 90
15
 70
0
 10
5.8653396624
 20
4.9373053794
 10
5.8653362891
 20
4.9375535394
 10
5.8653296756
 20
4.9377975189
 10
5.8653198368
 20
4.9380371956
 10
5.8653067797
 20
4.9382727728
 10
5.8652904609
 20
4.938504843
 10
5.8652708916
 20
4.9387328779
 10
5.8652480284
 20
4.9389571627
 10
5.8652216049
 20
4.9391795126
 10
5.8651915893
 20
4.9393991555
 10
5.865157785
 20
4.9396165832
 10
5.8651193431
 20
4.939835441
 10
5.8650756335
 20
4.940056676
 10
5.8650265066
 20
4.940278531
 10
5.8650008786
 20
4.9403851207
  0
LWPOLYLINE
  5
236
100
AcDbEntity
  8
0
100
AcDbPolyline
 62
7
  6
CONTINUOUS
 90
22
 70
0
 10
5.8787236622
 20
4.8162466811
 10
5.8787312872
 20
4.8143565639
 10
5.8787589642
 20
4.8121794921
 10
5.8788068922
 20
4.8100017559
 10
5.8788750915
 20
4.8078238365
 10
5.8789635654
 20
4.8056461242
 10
5.8790723137
 20
4.8034689673
 10
5.8792013253
 20
4.8012927651
 10
5.8793505762
 20
4.7991179342
 10
5.8795200416
 20
4.7969448549
 10
5.8797096782
 20
4.7947739333
 10
5.8799194354
 20
4.7926055907
 10
5.8801492578
 20
4.7904402279
 10
5.8803990697
 20
4.7882782604
 10
5.8806687923
 20
4.7861200973
 10
5.8809583447
 20
4.7839661274
 10
5.8812676216
 20
4.7818167606
 10
5.8815965115
 20
4.7796724043
 10
5.8819449065
 20
4.7775334409
 10
5.8823126803
 20
4.7754002682
 10
5.8826996855
 20
4.7732732977
 10
5.8830472779
 20
4.7714519389
  0
LINE
  5
237
100
AcDbEntity
  8
0
100
AcDbLine
 62
7
  6
CONTINUOUS
 10
5.8597121045
 20
4.9443937605
 11
5.8597121045
 21
4.6880996017
  0
LINE
  5
238
100
AcDbEntity
  8
0
100
AcDbLine
 62
7
  6
CONTINUOUS
 10
5.8653396624
 20
4.9373053794
 11
5.8653401344
 21
4.6953224499
  0
LINE
  5
239
100
AcDbEntity
  8
0
100
AcDbLine
 62
7
  6
CONTINUOUS
 10
5.8737377995
 20
4.7599966811
 11
5.8737377995
 21
4.8724966811
  0
LINE
  5
23A
100
AcDbEntity
  8
0
100
AcDbLine
 62
7
  6
CONTINUOUS
 10
5.8791377995
 20
4.7172466811
 11
5.8791377995
 21
4.9152466811
  0
LWPOLYLINE
  5
23B
100
AcDbEntity
  8
0
100
AcDbPolyline
 62
7
  6
CONTINUOUS
 90
22
 70
0
 10
5.9742284228
 20
4.771452457
 10
5.974580166
 20
4.7732960675
 10
5.9749669598
 20
4.7754230712
 10
5.9753345229
 20
4.7775562907
 10
5.9756827078
 20
4.7796953139
 10
5.976011391
 20
4.781839743
 10
5.9763204634
 20
4.7839891986
 10
5.9766098111
 20
4.7861432702
 10
5.9768793275
 20
4.7883015451
 10
5.9771289334
 20
4.790463639
 10
5.9773585503
 20
4.7926291386
 10
5.9775681008
 20
4.7947976265
 10
5.9777575275
 20
4.796968712
 10
5.9779267835
 20
4.7991419783
 10
5.978075824
 20
4.8013170153
 10
5.9782046196
 20
4.8034934388
 10
5.9783131512
 20
4.8056708299
 10
5.978401403
 20
4.8078487729
 10
5.9784693755
 20
4.8100268967
 10
5.9785170753
 20
4.812204813
 10
5.9785445175
 20
4.8143820857
 10
5.9785519369
 20
4.8162466811
  0
LWPOLYLINE
  5
23C
100
AcDbEntity
  8
0
100
AcDbPolyline
 62
7
  6
CONTINUOUS
 90
22
 70
0
 10
5.9785519369
 20
4.8162466811
 10
5.9785443118
 20
4.8181367983
 10
5.9785166349
 20
4.8203138701
 10
5.9784687069
 20
4.8224916063
 10
5.9784005075
 20
4.8246695257
 10
5.9783120337
 20
4.826847238
 10
5.9782032854
 20
4.8290243949
 10
5.9780742738
 20
4.8312005971
 10
5.9779250229
 20
4.833375428
 10
5.9777555574
 20
4.8355485073
 10
5.9775659208
 20
4.8377194289
 10
5.9773561637
 20
4.8398877715
 10
5.9771263413
 20
4.8420531343
 10
5.9768765294
 20
4.8442151018
 10
5.9766068067
 20
4.8463732649
 10
5.9763172543
 20
4.8485272348
 10
5.9760079775
 20
4.8506766016
 10
5.9756790876
 20
4.8528209579
 10
5.9753306925
 20
4.8549599213
 10
5.9749629187
 20
4.8570930941
 10
5.9745759136
 20
4.8592200645
 10
5.9742283212
 20
4.8610414233
  0
LINE
  5
23D
100
AcDbEntity
  8
0
100
AcDbLine
 62
7
  6
CONTINUOUS
 10
5.9781377995
 20
4.7172466811
 11
5.9781377995
 21
4.9152466811
  0
LINE
  5
23E
100
AcDbEntity
  8
0
100
AcDbLine
 62
7
  6
CONTINUOUS
 10
5.9925377995
 20
4.7379466811
 11
5.9925377995
 21
4.8945466811
  0
LINE
  5
23F
100
AcDbEntity
  8
0
100
AcDbLine
 62
7
  6
CONTINUOUS
 10
5.9961377995
 20
4.7469466811
 11
5.9961377995
 21
4.8855466811
  0
LINE
  5
240
100
AcDbEntity
  8
0
100
AcDbLine
 62
7
  6
CONTINUOUS
 10
6.0033377995
 20
4.7469466811
 11
6.0033377995
 21
4.8855466811
  0
LWPOLYLINE
  5
241
100
AcDbEntity
  8
0
100
AcDbPolyline
 62
7
  6
CONTINUOUS
 90
73
 70
0
 10
5.8858441077
 20
4.7670327947
 10
5.886642773
 20
4.7664528698
 10
5.8876927684
 20
4.7657153694
 10
5.8887554765
 20
4.7649967787
 10
5.88983054
 20
4.7642973214
 10
5.890917625
 20
4.7636172058
 10
5.8920164221
 20
4.7629566268
 10
5.8931265884
 20
4.7623158017
 10
5.8942477809
 20
4.7616949473
 10
5.8953796796
 20
4.7610942381
 10
5.8965219056
 20
4.7605138313
 10
5.8976740808
 20
4.7599538793
 10
5.8988358676
 20
4.7594145161
 10
5.9000068873
 20
4.7588958974
 10
5.9011867638
 20
4.7583981772
 10
5.9023751664
 20
4.7579214924
 10
5.9035717157
 20
4.7574660015
 10
5.9047760401
 20
4.7570318598
 10
5.9059878229
 20
4.7566192051
 10
5.9072066637
 20
4.7562281888
 10
5.9084321941
 20
4.7558589012
 10
5.9096641491
 20
4.7555113968
 10
5.910902145
 20
4.75518577
 10
5.9121457839
 20
4.754882119
 10
5.9133947822
 20
4.7546005171
 10
5.9146488075
 20
4.7543410549
 10
5.9159074125
 20
4.7541038479
 10
5.917170141
 20
4.7538890093
 10
5.9184366162
 20
4.7536966354
 10
5.9197064278
 20
4.7535268042
 10
5.9209790623
 20
4.7533795622
 10
5.9222541152
 20
4.7532549344
 10
5.9235311822
 20
4.7531529456
 10
5.9248097479
 20
4.7530736268
 10
5.9260893963
 20
4.7530169973
 10
5.9273697344
 20
4.7529830756
 10
5.9286502803
 20
4.7529718808
 10
5.9299305838
 20
4.7529834272
 10
5.9312102878
 20
4.7530177259
 10
5.9324890513
 20
4.7530747526
 10
5.9337664607
 20
4.7531544554
 10
5.9350421262
 20
4.7532567828
 10
5.9363157435
 20
4.7533816936
 10
5.9375869108
 20
4.7535291413
 10
5.9388552266
 20
4.7536990796
 10
5.9401203855
 20
4.7538914775
 10
5.9413819894
 20
4.7541062948
 10
5.9426396313
 20
4.7543434895
 10
5.9438929933
 20
4.7546030279
 10
5.9451416955
 20
4.7548848195
 10
5.9463853355
 20
4.7551887564
 10
5.9476235683
 20
4.7555147454
 10
5.9488560096
 20
4.7558626853
 10
5.950082261
 20
4.7562324711
 10
5.9513019542
 20
4.7566240074
 10
5.952514718
 20
4.7570371994
 10
5.9537201376
 20
4.7574719382
 10
5.9549177801
 20
4.7579281059
 10
5.9561072662
 20
4.7584055757
 10
5.9572882225
 20
4.7589041793
 10
5.9584602292
 20
4.7594237233
 10
5.9596229184
 20
4.7599640343
 10
5.9607759235
 20
4.7605249398
 10
5.9619188288
 20
4.7611062415
 10
5.9630512686
 20
4.7617077642
 10
5.9641728756
 20
4.7623293318
 10
5.9652832334
 20
4.7629707394
 10
5.9663819789
 20
4.7636318054
 10
5.9674687697
 20
4.7643123139
 10
5.9685432294
 20
4.7650119955
 10
5.9696050153
 20
4.7657305986
 10
5.9706538168
 20
4.7664678932
 10
5.9714317113
 20
4.7670329936
  0
LINE
  5
242
100
AcDbEntity
  8
0
100
AcDbLine
 62
7
  6
CONTINUOUS
 10
5.6421234178
 20
4.9974375248
 11
5.6375696915
 21
5.0047573039
  0
LWPOLYLINE
  5
243
100
AcDbEntity
  8
0
100
AcDbPolyline
 62
7
  6
CONTINUOUS
 90
73
 70
0
 10
5.9714314914
 20
4.8654605675
 10
5.9706328261
 20
4.8660404925
 10
5.9695828306
 20
4.8667779928
 10
5.9685201226
 20
4.8674965835
 10
5.9674450591
 20
4.8681960408
 10
5.9663579741
 20
4.8688761564
 10
5.9652591769
 20
4.8695367354
 10
5.9641490106
 20
4.8701775605
 10
5.9630278181
 20
4.8707984149
 10
5.9618959194
 20
4.8713991241
 10
5.9607536935
 20
4.8719795309
 10
5.9596015183
 20
4.8725394829
 10
5.9584397314
 20
4.8730788461
 10
5.9572687118
 20
4.8735974648
 10
5.9560888352
 20
4.874095185
 10
5.9549004326
 20
4.8745718698
 10
5.9537038833
 20
4.8750273608
 10
5.9524995589
 20
4.8754615024
 10
5.9512877761
 20
4.8758741571
 10
5.9500689354
 20
4.8762651734
 10
5.9488434049
 20
4.876634461
 10
5.94761145
 20
4.8769819654
 10
5.946373454
 20
4.8773075922
 10
5.9451298151
 20
4.8776112432
 10
5.9438808169
 20
4.8778928451
 10
5.9426267915
 20
4.8781523073
 10
5.9413681865
 20
4.8783895143
 10
5.9401054581
 20
4.8786043529
 10
5.9388389828
 20
4.8787967268
 10
5.9375691713
 20
4.878966558
 10
5.9362965368
 20
4.8791138
 10
5.9350214838
 20
4.8792384278
 10
5.9337444169
 20
4.8793404166
 10
5.9324658512
 20
4.8794197354
 10
5.9311862027
 20
4.8794763649
 10
5.9299058647
 20
4.8795102866
 10
5.9286253188
 20
4.8795214814
 10
5.9273450153
 20
4.879509935
 10
5.9260653113
 20
4.8794756363
 10
5.9247865477
 20
4.8794186096
 10
5.9235091384
 20
4.8793389068
 10
5.9222334729
 20
4.8792365794
 10
5.9209598556
 20
4.8791116686
 10
5.9196886882
 20
4.8789642209
 10
5.9184203725
 20
4.8787942826
 10
5.9171552136
 20
4.8786018847
 10
5.9158936097
 20
4.8783870675
 10
5.9146359677
 20
4.8781498727
 10
5.9133826057
 20
4.8778903343
 10
5.9121339036
 20
4.8776085427
 10
5.9108902635
 20
4.8773046058
 10
5.9096520307
 20
4.8769786168
 10
5.9084195894
 20
4.8766306769
 10
5.9071933381
 20
4.8762608911
 10
5.9059736448
 20
4.8758693549
 10
5.9047608811
 20
4.8754561629
 10
5.9035554615
 20
4.875021424
 10
5.902357819
 20
4.8745652563
 10
5.9011683328
 20
4.8740877865
 10
5.8999873765
 20
4.8735891829
 10
5.8988153699
 20
4.8730696389
 10
5.8976526807
 20
4.8725293279
 10
5.8964996755
 20
4.8719684224
 10
5.8953567703
 20
4.8713871207
 10
5.8942243304
 20
4.870785598
 10
5.8931027235
 20
4.8701640304
 10
5.8919923656
 20
4.8695226228
 10
5.8908936202
 20
4.8688615568
 10
5.8898068293
 20
4.8681810483
 10
5.8887323696
 20
4.8674813667
 10
5.8876705838
 20
4.8667627636
 10
5.8866217822
 20
4.866025469
 10
5.8858438878
 20
4.8654603686
  0
LWPOLYLINE
  5
244
100
AcDbEntity
  8
0
100
AcDbPolyline
 62
7
  6
CONTINUOUS
 90
32
 70
0
 10
5.8650012922
 20
4.9403834461
 10
5.8649336541
 20
4.9406427558
 10
5.8648239445
 20
4.9410127281
 10
5.8647011669
 20
4.9413729535
 10
5.8645653986
 20
4.9417234091
 10
5.864416658
 20
4.9420641972
 10
5.8642549144
 20
4.9423954412
 10
5.8640802908
 20
4.9427168944
 10
5.8638928836
 20
4.9430283726
 10
5.863692658
 20
4.9433298661
 10
5.8634798071
 20
4.9436209788
 10
5.8632545176
 20
4.9439013541
 10
5.8630167655
 20
4.9441708761
 10
5.8627666523
 20
4.9444292277
 10
5.862504603
 20
4.9446757784
 10
5.8622311417
 20
4.9449098983
 10
5.8619464987
 20
4.9451312674
 10
5.8616512178
 20
4.9453393471
 10
5.8613464215
 20
4.945533323
 10
5.8610324863
 20
4.9457129915
 10
5.8607100198
 20
4.9458780412
 10
5.8603806098
 20
4.9460277991
 10
5.8600448325
 20
4.9461622377
 10
5.8597031444
 20
4.9462814151
 10
5.8593569709
 20
4.9463851367
 10
5.8590069248
 20
4.9464735922
 10
5.8586531937
 20
4.9465470913
 10
5.8582964496
 20
4.9466058485
 10
5.857937034
 20
4.946650176
 10
5.857574956
 20
4.9466804219
 10
5.8572101863
 20
4.9466969059
 10
5.857002233
 20
4.9467002513
  0
LINE
  5
245
100
AcDbEntity
  8
0
100
AcDbLine
 62
7
  6
CONTINUOUS
 10
5.8650008786
 20
4.9403851207
 11
5.8650012922
 21
4.9403834461
  0
ARC
  5
246
100
AcDbEntity
  8
0
100
AcDbCircle
 62
7
  6
CONTINUOUS
 10
4.511994034
 20
4.8162466811
 40
0.1133858268
100
AcDbArc
 50
19.8296928687
 51
148.9270490278
  0
ARC
  5
247
100
AcDbEntity
  8
0
100
AcDbCircle
 62
7
  6
CONTINUOUS
 10
4.511994034
 20
4.8162466811
 40
0.1098425197
100
AcDbArc
 50
24.2129941785
 51
148.9270492712
  0
ARC
  5
248
100
AcDbEntity
  8
0
100
AcDbCircle
 62
7
  6
CONTINUOUS
 10
4.511994034
 20
4.8162466811
 40
0.0972
100
AcDbArc
 50
43.1166950571
 51
136.8813546922
  0
ARC
  5
249
100
AcDbEntity
  8
0
100
AcDbCircle
 62
7
  6
CONTINUOUS
 10
4.5038910279
 20
4.8162466811
 40
0.0923464915
100
AcDbArc
 50
124.8333068147
 51
135.5005997684
  0
ARC
  5
24A
100
AcDbEntity
  8
0
100
AcDbCircle
 62
7
  6
CONTINUOUS
 10
4.021722641
 20
4.8162466811
 40
0.0495
100
AcDbArc
 50
90.0
 51
270.0
  0
ARC
  5
24B
100
AcDbEntity
  8
0
100
AcDbCircle
 62
7
  6
CONTINUOUS
 10
4.0230776059
 20
4.8162489975
 40
0.0494979741
100
AcDbArc
 50
90.0026927765
 51
268.7998121388
  0
ARC
  5
24C
100
AcDbEntity
  8
0
100
AcDbCircle
 62
7
  6
CONTINUOUS
 10
4.0217522925
 20
4.8162489975
 40
0.0494979741
100
AcDbArc
 50
90.0026927765
 51
269.9973156765
  0
ARC
  5
24D
100
AcDbEntity
  8
0
100
AcDbCircle
 62
7
  6
CONTINUOUS
 10
4.0230753318
 20
4.8162362942
 40
0.0494896131
100
AcDbArc
 50
268.7997862653
 51
269.999939632
  0
ARC
  5
24E
100
AcDbEntity
  8
0
100
AcDbCircle
 62
7
  6
CONTINUOUS
 10
4.7328393236
 20
4.6040606346
 40
0.0379047114
100
AcDbArc
 50
358.6940245867
 51
359.9999112976
  0
ARC
  5
24F
100
AcDbEntity
  8
0
100
AcDbCircle
 62
7
  6
CONTINUOUS
 10
4.5666654174
 20
4.9171458937
 40
0.0054
100
AcDbArc
 50
89.9999953769
 51
167.5878802258
  0
ARC
  5
250
100
AcDbEntity
  8
0
100
AcDbCircle
 62
7
  6
CONTINUOUS
 10
4.417912725
 20
4.8729395945
 40
0.0035433071
100
AcDbArc
 50
148.9270490274
 51
270.0000000002
  0
ARC
  5
251
100
AcDbEntity
  8
0
100
AcDbCircle
 62
7
  6
CONTINUOUS
 10
5.2133340023
 20
3.2562418681
 40
0.1106685724
100
AcDbArc
 50
0.0043555401
 51
27.095234023
  0
ARC
  5
252
100
AcDbEntity
  8
0
100
AcDbCircle
 62
7
  6
CONTINUOUS
 10
5.2119494706
 20
3.2562418681
 40
0.1106685723
100
AcDbArc
 50
152.9047731517
 51
179.9956444295
  0
ARC
  5
253
100
AcDbEntity
  8
0
100
AcDbCircle
 62
7
  6
CONTINUOUS
 10
5.2118974688
 20
3.2454250718
 40
0.1106163322
100
AcDbArc
 50
177.1951752924
 51
179.9997586659
  0
ARC
  5
254
100
AcDbEntity
  8
0
100
AcDbCircle
 62
7
  6
CONTINUOUS
 10
5.2133860043
 20
3.2454250718
 40
0.1106163322
100
AcDbArc
 50
0.0002413334
 51
2.804823962
  0
ARC
  5
255
100
AcDbEntity
  8
0
100
AcDbCircle
 62
7
  6
CONTINUOUS
 10
5.2118866519
 20
3.2571912545
 40
0.0998055154
100
AcDbArc
 50
170.5748066959
 51
179.9998229141
  0
ARC
  5
256
100
AcDbEntity
  8
0
100
AcDbCircle
 62
7
  6
CONTINUOUS
 10
5.2133968212
 20
3.2571912545
 40
0.0998055153
100
AcDbArc
 50
0.0001770837
 51
9.4252015156
  0
ARC
  5
257
100
AcDbEntity
  8
0
100
AcDbCircle
 62
7
  6
CONTINUOUS
 10
5.2126424949
 20
4.8162461269
 40
0.0992120085
100
AcDbArc
 50
0.0
 51
180.0
  0
ARC
  5
258
100
AcDbEntity
  8
0
100
AcDbCircle
 62
7
  6
CONTINUOUS
 10
5.6639354696
 20
4.6214862865
 40
0.025688486
100
AcDbArc
 50
49.2313803329
 51
148.1137388517
  0
ARC
  5
259
100
AcDbEntity
  8
0
100
AcDbCircle
 62
7
  6
CONTINUOUS
 10
5.2126417365
 20
4.8162466811
 40
0.53811
100
AcDbArc
 50
20.0421843916
 51
168.6066858139
  0
ARC
  5
25A
100
AcDbEntity
  8
0
100
AcDbCircle
 62
7
  6
CONTINUOUS
 10
5.2126417365
 20
4.8162466811
 40
0.53811
100
AcDbArc
 50
280.6246076048
 51
339.9578156083
  0
ARC
  5
25B
100
AcDbEntity
  8
0
100
AcDbCircle
 62
7
  6
CONTINUOUS
 10
5.2126417365
 20
4.8162466811
 40
0.53811
100
AcDbArc
 50
208.9639336053
 51
259.3753921301
  0
ARC
  5
25C
100
AcDbEntity
  8
0
100
AcDbCircle
 62
7
  6
CONTINUOUS
 10
5.2126417365
 20
4.8162466811
 40
0.4336518132
100
AcDbArc
 50
25.7666543532
 51
165.8104948762
  0
ARC
  5
25D
100
AcDbEntity
  8
0
100
AcDbCircle
 62
7
  6
CONTINUOUS
 10
5.2126417365
 20
4.8162466811
 40
0.4336518132
100
AcDbArc
 50
283.225555207
 51
334.2333456467
  0
ARC
  5
25E
100
AcDbEntity
  8
0
100
AcDbCircle
 62
7
  6
CONTINUOUS
 10
5.2126417365
 20
4.8162466811
 40
0.4336518132
100
AcDbArc
 50
194.1895051238
 51
256.7744444609
  0
ARC
  5
25F
100
AcDbEntity
  8
0
100
AcDbCircle
 62
7
  6
CONTINUOUS
 10
5.2126417365
 20
4.8162466811
 40
0.4253076555
100
AcDbArc
 50
26.310806146
 51
165.5260614407
  0
ARC
  5
260
100
AcDbEntity
  8
0
100
AcDbCircle
 62
7
  6
CONTINUOUS
 10
5.2126417365
 20
4.8162466811
 40
0.4253076555
100
AcDbArc
 50
283.4900872775
 51
333.689193854
  0
ARC
  5
261
100
AcDbEntity
  8
0
100
AcDbCircle
 62
7
  6
CONTINUOUS
 10
5.2126417365
 20
4.8162466811
 40
0.4253076555
100
AcDbArc
 50
194.4739385593
 51
256.5099123832
  0
ARC
  5
262
100
AcDbEntity
  8
0
100
AcDbCircle
 62
7
  6
CONTINUOUS
 10
5.2126417365
 20
4.8162466811
 40
0.3351559377
100
AcDbArc
 50
287.2187578262
 51
328.0879583929
  0
ARC
  5
263
100
AcDbEntity
  8
0
100
AcDbCircle
 62
7
  6
CONTINUOUS
 10
5.2126417365
 20
4.8162466811
 40
0.3351559377
100
AcDbArc
 50
198.4917908719
 51
252.7812417362
  0
ARC
  5
264
100
AcDbEntity
  8
0
100
AcDbCircle
 62
7
  6
CONTINUOUS
 10
5.2126417365
 20
4.8162466811
 40
0.3351559377
100
AcDbArc
 50
31.9120416071
 51
161.5082091281
  0
ARC
  5
265
100
AcDbEntity
  8
0
100
AcDbCircle
 62
7
  6
CONTINUOUS
 10
5.2126417365
 20
4.8162466811
 40
0.2032631136
100
AcDbArc
 50
299.215808299
 51
240.7841909128
  0
ARC
  5
266
100
AcDbEntity
  8
0
100
AcDbCircle
 62
7
  6
CONTINUOUS
 10
5.2126417365
 20
4.8162466811
 40
0.2032527187
100
AcDbArc
 50
299.2174409482
 51
240.7825582635
  0
ARC
  5
267
100
AcDbEntity
  8
0
100
AcDbCircle
 62
7
  6
CONTINUOUS
 10
5.2126417365
 20
4.8162466811
 40
0.1647266305
100
AcDbArc
 50
307.0349892883
 51
232.965009645
  0
ARC
  5
268
100
AcDbEntity
  8
0
100
AcDbCircle
 62
7
  6
CONTINUOUS
 10
5.2126417365
 20
4.8162466811
 40
0.1278
100
AcDbArc
 50
320.9258588002
 51
219.0741394643
  0
ARC
  5
269
100
AcDbEntity
  8
0
100
AcDbCircle
 62
7
  6
CONTINUOUS
 10
5.2126417365
 20
4.8162466811
 40
0.104610618
100
AcDbArc
 50
341.5195200951
 51
198.4804756675
  0
ARC
  5
26A
100
AcDbEntity
  8
0
100
AcDbCircle
 62
7
  6
CONTINUOUS
 10
5.2126417365
 20
4.8162466811
 40
0.101010618
100
AcDbArc
 50
349.1837099934
 51
190.8162825784
  0
ARC
  5
26B
100
AcDbEntity
  8
0
100
AcDbCircle
 62
7
  6
CONTINUOUS
 10
5.6639354696
 20
5.0110070757
 40
0.025688486
100
AcDbArc
 50
211.8862611483
 51
310.7686196671
  0
ARC
  5
26C
100
AcDbEntity
  8
0
100
AcDbCircle
 62
7
  6
CONTINUOUS
 10
5.7367563995
 20
4.8162376608
 40
0.2363752933
100
AcDbArc
 50
348.9717851742
 51
0.0021864688
  0
ARC
  5
26D
100
AcDbEntity
  8
0
100
AcDbCircle
 62
7
  6
CONTINUOUS
 10
6.1205189006
 20
4.8162376416
 40
0.2363749943
100
AcDbArc
 50
179.997808894
 51
191.0282334205
  0
ARC
  5
26E
100
AcDbEntity
  8
0
100
AcDbCircle
 62
7
  6
CONTINUOUS
 10
5.8580825751
 20
4.496481287
 40
0.189314558
100
AcDbArc
 50
90.3271837899
 51
129.2927235744
  0
ARC
  5
26F
100
AcDbEntity
  8
0
100
AcDbCircle
 62
7
  6
CONTINUOUS
 10
5.9286378202
 20
4.8070009273
 40
0.0676570133
100
AcDbArc
 50
53.6212549065
 51
126.3787982432
  0
ARC
  5
270
100
AcDbEntity
  8
0
100
AcDbCircle
 62
7
  6
CONTINUOUS
 10
5.7083430087
 20
4.6729899166
 40
0.0423163185
100
AcDbArc
 50
229.2313803329
 51
314.8619091967
  0
ARC
  5
271
100
AcDbEntity
  8
0
100
AcDbCircle
 62
7
  6
CONTINUOUS
 10
5.9925377995
 20
4.7235466811
 40
0.0144
100
AcDbArc
 50
90.0
 51
180.0
  0
ARC
  5
272
100
AcDbEntity
  8
0
100
AcDbCircle
 62
7
  6
CONTINUOUS
 10
5.8901142239
 20
4.7728297116
 40
0.0072
100
AcDbArc
 50
191.0320108616
 51
233.6265718829
  0
ARC
  5
273
100
AcDbEntity
  8
0
100
AcDbCircle
 62
7
  6
CONTINUOUS
 10
5.9671613751
 20
4.7728297116
 40
0.0072
100
AcDbArc
 50
306.3783962923
 51
348.9754701133
  0
ARC
  5
274
100
AcDbEntity
  8
0
100
AcDbCircle
 62
7
  6
CONTINUOUS
 10
5.8737377995
 20
4.7545966811
 40
0.0054
100
AcDbArc
 50
0.0
 51
90.0
  0
ARC
  5
275
100
AcDbEntity
  8
0
100
AcDbCircle
 62
7
  6
CONTINUOUS
 10
5.8599502895
 20
4.6933564877
 40
0.0052025521
100
AcDbArc
 50
344.863655934
 51
346.1235980522
  0
ARC
  5
276
100
AcDbEntity
  8
0
100
AcDbCircle
 62
7
  6
CONTINUOUS
 10
5.9961377995
 20
4.7433466811
 40
0.0036
100
AcDbArc
 50
90.0
 51
180.0
  0
ARC
  5
277
100
AcDbEntity
  8
0
100
AcDbCircle
 62
7
  6
CONTINUOUS
 10
6.1205191995
 20
4.8162557014
 40
0.2363752933
100
AcDbArc
 50
168.9717851742
 51
180.0021864688
  0
ARC
  5
278
100
AcDbEntity
  8
0
100
AcDbCircle
 62
7
  6
CONTINUOUS
 10
5.7367566985
 20
4.8162557206
 40
0.2363749943
100
AcDbArc
 50
359.997808894
 51
11.0282334205
  0
ARC
  5
279
100
AcDbEntity
  8
0
100
AcDbCircle
 62
7
  6
CONTINUOUS
 10
5.8580825751
 20
5.1360120752
 40
0.189314558
100
AcDbArc
 50
230.7072764256
 51
269.6727556824
  0
ARC
  5
27A
100
AcDbEntity
  8
0
100
AcDbCircle
 62
7
  6
CONTINUOUS
 10
5.9286377788
 20
4.8254924349
 40
0.0676570133
100
AcDbArc
 50
233.6212549065
 51
306.3787982432
  0
ARC
  5
27B
100
AcDbEntity
  8
0
100
AcDbCircle
 62
7
  6
CONTINUOUS
 10
5.7083430087
 20
4.9595034456
 40
0.0423163185
100
AcDbArc
 50
45.1380908033
 51
130.7686196671
  0
ARC
  5
27C
100
AcDbEntity
  8
0
100
AcDbCircle
 62
7
  6
CONTINUOUS
 10
5.9925377995
 20
4.9089466811
 40
0.0144
100
AcDbArc
 50
180.0
 51
270.0
  0
ARC
  5
27D
100
AcDbEntity
  8
0
100
AcDbCircle
 62
7
  6
CONTINUOUS
 10
5.9671613751
 20
4.8596636506
 40
0.0072
100
AcDbArc
 50
11.0320108616
 51
53.6265718829
  0
ARC
  5
27E
100
AcDbEntity
  8
0
100
AcDbCircle
 62
7
  6
CONTINUOUS
 10
5.8901142239
 20
4.8596636506
 40
0.0072
100
AcDbArc
 50
126.3783962923
 51
168.9754701133
  0
ARC
  5
27F
100
AcDbEntity
  8
0
100
AcDbCircle
 62
7
  6
CONTINUOUS
 10
5.8737377995
 20
4.8778966811
 40
0.0054
100
AcDbArc
 50
270.0
 51
360.0
  0
ARC
  5
280
100
AcDbEntity
  8
0
100
AcDbCircle
 62
7
  6
CONTINUOUS
 10
5.8599502704
 20
4.9391368654
 40
0.0052025728
100
AcDbArc
 50
13.8824258048
 51
15.1171362592
  0
ARC
  5
281
100
AcDbEntity
  8
0
100
AcDbCircle
 62
7
  6
CONTINUOUS
 10
5.9961377995
 20
4.8891466811
 40
0.0036
100
AcDbArc
 50
180.0
 51
270.0
  0
SPLINE
  5
282
100
AcDbEntity
  8
0
100
AcDbSpline
 62
7
  6
CONTINUOUS
 70
0
 71
3
 72
47
 73
43
 74
0
 42
0.0000001
 43
0.0000001
 44
0.0000000001
 40
0.0
 40
0.0
 40
0.0
 40
0.0
 40
0.0156042876
 40
0.0312087804
 40
0.046813763
 40
0.0624194267
 40
0.0936242466
 40
0.1248343546
 40
0.1404465772
 40
0.1560606416
 40
0.1716766873
 40
0.1872948344
 40
0.2185283816
 40
0.2497712635
 40
0.2810236624
 40
0.3122853947
 40
0.3435559184
 40
0.3748343537
 40
0.4061195168
 40
0.4374099659
 40
0.4687040557
 40
0.5000000016
 40
0.5312959474
 40
0.5625900372
 40
0.593880486
 40
0.625165649
 40
0.656444084
 40
0.6877146074
 40
0.7189763395
 40
0.7502287381
 40
0.7814716197
 40
0.8127051666
 40
0.8283233136
 40
0.8439393591
 40
0.8595534234
 40
0.8751656458
 40
0.9063757537
 40
0.9375805734
 40
0.953186237
 40
0.9687912197
 40
0.9843957124
 40
1.0
 40
1.0
 40
1.0
 40
1.0
 10
5.3240023365
 20
3.256250281
 30
0.0
 10
5.3240023365
 20
3.2544342799
 30
0.0
 10
5.3239128417
 20
3.2508016123
 30
0.0
 10
5.3235104534
 20
3.2453663088
 30
0.0
 10
5.3228408476
 20
3.2399569981
 30
0.0
 10
5.3215942833
 20
3.2327984743
 30
0.0
 10
5.3193768728
 20
3.2239773393
 30
0.0
 10
5.316302304
 20
3.2154163953
 30
0.0
 10
5.3133477542
 20
3.2087752645
 30
0.0
 10
5.3108886463
 20
3.2039074474
 30
0.0
 10
5.3081927921
 20
3.1991658381
 30
0.0
 10
5.3042921451
 20
3.193028147
 30
0.0
 10
5.2988559771
 20
3.1857247374
 30
0.0
 10
5.2915043794
 20
3.1776431204
 30
0.0
 10
5.2833933165
 20
3.1703183647
 30
0.0
 10
5.2746013275
 20
3.1638215048
 30
0.0
 10
5.2652130305
 20
3.1582148317
 30
0.0
 10
5.2553188704
 20
3.1535522589
 30
0.0
 10
5.2450140955
 20
3.1498785574
 30
0.0
 10
5.2343978838
 20
3.147229004
 30
0.0
 10
5.2235723828
 20
3.1456290313
 30
0.0
 10
5.212641736
 20
3.1450939956
 30
0.0
 10
5.2017110892
 20
3.1456290314
 30
0.0
 10
5.1908855882
 20
3.1472290042
 30
0.0
 10
5.1802693766
 20
3.1498785577
 30
0.0
 10
5.1699646018
 20
3.1535522592
 30
0.0
 10
5.1600704418
 20
3.1582148321
 30
0.0
 10
5.150682145
 20
3.1638215052
 30
0.0
 10
5.141890156
 20
3.1703183651
 30
0.0
 10
5.1337790933
 20
3.1776431208
 30
0.0
 10
5.1264274957
 20
3.1857247378
 30
0.0
 10
5.1209913278
 20
3.1930281473
 30
0.0
 10
5.1170906808
 20
3.1991658384
 30
0.0
 10
5.1143948266
 20
3.2039074476
 30
0.0
 10
5.1119357188
 20
3.2087752647
 30
0.0
 10
5.108981169
 20
3.2154163954
 30
0.0
 10
5.1059066002
 20
3.2239773394
 30
0.0
 10
5.1036891898
 20
3.2327984743
 30
0.0
 10
5.1024426254
 20
3.2399569981
 30
0.0
 10
5.1017730196
 20
3.2453663088
 30
0.0
 10
5.1013706313
 20
3.2508016123
 30
0.0
 10
5.1012811365
 20
3.2544342799
 30
0.0
 10
5.1012811365
 20
3.256250281
 30
0.0
  0
SPLINE
  5
283
100
AcDbEntity
  8
0
100
AcDbSpline
 62
7
  6
CONTINUOUS
 70
0
 71
3
 72
47
 73
43
 74
0
 42
0.0000001
 43
0.0000001
 44
0.0000000001
 40
0.0
 40
0.0
 40
0.0
 40
0.0
 40
0.0156042876
 40
0.0312087804
 40
0.046813763
 40
0.0624194267
 40
0.0936242466
 40
0.1248343546
 40
0.1404465772
 40
0.1560606416
 40
0.1716766873
 40
0.1872948344
 40
0.2185283816
 40
0.2497712635
 40
0.2810236624
 40
0.3122853947
 40
0.3435559184
 40
0.3748343537
 40
0.4061195168
 40
0.4374099659
 40
0.4687040557
 40
0.5000000016
 40
0.5312959474
 40
0.5625900372
 40
0.593880486
 40
0.625165649
 40
0.656444084
 40
0.6877146074
 40
0.7189763395
 40
0.7502287381
 40
0.7814716197
 40
0.8127051666
 40
0.8283233136
 40
0.8439393591
 40
0.8595534234
 40
0.8751656458
 40
0.9063757537
 40
0.9375805734
 40
0.953186237
 40
0.9687912197
 40
0.9843957124
 40
1.0
 40
1.0
 40
1.0
 40
1.0
 10
5.3240023365
 20
3.2454255377
 30
0.0
 10
5.3240023365
 20
3.2436095367
 30
0.0
 10
5.3239128417
 20
3.239976869
 30
0.0
 10
5.3235104534
 20
3.2345415656
 30
0.0
 10
5.3228408476
 20
3.2291322549
 30
0.0
 10
5.3215942833
 20
3.221973731
 30
0.0
 10
5.3193768728
 20
3.213152596
 30
0.0
 10
5.316302304
 20
3.204591652
 30
0.0
 10
5.3133477542
 20
3.1979505213
 30
0.0
 10
5.3108886463
 20
3.1930827041
 30
0.0
 10
5.3081927921
 20
3.1883410949
 30
0.0
 10
5.3042921451
 20
3.1822034038
 30
0.0
 10
5.2988559771
 20
3.1748999942
 30
0.0
 10
5.2915043794
 20
3.1668183771
 30
0.0
 10
5.2833933165
 20
3.1594936214
 30
0.0
 10
5.2746013275
 20
3.1529967615
 30
0.0
 10
5.2652130305
 20
3.1473900884
 30
0.0
 10
5.2553188704
 20
3.1427275156
 30
0.0
 10
5.2450140955
 20
3.1390538142
 30
0.0
 10
5.2343978838
 20
3.1364042607
 30
0.0
 10
5.2235723828
 20
3.1348042881
 30
0.0
 10
5.212641736
 20
3.1342692524
 30
0.0
 10
5.2017110892
 20
3.1348042882
 30
0.0
 10
5.1908855882
 20
3.1364042609
 30
0.0
 10
5.1802693766
 20
3.1390538145
 30
0.0
 10
5.1699646018
 20
3.142727516
 30
0.0
 10
5.1600704418
 20
3.1473900888
 30
0.0
 10
5.150682145
 20
3.1529967619
 30
0.0
 10
5.141890156
 20
3.1594936218
 30
0.0
 10
5.1337790933
 20
3.1668183775
 30
0.0
 10
5.1264274957
 20
3.1748999945
 30
0.0
 10
5.1209913278
 20
3.1822034041
 30
0.0
 10
5.1170906808
 20
3.1883410951
 30
0.0
 10
5.1143948266
 20
3.1930827043
 30
0.0
 10
5.1119357188
 20
3.1979505215
 30
0.0
 10
5.108981169
 20
3.2045916522
 30
0.0
 10
5.1059066002
 20
3.2131525961
 30
0.0
 10
5.1036891898
 20
3.2219737311
 30
0.0
 10
5.1024426254
 20
3.2291322549
 30
0.0
 10
5.1017730196
 20
3.2345415656
 30
0.0
 10
5.1013706313
 20
3.239976869
 30
0.0
 10
5.1012811365
 20
3.2436095367
 30
0.0
 10
5.1012811365
 20
3.2454255377
 30
0.0
  0
SPLINE
  5
284
100
AcDbEntity
  8
0
100
AcDbSpline
 62
7
  6
CONTINUOUS
 70
0
 71
3
 72
23
 73
19
 74
0
 42
0.0000001
 43
0.0000001
 44
0.0000000001
 40
0.0
 40
0.0
 40
0.0
 40
0.0
 40
0.0859651772
 40
0.1686242726
 40
0.2479081152
 40
0.323770173
 40
0.3961897328
 40
0.4651757471
 40
0.5307713184
 40
0.5930589909
 40
0.6521668565
 40
0.7082752276
 40
0.7616235177
 40
0.8125164163
 40
0.8613278199
 40
0.9085006353
 40
0.9545402156
 40
1.0
 40
1.0
 40
1.0
 40
1.0
 10
4.7008339788
 20
4.7166550369
 30
0.0
 10
4.7035564522
 20
4.715542825
 30
0.0
 10
4.7088619451
 20
4.7132746173
 30
0.0
 10
4.7165384983
 20
4.7096649538
 30
0.0
 10
4.7237637663
 20
4.7059211697
 30
0.0
 10
4.7305218478
 20
4.7020514499
 30
0.0
 10
4.7367980308
 20
4.698064139
 30
0.0
 10
4.7425786422
 20
4.693967769
 30
0.0
 10
4.747851098
 20
4.6897709953
 30
0.0
 10
4.7526038798
 20
4.6854825542
 30
0.0
 10
4.7568264959
 20
4.6811112228
 30
0.0
 10
4.7605094073
 20
4.6766658009
 30
0.0
 10
4.7636439222
 20
4.6721551567
 30
0.0
 10
4.7662220893
 20
4.6675883169
 30
0.0
 10
4.768236645
 20
4.6629748224
 30
0.0
 10
4.7696811232
 20
4.6583246187
 30
0.0
 10
4.7705502124
 20
4.653649874
 30
0.0
 10
4.7707440362
 20
4.6505163155
 30
0.0
 10
4.7707440362
 20
4.6489611212
 30
0.0
  0
SPLINE
  5
285
100
AcDbEntity
  8
0
100
AcDbSpline
 62
7
  6
CONTINUOUS
 70
0
 71
3
 72
23
 73
19
 74
0
 42
0.0000001
 43
0.0000001
 44
0.0000000001
 40
0.0
 40
0.0
 40
0.0
 40
0.0
 40
0.0454597843
 40
0.0914993648
 40
0.1386721804
 40
0.187483584
 40
0.2383764827
 40
0.2917247729
 40
0.3478331439
 40
0.4069410095
 40
0.469228682
 40
0.5348242532
 40
0.6038102675
 40
0.6762298273
 40
0.752091885
 40
0.8313757275
 40
0.9140348229
 40
1.0
 40
1.0
 40
1.0
 40
1.0
 10
4.2532440362
 20
4.6489611144
 30
0.0
 10
4.2532440362
 20
4.6505163087
 30
0.0
 10
4.2534378598
 20
4.6536498672
 30
0.0
 10
4.2543069489
 20
4.6583246119
 30
0.0
 10
4.2557514269
 20
4.6629748156
 30
0.0
 10
4.2577659826
 20
4.6675883101
 30
0.0
 10
4.2603441494
 20
4.67215515
 30
0.0
 10
4.2634786642
 20
4.6766657943
 30
0.0
 10
4.2671615755
 20
4.6811112163
 30
0.0
 10
4.2713841914
 20
4.6854825478
 30
0.0
 10
4.276136973
 20
4.689770989
 30
0.0
 10
4.2814094287
 20
4.6939677627
 30
0.0
 10
4.2871900399
 20
4.6980641329
 30
0.0
 10
4.2934662228
 20
4.702051444
 30
0.0
 10
4.3002243041
 20
4.7059211639
 30
0.0
 10
4.3074495719
 20
4.7096649481
 30
0.0
 10
4.3151261249
 20
4.7132746119
 30
0.0
 10
4.3204316177
 20
4.7155428197
 30
0.0
 10
4.323154091
 20
4.7166550317
 30
0.0
  0
SPLINE
  5
286
100
AcDbEntity
  8
0
100
AcDbSpline
 62
7
  6
CONTINUOUS
 70
0
 71
3
 72
39
 73
35
 74
0
 42
0.0000001
 43
0.0000001
 44
0.0000000001
 40
0.0
 40
0.0
 40
0.0
 40
0.0
 40
0.0841071627
 40
0.1675306396
 40
0.2495977234
 40
0.2899203928
 40
0.329662645
 40
0.368748702
 40
0.4071057476
 40
0.4446643645
 40
0.4813590131
 40
0.5171285652
 40
0.5519168649
 40
0.5856733642
 40
0.6183538546
 40
0.6499212915
 40
0.6803467225
 40
0.7096103644
 40
0.7377028495
 40
0.7646266347
 40
0.79039754
 40
0.8150464107
 40
0.8386207754
 40
0.8611862389
 40
0.8721184556
 40
0.8828318031
 40
0.9036516248
 40
0.9237701644
 40
0.9433204441
 40
0.9624435302
 40
0.9718941565
 40
0.9812924083
 40
0.9906539726
 40
1.0
 40
1.0
 40
1.0
 40
1.0
 10
4.5119940369
 20
4.5005965551
 30
0.0
 10
4.5036325113
 20
4.500596555
 30
0.0
 10
4.4869756456
 20
4.5009103273
 30
0.0
 10
4.4621963015
 20
4.5023198418
 30
0.0
 10
4.441823085
 20
4.5042765315
 30
0.0
 10
4.4258323662
 20
4.5063087428
 30
0.0
 10
4.4141143722
 20
4.5080478093
 30
0.0
 10
4.4026292878
 20
4.5100066174
 30
0.0
 10
4.3914039968
 20
4.5121808082
 30
0.0
 10
4.3804646869
 20
4.5145655648
 30
0.0
 10
4.3698366792
 20
4.5171556997
 30
0.0
 10
4.3595443669
 20
4.5199456861
 30
0.0
 10
4.3496111295
 20
4.5229297227
 30
0.0
 10
4.3400592573
 20
4.5261018034
 30
0.0
 10
4.3309098771
 20
4.529455803
 30
0.0
 10
4.32218289
 20
4.5329855826
 30
0.0
 10
4.3138969268
 20
4.5366851231
 30
0.0
 10
4.306069329
 20
4.5405486826
 30
0.0
 10
4.298716174
 20
4.5445709817
 30
0.0
 10
4.2918523603
 20
4.5487474297
 30
0.0
 10
4.285491837
 20
4.5530743236
 30
0.0
 10
4.2796478464
 20
4.5575491649
 30
0.0
 10
4.274333858
 20
4.5621704068
 30
0.0
 10
4.2703168294
 20
4.5661853298
 30
0.0
 10
4.2673945836
 20
4.5694698903
 30
0.0
 10
4.2647187889
 20
4.5727365286
 30
0.0
 10
4.2617206402
 20
4.5769145104
 30
0.0
 10
4.2586899701
 20
4.5821199477
 30
0.0
 10
4.2562874452
 20
4.5874604794
 30
0.0
 10
4.2548270353
 20
4.5920290246
 30
0.0
 10
4.2540073137
 20
4.5957159699
 30
0.0
 10
4.2535676933
 20
4.5984877577
 30
0.0
 10
4.2533029524
 20
4.6012710741
 30
0.0
 10
4.2532440368
 20
4.6031314325
 30
0.0
 10
4.2532440368
 20
4.6040605692
 30
0.0
  0
SPLINE
  5
287
100
AcDbEntity
  8
0
100
AcDbSpline
 62
7
  6
CONTINUOUS
 70
0
 71
3
 72
39
 73
35
 74
0
 42
0.0000001
 43
0.0000001
 44
0.0000000001
 40
0.0
 40
0.0
 40
0.0
 40
0.0
 40
0.0093460252
 40
0.01870759
 40
0.0281058422
 40
0.0375564685
 40
0.0566795562
 40
0.0762298383
 40
0.0963483812
 40
0.1171682068
 40
0.1278815559
 40
0.1388137748
 40
0.161379242
 40
0.1849536103
 40
0.2096024844
 40
0.2353733929
 40
0.2622971811
 40
0.2903896687
 40
0.3196533125
 40
0.3500787452
 40
0.3816461835
 40
0.4143266747
 40
0.4480831742
 40
0.4828714738
 40
0.5186410255
 40
0.5553356729
 40
0.5928942882
 40
0.6312513319
 40
0.6703373867
 40
0.7100796361
 40
0.7504023023
 40
0.8324693787
 40
0.9158928468
 40
1.0
 40
1.0
 40
1.0
 40
1.0
 10
4.7707440368
 20
4.6040605759
 30
0.0
 10
4.7707440368
 20
4.6031314394
 30
0.0
 10
4.7706851212
 20
4.6012710811
 30
0.0
 10
4.7704203804
 20
4.5984877649
 30
0.0
 10
4.7699807601
 20
4.5957159769
 30
0.0
 10
4.7691610386
 20
4.5920290314
 30
0.0
 10
4.7677006287
 20
4.5874604857
 30
0.0
 10
4.7652981035
 20
4.5821199533
 30
0.0
 10
4.762267433
 20
4.5769145151
 30
0.0
 10
4.7592692836
 20
4.5727365326
 30
0.0
 10
4.7565934884
 20
4.5694698937
 30
0.0
 10
4.7536712419
 20
4.5661853328
 30
0.0
 10
4.7496542126
 20
4.5621704091
 30
0.0
 10
4.7443402232
 20
4.5575491667
 30
0.0
 10
4.7384962315
 20
4.5530743249
 30
0.0
 10
4.7321357073
 20
4.5487474306
 30
0.0
 10
4.7252718927
 20
4.5445709823
 30
0.0
 10
4.7179187368
 20
4.540548683
 30
0.0
 10
4.7100911383
 20
4.5366851234
 30
0.0
 10
4.7018051745
 20
4.5329855829
 30
0.0
 10
4.6930781869
 20
4.5294558032
 30
0.0
 10
4.6839288064
 20
4.5261018037
 30
0.0
 10
4.6743769339
 20
4.522929723
 30
0.0
 10
4.6644436965
 20
4.5199456865
 30
0.0
 10
4.6541513843
 20
4.5171557002
 30
0.0
 10
4.6435233768
 20
4.5145655654
 30
0.0
 10
4.6325840672
 20
4.5121808089
 30
0.0
 10
4.6213587767
 20
4.5100066182
 30
0.0
 10
4.6098736929
 20
4.5080478101
 30
0.0
 10
4.5981556996
 20
4.5063087436
 30
0.0
 10
4.582164982
 20
4.5042765323
 30
0.0
 10
4.5617917672
 20
4.5023198426
 30
0.0
 10
4.5370124256
 20
4.5009103277
 30
0.0
 10
4.5203555615
 20
4.5005965552
 30
0.0
 10
4.5119940369
 20
4.5005965551
 30
0.0
  0
SPLINE
  5
288
100
AcDbEntity
  8
0
100
AcDbSpline
 62
7
  6
CONTINUOUS
 70
0
 71
3
 72
15
 73
11
 74
0
 42
0.0000001
 43
0.0000001
 44
0.0000000001
 40
0.0
 40
0.0
 40
0.0
 40
0.0
 40
0.200330549
 40
0.3825141163
 40
0.5446698891
 40
0.6850080137
 40
0.8019190742
 40
0.894037633
 40
0.9603036047
 40
1.0
 40
1.0
 40
1.0
 40
1.0
 10
4.7098490209
 20
4.7006883609
 30
0.0
 10
4.7103936317
 20
4.6997239324
 30
0.0
 10
4.7114751296
 20
4.6979055088
 30
0.0
 10
4.7131320901
 20
4.6953898432
 30
0.0
 10
4.7147053545
 20
4.6932195525
 30
0.0
 10
4.7161472789
 20
4.6914027069
 30
0.0
 10
4.7174112299
 20
4.6899413702
 30
0.0
 10
4.7184531251
 20
4.6888312647
 30
0.0
 10
4.7192332825
 20
4.6880623639
 30
0.0
 10
4.7196650942
 20
4.6876662227
 30
0.0
 10
4.7198303707
 20
4.6875218232
 30
0.0
  0
SPLINE
  5
289
100
AcDbEntity
  8
0
100
AcDbSpline
 62
7
  6
CONTINUOUS
 70
0
 71
3
 72
18
 73
14
 74
0
 42
0.0000001
 43
0.0000001
 44
0.0000000001
 40
0.0
 40
0.0
 40
0.0
 40
0.0
 40
0.008261028
 40
0.0243523641
 40
0.0482433969
 40
0.0798660358
 40
0.1191234917
 40
0.1658873241
 40
0.2812698266
 40
0.4244379545
 40
0.593448893
 40
0.786086848
 40
1.0
 40
1.0
 40
1.0
 40
1.0
 10
4.30401193
 20
4.6873970305
 30
0.0
 10
4.3040474504
 20
4.6874265746
 30
0.0
 10
4.3041509519
 20
4.6875151135
 30
0.0
 10
4.3043528686
 20
4.6876940954
 30
0.0
 10
4.3046472703
 20
4.6879656126
 30
0.0
 10
4.3050295641
 20
4.6883327855
 30
0.0
 10
4.3054944927
 20
4.6887984026
 30
0.0
 10
4.3062731431
 20
4.6896124209
 30
0.0
 10
4.3074100409
 20
4.6908872773
 30
0.0
 10
4.3089200271
 20
4.6927424753
 30
0.0
 10
4.3105983117
 20
4.6950141411
 30
0.0
 10
4.3123844466
 20
4.6976935298
 30
0.0
 10
4.3135507894
 20
4.6996466294
 30
0.0
 10
4.3141390501
 20
4.7006883558
 30
0.0
  0
SPLINE
  5
28A
100
AcDbEntity
  8
0
100
AcDbSpline
 62
7
  6
CONTINUOUS
 70
0
 71
3
 72
39
 73
35
 74
0
 42
0.0000001
 43
0.0000001
 44
0.0000000001
 40
0.0
 40
0.0
 40
0.0
 40
0.0
 40
0.0312571563
 40
0.0625135697
 40
0.0937698169
 40
0.1250253112
 40
0.1562798424
 40
0.1875320641
 40
0.2187827695
 40
0.2500306892
 40
0.2812759105
 40
0.3125182461
 40
0.3437587736
 40
0.3749990075
 40
0.406241656
 40
0.4374896928
 40
0.4687445183
 40
0.5000042065
 40
0.5312638663
 40
0.5625186099
 40
0.5937665091
 40
0.62500896
 40
0.6562489115
 40
0.687489045
 40
0.7187308836
 40
0.7499753994
 40
0.7812225316
 40
0.8124722041
 40
0.8437239588
 40
0.8749772075
 40
0.9062316139
 40
0.9374871037
 40
0.9687430397
 40
1.0
 40
1.0
 40
1.0
 40
1.0
 10
4.6374931926
 20
4.8288202788
 30
0.0
 10
4.6359399075
 20
4.8315709265
 30
0.0
 10
4.6326450984
 20
4.8369682555
 30
0.0
 10
4.6271653444
 20
4.8447083766
 30
0.0
 10
4.6211729107
 20
4.8520590886
 30
0.0
 10
4.6146963624
 20
4.8589865878
 30
0.0
 10
4.6077663462
 20
4.8654598518
 30
0.0
 10
4.6004156177
 20
4.8714502636
 30
0.0
 10
4.5926789579
 20
4.8769319441
 30
0.0
 10
4.5845927784
 20
4.8818820819
 30
0.0
 10
4.5761950719
 20
4.886281082
 30
0.0
 10
4.5675248306
 20
4.8901129998
 30
0.0
 10
4.558621751
 20
4.8933656979
 30
0.0
 10
4.5495256459
 20
4.8960309722
 30
0.0
 10
4.540276028
 20
4.8981043394
 30
0.0
 10
4.5309117966
 20
4.8995843857
 30
0.0
 10
4.5214713273
 20
4.90047163
 30
0.0
 10
4.5119927589
 20
4.9007671553
 30
0.0
 10
4.5025142037
 20
4.9004714711
 30
0.0
 10
4.4930737743
 20
4.8995840707
 30
0.0
 10
4.4837096094
 20
4.8981038741
 30
0.0
 10
4.4744600868
 20
4.8960303675
 30
0.0
 10
4.4653641102
 20
4.8933649693
 30
0.0
 10
4.4564611929
 20
4.8901121729
 30
0.0
 10
4.4477911573
 20
4.8862801897
 30
0.0
 10
4.4393936895
 20
4.8818811683
 30
0.0
 10
4.4313077886
 20
4.8769310655
 30
0.0
 10
4.4235713755
 20
4.8714494376
 30
0.0
 10
4.4162209174
 20
4.8654591398
 30
0.0
 10
4.409291154
 20
4.8589860265
 30
0.0
 10
4.4028148541
 20
4.8520587287
 30
0.0
 10
4.3968225865
 20
4.844708185
 30
0.0
 10
4.3913429215
 20
4.8369681783
 30
0.0
 10
4.3880481504
 20
4.8315709061
 30
0.0
 10
4.3864948751
 20
4.8288202756
 30
0.0
  0
SPLINE
  5
28B
100
AcDbEntity
  8
0
100
AcDbSpline
 62
7
  6
CONTINUOUS
 70
0
 71
3
 72
22
 73
18
 74
0
 42
0.0000001
 43
0.0000001
 44
0.0000000001
 40
0.0
 40
0.0
 40
0.0
 40
0.0
 40
0.0221765079
 40
0.0472237845
 40
0.0771157039
 40
0.112887673
 40
0.1550506519
 40
0.2037861041
 40
0.2590726361
 40
0.3207499112
 40
0.3885636577
 40
0.4621855827
 40
0.6251898356
 40
0.7136234845
 40
0.8059559263
 40
0.9016172585
 40
1.0
 40
1.0
 40
1.0
 40
1.0
 10
5.9742284837
 20
4.7714527797
 30
0.0
 10
5.9742204587
 20
4.7714116102
 30
0.0
 10
5.9741850423
 20
4.7713269233
 30
0.0
 10
5.9740851006
 20
4.7712180438
 30
0.0
 10
5.9739416326
 20
4.7711219771
 30
0.0
 10
5.973755097
 20
4.7710379418
 30
0.0
 10
5.9735262236
 20
4.7709657895
 30
0.0
 10
5.973256022
 20
4.7709059167
 30
0.0
 10
5.9729460199
 20
4.7708586655
 30
0.0
 10
5.9725980832
 20
4.7708244242
 30
0.0
 10
5.9722144002
 20
4.7708033056
 30
0.0
 10
5.9716386047
 20
4.7707921128
 30
0.0
 10
5.9710236522
 20
4.7708083158
 30
0.0
 10
5.9703746122
 20
4.7708475806
 30
0.0
 10
5.9698535365
 20
4.7708910608
 30
0.0
 10
5.9693148755
 20
4.770948144
 30
0.0
 10
5.9689507146
 20
4.7709942215
 30
0.0
 10
5.9687665241
 20
4.7710206712
 30
0.0
  0
SPLINE
  5
28C
100
AcDbEntity
  8
0
100
AcDbSpline
 62
7
  6
CONTINUOUS
 70
0
 71
3
 72
15
 73
11
 74
0
 42
0.0000001
 43
0.0000001
 44
0.0000000001
 40
0.0
 40
0.0
 40
0.0
 40
0.0
 40
0.1336902085
 40
0.2569380084
 40
0.373197647
 40
0.486688449
 40
0.6020140228
 40
0.7236105827
 40
0.8552849194
 40
1.0
 40
1.0
 40
1.0
 40
1.0
 10
5.8570015989
 20
4.6857927606
 30
0.0
 10
5.8571754092
 20
4.6857937592
 30
0.0
 10
5.8575099906
 20
4.6858159168
 30
0.0
 10
5.8579856
 20
4.6859225518
 30
0.0
 10
5.8584105736
 20
4.686103231
 30
0.0
 10
5.858782757
 20
4.6863592822
 30
0.0
 10
5.8591002648
 20
4.6866901204
 30
0.0
 10
5.8593626896
 20
4.6870940796
 30
0.0
 10
5.8595711055
 20
4.6875696953
 30
0.0
 10
5.8596699723
 20
4.6879162329
 30
0.0
 10
5.8597121045
 20
4.6880996017
 30
0.0
  0
LINE
  5
28D
100
AcDbEntity
  8
0
100
AcDbLine
 62
7
  6
CONTINUOUS
 10
5.9714313297
 20
4.8654608441
 11
5.9687665241
 21
4.861472691
  0
SPLINE
  5
28E
100
AcDbEntity
  8
0
100
AcDbSpline
 62
7
  6
CONTINUOUS
 70
0
 71
3
 72
39
 73
35
 74
0
 42
0.0000001
 43
0.0000001
 44
0.0000000001
 40
0.0
 40
0.0
 40
0.0
 40
0.0
 40
0.0082374921
 40
0.0165038156
 40
0.0248274343
 40
0.0332360934
 40
0.0504066166
 40
0.0682205665
 40
0.0774263669
 40
0.0868546679
 40
0.1064395095
 40
0.1270949547
 40
0.1489087327
 40
0.171945075
 40
0.1962476656
 40
0.2218424243
 40
0.2487400019
 40
0.2769378966
 40
0.3064222415
 40
0.3371692957
 40
0.3691466654
 40
0.402314367
 40
0.4366256991
 40
0.4720279855
 40
0.5084632363
 40
0.5458687044
 40
0.584177409
 40
0.6233186012
 40
0.6632181696
 40
0.7037990477
 40
0.7449815857
 40
0.8288180987
 40
0.9140562165
 40
1.0
 40
1.0
 40
1.0
 40
1.0
 10
4.7707440362
 20
4.6489611212
 30
0.0
 10
4.7707440362
 20
4.648150686
 30
0.0
 10
4.7706918598
 20
4.6465264973
 30
0.0
 10
4.7704572925
 20
4.6440936058
 30
0.0
 10
4.7700664993
 20
4.6416636808
 30
0.0
 10
4.7693327381
 20
4.6384080368
 30
0.0
 10
4.7680122753
 20
4.6343368232
 30
0.0
 10
4.7662040259
 20
4.6303731757
 30
0.0
 10
4.7644656919
 20
4.627235361
 30
0.0
 10
4.7624803483
 20
4.6240404303
 30
0.0
 10
4.7596032019
 20
4.620081486
 30
0.0
 10
4.7555993012
 20
4.6154641175
 30
0.0
 10
4.7510109515
 20
4.6109303192
 30
0.0
 10
4.7458495723
 20
4.606490359
 30
0.0
 10
4.740127429
 20
4.6021540228
 30
0.0
 10
4.7338581063
 20
4.5979311814
 30
0.0
 10
4.7270564341
 20
4.5938315612
 30
0.0
 10
4.7197385263
 20
4.5898647343
 30
0.0
 10
4.7119217537
 20
4.5860400473
 30
0.0
 10
4.7036247171
 20
4.5823665751
 30
0.0
 10
4.694867204
 20
4.5788530756
 30
0.0
 10
4.6856701383
 20
4.5755079575
 30
0.0
 10
4.6760555276
 20
4.5723392477
 30
0.0
 10
4.6660464066
 20
4.5693545651
 30
0.0
 10
4.655666781
 20
4.5665610943
 30
0.0
 10
4.6449415643
 20
4.5639655657
 30
0.0
 10
4.6338965167
 20
4.5615742383
 30
0.0
 10
4.6225581747
 20
4.55939288
 30
0.0
 10
4.6109538081
 20
4.5574267641
 30
0.0
 10
4.5991112685
 20
4.5556806043
 30
0.0
 10
4.5829463426
 20
4.553639379
 30
0.0
 10
4.5623480568
 20
4.5516735132
 30
0.0
 10
4.5372927999
 20
4.5502571182
 30
0.0
 10
4.5204495057
 20
4.5499417798
 30
0.0
 10
4.5119940362
 20
4.5499417797
 30
0.0
  0
SPLINE
  5
28F
100
AcDbEntity
  8
0
100
AcDbSpline
 62
7
  6
CONTINUOUS
 70
0
 71
3
 72
31
 73
27
 74
0
 42
0.0000001
 43
0.0000001
 44
0.0000000001
 40
0.0
 40
0.0
 40
0.0
 40
0.0
 40
0.0165839927
 40
0.0340559435
 40
0.0531495502
 40
0.074378353
 40
0.0980476565
 40
0.1242980239
 40
0.1531466548
 40
0.1845189292
 40
0.2541745597
 40
0.3315629047
 40
0.414383387
 40
0.5
 40
0.585616613
 40
0.6684370953
 40
0.7458254403
 40
0.8154810708
 40
0.8468533452
 40
0.8757019761
 40
0.9019523435
 40
0.925621647
 40
0.9468504498
 40
0.9659440565
 40
0.9834160073
 40
1.0
 40
1.0
 40
1.0
 40
1.0
 10
4.5172381276
 20
4.8881388937
 30
0.0
 10
4.5172381276
 20
4.88807279
 30
0.0
 10
4.5172201463
 20
4.8879364776
 30
0.0
 10
4.5171411582
 20
4.887737989
 30
0.0
 10
4.517012347
 20
4.887545305
 30
0.0
 10
4.516835894
 20
4.8873597668
 30
0.0
 10
4.5166136988
 20
4.8871824026
 30
0.0
 10
4.5163477932
 20
4.8870144902
 30
0.0
 10
4.5160405637
 20
4.8868573827
 30
0.0
 10
4.5155626943
 20
4.8866572476
 30
0.0
 10
4.5148810028
 20
4.8864485294
 30
0.0
 10
4.5139815447
 20
4.8862681319
 30
0.0
 10
4.5130069312
 20
4.8861569676
 30
0.0
 10
4.5119940331
 20
4.8861194079
 30
0.0
 10
4.5109811351
 20
4.8861569676
 30
0.0
 10
4.5100065215
 20
4.8862681318
 30
0.0
 10
4.5091070635
 20
4.8864485294
 30
0.0
 10
4.5084253719
 20
4.8866572475
 30
0.0
 10
4.5079475026
 20
4.8868573826
 30
0.0
 10
4.507640273
 20
4.8870144901
 30
0.0
 10
4.5073743674
 20
4.8871824025
 30
0.0
 10
4.5071521722
 20
4.8873597667
 30
0.0
 10
4.5069757192
 20
4.8875453049
 30
0.0
 10
4.506846908
 20
4.8877379889
 30
0.0
 10
4.5067679199
 20
4.8879364774
 30
0.0
 10
4.5067499386
 20
4.8880727899
 30
0.0
 10
4.5067499386
 20
4.8881388936
 30
0.0
  0
SPLINE
  5
290
100
AcDbEntity
  8
0
100
AcDbSpline
 62
7
  6
CONTINUOUS
 70
0
 71
3
 72
31
 73
27
 74
0
 42
0.0000001
 43
0.0000001
 44
0.0000000001
 40
0.0
 40
0.0
 40
0.0
 40
0.0
 40
0.0165839927
 40
0.0340559435
 40
0.0531495502
 40
0.074378353
 40
0.0980476565
 40
0.1242980239
 40
0.1531466548
 40
0.1845189292
 40
0.2541745597
 40
0.3315629047
 40
0.414383387
 40
0.5
 40
0.585616613
 40
0.6684370953
 40
0.7458254403
 40
0.8154810708
 40
0.8468533452
 40
0.8757019761
 40
0.9019523435
 40
0.925621647
 40
0.9468504498
 40
0.9659440565
 40
0.9834160073
 40
1.0
 40
1.0
 40
1.0
 40
1.0
 10
4.5067499386
 20
4.8881388936
 30
0.0
 10
4.5067499386
 20
4.8882049973
 30
0.0
 10
4.5067679199
 20
4.8883413098
 30
0.0
 10
4.506846908
 20
4.8885397984
 30
0.0
 10
4.5069757192
 20
4.8887324823
 30
0.0
 10
4.5071521722
 20
4.8889180205
 30
0.0
 10
4.5073743674
 20
4.8890953847
 30
0.0
 10
4.507640273
 20
4.8892632971
 30
0.0
 10
4.5079475025
 20
4.8894204046
 30
0.0
 10
4.5084253719
 20
4.8896205397
 30
0.0
 10
4.5091070634
 20
4.8898292579
 30
0.0
 10
4.5100065215
 20
4.8900096554
 30
0.0
 10
4.510981135
 20
4.8901208198
 30
0.0
 10
4.5119940331
 20
4.8901583794
 30
0.0
 10
4.5130069311
 20
4.8901208198
 30
0.0
 10
4.5139815447
 20
4.8900096555
 30
0.0
 10
4.5148810027
 20
4.889829258
 30
0.0
 10
4.5155626943
 20
4.8896205398
 30
0.0
 10
4.5160405636
 20
4.8894204047
 30
0.0
 10
4.5163477931
 20
4.8892632972
 30
0.0
 10
4.5166136988
 20
4.8890953849
 30
0.0
 10
4.516835894
 20
4.8889180207
 30
0.0
 10
4.517012347
 20
4.8887324824
 30
0.0
 10
4.5171411581
 20
4.8885397985
 30
0.0
 10
4.5172201463
 20
4.8883413099
 30
0.0
 10
4.5172381276
 20
4.8882049975
 30
0.0
 10
4.5172381276
 20
4.8881388937
 30
0.0
  0
SPLINE
  5
291
100
AcDbEntity
  8
0
100
AcDbSpline
 62
7
  6
CONTINUOUS
 70
0
 71
3
 72
39
 73
35
 74
0
 42
0.0000001
 43
0.0000001
 44
0.0000000001
 40
0.0
 40
0.0
 40
0.0
 40
0.0
 40
0.0082374921
 40
0.0165038161
 40
0.0248274346
 40
0.0332360919
 40
0.0504066166
 40
0.0682205687
 40
0.0774263646
 40
0.0868546699
 40
0.1064395088
 40
0.1270949526
 40
0.1489087346
 40
0.1719450792
 40
0.1962476654
 40
0.2218424222
 40
0.2487400019
 40
0.2769378991
 40
0.3064222443
 40
0.3371692935
 40
0.3691466644
 40
0.402314369
 40
0.4366257004
 40
0.4720279859
 40
0.5084632351
 40
0.545868704
 40
0.584177411
 40
0.623318601
 40
0.6632181688
 40
0.7037990482
 40
0.7449815849
 40
0.8288180982
 40
0.9140562157
 40
1.0
 40
1.0
 40
1.0
 40
1.0
 10
4.2532440385
 20
4.6040605692
 30
0.0
 10
4.2532440385
 20
4.603250134
 30
0.0
 10
4.2532962101
 20
4.6016259451
 30
0.0
 10
4.2535307814
 20
4.5991930538
 30
0.0
 10
4.2539215754
 20
4.5967631293
 30
0.0
 10
4.2546553316
 20
4.5935074842
 30
0.0
 10
4.2559757971
 20
4.5894362707
 30
0.0
 10
4.2577840508
 20
4.5854726259
 30
0.0
 10
4.2595223788
 20
4.5823348076
 30
0.0
 10
4.2615077283
 20
4.5791398809
 30
0.0
 10
4.2643848695
 20
4.5751809332
 30
0.0
 10
4.2683887716
 20
4.5705635655
 30
0.0
 10
4.2729771226
 20
4.5660297682
 30
0.0
 10
4.2781385027
 20
4.5615898088
 30
0.0
 10
4.2838606446
 20
4.5572534716
 30
0.0
 10
4.2901299666
 20
4.5530306297
 30
0.0
 10
4.2969316396
 20
4.5489310106
 30
0.0
 10
4.3042495484
 20
4.5449641846
 30
0.0
 10
4.3120663206
 20
4.5411394976
 30
0.0
 10
4.3203633562
 20
4.5374660243
 30
0.0
 10
4.3291208695
 20
4.5339525256
 30
0.0
 10
4.3383179358
 20
4.5306074084
 30
0.0
 10
4.3479325468
 20
4.5274386991
 30
0.0
 10
4.3579416671
 20
4.5244540159
 30
0.0
 10
4.3683212925
 20
4.5216605452
 30
0.0
 10
4.3790465094
 20
4.5190650173
 30
0.0
 10
4.3900915572
 20
4.5166736906
 30
0.0
 10
4.4014298991
 20
4.5144923323
 30
0.0
 10
4.4130342654
 20
4.5125262162
 30
0.0
 10
4.4248768049
 20
4.5107800569
 30
0.0
 10
4.4410417308
 20
4.5087388324
 30
0.0
 10
4.4616400163
 20
4.5067729665
 30
0.0
 10
4.4866952732
 20
4.5053565724
 30
0.0
 10
4.5035385673
 20
4.5050412343
 30
0.0
 10
4.5119940368
 20
4.5050412344
 30
0.0
  0
SPLINE
  5
292
100
AcDbEntity
  8
0
100
AcDbSpline
 62
7
  6
CONTINUOUS
 70
0
 71
3
 72
61
 73
57
 74
0
 42
0.0000001
 43
0.0000001
 44
0.0000000001
 40
0.0
 40
0.0
 40
0.0
 40
0.0
 40
0.0082479624
 40
0.0166103142
 40
0.0251958499
 40
0.0341031038
 40
0.0387061489
 40
0.0434204475
 40
0.0532131754
 40
0.0635412217
 40
0.0744484544
 40
0.0859669885
 40
0.0981186644
 40
0.1109164451
 40
0.1243656562
 40
0.1384650471
 40
0.1532076835
 40
0.1685816915
 40
0.1845708779
 40
0.2011552499
 40
0.2183114546
 40
0.2360131537
 40
0.2542313495
 40
0.2920868391
 40
0.3316060105
 40
0.3724867892
 40
0.4144063621
 40
0.4570267451
 40
0.5
 40
0.5429732549
 40
0.5855936379
 40
0.6275132108
 40
0.6683939895
 40
0.7079131609
 40
0.7457686505
 40
0.7639868463
 40
0.7816885454
 40
0.7988447501
 40
0.8154291221
 40
0.8314183085
 40
0.8467923165
 40
0.8615349529
 40
0.8756343438
 40
0.8890835549
 40
0.9018813356
 40
0.9140330115
 40
0.9255515456
 40
0.9364587783
 40
0.9467868246
 40
0.9565795525
 40
0.9612938511
 40
0.9658968962
 40
0.9748041501
 40
0.9833896858
 40
0.9917520376
 40
1.0
 40
1.0
 40
1.0
 40
1.0
 10
4.6403901276
 20
4.8184417376
 30
0.0
 10
4.6403901276
 20
4.8176364375
 30
0.0
 10
4.6402852861
 20
4.8160127966
 30
0.0
 10
4.6398153387
 20
4.8135918527
 30
0.0
 10
4.6390345956
 20
4.8111850318
 30
0.0
 10
4.6381372966
 20
4.8092180718
 30
0.0
 10
4.6372747074
 20
4.807661054
 30
0.0
 10
4.6362895466
 20
4.8060756707
 30
0.0
 10
4.6348618586
 20
4.8041111785
 30
0.0
 10
4.6328750559
 20
4.8018199618
 30
0.0
 10
4.6305982393
 20
4.7995702154
 30
0.0
 10
4.6280370758
 20
4.7973670329
 30
0.0
 10
4.6251976524
 20
4.7952152699
 30
0.0
 10
4.6220867095
 20
4.7931198249
 30
0.0
 10
4.6187116055
 20
4.7910855247
 30
0.0
 10
4.6150803364
 20
4.7891171189
 30
0.0
 10
4.6112015226
 20
4.7872192451
 30
0.0
 10
4.607084394
 20
4.7853964062
 30
0.0
 10
4.6027387694
 20
4.783652949
 30
0.0
 10
4.59817503
 20
4.7819930441
 30
0.0
 10
4.5934041023
 20
4.7804206825
 30
0.0
 10
4.5884373945
 20
4.7789396128
 30
0.0
 10
4.5814810241
 20
4.777067528
 30
0.0
 10
4.5723775498
 20
4.7749905976
 30
0.0
 10
4.5610108343
 20
4.7729431971
 30
0.0
 10
4.5491740102
 20
4.771329773
 30
0.0
 10
4.5369806545
 20
4.7701659861
 30
0.0
 10
4.5245475697
 20
4.7694631559
 30
0.0
 10
4.5119940346
 20
4.7692281168
 30
0.0
 10
4.4994404996
 20
4.7694631556
 30
0.0
 10
4.4870074148
 20
4.7701659855
 30
0.0
 10
4.474814059
 20
4.771329772
 30
0.0
 10
4.4629772349
 20
4.7729431958
 30
0.0
 10
4.4516105194
 20
4.774990596
 30
0.0
 10
4.4425070449
 20
4.7770675262
 30
0.0
 10
4.4355506745
 20
4.7789396108
 30
0.0
 10
4.4305839667
 20
4.7804206804
 30
0.0
 10
4.4258130389
 20
4.7819930419
 30
0.0
 10
4.4212492995
 20
4.7836529466
 30
0.0
 10
4.4169036748
 20
4.7853964037
 30
0.0
 10
4.4127865462
 20
4.7872192426
 30
0.0
 10
4.4089077323
 20
4.7891171162
 30
0.0
 10
4.4052764632
 20
4.7910855219
 30
0.0
 10
4.4019013591
 20
4.7931198221
 30
0.0
 10
4.3987904162
 20
4.795215267
 30
0.0
 10
4.3959509927
 20
4.7973670299
 30
0.0
 10
4.3933898292
 20
4.7995702124
 30
0.0
 10
4.3911130125
 20
4.8018199586
 30
0.0
 10
4.3891262097
 20
4.8041111753
 30
0.0
 10
4.3876985217
 20
4.8060756675
 30
0.0
 10
4.3867133609
 20
4.8076610508
 30
0.0
 10
4.3858507717
 20
4.8092180686
 30
0.0
 10
4.3849534726
 20
4.8111850285
 30
0.0
 10
4.3841727295
 20
4.8135918494
 30
0.0
 10
4.3837027819
 20
4.8160127933
 30
0.0
 10
4.3835979404
 20
4.8176364342
 30
0.0
 10
4.3835979404
 20
4.8184417343
 30
0.0
  0
SPLINE
  5
293
100
AcDbEntity
  8
0
100
AcDbSpline
 62
7
  6
CONTINUOUS
 70
0
 71
3
 72
13
 73
9
 74
0
 42
0.0000001
 43
0.0000001
 44
0.0000000001
 40
0.0
 40
0.0
 40
0.0
 40
0.0
 40
0.1200629728
 40
0.2406233392
 40
0.3621599434
 40
0.4851480826
 40
0.7371330849
 40
1.0
 40
1.0
 40
1.0
 40
1.0
 10
4.7144161747
 20
4.6843261175
 30
0.0
 10
4.7144161747
 20
4.685013378
 30
0.0
 10
4.7143681751
 20
4.686391225
 30
0.0
 10
4.7141524592
 20
4.6884545954
 30
0.0
 10
4.7137931052
 20
4.6905149713
 30
0.0
 10
4.7131177321
 20
4.6932775585
 30
0.0
 10
4.7119013344
 20
4.696731091
 30
0.0
 10
4.7105889016
 20
4.6993781394
 30
0.0
 10
4.7098490208
 20
4.7006883609
 30
0.0
  0
SPLINE
  5
294
100
AcDbEntity
  8
0
100
AcDbSpline
 62
7
  6
CONTINUOUS
 70
0
 71
3
 72
66
 73
62
 74
0
 42
0.0000001
 43
0.0000001
 44
0.0000000001
 40
0.0
 40
0.0
 40
0.0
 40
0.0
 40
0.0041265537
 40
0.008267833
 40
0.0124379643
 40
0.0166510199
 40
0.0252554825
 40
0.0341846745
 40
0.0388000405
 40
0.0435276429
 40
0.0533500844
 40
0.063712217
 40
0.0746580176
 40
0.0862195862
 40
0.0984186523
 40
0.1112679923
 40
0.1247726853
 40
0.1389311862
 40
0.1537362253
 40
0.1691755582
 40
0.1852325933
 40
0.2018869153
 40
0.2191147285
 40
0.2368892345
 40
0.2551809602
 40
0.2739580447
 40
0.2931864978
 40
0.3128304341
 40
0.332852287
 40
0.3738700326
 40
0.4159152754
 40
0.458645993
 40
0.5017103626
 40
0.5447518607
 40
0.5874142848
 40
0.6293467796
 40
0.6702089552
 40
0.6901376815
 40
0.709678721
 40
0.728794918
 40
0.7474508517
 40
0.7656130541
 40
0.7832502497
 40
0.8003336218
 40
0.816837108
 40
0.8327377401
 40
0.8480160373
 40
0.8626564677
 40
0.8766479966
 40
0.8899847433
 40
0.902666767
 40
0.9147010087
 40
0.9261024114
 40
0.9368952203
 40
0.9471144332
 40
0.9568073057
 40
0.9660347044
 40
0.9748719619
 40
0.983408758
 40
0.9917475151
 40
1.0
 40
1.0
 40
1.0
 40
1.0
 10
4.7144161747
 20
4.6843261175
 30
0.0
 10
4.7144161747
 20
4.6836895722
 30
0.0
 10
4.7143750183
 20
4.6824138288
 30
0.0
 10
4.714190035
 20
4.6805028986
 30
0.0
 10
4.7138818433
 20
4.6785943077
 30
0.0
 10
4.7133031569
 20
4.6760370776
 30
0.0
 10
4.712261717
 20
4.6728392679
 30
0.0
 10
4.7108357976
 20
4.6697265772
 30
0.0
 10
4.7094651037
 20
4.6672625863
 30
0.0
 10
4.7078994354
 20
4.6647535086
 30
0.0
 10
4.7056305342
 20
4.6616447138
 30
0.0
 10
4.7024734517
 20
4.6580196058
 30
0.0
 10
4.6988557216
 20
4.6544606434
 30
0.0
 10
4.6947864136
 20
4.650975949
 30
0.0
 10
4.6902752725
 20
4.6475732637
 30
0.0
 10
4.6853330901
 20
4.6442603977
 30
0.0
 10
4.6799716485
 20
4.6410450453
 30
0.0
 10
4.6742037505
 20
4.6379347763
 30
0.0
 10
4.6680431988
 20
4.6349369794
 30
0.0
 10
4.661504772
 20
4.6320588251
 30
0.0
 10
4.6546041892
 20
4.6293072328
 30
0.0
 10
4.6473580709
 20
4.6266888415
 30
0.0
 10
4.6397838966
 20
4.6242099854
 30
0.0
 10
4.6318999595
 20
4.6218766725
 30
0.0
 10
4.623725321
 20
4.6196945665
 30
0.0
 10
4.6152797581
 20
4.6176689659
 30
0.0
 10
4.6065837288
 20
4.6158048022
 30
0.0
 10
4.5976582592
 20
4.6141065785
 30
0.0
 10
4.5853821272
 20
4.6120526992
 30
0.0
 10
4.5696169033
 20
4.6099373126
 30
0.0
 10
4.5502915204
 20
4.6081344491
 30
0.0
 10
4.5305955565
 20
4.6070649299
 30
0.0
 10
4.5107197305
 20
4.6067392158
 30
0.0
 10
4.4908562309
 20
4.6071605124
 30
0.0
 10
4.4711971204
 20
4.6083246769
 30
0.0
 10
4.4519327554
 20
4.6102203207
 30
0.0
 10
4.4362341766
 20
4.6124119198
 30
0.0
 10
4.4240232011
 20
4.614525467
 30
0.0
 10
4.4151544482
 20
4.6162666071
 30
0.0
 10
4.4065205864
 20
4.618172563
 30
0.0
 10
4.3981424888
 20
4.6202387317
 30
0.0
 10
4.3900404471
 20
4.6224600833
 30
0.0
 10
4.3822340591
 20
4.6248312255
 30
0.0
 10
4.3747421941
 20
4.6273464042
 30
0.0
 10
4.3675829414
 20
4.6299995263
 30
0.0
 10
4.3607735644
 20
4.6327841771
 30
0.0
 10
4.3543304568
 20
4.6356936432
 30
0.0
 10
4.3482691002
 20
4.6387209382
 30
0.0
 10
4.3426040267
 20
4.6418588323
 30
0.0
 10
4.3373487847
 20
4.6450998865
 30
0.0
 10
4.3325159167
 20
4.6484364942
 30
0.0
 10
4.328116949
 20
4.6518609277
 30
0.0
 10
4.3241624029
 20
4.6553653875
 30
0.0
 10
4.3206618351
 20
4.6589420439
 30
0.0
 10
4.3176239151
 20
4.6625830608
 30
0.0
 10
4.3150565373
 20
4.6662805497
 30
0.0
 10
4.3129669423
 20
4.6700264706
 30
0.0
 10
4.3113617687
 20
4.6738122656
 30
0.0
 10
4.3102469338
 20
4.6776288926
 30
0.0
 10
4.3096271784
 20
4.6814651674
 30
0.0
 10
4.3095460615
 20
4.6840315866
 30
0.0
 10
4.3095880298
 20
4.6853038892
 30
0.0
  0
SPLINE
  5
295
100
AcDbEntity
  8
0
100
AcDbSpline
 62
7
  6
CONTINUOUS
 70
0
 71
3
 72
12
 73
8
 74
0
 42
0.0000001
 43
0.0000001
 44
0.0000000001
 40
0.0
 40
0.0
 40
0.0
 40
0.0
 40
0.1200778824
 40
0.2406555849
 40
0.4850769331
 40
0.737096837
 40
1.0
 40
1.0
 40
1.0
 40
1.0
 10
4.3835979404
 20
4.8184417343
 30
0.0
 10
4.3835979404
 20
4.8188776567
 30
0.0
 10
4.3836284043
 20
4.819751652
 30
0.0
 10
4.3838115282
 20
4.8215042121
 30
0.0
 10
4.3842747374
 20
4.8237034648
 30
0.0
 10
4.3851930804
 20
4.8263099482
 30
0.0
 10
4.3860255722
 20
4.8279892033
 30
0.0
 10
4.3864948769
 20
4.8288202754
 30
0.0
  0
SPLINE
  5
296
100
AcDbEntity
  8
0
100
AcDbSpline
 62
7
  6
CONTINUOUS
 70
0
 71
3
 72
22
 73
18
 74
0
 42
0.0000001
 43
0.0000001
 44
0.0000000001
 40
0.0
 40
0.0
 40
0.0
 40
0.0
 40
0.0221765079
 40
0.0472237845
 40
0.0771157039
 40
0.112887673
 40
0.1550506519
 40
0.2037861041
 40
0.2590726361
 40
0.3207499112
 40
0.3885636577
 40
0.4621855827
 40
0.6251898356
 40
0.7136234845
 40
0.8059559263
 40
0.9016172585
 40
1.0
 40
1.0
 40
1.0
 40
1.0
 10
5.8830471153
 20
4.8610405825
 30
0.0
 10
5.8830551404
 20
4.861081752
 30
0.0
 10
5.8830905568
 20
4.8611664389
 30
0.0
 10
5.8831904985
 20
4.8612753184
 30
0.0
 10
5.8833339665
 20
4.8613713851
 30
0.0
 10
5.8835205021
 20
4.8614554204
 30
0.0
 10
5.8837493755
 20
4.8615275728
 30
0.0
 10
5.884019577
 20
4.8615874455
 30
0.0
 10
5.8843295791
 20
4.8616346967
 30
0.0
 10
5.8846775159
 20
4.861668938
 30
0.0
 10
5.8850611989
 20
4.8616900566
 30
0.0
 10
5.8856369944
 20
4.8617012494
 30
0.0
 10
5.8862519469
 20
4.8616850464
 30
0.0
 10
5.8869009868
 20
4.8616457816
 30
0.0
 10
5.8874220625
 20
4.8616023014
 30
0.0
 10
5.8879607236
 20
4.8615452182
 30
0.0
 10
5.8883248845
 20
4.8614991407
 30
0.0
 10
5.888509075
 20
4.861472691
 30
0.0
  0
SPLINE
  5
297
100
AcDbEntity
  8
0
100
AcDbSpline
 62
7
  6
CONTINUOUS
 70
0
 71
3
 72
66
 73
62
 74
0
 42
0.0000001
 43
0.0000001
 44
0.0000000001
 40
0.0
 40
0.0
 40
0.0
 40
0.0
 40
0.0116299423
 40
0.0226421447
 40
0.0330671482
 40
0.0380733181
 40
0.042949587
 40
0.0523397399
 40
0.0613094544
 40
0.0699425866
 40
0.0783365084
 40
0.0865994419
 40
0.0948460507
 40
0.1031918281
 40
0.1117473207
 40
0.1206132993
 40
0.1298775847
 40
0.1346839596
 40
0.1396162208
 40
0.14988316
 40
0.1607266826
 40
0.1721804441
 40
0.1842675563
 40
0.1970020162
 40
0.2103899813
 40
0.2244308607
 40
0.2391182371
 40
0.254440637
 40
0.27038217
 40
0.2869230637
 40
0.304040114
 40
0.3217070693
 40
0.339894967
 40
0.3585724255
 40
0.3777059046
 40
0.3972599399
 40
0.4171973575
 40
0.4374794767
 40
0.4789145458
 40
0.5212347975
 40
0.5640947215
 40
0.607141168
 40
0.6500183732
 40
0.6923729449
 40
0.7338588832
 40
0.7541724144
 40
0.7741450793
 40
0.7937380615
 40
0.8129140321
 40
0.83163735
 40
0.8498742781
 40
0.8675932143
 40
0.8847649487
 40
0.9013629527
 40
0.9173637084
 40
0.9327470909
 40
0.9474968107
 40
0.9616009389
 40
0.9750525354
 40
0.9878504041
 40
1.0
 40
1.0
 40
1.0
 40
1.0
 10
4.3040217381
 20
4.6874044628
 30
0.0
 10
4.3024171884
 20
4.6861332528
 30
0.0
 10
4.2993656353
 20
4.6835646498
 30
0.0
 10
4.2951742993
 20
4.6795194311
 30
0.0
 10
4.2920761899
 20
4.6760382961
 30
0.0
 10
4.2898758885
 20
4.6732199065
 30
0.0
 10
4.2879094369
 20
4.6704545567
 30
0.0
 10
4.2857735101
 20
4.6669582501
 30
0.0
 10
4.2837265895
 20
4.6626603176
 30
0.0
 10
4.2822352545
 20
4.6583230763
 30
0.0
 10
4.2813056212
 20
4.6539579716
 30
0.0
 10
4.2809419355
 20
4.6495774826
 30
0.0
 10
4.2811460246
 20
4.6451950697
 30
0.0
 10
4.2819168502
 20
4.6408243251
 30
0.0
 10
4.2832507889
 20
4.6364780432
 30
0.0
 10
4.2851421306
 20
4.6321680383
 30
0.0
 10
4.2871524421
 20
4.6286582977
 30
0.0
 10
4.2890193379
 20
4.6258817536
 30
0.0
 10
4.291117285
 20
4.6230521793
 30
0.0
 10
4.2940893744
 20
4.619554612
 30
0.0
 10
4.298134788
 20
4.6154868138
 30
0.0
 10
4.3026960824
 20
4.6115019478
 30
0.0
 10
4.3077620617
 20
4.6076091798
 30
0.0
 10
4.3133207062
 20
4.603817298
 30
0.0
 10
4.319358771
 20
4.600135102
 30
0.0
 10
4.3258618791
 20
4.5965712178
 30
0.0
 10
4.332814506
 20
4.593134084
 30
0.0
 10
4.3402000171
 20
4.5898318958
 30
0.0
 10
4.348000703
 20
4.5866725691
 30
0.0
 10
4.3561978232
 20
4.5836637066
 30
0.0
 10
4.3647716527
 20
4.5808125683
 30
0.0
 10
4.3737015331
 20
4.5781260462
 30
0.0
 10
4.3829659262
 20
4.5756106439
 30
0.0
 10
4.3925424685
 20
4.5732724579
 30
0.0
 10
4.4024080317
 20
4.5711171571
 30
0.0
 10
4.4125387625
 20
4.5691499797
 30
0.0
 10
4.4229102123
 20
4.5673756681
 30
0.0
 10
4.4371269868
 20
4.5652579508
 30
0.0
 10
4.4553211264
 20
4.5631307958
 30
0.0
 10
4.4775474243
 20
4.5614200169
 30
0.0
 10
4.5001063603
 20
4.5605500402
 30
0.0
 10
4.5227799403
 20
4.5605293524
 30
0.0
 10
4.5453495086
 20
4.5613581576
 30
0.0
 10
4.567596967
 20
4.5630283694
 30
0.0
 10
4.5858156201
 20
4.5651221028
 30
0.0
 10
4.6000571868
 20
4.5672135541
 30
0.0
 10
4.6104507168
 20
4.5689688672
 30
0.0
 10
4.6206059425
 20
4.5709174858
 30
0.0
 10
4.6304983556
 20
4.5730547119
 30
0.0
 10
4.6401040362
 20
4.5753753519
 30
0.0
 10
4.6493997845
 20
4.5778737788
 30
0.0
 10
4.6583631598
 20
4.5805439367
 30
0.0
 10
4.6669725416
 20
4.5833793607
 30
0.0
 10
4.6752071834
 20
4.586373195
 30
0.0
 10
4.6830472673
 20
4.5895182159
 30
0.0
 10
4.6904739528
 20
4.5928068509
 30
0.0
 10
4.6974694353
 20
4.5962312188
 30
0.0
 10
4.7040169499
 20
4.5997831301
 30
0.0
 10
4.7101009479
 20
4.6034542359
 30
0.0
 10
4.7157066449
 20
4.6072356898
 30
0.0
 10
4.7192063935
 20
4.6098930308
 30
0.0
 10
4.7208674375
 20
4.611240006
 30
0.0
  0
SPLINE
  5
298
100
AcDbEntity
  8
0
100
AcDbSpline
 62
7
  6
CONTINUOUS
 70
0
 71
3
 72
18
 73
14
 74
0
 42
0.0000001
 43
0.0000001
 44
0.0000000001
 40
0.0
 40
0.0
 40
0.0
 40
0.0
 40
0.053666648
 40
0.1075811612
 40
0.1619832077
 40
0.2171084883
 40
0.2731798393
 40
0.3304061552
 40
0.4490259758
 40
0.5743668332
 40
0.7074859896
 40
0.8491771267
 40
1.0
 40
1.0
 40
1.0
 40
1.0
 10
4.7429575561
 20
4.6489611122
 30
0.0
 10
4.7429575563
 20
4.6497901367
 30
0.0
 10
4.7428963252
 20
4.6514526569
 30
0.0
 10
4.7426211293
 20
4.6539418578
 30
0.0
 10
4.7421627715
 20
4.6564269228
 30
0.0
 10
4.7415217578
 20
4.6589055357
 30
0.0
 10
4.7406986779
 20
4.6613757832
 30
0.0
 10
4.7393437142
 20
4.6646946311
 30
0.0
 10
4.7371748688
 20
4.6688249555
 30
0.0
 10
4.7338915487
 20
4.6736494564
 30
0.0
 10
4.7299089582
 20
4.6783892998
 30
0.0
 10
4.7252413554
 20
4.6830306308
 30
0.0
 10
4.7217925297
 20
4.6859576578
 30
0.0
 10
4.7199663332
 20
4.6874044682
 30
0.0
  0
SPLINE
  5
299
100
AcDbEntity
  8
0
100
AcDbSpline
 62
7
  6
CONTINUOUS
 70
0
 71
3
 72
12
 73
8
 74
0
 42
0.0000001
 43
0.0000001
 44
0.0000000001
 40
0.0
 40
0.0
 40
0.0
 40
0.0
 40
0.262903163
 40
0.5149230669
 40
0.7593444151
 40
0.8799221176
 40
1.0
 40
1.0
 40
1.0
 40
1.0
 10
4.6374931908
 20
4.8288202787
 30
0.0
 10
4.6379624956
 20
4.8279892066
 30
0.0
 10
4.6387949873
 20
4.8263099515
 30
0.0
 10
4.6397133305
 20
4.8237034681
 30
0.0
 10
4.6401765397
 20
4.8215042154
 30
0.0
 10
4.6403596636
 20
4.8197516553
 30
0.0
 10
4.6403901276
 20
4.81887766
 30
0.0
 10
4.6403901276
 20
4.8184417376
 30
0.0
  0
LINE
  5
29A
100
AcDbEntity
  8
0
100
AcDbLine
 62
7
  6
CONTINUOUS
 10
5.8858442694
 20
4.7670325181
 11
5.888509075
 21
4.7710206712
  0
SPLINE
  5
29B
100
AcDbEntity
  8
0
100
AcDbSpline
 62
7
  6
CONTINUOUS
 70
0
 71
3
 72
16
 73
12
 74
0
 42
0.0000001
 43
0.0000001
 44
0.0000000001
 40
0.0
 40
0.0
 40
0.0
 40
0.0
 40
0.1287515582
 40
0.2564633831
 40
0.3828935898
 40
0.5081104558
 40
0.6320741541
 40
0.7550753963
 40
0.8774259047
 40
0.9386520679
 40
1.0
 40
1.0
 40
1.0
 40
1.0
 10
5.8653401344
 20
4.9371709123
 30
0.0
 10
5.8653401307
 20
4.9375987493
 30
0.0
 10
5.8652744225
 20
4.9384524951
 30
0.0
 10
5.8649790229
 20
4.9396952535
 30
0.0
 10
5.8644941642
 20
4.9408649637
 30
0.0
 10
5.8638290395
 20
4.9419281516
 30
0.0
 10
5.8629974254
 20
4.9428525271
 30
0.0
 10
5.8620172973
 20
4.9436029945
 30
0.0
 10
5.8610954391
 20
4.9440548947
 30
0.0
 10
5.8603157073
 20
4.9442926856
 30
0.0
 10
5.8599142911
 20
4.9443677167
 30
0.0
 10
5.8597121045
 20
4.9443937605
 30
0.0
  0
SPLINE
  5
29C
100
AcDbEntity
  8
0
100
AcDbSpline
 62
7
  6
CONTINUOUS
 70
0
 71
3
 72
28
 73
24
 74
0
 42
0.0000001
 43
0.0000001
 44
0.0000000001
 40
0.0
 40
0.0
 40
0.0
 40
0.0
 40
0.0311969289
 40
0.062394432
 40
0.0935930778
 40
0.1247934241
 40
0.1871824379
 40
0.2495844466
 40
0.2808009042
 40
0.3120218871
 40
0.37445987
 40
0.4369194446
 40
0.4994019327
 40
0.5619077746
 40
0.6244365132
 40
0.6869868122
 40
0.718278783
 40
0.7495752684
 40
0.8121614566
 40
0.8747605992
 40
0.9060731466
 40
0.9373873883
 40
1.0
 40
1.0
 40
1.0
 40
1.0
 10
5.311852358
 20
3.2697185713
 30
0.0
 10
5.3118523668
 20
3.2681015716
 30
0.0
 10
5.3117726796
 20
3.2648669703
 30
0.0
 10
5.3114143374
 20
3.2600272566
 30
0.0
 10
5.3108180046
 20
3.255210661
 30
0.0
 10
5.3097078219
 20
3.2488364306
 30
0.0
 10
5.3077329347
 20
3.2409815802
 30
0.0
 10
5.3049946427
 20
3.2333584154
 30
0.0
 10
5.3023630932
 20
3.227444502
 30
0.0
 10
5.2994431682
 20
3.2216654932
 30
0.0
 10
5.2952641008
 20
3.2147196491
 30
0.0
 10
5.2894549632
 20
3.2069171023
 30
0.0
 10
5.2829059317
 20
3.1997190219
 30
0.0
 10
5.2756802043
 20
3.1931951845
 30
0.0
 10
5.2678478423
 20
3.1874085074
 30
0.0
 10
5.2608767108
 20
3.1832463388
 30
0.0
 10
5.2550765971
 20
3.1803380243
 30
0.0
 10
5.2491393936
 20
3.1777161894
 30
0.0
 10
5.2414864986
 20
3.1749882691
 30
0.0
 10
5.2336028686
 20
3.173021271
 30
0.0
 10
5.2272046553
 20
3.1719153966
 30
0.0
 10
5.2207598864
 20
3.1711234154
 30
0.0
 10
5.2158870744
 20
3.170884939
 30
0.0
 10
5.2126417365
 20
3.170884939
 30
0.0
  0
SPLINE
  5
29D
100
AcDbEntity
  8
0
100
AcDbSpline
 62
7
  6
CONTINUOUS
 70
0
 71
3
 72
28
 73
24
 74
0
 42
0.0000001
 43
0.0000001
 44
0.0000000001
 40
0.0
 40
0.0
 40
0.0
 40
0.0
 40
0.0311969287
 40
0.0623944316
 40
0.0935930775
 40
0.1247934237
 40
0.1871824376
 40
0.2495844467
 40
0.2808009044
 40
0.3120218875
 40
0.3744598707
 40
0.4369194457
 40
0.4994019341
 40
0.5619077763
 40
0.6244365149
 40
0.686986814
 40
0.7182787847
 40
0.7495752699
 40
0.8121614579
 40
0.8747606001
 40
0.9060731473
 40
0.9373873887
 40
1.0
 40
1.0
 40
1.0
 40
1.0
 10
5.1134311151
 20
3.257191563
 30
0.0
 10
5.1134311151
 20
3.2555745689
 30
0.0
 10
5.1135108194
 20
3.2523399793
 30
0.0
 10
5.1138691855
 20
3.2475002841
 30
0.0
 10
5.1144655405
 20
3.2426837082
 30
0.0
 10
5.1155757503
 20
3.2363095051
 30
0.0
 10
5.1175506668
 20
3.2284546911
 30
0.0
 10
5.1202889818
 20
3.2208315643
 30
0.0
 10
5.1229205459
 20
3.2149176818
 30
0.0
 10
5.125840483
 20
3.2091387041
 30
0.0
 10
5.1300195608
 20
3.202192899
 30
0.0
 10
5.1358287035
 20
3.194390398
 30
0.0
 10
5.1423777331
 20
3.1871923614
 30
0.0
 10
5.1496034521
 20
3.1806685649
 30
0.0
 10
5.1574357998
 20
3.1748819251
 30
0.0
 10
5.1644069149
 20
3.1707197839
 30
0.0
 10
5.1702070133
 20
3.1678114888
 30
0.0
 10
5.1761442
 20
3.1651896716
 30
0.0
 10
5.1837970717
 20
3.1624617698
 30
0.0
 10
5.1916806761
 20
3.1604947851
 30
0.0
 10
5.1980788678
 20
3.1593889184
 30
0.0
 10
5.2045236148
 20
3.1585969427
 30
0.0
 10
5.2093964099
 20
3.1583584679
 30
0.0
 10
5.2126417365
 20
3.1583584679
 30
0.0
  0
SPLINE
  5
29E
100
AcDbEntity
  8
0
100
AcDbSpline
 62
7
  6
CONTINUOUS
 70
0
 71
3
 72
25
 73
21
 74
0
 42
0.0000001
 43
0.0000001
 44
0.0000000001
 40
0.0
 40
0.0
 40
0.0
 40
0.0
 40
0.0613765421
 40
0.0920884193
 40
0.1228165546
 40
0.1843222927
 40
0.2459520031
 40
0.2768337902
 40
0.3077586135
 40
0.3697303616
 40
0.4319065915
 40
0.4942991648
 40
0.5569115479
 40
0.6197387743
 40
0.6827677037
 40
0.7459776164
 40
0.8093410337
 40
0.8728247809
 40
0.9363910625
 40
1.0
 40
1.0
 40
1.0
 40
1.0
 10
4.0488794884
 20
4.7667466811
 30
0.0
 10
4.0473172071
 20
4.7667466811
 30
0.0
 10
4.0449708995
 20
4.7668662137
 30
0.0
 10
4.0418690272
 20
4.7672628815
 30
0.0
 10
4.038787767
 20
4.7678170654
 30
0.0
 10
4.0349901887
 20
4.7688033367
 30
0.0
 10
4.0313080478
 20
4.7701695656
 30
0.0
 10
4.0284520485
 20
4.7714819708
 30
0.0
 10
4.0256577591
 20
4.7729399827
 30
0.0
 10
4.0222991616
 20
4.775027288
 30
0.0
 10
4.0185292364
 20
4.7779265002
 30
0.0
 10
4.0150516725
 20
4.781194698
 30
0.0
 10
4.0119001553
 20
4.7848001896
 30
0.0
 10
4.0091048969
 20
4.7887082524
 30
0.0
 10
4.0066927342
 20
4.7928812033
 30
0.0
 10
4.0046868104
 20
4.797278877
 30
0.0
 10
4.0031063569
 20
4.8018589048
 30
0.0
 10
4.0019665185
 20
4.806577375
 30
0.0
 10
4.0012782182
 20
4.8113883565
 30
0.0
 10
4.0011247891
 20
4.8146275763
 30
0.0
 10
4.0011247891
 20
4.8162466811
 30
0.0
  0
SPLINE
  5
29F
100
AcDbEntity
  8
0
100
AcDbSpline
 62
7
  6
CONTINUOUS
 70
0
 71
3
 72
25
 73
21
 74
0
 42
0.0000001
 43
0.0000001
 44
0.0000000001
 40
0.0
 40
0.0
 40
0.0
 40
0.0
 40
0.0613765421
 40
0.0920884193
 40
0.1228165546
 40
0.1843222927
 40
0.2459520031
 40
0.2768337902
 40
0.3077586135
 40
0.3697303616
 40
0.4319065915
 40
0.4942991648
 40
0.5569115479
 40
0.6197387743
 40
0.6827677037
 40
0.7459776164
 40
0.8093410337
 40
0.8728247809
 40
0.9363910625
 40
1.0
 40
1.0
 40
1.0
 40
1.0
 10
4.1363354539
 20
4.7667466811
 30
0.0
 10
4.1347731726
 20
4.7667466811
 30
0.0
 10
4.1324268649
 20
4.7668662137
 30
0.0
 10
4.1293249926
 20
4.7672628815
 30
0.0
 10
4.1262437325
 20
4.7678170654
 30
0.0
 10
4.1224461541
 20
4.7688033367
 30
0.0
 10
4.1187640132
 20
4.7701695656
 30
0.0
 10
4.1159080139
 20
4.7714819708
 30
0.0
 10
4.1131137245
 20
4.7729399827
 30
0.0
 10
4.109755127
 20
4.775027288
 30
0.0
 10
4.1059852018
 20
4.7779265002
 30
0.0
 10
4.102507638
 20
4.781194698
 30
0.0
 10
4.0993561207
 20
4.7848001896
 30
0.0
 10
4.0965608623
 20
4.7887082524
 30
0.0
 10
4.0941486996
 20
4.7928812033
 30
0.0
 10
4.0921427759
 20
4.797278877
 30
0.0
 10
4.0905623223
 20
4.8018589048
 30
0.0
 10
4.0894224839
 20
4.806577375
 30
0.0
 10
4.0887341836
 20
4.8113883565
 30
0.0
 10
4.0885807545
 20
4.8146275763
 30
0.0
 10
4.0885807545
 20
4.8162466811
 30
0.0
  0
SPLINE
  5
2A0
100
AcDbEntity
  8
0
100
AcDbSpline
 62
7
  6
CONTINUOUS
 70
0
 71
3
 72
25
 73
21
 74
0
 42
0.0000001
 43
0.0000001
 44
0.0000000001
 40
0.0
 40
0.0
 40
0.0
 40
0.0
 40
0.0621714432
 40
0.0932706686
 40
0.1243745827
 40
0.1865832879
 40
0.2488277988
 40
0.3111178572
 40
0.3734614262
 40
0.4358644031
 40
0.4983303832
 40
0.5608605357
 40
0.6234535655
 40
0.686105763
 40
0.7488111671
 40
0.811561782
 40
0.8743478791
 40
0.9057602001
 40
0.9371767352
 40
1.0
 40
1.0
 40
1.0
 40
1.0
 10
4.1864879523
 20
4.7667466811
 30
0.0
 10
4.1848855529
 20
4.7667466811
 30
0.0
 10
4.1824793769
 20
4.7668661535
 30
0.0
 10
4.1792974524
 20
4.767262816
 30
0.0
 10
4.1761378898
 20
4.7678167835
 30
0.0
 10
4.1722442776
 20
4.7688024037
 30
0.0
 10
4.1677107995
 20
4.7704417933
 30
0.0
 10
4.1633580242
 20
4.7725223793
 30
0.0
 10
4.1592281603
 20
4.7750240566
 30
0.0
 10
4.155360897
 20
4.7779227065
 30
0.0
 10
4.1517934988
 20
4.7811903978
 30
0.0
 10
4.1485602853
 20
4.7847956232
 30
0.0
 10
4.1456923866
 20
4.788703665
 30
0.0
 10
4.1432173852
 20
4.792876848
 30
0.0
 10
4.1411590866
 20
4.7972750604
 30
0.0
 10
4.139537327
 20
4.8018556786
 30
0.0
 10
4.1385625446
 20
4.8057887821
 30
0.0
 10
4.1380145169
 20
4.80898081
 30
0.0
 10
4.1376219867
 20
4.8121963937
 30
0.0
 10
4.1375038101
 20
4.8146274817
 30
0.0
 10
4.1375038101
 20
4.8162466811
 30
0.0
  0
SPLINE
  5
2A1
100
AcDbEntity
  8
0
100
AcDbSpline
 62
7
  6
CONTINUOUS
 70
0
 71
3
 72
25
 73
21
 74
0
 42
0.0000001
 43
0.0000001
 44
0.0000000001
 40
0.0
 40
0.0
 40
0.0
 40
0.0
 40
0.0621489358
 40
0.0932371904
 40
0.1243304584
 40
0.1865192362
 40
0.2487462976
 40
0.3110220563
 40
0.3733550236
 40
0.4357515002
 40
0.4982153262
 40
0.5607477466
 40
0.6233473729
 40
0.6860102366
 40
0.748729963
 40
0.8114980047
 40
0.8743039647
 40
0.905726887
 40
0.9371543415
 40
1.0
 40
1.0
 40
1.0
 40
1.0
 10
4.2301334327
 20
4.7667466811
 30
0.0
 10
4.2285321773
 20
4.7667466811
 30
0.0
 10
4.2261277089
 20
4.7668661537
 30
0.0
 10
4.2229480663
 20
4.7672628118
 30
0.0
 10
4.2197907357
 20
4.7678167788
 30
0.0
 10
4.2158998541
 20
4.7688024082
 30
0.0
 10
4.2113695913
 20
4.7704418006
 30
0.0
 10
4.2070199039
 20
4.7725223897
 30
0.0
 10
4.2028929712
 20
4.7750240698
 30
0.0
 10
4.1990284537
 20
4.777922722
 30
0.0
 10
4.1954635895
 20
4.7811904149
 30
0.0
 10
4.1922326734
 20
4.784795641
 30
0.0
 10
4.1893668134
 20
4.7887036824
 30
0.0
 10
4.1868935717
 20
4.7928768642
 30
0.0
 10
4.1848367369
 20
4.7972750743
 30
0.0
 10
4.1832161308
 20
4.8018556899
 30
0.0
 10
4.1822420489
 20
4.8057887616
 30
0.0
 10
4.1816944095
 20
4.8089807797
 30
0.0
 10
4.1813021535
 20
4.8121963867
 30
0.0
 10
4.1811840609
 20
4.8146274748
 30
0.0
 10
4.1811840609
 20
4.8162466811
 30
0.0
  0
SPLINE
  5
2A2
100
AcDbEntity
  8
0
100
AcDbSpline
 62
7
  6
CONTINUOUS
 70
0
 71
3
 72
25
 73
21
 74
0
 42
0.0000001
 43
0.0000001
 44
0.0000000001
 40
0.0
 40
0.0
 40
0.0
 40
0.0
 40
0.062192125
 40
0.0933009739
 40
0.1244146361
 40
0.186641404
 40
0.2489017404
 40
0.3112047545
 40
0.3735579161
 40
0.4359667635
 40
0.4984346766
 40
0.5609627575
 40
0.6235497945
 40
0.6861923129
 40
0.7488847296
 40
0.8116195498
 40
0.8743876502
 40
0.9057903707
 40
0.9371970174
 40
1.0
 40
1.0
 40
1.0
 40
1.0
 10
4.3386510279
 20
4.7667466811
 30
0.0
 10
4.3370474929
 20
4.7667466811
 30
0.0
 10
4.3346396334
 20
4.7668661351
 30
0.0
 10
4.3314554506
 20
4.7672627649
 30
0.0
 10
4.3282936741
 20
4.7678166674
 30
0.0
 10
4.3243973247
 20
4.7688021783
 30
0.0
 10
4.3198605859
 20
4.7704414077
 30
0.0
 10
4.3155046269
 20
4.7725218171
 30
0.0
 10
4.3113716832
 20
4.7750233177
 30
0.0
 10
4.3075014742
 20
4.7779218091
 30
0.0
 10
4.3039312983
 20
4.7811893771
 30
0.0
 10
4.3006955117
 20
4.7847945287
 30
0.0
 10
4.2978252825
 20
4.7887025561
 30
0.0
 10
4.2953482308
 20
4.7928757898
 30
0.0
 10
4.2932881979
 20
4.7972741179
 30
0.0
 10
4.2916650525
 20
4.8018549115
 30
0.0
 10
4.2906894214
 20
4.8057882296
 30
0.0
 10
4.2901409195
 20
4.8089804321
 30
0.0
 10
4.289748052
 20
4.8121961693
 30
0.0
 10
4.2896297721
 20
4.814627396
 30
0.0
 10
4.2896297721
 20
4.8162466811
 30
0.0
  0
SPLINE
  5
2A3
100
AcDbEntity
  8
0
100
AcDbSpline
 62
7
  6
CONTINUOUS
 70
0
 71
3
 72
21
 73
17
 74
0
 42
0.0000001
 43
0.0000001
 44
0.0000000001
 40
0.0
 40
0.0
 40
0.0
 40
0.0
 40
0.0626048382
 40
0.1252041108
 40
0.1877968934
 40
0.250380567
 40
0.3129528557
 40
0.3755117722
 40
0.5004948559
 40
0.625408569
 40
0.6878823545
 40
0.7503381668
 40
0.8127766352
 40
0.8751987815
 40
0.9376059962
 40
1.0
 40
1.0
 40
1.0
 40
1.0
 10
4.380421179
 20
4.8180681977
 30
0.0
 10
4.380466694
 20
4.8193082001
 30
0.0
 10
4.3806507943
 20
4.8217856864
 30
0.0
 10
4.3812044772
 20
4.8254697933
 30
0.0
 10
4.3820325699
 20
4.8291018793
 30
0.0
 10
4.3831303239
 20
4.8326610852
 30
0.0
 10
4.3844916535
 20
4.8361275458
 30
0.0
 10
4.3866461074
 20
4.8405965163
 30
0.0
 10
4.389958152
 20
4.8458587428
 30
0.0
 10
4.3940203556
 20
4.8505639292
 30
0.0
 10
4.3976604539
 20
4.8539269566
 30
0.0
 10
4.4005726293
 20
4.8562373113
 30
0.0
 10
4.4036492819
 20
4.858321437
 30
0.0
 10
4.4068732354
 20
4.8601678248
 30
0.0
 10
4.4102259674
 20
4.8617659403
 30
0.0
 10
4.4125352278
 20
4.862660157
 30
0.0
 10
4.4137044461
 20
4.8630629637
 30
0.0
  0
SPLINE
  5
2A4
100
AcDbEntity
  8
0
100
AcDbSpline
 62
7
  6
CONTINUOUS
 70
0
 71
3
 72
25
 73
21
 74
0
 42
0.0000001
 43
0.0000001
 44
0.0000000001
 40
0.0
 40
0.0
 40
0.0
 40
0.0
 40
0.0628029826
 40
0.0942096293
 40
0.1256123498
 40
0.1883804502
 40
0.2511152704
 40
0.3138076871
 40
0.3764502055
 40
0.4390372425
 40
0.5015653234
 40
0.5640332365
 40
0.6264420839
 40
0.6887952455
 40
0.7510982596
 40
0.813358596
 40
0.8755853639
 40
0.9066990261
 40
0.937807875
 40
1.0
 40
1.0
 40
1.0
 40
1.0
 10
4.2896297721
 20
4.8162466811
 30
0.0
 10
4.2896297721
 20
4.8178659662
 30
0.0
 10
4.289748052
 20
4.8202971929
 30
0.0
 10
4.2901409195
 20
4.8235129301
 30
0.0
 10
4.2906894214
 20
4.8267051326
 30
0.0
 10
4.2916650525
 20
4.8306384507
 30
0.0
 10
4.2932881979
 20
4.8352192444
 30
0.0
 10
4.2953482308
 20
4.8396175724
 30
0.0
 10
4.2978252825
 20
4.8437908061
 30
0.0
 10
4.3006955117
 20
4.8476988335
 30
0.0
 10
4.3039312983
 20
4.8513039851
 30
0.0
 10
4.3075014742
 20
4.8545715531
 30
0.0
 10
4.3113716832
 20
4.8574700445
 30
0.0
 10
4.3155046269
 20
4.8599715451
 30
0.0
 10
4.3198605859
 20
4.8620519545
 30
0.0
 10
4.3243973247
 20
4.8636911839
 30
0.0
 10
4.3282936741
 20
4.8646766948
 30
0.0
 10
4.3314554506
 20
4.8652305973
 30
0.0
 10
4.3346396334
 20
4.8656272271
 30
0.0
 10
4.3370474929
 20
4.8657466811
 30
0.0
 10
4.3386510279
 20
4.8657466811
 30
0.0
  0
SPLINE
  5
2A5
100
AcDbEntity
  8
0
100
AcDbSpline
 62
7
  6
CONTINUOUS
 70
0
 71
3
 72
49
 73
45
 74
0
 42
0.0000001
 43
0.0000001
 44
0.0000000001
 40
0.0
 40
0.0
 40
0.0
 40
0.0
 40
0.0939090541
 40
0.1850243906
 40
0.2732551254
 40
0.3585078526
 40
0.440652914
 40
0.519516965
 40
0.5948573368
 40
0.6663359961
 40
0.7004898266
 40
0.7334908329
 40
0.765256923
 40
0.7956860425
 40
0.8246683437
 40
0.8520699405
 40
0.8777425843
 40
0.9015162468
 40
0.9232041012
 40
0.9332058508
 40
0.9426134506
 40
0.9514018889
 40
0.9595434258
 40
0.9670091583
 40
0.9737703238
 40
0.9798015687
 40
0.9850801526
 40
0.9895837801
 40
0.9915396814
 40
0.9932964353
 40
0.9948526707
 40
0.9962070167
 40
0.9973580912
 40
0.9983042261
 40
0.99869983
 40
0.9990434624
 40
0.999334876
 40
0.9995738237
 40
0.9997600578
 40
0.9998933306
 40
0.9999400289
 40
0.9999733939
 40
0.9999933946
 40
1.0
 40
1.0
 40
1.0
 40
1.0
 10
4.6083172391
 20
4.876064612
 30
0.0
 10
4.6074106924
 20
4.8778196143
 30
0.0
 10
4.6055438478
 20
4.881236417
 30
0.0
 10
4.6025573861
 20
4.8861495825
 30
0.0
 10
4.5994544171
 20
4.8907722189
 30
0.0
 10
4.5962640213
 20
4.8951024752
 30
0.0
 10
4.5930159013
 20
4.8991394661
 30
0.0
 10
4.5897416763
 20
4.9028822379
 30
0.0
 10
4.5864759406
 20
4.9063291136
 30
0.0
 10
4.5837540272
 20
4.9089916204
 30
0.0
 10
4.581613996
 20
4.9109726318
 30
0.0
 10
4.5800624591
 20
4.9123592253
 30
0.0
 10
4.5785468503
 20
4.9136679844
 30
0.0
 10
4.5770749908
 20
4.9148976673
 30
0.0
 10
4.575655336
 20
4.9160462791
 30
0.0
 10
4.5742974747
 20
4.9171118808
 30
0.0
 10
4.5730119395
 20
4.9180919056
 30
0.0
 10
4.5718102942
 20
4.9189835051
 30
0.0
 10
4.5708652556
 20
4.9196676067
 30
0.0
 10
4.5701607787
 20
4.9201686004
 30
0.0
 10
4.5696756051
 20
4.9205097787
 30
0.0
 10
4.5692208024
 20
4.9208261094
 30
0.0
 10
4.5687981539
 20
4.9211171247
 30
0.0
 10
4.5684095142
 20
4.9213823321
 30
0.0
 10
4.5680567049
 20
4.9216212906
 30
0.0
 10
4.5677413519
 20
4.9218335104
 30
0.0
 10
4.5674648952
 20
4.9220184737
 30
0.0
 10
4.5672594036
 20
4.9221553476
 30
0.0
 10
4.5671154196
 20
4.9222509338
 30
0.0
 10
4.567023014
 20
4.9223121215
 30
0.0
 10
4.5669410848
 20
4.9223662121
 30
0.0
 10
4.5668697115
 20
4.9224131681
 30
0.0
 10
4.5668089757
 20
4.922452943
 30
0.0
 10
4.5667650395
 20
4.922481563
 30
0.0
 10
4.5667353013
 20
4.9225008575
 30
0.0
 10
4.5667170974
 20
4.9225126368
 30
0.0
 10
4.5667016627
 20
4.9225226046
 30
0.0
 10
4.5666889613
 20
4.9225307739
 30
0.0
 10
4.5666791535
 20
4.9225371034
 30
0.0
 10
4.5666725146
 20
4.9225413047
 30
0.0
 10
4.5666689446
 20
4.9225436675
 30
0.0
 10
4.5666668294
 20
4.9225448979
 30
0.0
 10
4.566666372
 20
4.9225454113
 30
0.0
 10
4.5666652786
 20
4.9225458871
 30
0.0
 10
4.5666654174
 20
4.9225458937
 30
0.0
  0
SPLINE
  5
2A6
100
AcDbEntity
  8
0
100
AcDbSpline
 62
7
  6
CONTINUOUS
 70
0
 71
3
 72
39
 73
35
 74
0
 42
0.0000001
 43
0.0000001
 44
0.0000000001
 40
0.0
 40
0.0
 40
0.0
 40
0.0
 40
0.0857184815
 40
0.1707409293
 40
0.2543807945
 40
0.2954749135
 40
0.3359754115
 40
0.3758036259
 40
0.4148834151
 40
0.4531415238
 40
0.4905079618
 40
0.5269164133
 40
0.5623046859
 40
0.5966152108
 40
0.6297955912
 40
0.6617992262
 40
0.692586033
 40
0.7221232971
 40
0.7503866711
 40
0.777361355
 40
0.8030435186
 40
0.8274420092
 40
0.8505803895
 40
0.8724993048
 40
0.8932591721
 40
0.9129430591
 40
0.9224170735
 40
0.931665097
 40
0.9495500098
 40
0.9667675906
 40
0.975188613
 40
0.9835161868
 40
0.9917773601
 40
1.0
 40
1.0
 40
1.0
 40
1.0
 10
4.5119940368
 20
4.5050412344
 30
0.0
 10
4.520402678
 20
4.5050412345
 30
0.0
 10
4.5371534339
 20
4.5053531103
 30
0.0
 10
4.562073337
 20
4.5067539812
 30
0.0
 10
4.5825634574
 20
4.5086983176
 30
0.0
 10
4.5986470228
 20
4.5107172209
 30
0.0
 10
4.6104331282
 20
4.5124445097
 30
0.0
 10
4.6219849336
 20
4.5143895202
 30
0.0
 10
4.6332750202
 20
4.5165476405
 30
0.0
 10
4.6442765339
 20
4.5189137109
 30
0.0
 10
4.6549633339
 20
4.5214820881
 30
0.0
 10
4.6653100346
 20
4.5242466471
 30
0.0
 10
4.6752920742
 20
4.5272008011
 30
0.0
 10
4.6848857752
 20
4.5303375157
 30
0.0
 10
4.6940684039
 20
4.5336493318
 30
0.0
 10
4.7028182262
 20
4.5371283888
 30
0.0
 10
4.7111145623
 20
4.5407664507
 30
0.0
 10
4.7189378402
 20
4.5445549348
 30
0.0
 10
4.726269644
 20
4.548484944
 30
0.0
 10
4.7330927546
 20
4.5525473116
 30
0.0
 10
4.7393911793
 20
4.5567326436
 30
0.0
 10
4.7451501804
 20
4.561031387
 30
0.0
 10
4.7503562435
 20
4.5654338362
 30
0.0
 10
4.7549971514
 20
4.5699303602
 30
0.0
 10
4.7590615264
 20
4.5745108639
 30
0.0
 10
4.7619965871
 20
4.5784393841
 30
0.0
 10
4.7640325915
 20
4.581610941
 30
0.0
 10
4.7658224752
 20
4.5847254665
 30
0.0
 10
4.7676999428
 20
4.5886597537
 30
0.0
 10
4.7690986608
 20
4.5927047119
 30
0.0
 10
4.7698984826
 20
4.5959410662
 30
0.0
 10
4.7703400833
 20
4.5983560303
 30
0.0
 10
4.7706272744
 20
4.6007744583
 30
0.0
 10
4.7707158057
 20
4.602390327
 30
0.0
 10
4.7707341889
 20
4.6031967256
 30
0.0
  0
SPLINE
  5
2A7
100
AcDbEntity
  8
0
100
AcDbSpline
 62
7
  6
CONTINUOUS
 70
0
 71
3
 72
15
 73
11
 74
0
 42
0.0000001
 43
0.0000001
 44
0.0000000001
 40
0.0
 40
0.0
 40
0.0
 40
0.0
 40
0.1261370364
 40
0.2519994746
 40
0.3775154166
 40
0.5026470459
 40
0.6273984661
 40
0.7518150853
 40
0.8759788952
 40
1.0
 40
1.0
 40
1.0
 40
1.0
 10
5.859712157
 20
4.6880996088
 30
0.0
 10
5.860008259
 20
4.688094547
 30
0.0
 10
5.8606017727
 20
4.6881325118
 30
0.0
 10
5.861469077
 20
4.6883326148
 30
0.0
 10
5.8622903052
 20
4.6886704257
 30
0.0
 10
5.8630428429
 20
4.6891368643
 30
0.0
 10
5.8637062866
 20
4.6897192919
 30
0.0
 10
5.8642625535
 20
4.6904020099
 30
0.0
 10
5.8646963726
 20
4.6911661679
 30
0.0
 10
5.8648963189
 20
4.6917169379
 30
0.0
 10
5.8649723504
 20
4.6919980136
 30
0.0
  0
SPLINE
  5
2A8
100
AcDbEntity
  8
0
100
AcDbSpline
 62
7
  6
CONTINUOUS
 70
0
 71
3
 72
15
 73
11
 74
0
 42
0.0000001
 43
0.0000001
 44
0.0000000001
 40
0.0
 40
0.0
 40
0.0
 40
0.0
 40
0.1261372094
 40
0.2519993956
 40
0.3775152283
 40
0.5026467892
 40
0.6273980988
 40
0.7518147034
 40
0.8759786884
 40
1.0
 40
1.0
 40
1.0
 40
1.0
 10
5.8597121039
 20
4.9443937631
 30
0.0
 10
5.8600082821
 20
4.9443988236
 30
0.0
 10
5.8606019478
 20
4.9443608439
 30
0.0
 10
5.8614694658
 20
4.9441606465
 30
0.0
 10
5.8622908719
 20
4.9438226685
 30
0.0
 10
5.8630435375
 20
4.9433560043
 30
0.0
 10
5.8637070451
 20
4.942773305
 30
0.0
 10
5.8642633003
 20
4.9420902841
 30
0.0
 10
5.8646970244
 20
4.9413258107
 30
0.0
 10
5.8648968496
 20
4.9407748348
 30
0.0
 10
5.8649728065
 20
4.9404936613
 30
0.0
  0
SPLINE
  5
2A9
100
AcDbEntity
  8
0
100
AcDbSpline
 62
7
  6
CONTINUOUS
 70
0
 71
3
 72
15
 73
11
 74
0
 42
0.0000001
 43
0.0000001
 44
0.0000000001
 40
0.0
 40
0.0
 40
0.0
 40
0.0
 40
0.1237216919
 40
0.2472061745
 40
0.3709673528
 40
0.4951901776
 40
0.6200830084
 40
0.745838265
 40
0.8724959929
 40
1.0
 40
1.0
 40
1.0
 40
1.0
 10
5.8597121045
 20
4.6880996017
 30
0.0
 10
5.8600014159
 20
4.688136849
 30
0.0
 10
5.8605744305
 20
4.6882586713
 30
0.0
 10
5.8613939463
 20
4.6885732386
 30
0.0
 10
5.862159471
 20
4.689004944
 30
0.0
 10
5.862859448
 20
4.6895413533
 30
0.0
 10
5.8634849959
 20
4.6901692611
 30
0.0
 10
5.8640291182
 20
4.6908759697
 30
0.0
 10
5.8644856936
 20
4.6916490256
 30
0.0
 10
5.8647276441
 20
4.6921990107
 30
0.0
 10
5.8648327192
 20
4.692480666
 30
0.0
  0
SPLINE
  5
2AA
100
AcDbEntity
  8
0
100
AcDbSpline
 62
7
  6
CONTINUOUS
 70
0
 71
3
 72
9
 73
5
 74
0
 42
0.0000001
 43
0.0000001
 44
0.0000000001
 40
0.0
 40
0.0
 40
0.0
 40
0.0
 40
0.497657379
 40
1.0
 40
1.0
 40
1.0
 40
1.0
 10
5.8648327192
 20
4.692480666
 30
0.0
 10
5.8650007662
 20
4.6929311185
 30
0.0
 10
5.8652556912
 20
4.6938691237
 30
0.0
 10
5.8653401288
 20
4.6948371458
 30
0.0
 10
5.8653401344
 20
4.6953224499
 30
0.0
  0
SPLINE
  5
2AB
100
AcDbEntity
  8
0
100
AcDbSpline
 62
7
  6
CONTINUOUS
 70
0
 71
3
 72
15
 73
11
 74
0
 42
0.0000001
 43
0.0000001
 44
0.0000000001
 40
0.0
 40
0.0
 40
0.0
 40
0.0
 40
0.1447251129
 40
0.2764227301
 40
0.3980272924
 40
0.5133265875
 40
0.6267769576
 40
0.7430307591
 40
0.866297184
 40
1.0
 40
1.0
 40
1.0
 40
1.0
 10
5.8597121045
 20
4.9443937605
 30
0.0
 10
5.8596699603
 20
4.9445771224
 30
0.0
 10
5.8595709703
 20
4.9449236421
 30
0.0
 10
5.8593623652
 20
4.9453991775
 30
0.0
 10
5.8590999462
 20
4.9458030804
 30
0.0
 10
5.8587826579
 20
4.9461339533
 30
0.0
 10
5.8584106794
 20
4.9463900765
 30
0.0
 10
5.8579857788
 20
4.9465707447
 30
0.0
 10
5.8575101867
 20
4.9466773953
 30
0.0
 10
5.8571755975
 20
4.9466995862
 30
0.0
 10
5.8570017866
 20
4.9467006007
 30
0.0
  0
SPLINE
  5
2AC
100
AcDbEntity
  8
0
100
AcDbSpline
 62
7
  6
CONTINUOUS
 70
0
 71
3
 72
28
 73
24
 74
0
 42
0.0000001
 43
0.0000001
 44
0.0000000001
 40
0.0
 40
0.0
 40
0.0
 40
0.0
 40
0.0626126113
 40
0.0939268527
 40
0.1252393999
 40
0.1878385421
 40
0.2504247301
 40
0.2817212153
 40
0.313013186
 40
0.3755634851
 40
0.4380922237
 40
0.5005980659
 40
0.5630805543
 40
0.6255401293
 40
0.6879781125
 40
0.7191990956
 40
0.7504155533
 40
0.8128175624
 40
0.8752065763
 40
0.9064069225
 40
0.9376055684
 40
0.9688030713
 40
1.0
 40
1.0
 40
1.0
 40
1.0
 10
5.2126417365
 20
3.1583584679
 30
0.0
 10
5.2158870632
 20
3.1583584679
 30
0.0
 10
5.2207598583
 20
3.1585969427
 30
0.0
 10
5.2272046052
 20
3.1593889184
 30
0.0
 10
5.233602797
 20
3.1604947851
 30
0.0
 10
5.2414864014
 20
3.1624617698
 30
0.0
 10
5.2491392731
 20
3.1651896716
 30
0.0
 10
5.2550764598
 20
3.1678114888
 30
0.0
 10
5.2608765581
 20
3.1707197839
 30
0.0
 10
5.2678476733
 20
3.1748819251
 30
0.0
 10
5.2756800209
 20
3.1806685649
 30
0.0
 10
5.2829057399
 20
3.1871923614
 30
0.0
 10
5.2894547696
 20
3.194390398
 30
0.0
 10
5.2952639123
 20
3.202192899
 30
0.0
 10
5.2994429901
 20
3.2091387041
 30
0.0
 10
5.3023629272
 20
3.2149176818
 30
0.0
 10
5.3049944913
 20
3.2208315643
 30
0.0
 10
5.3077328062
 20
3.2284546911
 30
0.0
 10
5.3097077228
 20
3.2363095051
 30
0.0
 10
5.3108179325
 20
3.2426837082
 30
0.0
 10
5.3114142876
 20
3.2475002841
 30
0.0
 10
5.3117726537
 20
3.2523399793
 30
0.0
 10
5.311852358
 20
3.2555745689
 30
0.0
 10
5.311852358
 20
3.257191563
 30
0.0
  0
SPLINE
  5
2AD
100
AcDbEntity
  8
0
100
AcDbSpline
 62
7
  6
CONTINUOUS
 70
0
 71
3
 72
28
 73
24
 74
0
 42
0.0000001
 43
0.0000001
 44
0.0000000001
 40
0.0
 40
0.0
 40
0.0
 40
0.0
 40
0.0626126117
 40
0.0939268534
 40
0.1252394008
 40
0.1878385433
 40
0.2504247315
 40
0.2817212169
 40
0.3130131877
 40
0.3755634868
 40
0.4380922253
 40
0.5005980673
 40
0.5630805554
 40
0.62554013
 40
0.6879781129
 40
0.7191990959
 40
0.7504155534
 40
0.8128175622
 40
0.8752065759
 40
0.9064069222
 40
0.9376055681
 40
0.9688030711
 40
1.0
 40
1.0
 40
1.0
 40
1.0
 10
5.2126417365
 20
3.170884939
 30
0.0
 10
5.2093963995
 20
3.170884939
 30
0.0
 10
5.2045235888
 20
3.1711234153
 30
0.0
 10
5.1980788216
 20
3.171915396
 30
0.0
 10
5.19168061
 20
3.1730212698
 30
0.0
 10
5.1837969819
 20
3.174988267
 30
0.0
 10
5.1761440887
 20
3.1777161858
 30
0.0
 10
5.1702068865
 20
3.1803380194
 30
0.0
 10
5.164406774
 20
3.1832463323
 30
0.0
 10
5.1574356437
 20
3.1874084989
 30
0.0
 10
5.1496032828
 20
3.1931951731
 30
0.0
 10
5.1423775561
 20
3.1997190074
 30
0.0
 10
5.1358285247
 20
3.2069170844
 30
0.0
 10
5.1300193867
 20
3.2147196277
 30
0.0
 10
5.1258403186
 20
3.2216654687
 30
0.0
 10
5.1229203926
 20
3.2274444752
 30
0.0
 10
5.120288842
 20
3.2333583862
 30
0.0
 10
5.1175505482
 20
3.2409815481
 30
0.0
 10
5.1155756588
 20
3.2488363957
 30
0.0
 10
5.114465474
 20
3.255210624
 30
0.0
 10
5.1138691395
 20
3.2600272181
 30
0.0
 10
5.1135107955
 20
3.2648669304
 30
0.0
 10
5.1134311069
 20
3.2681015307
 30
0.0
 10
5.1134311151
 20
3.26971853
 30
0.0
  0
SPLINE
  5
2AE
100
AcDbEntity
  8
0
100
AcDbSpline
 62
7
  6
CONTINUOUS
 70
0
 71
3
 72
25
 73
21
 74
0
 42
0.0000001
 43
0.0000001
 44
0.0000000001
 40
0.0
 40
0.0
 40
0.0
 40
0.0
 40
0.0628456585
 40
0.094273113
 40
0.1256960353
 40
0.1885019953
 40
0.251270037
 40
0.3139897634
 40
0.3766526271
 40
0.4392522534
 40
0.5017846738
 40
0.5642484998
 40
0.6266449764
 40
0.6889779437
 40
0.7512537024
 40
0.8134807638
 40
0.8756695416
 40
0.9067628096
 40
0.9378510642
 40
1.0
 40
1.0
 40
1.0
 40
1.0
 10
4.1811840609
 20
4.8162466811
 30
0.0
 10
4.1811840609
 20
4.8178658874
 30
0.0
 10
4.1813021535
 20
4.8202969755
 30
0.0
 10
4.1816944095
 20
4.8235125825
 30
0.0
 10
4.1822420489
 20
4.8267046006
 30
0.0
 10
4.1832161308
 20
4.8306376723
 30
0.0
 10
4.1848367369
 20
4.8352182879
 30
0.0
 10
4.1868935717
 20
4.839616498
 30
0.0
 10
4.1893668134
 20
4.8437896798
 30
0.0
 10
4.1922326734
 20
4.8476977212
 30
0.0
 10
4.1954635895
 20
4.8513029473
 30
0.0
 10
4.1990284537
 20
4.8545706402
 30
0.0
 10
4.2028929712
 20
4.8574692925
 30
0.0
 10
4.2070199039
 20
4.8599709725
 30
0.0
 10
4.2113695913
 20
4.8620515616
 30
0.0
 10
4.2158998541
 20
4.863690954
 30
0.0
 10
4.2197907357
 20
4.8646765834
 30
0.0
 10
4.2229480663
 20
4.8652305504
 30
0.0
 10
4.2261277089
 20
4.8656272085
 30
0.0
 10
4.2285321773
 20
4.8657466811
 30
0.0
 10
4.2301334327
 20
4.8657466811
 30
0.0
  0
SPLINE
  5
2AF
100
AcDbEntity
  8
0
100
AcDbSpline
 62
7
  6
CONTINUOUS
 70
0
 71
3
 72
45
 73
41
 74
0
 42
0.0000001
 43
0.0000001
 44
0.0000000001
 40
0.0
 40
0.0
 40
0.0
 40
0.0
 40
0.0155990373
 40
0.0311983649
 40
0.0467982724
 40
0.0623990317
 40
0.0935947104
 40
0.1247968845
 40
0.1404056994
 40
0.1560167771
 40
0.1872369402
 40
0.2184678997
 40
0.2497103164
 40
0.2809644104
 40
0.312229953
 40
0.3435062763
 40
0.3747922986
 40
0.406086567
 40
0.4373873128
 40
0.4686925194
 40
0.5
 40
0.5313074806
 40
0.5626126872
 40
0.593913433
 40
0.6252077014
 40
0.6564937237
 40
0.687770047
 40
0.7190355896
 40
0.7502896836
 40
0.7815321003
 40
0.8127630598
 40
0.8439832229
 40
0.8595943006
 40
0.8752031155
 40
0.9064052896
 40
0.9376009683
 40
0.9532017276
 40
0.9688016351
 40
0.9844009627
 40
1.0
 40
1.0
 40
1.0
 40
1.0
 10
5.3132023365
 20
3.257191563
 30
0.0
 10
5.3132023365
 20
3.2555525674
 30
0.0
 10
5.3131215478
 20
3.2522739662
 30
0.0
 10
5.3127583057
 20
3.2473684185
 30
0.0
 10
5.3121538364
 20
3.2424863032
 30
0.0
 10
5.3110285201
 20
3.2360253647
 30
0.0
 10
5.3090267308
 20
3.2280636681
 30
0.0
 10
5.3062511554
 20
3.2203368114
 30
0.0
 10
5.3035837833
 20
3.2143424573
 30
0.0
 10
5.3006241143
 20
3.2084848435
 30
0.0
 10
5.2963881696
 20
3.2014445243
 30
0.0
 10
5.2904999873
 20
3.1935358555
 30
0.0
 10
5.2838618197
 20
3.186239862
 30
0.0
 10
5.2765378682
 20
3.1796273364
 30
0.0
 10
5.2685986102
 20
3.1737617993
 30
0.0
 10
5.2601205303
 20
3.1686997581
 30
0.0
 10
5.251185273
 20
3.164489932
 30
0.0
 10
5.2418788858
 20
3.1611728466
 30
0.0
 10
5.2322909832
 20
3.1587804288
 30
0.0
 10
5.2225138868
 20
3.1573357055
 30
0.0
 10
5.2126417365
 20
3.1568525811
 30
0.0
 10
5.2027695863
 20
3.1573357055
 30
0.0
 10
5.1929924898
 20
3.1587804288
 30
0.0
 10
5.1834045873
 20
3.1611728466
 30
0.0
 10
5.1740982001
 20
3.164489932
 30
0.0
 10
5.1651629428
 20
3.1686997581
 30
0.0
 10
5.1566848629
 20
3.1737617993
 30
0.0
 10
5.1487456049
 20
3.1796273364
 30
0.0
 10
5.1414216534
 20
3.186239862
 30
0.0
 10
5.1347834858
 20
3.1935358555
 30
0.0
 10
5.1288953035
 20
3.2014445243
 30
0.0
 10
5.1246593587
 20
3.2084848435
 30
0.0
 10
5.1216996898
 20
3.2143424573
 30
0.0
 10
5.1190323177
 20
3.2203368114
 30
0.0
 10
5.1162567422
 20
3.2280636681
 30
0.0
 10
5.114254953
 20
3.2360253647
 30
0.0
 10
5.1131296367
 20
3.2424863032
 30
0.0
 10
5.1125251674
 20
3.2473684185
 30
0.0
 10
5.1121619252
 20
3.2522739662
 30
0.0
 10
5.1120811365
 20
3.2555525674
 30
0.0
 10
5.1120811365
 20
3.257191563
 30
0.0
  0
SPLINE
  5
2B0
100
AcDbEntity
  8
0
100
AcDbSpline
 62
7
  6
CONTINUOUS
 70
0
 71
3
 72
19
 73
15
 74
0
 42
0.0000001
 43
0.0000001
 44
0.0000000001
 40
0.0
 40
0.0
 40
0.0
 40
0.0
 40
0.1254189593
 40
0.2504905257
 40
0.3129290426
 40
0.3753158706
 40
0.4376670386
 40
0.5
 40
0.5623329614
 40
0.6246841294
 40
0.6870709574
 40
0.7495094744
 40
0.8745810407
 40
1.0
 40
1.0
 40
1.0
 40
1.0
 10
5.6294266258
 20
4.6601065668
 30
0.0
 10
5.6307176886
 20
4.665177013
 30
0.0
 10
5.6330364578
 20
4.6753724816
 30
0.0
 10
5.6351898803
 20
4.6882572212
 30
0.0
 10
5.6364161787
 20
4.6986116686
 30
0.0
 10
5.6370795644
 20
4.7063935686
 30
0.0
 10
5.6374803178
 20
4.7141889996
 30
0.0
 10
5.6376143684
 20
4.7219913697
 30
0.0
 10
5.6374803178
 20
4.7297937399
 30
0.0
 10
5.6370795644
 20
4.7375891709
 30
0.0
 10
5.6364161787
 20
4.7453710709
 30
0.0
 10
5.6351898803
 20
4.7557255182
 30
0.0
 10
5.6330364578
 20
4.7686102578
 30
0.0
 10
5.6307176886
 20
4.7788057264
 30
0.0
 10
5.6294266258
 20
4.7838761726
 30
0.0
  0
SPLINE
  5
2B1
100
AcDbEntity
  8
0
100
AcDbSpline
 62
7
  6
CONTINUOUS
 70
0
 71
3
 72
19
 73
15
 74
0
 42
0.0000001
 43
0.0000001
 44
0.0000000001
 40
0.0
 40
0.0
 40
0.0
 40
0.0
 40
0.1254189593
 40
0.2504905257
 40
0.3129290426
 40
0.3753158706
 40
0.4376670386
 40
0.5
 40
0.5623329614
 40
0.6246841294
 40
0.6870709574
 40
0.7495094744
 40
0.8745810407
 40
1.0
 40
1.0
 40
1.0
 40
1.0
 10
5.6294266258
 20
4.8486171896
 30
0.0
 10
5.6307176886
 20
4.8536876358
 30
0.0
 10
5.6330364578
 20
4.8638831044
 30
0.0
 10
5.6351898803
 20
4.876767844
 30
0.0
 10
5.6364161787
 20
4.8871222913
 30
0.0
 10
5.6370795644
 20
4.8949041913
 30
0.0
 10
5.6374803178
 20
4.9026996224
 30
0.0
 10
5.6376143684
 20
4.9105019925
 30
0.0
 10
5.6374803178
 20
4.9183043626
 30
0.0
 10
5.6370795644
 20
4.9260997937
 30
0.0
 10
5.6364161787
 20
4.9338816936
 30
0.0
 10
5.6351898803
 20
4.944236141
 30
0.0
 10
5.6330364578
 20
4.9571208806
 30
0.0
 10
5.6307176886
 20
4.9673163492
 30
0.0
 10
5.6294266258
 20
4.9723867954
 30
0.0
  0
SPLINE
  5
2B2
100
AcDbEntity
  8
0
100
AcDbSpline
 62
7
  6
CONTINUOUS
 70
0
 71
3
 72
25
 73
21
 74
0
 42
0.0000001
 43
0.0000001
 44
0.0000000001
 40
0.0
 40
0.0
 40
0.0
 40
0.0
 40
0.0628232648
 40
0.0942397999
 40
0.1256521209
 40
0.188438218
 40
0.2511888329
 40
0.313894237
 40
0.3765464345
 40
0.4391394643
 40
0.5016696168
 40
0.5641355969
 40
0.6265385738
 40
0.6888821428
 40
0.7511722012
 40
0.8134167121
 40
0.8756254173
 40
0.9067293314
 40
0.9378285568
 40
1.0
 40
1.0
 40
1.0
 40
1.0
 10
4.1375038101
 20
4.8162466811
 30
0.0
 10
4.1375038101
 20
4.8178658805
 30
0.0
 10
4.1376219867
 20
4.8202969686
 30
0.0
 10
4.1380145169
 20
4.8235125522
 30
0.0
 10
4.1385625446
 20
4.8267045801
 30
0.0
 10
4.139537327
 20
4.8306376836
 30
0.0
 10
4.1411590866
 20
4.8352183019
 30
0.0
 10
4.1432173852
 20
4.8396165142
 30
0.0
 10
4.1456923866
 20
4.8437896972
 30
0.0
 10
4.1485602853
 20
4.847697739
 30
0.0
 10
4.1517934988
 20
4.8513029644
 30
0.0
 10
4.155360897
 20
4.8545706557
 30
0.0
 10
4.1592281603
 20
4.8574693056
 30
0.0
 10
4.1633580242
 20
4.8599709829
 30
0.0
 10
4.1677107995
 20
4.8620515689
 30
0.0
 10
4.1722442776
 20
4.8636909585
 30
0.0
 10
4.1761378898
 20
4.8646765787
 30
0.0
 10
4.1792974524
 20
4.8652305462
 30
0.0
 10
4.1824793769
 20
4.8656272088
 30
0.0
 10
4.1848855529
 20
4.8657466811
 30
0.0
 10
4.1864879523
 20
4.8657466811
 30
0.0
  0
SPLINE
  5
2B3
100
AcDbEntity
  8
0
100
AcDbSpline
 62
7
  6
CONTINUOUS
 70
0
 71
3
 72
39
 73
35
 74
0
 42
0.0000001
 43
0.0000001
 44
0.0000000001
 40
0.0
 40
0.0
 40
0.0
 40
0.0
 40
0.0859437836
 40
0.1711819015
 40
0.2550184144
 40
0.2962009524
 40
0.3367818305
 40
0.3766813989
 40
0.415822591
 40
0.4541312956
 40
0.4915367637
 40
0.5279720144
 40
0.5633743008
 40
0.5976856329
 40
0.6308533344
 40
0.6628307041
 40
0.6935777582
 40
0.7230621032
 40
0.7512599979
 40
0.7781575754
 40
0.8037523341
 40
0.8280549247
 40
0.851091267
 40
0.872905045
 40
0.8935604902
 40
0.9131453319
 40
0.9225736329
 40
0.9317794333
 40
0.9495933833
 40
0.9667639065
 40
0.9751725656
 40
0.9834961843
 40
0.9917625079
 40
1.0
 40
1.0
 40
1.0
 40
1.0
 10
4.5119940362
 20
4.5499417797
 30
0.0
 10
4.5035385668
 20
4.5499417796
 30
0.0
 10
4.4866952727
 20
4.5502571176
 30
0.0
 10
4.461640016
 20
4.5516735121
 30
0.0
 10
4.4410417303
 20
4.5536393774
 30
0.0
 10
4.4248768045
 20
4.5556806023
 30
0.0
 10
4.413034265
 20
4.5574267618
 30
0.0
 10
4.4014298985
 20
4.5593928775
 30
0.0
 10
4.3900915565
 20
4.5615742355
 30
0.0
 10
4.3790465089
 20
4.5639655625
 30
0.0
 10
4.3683212923
 20
4.5665610909
 30
0.0
 10
4.3579416667
 20
4.5693545615
 30
0.0
 10
4.3479325458
 20
4.5723392438
 30
0.0
 10
4.3383179351
 20
4.5755079533
 30
0.0
 10
4.3291208694
 20
4.5788530712
 30
0.0
 10
4.3203633563
 20
4.5823665704
 30
0.0
 10
4.3120663197
 20
4.5860400424
 30
0.0
 10
4.3042495471
 20
4.5898647292
 30
0.0
 10
4.2969316393
 20
4.5938315559
 30
0.0
 10
4.2901299671
 20
4.5979311759
 30
0.0
 10
4.2838606443
 20
4.6021540171
 30
0.0
 10
4.2781385009
 20
4.6064903531
 30
0.0
 10
4.2729771217
 20
4.6109303132
 30
0.0
 10
4.268388772
 20
4.6154641113
 30
0.0
 10
4.2643848712
 20
4.6200814797
 30
0.0
 10
4.2615077247
 20
4.6240404239
 30
0.0
 10
4.259522381
 20
4.6272353546
 30
0.0
 10
4.2577840469
 20
4.6303731691
 30
0.0
 10
4.2559757975
 20
4.6343368165
 30
0.0
 10
4.2546553346
 20
4.6384080301
 30
0.0
 10
4.2539215732
 20
4.6416636741
 30
0.0
 10
4.2535307801
 20
4.644093599
 30
0.0
 10
4.2532962126
 20
4.6465264905
 30
0.0
 10
4.2532440362
 20
4.6481506793
 30
0.0
 10
4.2532440362
 20
4.6489611144
 30
0.0
  0
SPLINE
  5
2B4
100
AcDbEntity
  8
0
100
AcDbSpline
 62
7
  6
CONTINUOUS
 70
0
 71
3
 72
21
 73
17
 74
0
 42
0.0000001
 43
0.0000001
 44
0.0000000001
 40
0.0
 40
0.0
 40
0.0
 40
0.0
 40
0.1940770361
 40
0.3748122327
 40
0.5378063693
 40
0.6114450822
 40
0.6792865424
 40
0.7409908193
 40
0.7962944573
 40
0.8450329237
 40
0.8669307249
 40
0.8871927312
 40
0.9229249486
 40
0.9527608625
 40
0.9777929888
 40
1.0
 40
1.0
 40
1.0
 40
1.0
 10
5.888509075
 20
4.7710206712
 30
0.0
 10
5.8881453325
 20
4.7709716396
 30
0.0
 10
5.8874410679
 20
4.7708894462
 30
0.0
 10
5.886426598
 20
4.7708127626
 30
0.0
 10
5.8856371313
 20
4.7707910064
 30
0.0
 10
5.885061334
 20
4.7708025562
 30
0.0
 10
5.884677589
 20
4.7708241781
 30
0.0
 10
5.8843295943
 20
4.7708588278
 30
0.0
 10
5.884019586
 20
4.7709062606
 30
0.0
 10
5.8837867873
 20
4.7709577981
 30
0.0
 10
5.8836217714
 20
4.7710062314
 30
0.0
 10
5.8834827151
 20
4.7710549512
 30
0.0
 10
5.8833341295
 20
4.7711216039
 30
0.0
 10
5.8831906067
 20
4.7712171803
 30
0.0
 10
5.8830906928
 20
4.7713259964
 30
0.0
 10
5.8830553171
 20
4.771410718
 30
0.0
 10
5.8830472792
 20
4.7714519388
 30
0.0
  0
SPLINE
  5
2B5
100
AcDbEntity
  8
0
100
AcDbSpline
 62
7
  6
CONTINUOUS
 70
0
 71
3
 72
21
 73
17
 74
0
 42
0.0000001
 43
0.0000001
 44
0.0000000001
 40
0.0
 40
0.0
 40
0.0
 40
0.0
 40
0.1940770361
 40
0.3748122327
 40
0.5378063693
 40
0.6114450822
 40
0.6792865424
 40
0.7409908193
 40
0.7962944573
 40
0.8450329237
 40
0.8669307249
 40
0.8871927312
 40
0.9229249486
 40
0.9527608625
 40
0.9777929888
 40
1.0
 40
1.0
 40
1.0
 40
1.0
 10
5.9687665241
 20
4.861472691
 30
0.0
 10
5.9691302666
 20
4.8615217226
 30
0.0
 10
5.9698345311
 20
4.861603916
 30
0.0
 10
5.9708490011
 20
4.8616805996
 30
0.0
 10
5.9716384678
 20
4.8617023558
 30
0.0
 10
5.972214265
 20
4.861690806
 30
0.0
 10
5.9725980101
 20
4.8616691841
 30
0.0
 10
5.9729460047
 20
4.8616345344
 30
0.0
 10
5.9732560131
 20
4.8615871016
 30
0.0
 10
5.9734888118
 20
4.8615355641
 30
0.0
 10
5.9736538277
 20
4.8614871308
 30
0.0
 10
5.973792884
 20
4.8614384111
 30
0.0
 10
5.9739414696
 20
4.8613717583
 30
0.0
 10
5.9740849924
 20
4.8612761819
 30
0.0
 10
5.9741849063
 20
4.8611673658
 30
0.0
 10
5.9742202819
 20
4.8610826442
 30
0.0
 10
5.9742283199
 20
4.8610414234
 30
0.0
  0
LINE
  5
2B6
100
AcDbEntity
  8
0
100
AcDbLine
 62
7
  6
CONTINUOUS
 10
5.9687665241
 20
4.7710206712
 11
5.9714318043
 21
4.7670328677
  0
SPLINE
  5
2B7
100
AcDbEntity
  8
0
100
AcDbSpline
 62
7
  6
CONTINUOUS
 70
0
 71
3
 72
25
 73
21
 74
0
 42
0.0000001
 43
0.0000001
 44
0.0000000001
 40
0.0
 40
0.0
 40
0.0
 40
0.0
 40
0.0636089375
 40
0.1271752191
 40
0.1906589663
 40
0.2540223836
 40
0.3172322963
 40
0.3802612257
 40
0.4430884521
 40
0.5057008352
 40
0.5680934085
 40
0.6302696384
 40
0.6922413865
 40
0.7231662098
 40
0.7540479969
 40
0.8156777073
 40
0.8771834454
 40
0.9079115807
 40
0.9386234579
 40
1.0
 40
1.0
 40
1.0
 40
1.0
 10
4.0885807545
 20
4.8162466811
 30
0.0
 10
4.0885807545
 20
4.8178657859
 30
0.0
 10
4.0887341836
 20
4.8211050057
 30
0.0
 10
4.0894224839
 20
4.8259159872
 30
0.0
 10
4.0905623223
 20
4.8306344574
 30
0.0
 10
4.0921427759
 20
4.8352144852
 30
0.0
 10
4.0941486996
 20
4.8396121589
 30
0.0
 10
4.0965608623
 20
4.8437851098
 30
0.0
 10
4.0993561207
 20
4.8476931726
 30
0.0
 10
4.102507638
 20
4.8512986642
 30
0.0
 10
4.1059852018
 20
4.854566862
 30
0.0
 10
4.109755127
 20
4.8574660742
 30
0.0
 10
4.1131137245
 20
4.8595533795
 30
0.0
 10
4.1159080139
 20
4.8610113914
 30
0.0
 10
4.1187640132
 20
4.8623237966
 30
0.0
 10
4.1224461541
 20
4.8636900255
 30
0.0
 10
4.1262437325
 20
4.8646762968
 30
0.0
 10
4.1293249926
 20
4.8652304807
 30
0.0
 10
4.1324268649
 20
4.8656271485
 30
0.0
 10
4.1347731726
 20
4.8657466811
 30
0.0
 10
4.1363354539
 20
4.8657466811
 30
0.0
  0
LINE
  5
2B8
100
AcDbEntity
  8
0
100
AcDbLine
 62
7
  6
CONTINUOUS
 10
5.888509075
 20
4.861472691
 11
5.8858437948
 21
4.8654604945
  0
SPLINE
  5
2B9
100
AcDbEntity
  8
0
100
AcDbSpline
 62
7
  6
CONTINUOUS
 70
0
 71
3
 72
25
 73
21
 74
0
 42
0.0000001
 43
0.0000001
 44
0.0000000001
 40
0.0
 40
0.0
 40
0.0
 40
0.0
 40
0.0636089375
 40
0.1271752191
 40
0.1906589663
 40
0.2540223836
 40
0.3172322963
 40
0.3802612257
 40
0.4430884521
 40
0.5057008352
 40
0.5680934085
 40
0.6302696384
 40
0.6922413865
 40
0.7231662098
 40
0.7540479969
 40
0.8156777073
 40
0.8771834454
 40
0.9079115807
 40
0.9386234579
 40
1.0
 40
1.0
 40
1.0
 40
1.0
 10
4.0011247891
 20
4.8162466811
 30
0.0
 10
4.0011247891
 20
4.8178657859
 30
0.0
 10
4.0012782182
 20
4.8211050057
 30
0.0
 10
4.0019665185
 20
4.8259159872
 30
0.0
 10
4.0031063569
 20
4.8306344574
 30
0.0
 10
4.0046868104
 20
4.8352144852
 30
0.0
 10
4.0066927342
 20
4.8396121589
 30
0.0
 10
4.0091048969
 20
4.8437851098
 30
0.0
 10
4.0119001553
 20
4.8476931726
 30
0.0
 10
4.0150516725
 20
4.8512986642
 30
0.0
 10
4.0185292364
 20
4.854566862
 30
0.0
 10
4.0222991616
 20
4.8574660742
 30
0.0
 10
4.0256577591
 20
4.8595533795
 30
0.0
 10
4.0284520485
 20
4.8610113914
 30
0.0
 10
4.0313080478
 20
4.8623237966
 30
0.0
 10
4.0349901887
 20
4.8636900255
 30
0.0
 10
4.038787767
 20
4.8646762968
 30
0.0
 10
4.0418690272
 20
4.8652304807
 30
0.0
 10
4.0449708995
 20
4.8656271485
 30
0.0
 10
4.0473172071
 20
4.8657466811
 30
0.0
 10
4.0488794884
 20
4.8657466811
 30
0.0
  0
SPLINE
  5
2BA
100
AcDbEntity
  8
0
100
AcDbSpline
 62
7
  6
CONTINUOUS
 70
0
 71
3
 72
13
 73
9
 74
0
 42
0.0000001
 43
0.0000001
 44
0.0000000001
 40
0.0
 40
0.0
 40
0.0
 40
0.0
 40
0.1199135905
 40
0.240480773
 40
0.3621264528
 40
0.4852616766
 40
0.7374401593
 40
1.0
 40
1.0
 40
1.0
 40
1.0
 10
4.3095880298
 20
4.6853038892
 30
0.0
 10
4.3096093722
 20
4.6859509013
 30
0.0
 10
4.3096947035
 20
4.687247444
 30
0.0
 10
4.3099496093
 20
4.6891870167
 30
0.0
 10
4.3103314755
 20
4.6911234638
 30
0.0
 10
4.3110146836
 20
4.6937194557
 30
0.0
 10
4.312197177
 20
4.6969627744
 30
0.0
 10
4.313442071
 20
4.6994540991
 30
0.0
 10
4.3141390513
 20
4.7006883557
 30
0.0
  0
SPLINE
  5
2BB
100
AcDbEntity
  8
0
100
AcDbSpline
 62
7
  6
CONTINUOUS
 70
0
 71
3
 72
18
 73
14
 74
0
 42
0.0000001
 43
0.0000001
 44
0.0000000001
 40
0.0
 40
0.0
 40
0.0
 40
0.0
 40
0.1501505824
 40
0.2913738535
 40
0.4242375022
 40
0.54953414
 40
0.6683079033
 40
0.7256765889
 40
0.7819280081
 40
0.8372649931
 40
0.8919034755
 40
0.9460714036
 40
1.0
 40
1.0
 40
1.0
 40
1.0
 10
4.7208674375
 20
4.611240006
 30
0.0
 10
4.7226241391
 20
4.6126645518
 30
0.0
 10
4.7259414223
 20
4.6155454417
 30
0.0
 10
4.7304271423
 20
4.6201067007
 30
0.0
 10
4.7342533307
 20
4.624760841
 30
0.0
 10
4.7374067438
 20
4.6294947162
 30
0.0
 10
4.7394883215
 20
4.6335433813
 30
0.0
 10
4.7407888534
 20
4.636795601
 30
0.0
 10
4.7415791246
 20
4.6392167972
 30
0.0
 10
4.7421945502
 20
4.6416458453
 30
0.0
 10
4.7426345883
 20
4.6440809499
 30
0.0
 10
4.7428987759
 20
4.6465199324
 30
0.0
 10
4.7429575559
 20
4.6481487888
 30
0.0
 10
4.7429575561
 20
4.6489611122
 30
0.0
  0
ENDSEC
  0
SECTION
  2
OBJECTS
  0
DICTIONARY
  5
C
100
AcDbDictionary
280
0
281
1
  3
ACAD_GROUP
350
D
  3
ACAD_MLINESTYLE
350
17
  3
ACAD_LAYOUT
350
1A
  3
ACAD_PLOTSETTINGS
350
19
  3
ACAD_PLOTSTYLENAME
350
E
  0
DICTIONARY
  5
D
102
{ACAD_REACTORS
330
C
102
}
100
AcDbDictionary
280
0
281
1
  0
ACDBDICTIONARYWDFLT
  5
E
102
{ACAD_REACTORS
330
C
102
}
100
AcDbDictionary
281
1
  3
Normal
350
F
100
AcDbDictionaryWithDefault
340
F
  0
DICTIONARY
  5
17
102
{ACAD_REACTORS
330
C
102
}
100
AcDbDictionary
280
0
281
1
  3
Standard
350
18
  0
DICTIONARY
  5
19
102
{ACAD_REACTORS
330
C
102
}
100
AcDbDictionary
281
1
  0
DICTIONARY
  5
1A
102
{ACAD_REACTORS
330
C
102
}
100
AcDbDictionary
281
1
  3
Model
350
2BC
  3
Layout1
350
2BD
  0
ACDBPLACEHOLDER
  5
F
102
{ACAD_REACTORS
330
E
102
}
  0
MLINESTYLE
  5
18
102
{ACAD_REACTORS
330
17
102
}
100
AcDbMlineStyle
  2
STANDARD
 70
0
  3

 62
256
 51
90.0
 52
90.0
 71
2
 49
0.5
 62
256
  6
BYLAYER
 49
-0.5
 62
256
  6
BYLAYER
  0
LAYOUT
  5
2BC
102
{ACAD_REACTORS
330
1A
102
}
100
AcDbPlotSettings
  1

  2
none_device
  4
ANSI_A_(11.00_x_8.50_Inches)
  6

 40
0.0
 41
0.0
 42
0.0
 43
0.0
 44
279.4
 45
215.9
 46
0.0
 47
0.0
 48
0.0
 49
0.0
140
0.0
141
0.0
142
1.0
143
1.0
 70
1024
 72
0
 73
0
 74
0
  7

 75
0
147
1.0
148
0.0
149
0.0
100
AcDbLayout
  1
Model
 70
0
 71
0
 10
0.0
 20
0.0
 11
11.0
 21
8.5
 12
0.0
 22
0.0
 32
0.0
 14
0.0
 24
0.0
 34
0.0
 15
0.0
 25
0.0
 35
0.0
146
0.0
 13
0.0
 23
0.0
 33
0.0
 16
1.0
 26
0.0
 36
0.0
 17
0.0
 27
1.0
 37
0.0
 76
0
330
202
345
0
346
0
  0
LAYOUT
  5
2BD
102
{ACAD_REACTORS
330
1A
102
}
100
AcDbPlotSettings
  1

  2
none_device
  4
ANSI_A_(11.00_x_8.50_Inches)
  6

 40
0.0
 41
0.0
 42
0.0
 43
0.0
 44
279.4
 45
215.9
 46
0.0
 47
0.0
 48
0.0
 49
0.0
140
0.0
141
0.0
142
1.0
143
1.0
 70
0
 72
0
 73
0
 74
0
  7

 75
0
147
1.0
148
0.0
149
0.0
100
AcDbLayout
  1
Layout1
 70
0
 71
1
 10
0.0
 20
0.0
 11
11.0
 21
8.5
 12
0.0
 22
0.0
 32
0.0
 14
0.0
 24
0.0
 34
0.0
 15
0.0
 25
0.0
 35
0.0
146
0.0
 13
0.0
 23
0.0
 33
0.0
 16
1.0
 26
0.0
 36
0.0
 17
0.0
 27
1.0
 37
0.0
 76
0
330
203
345
0
346
0
  0
ENDSEC
  0
EOF
