999
DXF file: E:\BT Custom\CADOUTPUT\_TOP.dxf
999
Pro/ENGINEER 2018400 by Parametric Technology Corporation
  0
SECTION
  2
HEADER
  9
$ACADVER
  1
AC1018
  9
$DWGCODEPAGE
  3
ANSI_1252
  9
$EXTMAX
 10
22.0
 20
17.0
 30
0.0
  9
$EXTMIN
 10
0.0
 20
0.0
 30
0.0
  9
$LIMMIN
 10
0.0
 20
0.0
  9
$LIMMAX
 10
22.0
 20
17.0
  9
$VIEWCTR
 10
11.0
 20
8.5
  9
$VIEWSIZE
 40
17.0
  9
$CLAYER
  8
0
  9
$LTSCALE
 40
1.21
  9
$CELTYPE
  6
BYLAYER
  9
$DIMSCALE
 40
1.0
  9
$DIMASZ
 40
0.1
  9
$DIMEXO
 40
0.0625
  9
$DIMDLI
 40
0.836
  9
$DIMEXE
 40
0.125
  9
$DIMCEN
 40
0.198
  9
$DIMLFAC
 40
1.0
  9
$DIMBLK
  1
_FILLED
  9
$DIMALT
 70
1
  9
$DIMALTD
 70
2
  9
$DIMALTTD
 70
2
  9
$DIMALTF
 40
25.4
  9
$DIMTXT
 40
0.08
  9
$DIMTOL
 70
1
  9
$DIMLIM
 70
0
  9
$DIMTFAC
 40
1.0
  9
$DIMTP
 40
0.001
  9
$DIMTM
 40
0.001
  9
$DIMGAP
 40
0.09
  9
$DIMDSEP
 70
46
  9
$AUNITS
 70
0
  9
$PDMODE
 70
3
  9
$PDSIZE
 40
0.06
  9
$HANDSEED
  5
521
  9
$TILEMODE
 70
1
  9
$MEASUREMENT
 70
0
  9
$INSUNITS
 70
1
  0
ENDSEC
  0
SECTION
  2
CLASSES
  0
CLASS
  1
ACDBDICTIONARYWDFLT
  2
AcDbDictionaryWithDefault
  3
AutoCAD 2000
 90
0
 91
1
280
0
281
0
  0
CLASS
  1
ACDBPLACEHOLDER
  2
AcDbPlaceHolder
  3
AutoCAD 2000
 90
0
 91
1
280
0
281
0
  0
CLASS
  1
LAYOUT
  2
AcDbLayout
  3
AutoCAD 2000
 90
0
 91
0
280
0
281
0
  0
ENDSEC
  0
SECTION
  2
TABLES
  0
TABLE
  2
VPORT
  5
8
100
AcDbSymbolTable
 70
2
  0
VPORT
  5
1F4
100
AcDbSymbolTableRecord
100
AcDbViewportTableRecord
  2
*ACTIVE
 70
0
 10
0.0
 20
0.0
 11
1.0
 21
1.0
 12
11.0
 22
8.5
 13
0.0
 23
0.0
 14
1.0
 24
1.0
 15
0.0
 25
0.0
 16
0.0
 26
0.0
 36
1.0
 17
0.0
 27
0.0
 37
0.0
 40
17.0
 41
1.2941176471
 42
50.0
 43
0.0
 44
0.0
 50
0.0
 51
0.0
 71
0
 72
100
 73
1
 74
1
 75
0
 76
0
 77
0
 78
0
  0
ENDTAB
  0
TABLE
  2
LTYPE
  5
5
100
AcDbSymbolTable
 70
6
  0
LTYPE
  5
14
100
AcDbSymbolTableRecord
100
AcDbLinetypeTableRecord
  2
BYBLOCK
 70
0
  3

 72
65
 73
0
 40
0.0
  0
LTYPE
  5
15
100
AcDbSymbolTableRecord
100
AcDbLinetypeTableRecord
  2
BYLAYER
 70
0
  3

 72
65
 73
0
 40
0.0
  0
LTYPE
  5
16
100
AcDbSymbolTableRecord
100
AcDbLinetypeTableRecord
  2
CONTINUOUS
 70
64
  3
Solid line
 72
65
 73
0
 40
0.0
  0
LTYPE
  5
1F5
100
AcDbSymbolTableRecord
100
AcDbLinetypeTableRecord
  2
CENTER
 70
64
  3
____ _ ____ _ ____ _ ____ _ ____ _ ____ _ ____
 72
65
 73
4
 40
0.6
 49
0.375
 74
0
 49
-0.075
 74
0
 49
0.075
 74
0
 49
-0.075
 74
0
  0
LTYPE
  5
1F6
100
AcDbSymbolTableRecord
100
AcDbLinetypeTableRecord
  2
HIDDEN
 70
64
  3
- - - - - - - - - - - - - - - - - - - -
 72
65
 73
2
 40
0.2
 49
0.1
 74
0
 49
-0.1
 74
0
  0
LTYPE
  5
1F7
100
AcDbSymbolTableRecord
100
AcDbLinetypeTableRecord
  2
PHANTOM
 70
64
  3
_____ _ _ _____ _ _ _____ _ _ _____
 72
65
 73
6
 40
0.8
 49
0.45
 74
0
 49
-0.05
 74
0
 49
0.1
 74
0
 49
-0.05
 74
0
 49
0.1
 74
0
 49
-0.05
 74
0
  0
LTYPE
  5
1F8
100
AcDbSymbolTableRecord
100
AcDbLinetypeTableRecord
  2
DOT
 70
64
  3
. . . . . . . . . . . . . . . . . . . .
 72
65
 73
2
 40
0.2
 49
0.1
 74
0
 49
-0.1
 74
0
  0
LTYPE
  5
1F9
100
AcDbSymbolTableRecord
100
AcDbLinetypeTableRecord
  2
DASHED
 70
64
  3
- - - - - - - - - - - - - - - - - - - -
 72
65
 73
2
 40
0.2
 49
0.1
 74
0
 49
-0.1
 74
0
  0
ENDTAB
  0
TABLE
  2
LAYER
  5
2
100
AcDbSymbolTable
 70
36
  0
LAYER
  5
10
100
AcDbSymbolTableRecord
100
AcDbLayerTableRecord
  2
0
 70
0
 62
7
  6
CONTINUOUS
370
-3
390
F
  0
LAYER
  5
1FA
100
AcDbSymbolTableRecord
100
AcDbLayerTableRecord
  2
DEFAULT_1
 70
0
 62
7
  6
CENTER
370
-3
390
F
  0
LAYER
  5
1FB
100
AcDbSymbolTableRecord
100
AcDbLayerTableRecord
  2
DEFAULT_2
 70
0
 62
8
  6
HIDDEN
370
-3
390
F
  0
LAYER
  5
1FC
100
AcDbSymbolTableRecord
100
AcDbLayerTableRecord
  2
DEFAULT_3
 70
0
 62
7
  6
PHANTOM
370
-3
390
F
  0
LAYER
  5
1FD
100
AcDbSymbolTableRecord
100
AcDbLayerTableRecord
  2
ALL_FEATURES
 70
0
 62
7
  6
CONTINUOUS
370
-3
390
F
  0
LAYER
  5
1FE
100
AcDbSymbolTableRecord
100
AcDbLayerTableRecord
  2
AXES_FEATURES
 70
0
 62
7
  6
CONTINUOUS
370
-3
390
F
  0
LAYER
  5
1FF
100
AcDbSymbolTableRecord
100
AcDbLayerTableRecord
  2
DIMENSIONS
 70
0
 62
7
  6
CONTINUOUS
370
-3
390
F
  0
ENDTAB
  0
TABLE
  2
STYLE
  5
3
100
AcDbSymbolTable
 70
1
  0
STYLE
  5
11
100
AcDbSymbolTableRecord
100
AcDbTextStyleTableRecord
  2
STANDARD
 70
0
 40
0.0
 41
0.8
 50
0.0
 71
0
 42
0.2
  3
txt
  4

  0
STYLE
  5
200
100
AcDbSymbolTableRecord
100
AcDbTextStyleTableRecord
  2
TEXTSTYLE_1
 70
0
 40
0.0
 41
0.8
 50
0.0
 71
0
 42
0.2
  3
gdt
  4

  0
ENDTAB
  0
TABLE
  2
VIEW
  5
6
100
AcDbSymbolTable
 70
0
  0
ENDTAB
  0
TABLE
  2
UCS
  5
7
100
AcDbSymbolTable
 70
0
  0
ENDTAB
  0
TABLE
  2
APPID
  5
9
100
AcDbSymbolTable
 70
1
  0
APPID
  5
201
100
AcDbSymbolTableRecord
100
AcDbRegAppTableRecord
  2
ACAD
 70
0
  0
ENDTAB
  0
TABLE
  2
BLOCK_RECORD
  5
1
100
AcDbSymbolTable
 70
0
  0
BLOCK_RECORD
  5
202
100
AcDbSymbolTableRecord
100
AcDbBlockTableRecord
  2
*Model_Space
  0
BLOCK_RECORD
  5
203
100
AcDbSymbolTableRecord
100
AcDbBlockTableRecord
  2
*Paper_Space
  0
BLOCK_RECORD
  5
204
100
AcDbSymbolTableRecord
100
AcDbBlockTableRecord
  2
_FILLED
  0
ENDTAB
  0
TABLE
  2
DIMSTYLE
  5
A
100
AcDbSymbolTable
 70
1
100
AcDbDimStyleTable
 71
0
  0
DIMSTYLE
105
205
100
AcDbSymbolTableRecord
100
AcDbDimStyleTableRecord
  2
STANDARD
 70
0
  3

  4

 40
1.0
 41
0.1
 42
0.0625
 43
0.38
 44
0.125
 45
0.0
 46
0.0
 47
0.001
 48
0.001
140
0.08
141
0.09
142
0.0
143
25.4
144
1.0
145
0.0
146
1.0
147
0.09
 71
1.0
 72
0.0
 73
1
 74
1
 75
0
 76
0
 77
0
 78
4
 79
1
170
1
171
2
172
0
173
0
174
0
175
0
176
0
177
0
178
0
270
2
179
3
271
3
272
3
273
2
274
2
275
0
280
0
281
0
282
0
283
1
284
4
285
0
286
0
287
3
288
0
340
11
278
46
341
204
342
204
343
204
344
204
  0
ENDTAB
  0
ENDSEC
  0
SECTION
  2
BLOCKS
  0
BLOCK
  5
20
100
AcDbEntity
  8
0
100
AcDbBlockBegin
  2
*Model_Space
 70
0
 10
0.0
 20
0.0
 30
0.0
  3
*Model_Space
  1

  0
ENDBLK
  5
21
100
AcDbEntity
  8
0
100
AcDbBlockEnd
  0
BLOCK
  5
1C
100
AcDbEntity
  8
0
100
AcDbBlockBegin
  2
*Paper_Space
 70
0
 10
0.0
 20
0.0
 30
0.0
  3
*Paper_Space
  1

  0
ENDBLK
  5
1D
100
AcDbEntity
  8
0
100
AcDbBlockEnd
  0
BLOCK
  5
206
100
AcDbEntity
  8
0
100
AcDbBlockBegin
  2
_FILLED
 70
64
 10
0.0
 20
0.0
  3
_FILLED
  1

  0
SOLID
  5
207
100
AcDbEntity
  8
0
  6
BYBLOCK
 62
0
100
AcDbTrace
 10
0.0
 20
0.0
 11
-1.0
 21
0.2
 12
-1.0
 22
-0.2
 13
-1.0
 23
-0.2
  0
ENDBLK
  5
208
100
AcDbEntity
  8
0
  6
BYBLOCK
 62
0
100
AcDbBlockEnd
  0
ENDSEC
  0
SECTION
  2
ENTITIES
  0
LINE
  5
209
100
AcDbEntity
  8
0
100
AcDbLine
 62
9
  6
CONTINUOUS
 10
4.0255869682
 20
7.3281238167
 11
4.0257733429
 21
7.3105134379
  0
LINE
  5
20A
100
AcDbEntity
  8
0
100
AcDbLine
 62
7
  6
CONTINUOUS
 10
3.9856053078
 20
6.9192841458
 11
3.9856053078
 21
7.2881208674
  0
LINE
  5
20B
100
AcDbEntity
  8
0
100
AcDbLine
 62
9
  6
CONTINUOUS
 10
4.0270079528
 20
7.2708639671
 11
4.027007861
 21
6.9365451927
  0
LINE
  5
20C
100
AcDbEntity
  8
0
100
AcDbLine
 62
9
  6
CONTINUOUS
 10
4.0268133197
 20
6.8969134225
 11
4.0266697247
 21
6.8792953824
  0
LINE
  5
20D
100
AcDbEntity
  8
0
100
AcDbLine
 62
7
  6
CONTINUOUS
 10
6.2416053078
 20
10.8579575978
 11
6.2656053078
 21
10.8995268172
  0
LINE
  5
20E
100
AcDbEntity
  8
0
100
AcDbLine
 62
7
  6
CONTINUOUS
 10
6.2416053078
 20
10.6799075899
 11
6.2416053078
 21
10.8579575978
  0
LINE
  5
20F
100
AcDbEntity
  8
0
100
AcDbLine
 62
7
  6
CONTINUOUS
 10
6.3114580901
 20
11.0725268206
 11
6.3114580901
 21
11.1675267973
  0
LINE
  5
210
100
AcDbEntity
  8
0
100
AcDbLine
 62
7
  6
CONTINUOUS
 10
6.3256053078
 20
11.0725268172
 11
6.3256053078
 21
10.8995268172
  0
LINE
  5
211
100
AcDbEntity
  8
0
100
AcDbLine
 62
7
  6
CONTINUOUS
 10
6.3381615813
 20
10.7826133877
 11
6.3381615813
 21
10.6558924154
  0
LINE
  5
212
100
AcDbEntity
  8
0
100
AcDbLine
 62
9
  6
CONTINUOUS
 10
10.9456053078
 20
2.6840543762
 11
10.8006053181
 21
2.6840543762
  0
LINE
  5
213
100
AcDbEntity
  8
0
100
AcDbLine
 62
9
  6
CONTINUOUS
 10
8.7256053078
 20
2.6840543762
 11
8.8706045605
 21
2.6840543762
  0
LINE
  5
214
100
AcDbEntity
  8
0
100
AcDbLine
 62
9
  6
CONTINUOUS
 10
6.4659339467
 20
6.9911711339
 11
6.4659339467
 21
7.2792107342
  0
LINE
  5
215
100
AcDbEntity
  8
0
100
AcDbLine
 62
9
  6
CONTINUOUS
 10
6.5123151852
 20
6.916710396
 11
6.5123151852
 21
7.3547504771
  0
LINE
  5
216
100
AcDbEntity
  8
0
100
AcDbLine
 62
7
  6
CONTINUOUS
 10
6.5231053078
 20
7.3905425652
 11
6.5231053078
 21
7.6835425652
  0
LINE
  5
217
100
AcDbEntity
  8
0
100
AcDbLine
 62
7
  6
CONTINUOUS
 10
6.5731053078
 20
6.7705425652
 11
6.5731053078
 21
6.8005425652
  0
LINE
  5
218
100
AcDbEntity
  8
0
100
AcDbLine
 62
7
  6
CONTINUOUS
 10
6.6356053078
 20
7.7035425652
 11
6.6356053078
 21
7.6835425652
  0
LINE
  5
219
100
AcDbEntity
  8
0
100
AcDbLine
 62
7
  6
CONTINUOUS
 10
6.7390490343
 20
10.4364402467
 11
6.7390490343
 21
10.7826133877
  0
LINE
  5
21A
100
AcDbEntity
  8
0
100
AcDbLine
 62
7
  6
CONTINUOUS
 10
6.7438993295
 20
8.753926545
 11
6.7438993295
 21
8.9785425652
  0
LINE
  5
21B
100
AcDbEntity
  8
0
100
AcDbLine
 62
7
  6
CONTINUOUS
 10
6.9273112862
 20
8.9785425652
 11
6.9273112862
 21
8.753926545
  0
LINE
  5
21C
100
AcDbEntity
  8
0
100
AcDbLine
 62
7
  6
CONTINUOUS
 10
6.9321615813
 20
10.7826133877
 11
6.9321615813
 21
10.4364402467
  0
LINE
  5
21D
100
AcDbEntity
  8
0
100
AcDbLine
 62
7
  6
CONTINUOUS
 10
7.4056053078
 20
10.3195268172
 11
7.4296053078
 21
10.3610960366
  0
LINE
  5
21E
100
AcDbEntity
  8
0
100
AcDbLine
 62
7
  6
CONTINUOUS
 10
7.5871233122
 20
9.1510059907
 11
7.5872466946
 21
9.1310843569
  0
LINE
  5
21F
100
AcDbEntity
  8
0
100
AcDbLine
 62
7
  6
CONTINUOUS
 10
7.0356053078
 20
7.7035425652
 11
7.0356053078
 21
7.6835425652
  0
LINE
  5
220
100
AcDbEntity
  8
0
100
AcDbLine
 62
7
  6
CONTINUOUS
 10
7.0981053078
 20
6.7705425652
 11
7.0981053078
 21
6.8005425652
  0
LINE
  5
221
100
AcDbEntity
  8
0
100
AcDbLine
 62
7
  6
CONTINUOUS
 10
7.1481053078
 20
7.3905425652
 11
7.1481053078
 21
7.6835425652
  0
LINE
  5
222
100
AcDbEntity
  8
0
100
AcDbLine
 62
7
  6
CONTINUOUS
 10
7.2356053078
 20
6.8955425652
 11
7.2356053078
 21
7.3705425652
  0
LINE
  5
223
100
AcDbEntity
  8
0
100
AcDbLine
 62
7
  6
CONTINUOUS
 10
7.2456053078
 20
10.3145661873
 11
7.2456053078
 21
10.3195268172
  0
LINE
  5
224
100
AcDbEntity
  8
0
100
AcDbLine
 62
7
  6
CONTINUOUS
 10
7.3330490343
 20
10.4364402467
 11
7.3330490343
 21
10.7826133877
  0
LINE
  5
225
100
AcDbEntity
  8
0
100
AcDbLine
 62
7
  6
CONTINUOUS
 10
7.3456053078
 20
11.0725268172
 11
7.3456053078
 21
10.8995268172
  0
LINE
  5
226
100
AcDbEntity
  8
0
100
AcDbLine
 62
7
  6
CONTINUOUS
 10
7.3590172383
 20
11.0725268206
 11
7.3590172383
 21
11.1675267973
  0
LINE
  5
227
100
AcDbEntity
  8
0
100
AcDbLine
 62
7
  6
CONTINUOUS
 10
7.3688993295
 20
8.753926545
 11
7.3688993295
 21
8.9785425652
  0
LINE
  5
228
100
AcDbEntity
  8
0
100
AcDbLine
 62
7
  6
CONTINUOUS
 10
7.4296053078
 20
10.3610960366
 11
7.4296053078
 21
10.8579575978
  0
LINE
  5
229
100
AcDbEntity
  8
0
100
AcDbLine
 62
7
  6
CONTINUOUS
 10
7.4606053078
 20
9.028542559
 11
7.4606053078
 21
8.7039265512
  0
LINE
  5
22A
100
AcDbEntity
  8
0
100
AcDbLine
 62
9
  6
CONTINUOUS
 10
7.5225322566
 20
9.3440543762
 11
7.5225322566
 21
10.0240543762
  0
LINE
  5
22B
100
AcDbEntity
  8
0
100
AcDbLine
 62
7
  6
CONTINUOUS
 10
7.5872466946
 20
10.2370243955
 11
7.5871233122
 21
10.2171027618
  0
LWPOLYLINE
  5
22C
100
AcDbEntity
  8
0
100
AcDbPolyline
 62
7
  6
CONTINUOUS
 90
12
 70
0
 10
7.36023742
 20
11.167526764
 10
7.3617660744
 20
11.3001369008
 10
7.357600798
 20
11.4692581227
 10
7.3474260323
 20
11.6162252736
 10
7.3321606157
 20
11.7404552569
 10
7.3111356695
 20
11.8475989922
 10
7.2794318457
 20
11.9501921045
 10
7.2278175252
 20
12.0554440887
 10
7.1503160133
 20
12.1556335086
 10
7.0424748594
 20
12.2421611557
 10
6.9031849765
 20
12.3027687167
 10
6.7592330056
 20
12.3223103189
  0
LINE
  5
22D
100
AcDbEntity
  8
0
100
AcDbLine
 62
7
  6
CONTINUOUS
 10
7.6401999685
 20
9.2484874
 11
7.605283224
 21
9.2040454695
  0
LINE
  5
22E
100
AcDbEntity
  8
0
100
AcDbLine
 62
9
  6
CONTINUOUS
 10
7.7065140514
 20
9.2806412925
 11
7.6715973069
 21
9.236199362
  0
LINE
  5
22F
100
AcDbEntity
  8
0
100
AcDbLine
 62
9
  6
CONTINUOUS
 10
7.7414267904
 20
9.236199362
 11
7.7633810308
 21
9.2641426551
  0
LINE
  5
230
100
AcDbEntity
  8
0
100
AcDbLine
 62
9
  6
CONTINUOUS
 10
7.8267441098
 20
9.1515324185
 11
7.8616608543
 21
9.195974349
  0
LINE
  5
231
100
AcDbEntity
  8
0
100
AcDbLine
 62
9
  6
CONTINUOUS
 10
7.8617842367
 20
9.1760527152
 11
7.8268674922
 21
9.1316107847
  0
LINE
  5
232
100
AcDbEntity
  8
0
100
AcDbLine
 62
7
  6
CONTINUOUS
 10
7.8438297505
 20
9.1235396642
 11
7.808913006
 21
9.0790977337
  0
LWPOLYLINE
  5
233
100
AcDbEntity
  8
0
100
AcDbPolyline
 62
7
  6
CONTINUOUS
 90
10
 70
0
 10
6.2769196499
 20
11.5990213453
 10
6.2758862694
 20
11.6028494542
 10
6.277858928
 20
11.5931426509
 10
6.2826063885
 20
11.5639522182
 10
6.2884566474
 20
11.5181469245
 10
6.2945035451
 20
11.4578872719
 10
6.3001417023
 20
11.3857598339
 10
6.3049696252
 20
11.3042123596
 10
6.3087321549
 20
11.2160624699
 10
6.310237907
 20
11.1675268017
  0
LINE
  5
234
100
AcDbEntity
  8
0
100
AcDbLine
 62
9
  6
CONTINUOUS
 10
7.6662156146
 20
9.1440151931
 11
7.666338997
 21
9.1240935594
  0
LINE
  5
235
100
AcDbEntity
  8
0
100
AcDbLine
 62
9
  6
CONTINUOUS
 10
7.7361684805
 20
9.1240935594
 11
7.7360450981
 21
9.1440151931
  0
LINE
  5
236
100
AcDbEntity
  8
0
100
AcDbLine
 62
9
  6
CONTINUOUS
 10
7.8267441098
 20
9.1515324185
 11
7.8268674922
 21
9.1316107847
  0
LINE
  5
237
100
AcDbEntity
  8
0
100
AcDbLine
 62
9
  6
CONTINUOUS
 10
7.7635943596
 20
9.2640929079
 11
7.7635943596
 21
10.1040158445
  0
LINE
  5
238
100
AcDbEntity
  8
0
100
AcDbLine
 62
9
  6
CONTINUOUS
 10
7.7980318028
 20
10.1132573973
 11
7.7980318028
 21
9.2548513552
  0
LINE
  5
239
100
AcDbEntity
  8
0
100
AcDbLine
 62
7
  6
CONTINUOUS
 10
7.8480318028
 20
9.2340543762
 11
7.8480318028
 21
10.1340543762
  0
LINE
  5
23A
100
AcDbEntity
  8
0
100
AcDbLine
 62
9
  6
CONTINUOUS
 10
7.666338997
 20
10.2440151931
 11
7.6662156146
 21
10.2240935594
  0
LINE
  5
23B
100
AcDbEntity
  8
0
100
AcDbLine
 62
9
  6
CONTINUOUS
 10
7.7360450981
 20
10.2240935594
 11
7.7361684805
 21
10.2440151931
  0
LINE
  5
23C
100
AcDbEntity
  8
0
100
AcDbLine
 62
9
  6
CONTINUOUS
 10
7.8268674922
 20
10.2364979677
 11
7.8267441098
 21
10.216576334
  0
LINE
  5
23D
100
AcDbEntity
  8
0
100
AcDbLine
 62
7
  6
CONTINUOUS
 10
7.4356053078
 20
8.678926545
 11
7.4606053078
 21
8.703926545
  0
LINE
  5
23E
100
AcDbEntity
  8
0
100
AcDbLine
 62
7
  6
CONTINUOUS
 10
9.407182391
 20
10.2730724588
 11
9.4072777798
 21
10.2731418822
  0
LWPOLYLINE
  5
23F
100
AcDbEntity
  8
0
100
AcDbPolyline
 62
7
  6
CONTINUOUS
 90
4
 70
0
 10
9.4073075888
 20
10.2731649268
 10
9.3979463388
 20
10.2673845081
 10
9.3604374404
 20
10.252812856
 10
9.3334604432
 20
10.2476254404
  0
LINE
  5
240
100
AcDbEntity
  8
0
100
AcDbLine
 62
9
  6
CONTINUOUS
 10
8.4784923281
 20
10.2240543762
 11
8.4784923281
 21
9.1440543762
  0
LINE
  5
241
100
AcDbEntity
  8
0
100
AcDbLine
 62
7
  6
CONTINUOUS
 10
9.2856053078
 20
8.905057267
 11
9.2856053078
 21
8.4690937463
  0
LINE
  5
242
100
AcDbEntity
  8
0
100
AcDbLine
 62
7
  6
CONTINUOUS
 10
9.2856053078
 20
7.6605110692
 11
9.2856053078
 21
8.4305110692
  0
LINE
  5
243
100
AcDbEntity
  8
0
100
AcDbLine
 62
7
  6
CONTINUOUS
 10
9.3533553078
 20
8.4690937463
 11
9.3533553078
 21
8.4305110692
  0
LINE
  5
244
100
AcDbEntity
  8
0
100
AcDbLine
 62
9
  6
CONTINUOUS
 10
9.1936669277
 20
8.4522913586
 11
9.1931896544
 21
8.4007389984
  0
LINE
  5
245
100
AcDbEntity
  8
0
100
AcDbLine
 62
9
  6
CONTINUOUS
 10
8.9204060941
 20
3.573035185
 11
8.9201355426
 21
3.5618053718
  0
LINE
  5
246
100
AcDbEntity
  8
0
100
AcDbLine
 62
9
  6
CONTINUOUS
 10
8.9414100611
 20
3.9454216359
 11
8.9411295563
 21
3.9338511849
  0
LINE
  5
247
100
AcDbEntity
  8
0
100
AcDbLine
 62
9
  6
CONTINUOUS
 10
8.8969196387
 20
3.156029295
 11
8.8966625576
 21
3.1458420919
  0
LINE
  5
248
100
AcDbEntity
  8
0
100
AcDbLine
 62
9
  6
CONTINUOUS
 10
8.870612737
 20
2.6842034169
 11
9.2302902809
 21
9.0582184554
  0
LINE
  5
249
100
AcDbEntity
  8
0
100
AcDbLine
 62
7
  6
CONTINUOUS
 10
9.2286271165
 20
9.0601393892
 11
8.8708053285
 21
2.6912292392
  0
LINE
  5
24A
100
AcDbEntity
  8
0
100
AcDbLine
 62
7
  6
CONTINUOUS
 10
9.5206053078
 20
7.5308260298
 11
9.5206053078
 21
7.5005110692
  0
LINE
  5
24B
100
AcDbEntity
  8
0
100
AcDbLine
 62
9
  6
CONTINUOUS
 10
9.8356056976
 20
8.7722939103
 11
9.8356063258
 21
9.0089732184
  0
LINE
  5
24C
100
AcDbEntity
  8
0
100
AcDbLine
 62
9
  6
CONTINUOUS
 10
9.8356053078
 20
7.5005110692
 11
9.8356053078
 21
2.1965543762
  0
LINE
  5
24D
100
AcDbEntity
  8
0
100
AcDbLine
 62
7
  6
CONTINUOUS
 10
7.4356053078
 20
9.0535425652
 11
7.4606053078
 21
9.0285425652
  0
LINE
  5
24E
100
AcDbEntity
  8
0
100
AcDbLine
 62
7
  6
CONTINUOUS
 10
7.4296053078
 20
10.8579575978
 11
7.4056053078
 21
10.8995268172
  0
LINE
  5
24F
100
AcDbEntity
  8
0
100
AcDbLine
 62
9
  6
CONTINUOUS
 10
10.8006046825
 20
2.6840829469
 11
10.4409205367
 21
9.0582148769
  0
LINE
  5
250
100
AcDbEntity
  8
0
100
AcDbLine
 62
7
  6
CONTINUOUS
 10
10.8004056477
 20
2.691222839
 11
10.5519360405
 21
7.1092193338
  0
LINE
  5
251
100
AcDbEntity
  8
0
100
AcDbLine
 62
7
  6
CONTINUOUS
 10
10.5519360405
 20
7.1092193338
 11
10.4803919036
 21
8.4008703242
  0
LINE
  5
252
100
AcDbEntity
  8
0
100
AcDbLine
 62
7
  6
CONTINUOUS
 10
10.4803919036
 20
8.4008703242
 11
10.4425837111
 21
9.0601358389
  0
LINE
  5
253
100
AcDbEntity
  8
0
100
AcDbLine
 62
7
  6
CONTINUOUS
 10
10.4775410853
 20
8.4523387242
 11
10.477543688
 21
8.4522913586
  0
LINE
  5
254
100
AcDbEntity
  8
0
100
AcDbLine
 62
9
  6
CONTINUOUS
 10
10.477543688
 20
8.4522913586
 11
10.4780209613
 21
8.4007389984
  0
LINE
  5
255
100
AcDbEntity
  8
0
100
AcDbLine
 62
7
  6
CONTINUOUS
 10
10.1506053078
 20
7.5308260298
 11
10.1506053078
 21
7.5005110692
  0
LINE
  5
256
100
AcDbEntity
  8
0
100
AcDbLine
 62
7
  6
CONTINUOUS
 10
10.3178553078
 20
8.4690937463
 11
10.3178553078
 21
8.4305110692
  0
LINE
  5
257
100
AcDbEntity
  8
0
100
AcDbLine
 62
7
  6
CONTINUOUS
 10
10.3856053078
 20
7.6605110692
 11
10.3856053078
 21
8.4305110692
  0
LINE
  5
258
100
AcDbEntity
  8
0
100
AcDbLine
 62
7
  6
CONTINUOUS
 10
10.3856053078
 20
8.4690937463
 11
10.3856053078
 21
8.9050572725
  0
LINE
  5
259
100
AcDbEntity
  8
0
100
AcDbLine
 62
7
  6
CONTINUOUS
 10
12.2416053078
 20
10.8579575978
 11
12.2656053078
 21
10.8995268172
  0
LINE
  5
25A
100
AcDbEntity
  8
0
100
AcDbLine
 62
7
  6
CONTINUOUS
 10
11.8273808652
 20
10.2445690883
 11
11.8622976097
 21
10.2890110188
  0
LINE
  5
25B
100
AcDbEntity
  8
0
100
AcDbLine
 62
9
  6
CONTINUOUS
 10
11.8443431235
 20
10.2364979677
 11
11.809426379
 21
10.1920560373
  0
LINE
  5
25C
100
AcDbEntity
  8
0
100
AcDbLine
 62
9
  6
CONTINUOUS
 10
11.8095497614
 20
10.1721344035
 11
11.8444665058
 21
10.216576334
  0
LINE
  5
25D
100
AcDbEntity
  8
0
100
AcDbLine
 62
9
  6
CONTINUOUS
 10
11.9297838252
 20
10.1319093905
 11
11.9103293449
 21
10.1071477847
  0
LINE
  5
25E
100
AcDbEntity
  8
0
100
AcDbLine
 62
9
  6
CONTINUOUS
 10
11.9804327409
 20
10.1074964197
 11
11.9996133088
 21
10.1319093905
  0
LINE
  5
25F
100
AcDbEntity
  8
0
100
AcDbLine
 62
7
  6
CONTINUOUS
 10
12.0310106472
 20
10.1196213525
 11
12.0659273917
 21
10.164063283
  0
LINE
  5
260
100
AcDbEntity
  8
0
100
AcDbLine
 62
7
  6
CONTINUOUS
 10
6.5731053078
 20
6.7705425652
 11
7.0981053078
 21
6.7705425652
  0
LINE
  5
261
100
AcDbEntity
  8
0
100
AcDbLine
 62
7
  6
CONTINUOUS
 10
12.5731053078
 20
6.7705425652
 11
13.0981053078
 21
6.7705425652
  0
LINE
  5
262
100
AcDbEntity
  8
0
100
AcDbLine
 62
9
  6
CONTINUOUS
 10
13.0981053078
 20
6.8005425652
 11
12.5731053078
 21
6.8005425652
  0
LINE
  5
263
100
AcDbEntity
  8
0
100
AcDbLine
 62
9
  6
CONTINUOUS
 10
7.0981053078
 20
6.8005425652
 11
6.5731053078
 21
6.8005425652
  0
LINE
  5
264
100
AcDbEntity
  8
0
100
AcDbLine
 62
7
  6
CONTINUOUS
 10
6.5231053078
 20
6.8205425652
 11
7.1481053078
 21
6.8205425652
  0
LINE
  5
265
100
AcDbEntity
  8
0
100
AcDbLine
 62
7
  6
CONTINUOUS
 10
12.5231053078
 20
6.8205425652
 11
13.1481053078
 21
6.8205425652
  0
LINE
  5
266
100
AcDbEntity
  8
0
100
AcDbLine
 62
7
  6
CONTINUOUS
 10
6.4356053078
 20
6.8955425652
 11
7.2356053078
 21
6.8955425652
  0
LINE
  5
267
100
AcDbEntity
  8
0
100
AcDbLine
 62
7
  6
CONTINUOUS
 10
12.4356053078
 20
6.8955425652
 11
13.2356053078
 21
6.8955425652
  0
LINE
  5
268
100
AcDbEntity
  8
0
100
AcDbLine
 62
9
  6
CONTINUOUS
 10
3.9856053078
 20
6.9365386241
 11
4.0270079069
 21
6.9365386241
  0
LINE
  5
269
100
AcDbEntity
  8
0
100
AcDbLine
 62
9
  6
CONTINUOUS
 10
15.6442027082
 20
6.9365386241
 11
15.6856053078
 21
6.9365386241
  0
LINE
  5
26A
100
AcDbEntity
  8
0
100
AcDbLine
 62
7
  6
CONTINUOUS
 10
7.3459397945
 20
10.2922448702
 11
7.3459431632
 21
10.2922416164
  0
LINE
  5
26B
100
AcDbEntity
  8
0
100
AcDbLine
 62
7
  6
CONTINUOUS
 10
7.605283224
 20
10.164063283
 11
7.6401999685
 21
10.1196213525
  0
LINE
  5
26C
100
AcDbEntity
  8
0
100
AcDbLine
 62
9
  6
CONTINUOUS
 10
7.6715973069
 20
10.1319093905
 11
7.7065140514
 21
10.08746746
  0
LINE
  5
26D
100
AcDbEntity
  8
0
100
AcDbLine
 62
9
  6
CONTINUOUS
 10
7.7633810308
 20
10.1039660974
 11
7.7414267904
 21
10.1319093905
  0
LINE
  5
26E
100
AcDbEntity
  8
0
100
AcDbLine
 62
9
  6
CONTINUOUS
 10
7.8267441098
 20
10.216576334
 11
7.8616608543
 21
10.1721344035
  0
LINE
  5
26F
100
AcDbEntity
  8
0
100
AcDbLine
 62
9
  6
CONTINUOUS
 10
7.8617842367
 20
10.1920560373
 11
7.8268674922
 21
10.2364979677
  0
LINE
  5
270
100
AcDbEntity
  8
0
100
AcDbLine
 62
7
  6
CONTINUOUS
 10
7.808913006
 20
10.2890110188
 11
7.8438297505
 21
10.2445690883
  0
LINE
  5
271
100
AcDbEntity
  8
0
100
AcDbLine
 62
9
  6
CONTINUOUS
 10
10.7742914768
 20
3.156020378
 11
10.7745479928
 21
3.1458295799
  0
LINE
  5
272
100
AcDbEntity
  8
0
100
AcDbLine
 62
9
  6
CONTINUOUS
 10
10.7298005546
 20
3.9454216359
 11
10.7300810593
 21
3.9338511849
  0
LINE
  5
273
100
AcDbEntity
  8
0
100
AcDbLine
 62
9
  6
CONTINUOUS
 10
10.7508045215
 20
3.573035185
 11
10.7510750731
 21
3.5618053718
  0
LINE
  5
274
100
AcDbEntity
  8
0
100
AcDbLine
 62
9
  6
CONTINUOUS
 10
10.6635712776
 20
9.1440543762
 11
10.6635712776
 21
10.2240543762
  0
LINE
  5
275
100
AcDbEntity
  8
0
100
AcDbLine
 62
7
  6
CONTINUOUS
 10
12.2356053078
 20
9.0535425652
 11
12.2106053078
 21
9.0285425652
  0
LINE
  5
276
100
AcDbEntity
  8
0
100
AcDbLine
 62
7
  6
CONTINUOUS
 10
4.7289462378
 20
6.8998402873
 11
6.3789668239
 21
6.952727669
  0
LINE
  5
277
100
AcDbEntity
  8
0
100
AcDbLine
 62
7
  6
CONTINUOUS
 10
4.0266697171
 20
6.879298768
 11
4.7289462378
 21
6.8998402873
  0
LINE
  5
278
100
AcDbEntity
  8
0
100
AcDbLine
 62
9
  6
CONTINUOUS
 10
6.4174315823
 20
7.0010908282
 11
4.027007861
 21
6.9365451927
  0
LINE
  5
279
100
AcDbEntity
  8
0
100
AcDbLine
 62
7
  6
CONTINUOUS
 10
14.9426228802
 20
7.3260106214
 11
13.2907935375
 21
7.3164187221
  0
LINE
  5
27A
100
AcDbEntity
  8
0
100
AcDbLine
 62
7
  6
CONTINUOUS
 10
15.6455906448
 20
7.3281204429
 11
14.9426228802
 21
7.3260106214
  0
LINE
  5
27B
100
AcDbEntity
  8
0
100
AcDbLine
 62
9
  6
CONTINUOUS
 10
15.6856053078
 20
7.2708703249
 11
13.2513330598
 21
7.2690493718
  0
LINE
  5
27C
100
AcDbEntity
  8
0
100
AcDbLine
 62
7
  6
CONTINUOUS
 10
13.2356054214
 20
7.3705425652
 11
12.4356053078
 21
7.3705425652
  0
LINE
  5
27D
100
AcDbEntity
  8
0
100
AcDbLine
 62
7
  6
CONTINUOUS
 10
7.2356053078
 20
7.3705425652
 11
6.4356051943
 21
7.3705425652
  0
LINE
  5
27E
100
AcDbEntity
  8
0
100
AcDbLine
 62
9
  6
CONTINUOUS
 10
6.5231053078
 20
7.3905425652
 11
7.1480596424
 21
7.3905425652
  0
LINE
  5
27F
100
AcDbEntity
  8
0
100
AcDbLine
 62
9
  6
CONTINUOUS
 10
12.5231053078
 20
7.3905425652
 11
13.1480596424
 21
7.3905425652
  0
LINE
  5
280
100
AcDbEntity
  8
0
100
AcDbLine
 62
7
  6
CONTINUOUS
 10
9.5206090724
 20
7.5005110692
 11
10.1506015433
 21
7.5005110692
  0
LINE
  5
281
100
AcDbEntity
  8
0
100
AcDbLine
 62
9
  6
CONTINUOUS
 10
10.1506053078
 20
7.5308260298
 11
9.5206053078
 21
7.5308260298
  0
LINE
  5
282
100
AcDbEntity
  8
0
100
AcDbLine
 62
7
  6
CONTINUOUS
 10
9.4706096773
 20
7.5505110692
 11
10.2006009384
 21
7.5505110692
  0
LINE
  5
283
100
AcDbEntity
  8
0
100
AcDbLine
 62
9
  6
CONTINUOUS
 10
3.9856053078
 20
7.2708703249
 11
6.4198775423
 21
7.2690493726
  0
LWPOLYLINE
  5
284
100
AcDbEntity
  8
0
100
AcDbPolyline
 62
7
  6
CONTINUOUS
 90
3
 70
0
 10
6.3804170781
 20
7.3164187221
 10
4.7285877379
 20
7.3260106213
 10
4.0256199708
 20
7.3281204429
  0
LINE
  5
285
100
AcDbEntity
  8
0
100
AcDbLine
 62
9
  6
CONTINUOUS
 10
15.6442027535
 20
6.9365451125
 11
13.2537790242
 21
7.001090829
  0
LWPOLYLINE
  5
286
100
AcDbEntity
  8
0
100
AcDbPolyline
 62
7
  6
CONTINUOUS
 90
3
 70
0
 10
13.2922437918
 20
6.952727669
 10
14.9422643779
 20
6.8998402873
 10
15.6445408985
 20
6.879298768
  0
LINE
  5
287
100
AcDbEntity
  8
0
100
AcDbLine
 62
7
  6
CONTINUOUS
 10
11.3160318028
 20
10.0940543762
 11
11.3160318028
 21
9.2740543762
  0
LINE
  5
288
100
AcDbEntity
  8
0
100
AcDbLine
 62
7
  6
CONTINUOUS
 10
11.4160318028
 20
9.2740543762
 11
11.4160318028
 21
10.0940543762
  0
LINE
  5
289
100
AcDbEntity
  8
0
100
AcDbLine
 62
7
  6
CONTINUOUS
 10
13.4056053078
 20
10.3195268172
 11
13.4296053078
 21
10.3610960366
  0
LINE
  5
28A
100
AcDbEntity
  8
0
100
AcDbLine
 62
7
  6
CONTINUOUS
 10
9.315685771
 20
7.6305110692
 11
10.3555248446
 21
7.6305110692
  0
LINE
  5
28B
100
AcDbEntity
  8
0
100
AcDbLine
 62
9
  6
CONTINUOUS
 10
9.2856053078
 20
7.6605110692
 11
10.3856053078
 21
7.6605110692
  0
LINE
  5
28C
100
AcDbEntity
  8
0
100
AcDbLine
 62
7
  6
CONTINUOUS
 10
13.1481053078
 20
7.6835425652
 11
12.5231053078
 21
7.6835425652
  0
LINE
  5
28D
100
AcDbEntity
  8
0
100
AcDbLine
 62
7
  6
CONTINUOUS
 10
7.1481053078
 20
7.6835425652
 11
6.5231053078
 21
7.6835425652
  0
LINE
  5
28E
100
AcDbEntity
  8
0
100
AcDbLine
 62
7
  6
CONTINUOUS
 10
6.4636991632
 20
7.7035425652
 11
7.2075114525
 21
7.7035425652
  0
LINE
  5
28F
100
AcDbEntity
  8
0
100
AcDbLine
 62
7
  6
CONTINUOUS
 10
12.4636991632
 20
7.7035425652
 11
13.2075114525
 21
7.7035425652
  0
LINE
  5
290
100
AcDbEntity
  8
0
100
AcDbLine
 62
9
  6
CONTINUOUS
 10
6.4337828919
 20
7.731240699
 11
7.2374277238
 21
7.731240699
  0
LINE
  5
291
100
AcDbEntity
  8
0
100
AcDbLine
 62
9
  6
CONTINUOUS
 10
12.4337828919
 20
7.731240699
 11
13.2374277238
 21
7.731240699
  0
LINE
  5
292
100
AcDbEntity
  8
0
100
AcDbLine
 62
9
  6
CONTINUOUS
 10
11.8444665058
 20
10.216576334
 11
11.8443431235
 21
10.2364979677
  0
LINE
  5
293
100
AcDbEntity
  8
0
100
AcDbLine
 62
9
  6
CONTINUOUS
 10
11.9350421351
 20
10.2440151931
 11
11.9351655175
 21
10.2240935594
  0
LINE
  5
294
100
AcDbEntity
  8
0
100
AcDbLine
 62
9
  6
CONTINUOUS
 10
12.0049950011
 20
10.2240935594
 11
12.0048716187
 21
10.2440151931
  0
LINE
  5
295
100
AcDbEntity
  8
0
100
AcDbLine
 62
7
  6
CONTINUOUS
 10
12.0840873035
 20
10.2171027618
 11
12.0839639211
 21
10.2370243955
  0
LINE
  5
296
100
AcDbEntity
  8
0
100
AcDbLine
 62
7
  6
CONTINUOUS
 10
11.8850318028
 20
10.1099588101
 11
11.8850318028
 21
9.2581499424
  0
LINE
  5
297
100
AcDbEntity
  8
0
100
AcDbLine
 62
7
  6
CONTINUOUS
 10
11.9850318028
 20
9.260488646
 11
11.9850318028
 21
10.1076201065
  0
LINE
  5
298
100
AcDbEntity
  8
0
100
AcDbLine
 62
7
  6
CONTINUOUS
 10
12.0450318028
 20
9.3163060661
 11
12.0450318028
 21
10.0905543762
  0
LINE
  5
299
100
AcDbEntity
  8
0
100
AcDbLine
 62
7
  6
CONTINUOUS
 10
12.0670318028
 20
10.1339942444
 11
12.0670318028
 21
9.2341145081
  0
LINE
  5
29A
100
AcDbEntity
  8
0
100
AcDbLine
 62
7
  6
CONTINUOUS
 10
12.2106053078
 20
8.7039265512
 11
12.2106053078
 21
9.028542559
  0
LINE
  5
29B
100
AcDbEntity
  8
0
100
AcDbLine
 62
7
  6
CONTINUOUS
 10
12.2416053078
 20
10.3610960366
 11
12.2416053078
 21
10.8579575978
  0
LINE
  5
29C
100
AcDbEntity
  8
0
100
AcDbLine
 62
7
  6
CONTINUOUS
 10
12.3023112862
 20
8.9785425652
 11
12.3023112862
 21
8.753926545
  0
LINE
  5
29D
100
AcDbEntity
  8
0
100
AcDbLine
 62
9
  6
CONTINUOUS
 10
11.8443431235
 20
9.1316107847
 11
11.8444665058
 21
9.1515324185
  0
LINE
  5
29E
100
AcDbEntity
  8
0
100
AcDbLine
 62
9
  6
CONTINUOUS
 10
11.9351655175
 20
9.1440151931
 11
11.9350421352
 21
9.1240935594
  0
LINE
  5
29F
100
AcDbEntity
  8
0
100
AcDbLine
 62
9
  6
CONTINUOUS
 10
12.0048716187
 20
9.1240935594
 11
12.0049950011
 21
9.1440151931
  0
LINE
  5
2A0
100
AcDbEntity
  8
0
100
AcDbLine
 62
7
  6
CONTINUOUS
 10
12.0839639211
 20
9.1310843569
 11
12.0840873035
 21
9.1510059907
  0
LINE
  5
2A1
100
AcDbEntity
  8
0
100
AcDbLine
 62
7
  6
CONTINUOUS
 10
13.4356053078
 20
8.678926545
 11
13.4606053078
 21
8.703926545
  0
LINE
  5
2A2
100
AcDbEntity
  8
0
100
AcDbLine
 62
9
  6
CONTINUOUS
 10
6.2634484238
 20
8.2715417647
 11
7.4077621919
 21
8.2715417647
  0
LINE
  5
2A3
100
AcDbEntity
  8
0
100
AcDbLine
 62
9
  6
CONTINUOUS
 10
12.2634484238
 20
8.2715417647
 11
13.4077621919
 21
8.2715417647
  0
LINE
  5
2A4
100
AcDbEntity
  8
0
100
AcDbLine
 62
7
  6
CONTINUOUS
 10
10.3855318133
 20
8.4305110692
 11
9.2856788023
 21
8.4305110692
  0
LINE
  5
2A5
100
AcDbEntity
  8
0
100
AcDbLine
 62
7
  6
CONTINUOUS
 10
9.2856788023
 20
8.4690937463
 11
10.3855318133
 21
8.4690937463
  0
LINE
  5
2A6
100
AcDbEntity
  8
0
100
AcDbLine
 62
9
  6
CONTINUOUS
 10
6.2625198198
 20
8.4735425652
 11
7.4086907958
 21
8.4735425652
  0
LINE
  5
2A7
100
AcDbEntity
  8
0
100
AcDbLine
 62
9
  6
CONTINUOUS
 10
12.2625198198
 20
8.4735425652
 11
13.4086907958
 21
8.4735425652
  0
LINE
  5
2A8
100
AcDbEntity
  8
0
100
AcDbLine
 62
9
  6
CONTINUOUS
 10
6.2356053078
 20
8.678926545
 11
7.4356053078
 21
8.678926545
  0
LINE
  5
2A9
100
AcDbEntity
  8
0
100
AcDbLine
 62
9
  6
CONTINUOUS
 10
12.2356053078
 20
8.678926545
 11
13.4356053078
 21
8.678926545
  0
LINE
  5
2AA
100
AcDbEntity
  8
0
100
AcDbLine
 62
7
  6
CONTINUOUS
 10
12.3121933774
 20
11.0725268206
 11
12.3121933774
 21
11.1675267973
  0
LINE
  5
2AB
100
AcDbEntity
  8
0
100
AcDbLine
 62
7
  6
CONTINUOUS
 10
12.3256053078
 20
11.0725268172
 11
12.3256053078
 21
10.8995268172
  0
LINE
  5
2AC
100
AcDbEntity
  8
0
100
AcDbLine
 62
7
  6
CONTINUOUS
 10
12.3381615813
 20
10.7826133877
 11
12.3381615813
 21
10.4364402467
  0
LINE
  5
2AD
100
AcDbEntity
  8
0
100
AcDbLine
 62
7
  6
CONTINUOUS
 10
12.4256053078
 20
10.3145661873
 11
12.4256053078
 21
10.3195268172
  0
LINE
  5
2AE
100
AcDbEntity
  8
0
100
AcDbLine
 62
7
  6
CONTINUOUS
 10
12.4356053078
 20
6.8955425652
 11
12.4356053078
 21
7.3705425652
  0
LINE
  5
2AF
100
AcDbEntity
  8
0
100
AcDbLine
 62
7
  6
CONTINUOUS
 10
12.5231053078
 20
7.3905425652
 11
12.5231053078
 21
7.6835425652
  0
LINE
  5
2B0
100
AcDbEntity
  8
0
100
AcDbLine
 62
7
  6
CONTINUOUS
 10
12.5731053078
 20
6.7705425652
 11
12.5731053078
 21
6.8005425652
  0
LINE
  5
2B1
100
AcDbEntity
  8
0
100
AcDbLine
 62
7
  6
CONTINUOUS
 10
12.6356053078
 20
7.7035425652
 11
12.6356053078
 21
7.6835425652
  0
LINE
  5
2B2
100
AcDbEntity
  8
0
100
AcDbLine
 62
7
  6
CONTINUOUS
 10
12.6870318028
 20
9.2550930919
 11
12.6870318028
 21
10.1130156606
  0
LINE
  5
2B3
100
AcDbEntity
  8
0
100
AcDbLine
 62
7
  6
CONTINUOUS
 10
12.6990318028
 20
9.3065543762
 11
12.6990318028
 21
10.0615543762
  0
LINE
  5
2B4
100
AcDbEntity
  8
0
100
AcDbLine
 62
7
  6
CONTINUOUS
 10
12.7315318028
 20
10.1006592992
 11
12.7315318028
 21
9.2674494533
  0
LINE
  5
2B5
100
AcDbEntity
  8
0
100
AcDbLine
 62
7
  6
CONTINUOUS
 10
12.7365318028
 20
9.2674494527
 11
12.7365318028
 21
10.1006592998
  0
LINE
  5
2B6
100
AcDbEntity
  8
0
100
AcDbLine
 62
7
  6
CONTINUOUS
 10
12.7390490343
 20
10.4364402467
 11
12.7390490343
 21
10.7826133877
  0
LINE
  5
2B7
100
AcDbEntity
  8
0
100
AcDbLine
 62
7
  6
CONTINUOUS
 10
12.7438993295
 20
8.753926545
 11
12.7438993295
 21
8.9785425652
  0
LINE
  5
2B8
100
AcDbEntity
  8
0
100
AcDbLine
 62
7
  6
CONTINUOUS
 10
12.7690318028
 20
10.1102410737
 11
12.7690318028
 21
9.2578676788
  0
LINE
  5
2B9
100
AcDbEntity
  8
0
100
AcDbLine
 62
7
  6
CONTINUOUS
 10
11.1198634206
 20
9.2161708303
 11
11.2660532184
 21
9.2340543762
  0
LINE
  5
2BA
100
AcDbEntity
  8
0
100
AcDbLine
 62
7
  6
CONTINUOUS
 10
11.3224464268
 20
9.2409530145
 11
11.7738033752
 21
9.2961679668
  0
LINE
  5
2BB
100
AcDbEntity
  8
0
100
AcDbLine
 62
7
  6
CONTINUOUS
 10
12.0290448311
 20
9.3273919124
 11
12.0449690691
 21
9.3293399406
  0
LINE
  5
2BC
100
AcDbEntity
  8
0
100
AcDbLine
 62
7
  6
CONTINUOUS
 10
13.2297082346
 20
9.2734004484
 11
12.7690318028
 21
9.2578107214
  0
LINE
  5
2BD
100
AcDbEntity
  8
0
100
AcDbLine
 62
7
  6
CONTINUOUS
 10
12.6870318028
 20
9.2550357637
 11
12.0670318028
 21
9.2340543762
  0
LINE
  5
2BE
100
AcDbEntity
  8
0
100
AcDbLine
 62
7
  6
CONTINUOUS
 10
6.7438993295
 20
8.753926545
 11
6.9273112862
 21
8.753926545
  0
LINE
  5
2BF
100
AcDbEntity
  8
0
100
AcDbLine
 62
7
  6
CONTINUOUS
 10
7.3688993295
 20
8.753926545
 11
7.4606053078
 21
8.753926545
  0
LINE
  5
2C0
100
AcDbEntity
  8
0
100
AcDbLine
 62
7
  6
CONTINUOUS
 10
12.2106053078
 20
8.753926545
 11
12.3023112862
 21
8.753926545
  0
LINE
  5
2C1
100
AcDbEntity
  8
0
100
AcDbLine
 62
7
  6
CONTINUOUS
 10
12.7438993295
 20
8.753926545
 11
12.9273112862
 21
8.753926545
  0
LINE
  5
2C2
100
AcDbEntity
  8
0
100
AcDbLine
 62
7
  6
CONTINUOUS
 10
13.3688993295
 20
8.753926545
 11
13.4606053078
 21
8.753926545
  0
LINE
  5
2C3
100
AcDbEntity
  8
0
100
AcDbLine
 62
7
  6
CONTINUOUS
 10
13.4606053078
 20
8.9785425652
 11
13.3688993295
 21
8.9785425652
  0
LINE
  5
2C4
100
AcDbEntity
  8
0
100
AcDbLine
 62
7
  6
CONTINUOUS
 10
12.9273112862
 20
8.9785425652
 11
12.7438993295
 21
8.9785425652
  0
LINE
  5
2C5
100
AcDbEntity
  8
0
100
AcDbLine
 62
7
  6
CONTINUOUS
 10
12.3023112862
 20
8.9785425652
 11
12.2106053078
 21
8.9785425652
  0
LINE
  5
2C6
100
AcDbEntity
  8
0
100
AcDbLine
 62
7
  6
CONTINUOUS
 10
7.4606053078
 20
8.9785425652
 11
7.3688993295
 21
8.9785425652
  0
LINE
  5
2C7
100
AcDbEntity
  8
0
100
AcDbLine
 62
7
  6
CONTINUOUS
 10
6.9273112862
 20
8.9785425652
 11
6.7438993295
 21
8.9785425652
  0
LINE
  5
2C8
100
AcDbEntity
  8
0
100
AcDbLine
 62
7
  6
CONTINUOUS
 10
7.6722450644
 20
9.0466107847
 11
7.7420745479
 21
9.0466107847
  0
LINE
  5
2C9
100
AcDbEntity
  8
0
100
AcDbLine
 62
7
  6
CONTINUOUS
 10
11.9291360677
 20
9.0466107847
 11
11.9989655512
 21
9.0466107847
  0
LINE
  5
2CA
100
AcDbEntity
  8
0
100
AcDbLine
 62
7
  6
CONTINUOUS
 10
13.4356018694
 20
9.0535425652
 11
12.2356087462
 21
9.0535425652
  0
LINE
  5
2CB
100
AcDbEntity
  8
0
100
AcDbLine
 62
7
  6
CONTINUOUS
 10
7.4356018694
 20
9.0535425652
 11
6.7920887408
 21
9.0535425652
  0
LINE
  5
2CC
100
AcDbEntity
  8
0
100
AcDbLine
 62
9
  6
CONTINUOUS
 10
13.3542733427
 20
9.0970383758
 11
12.3447911961
 21
9.0970383736
  0
LINE
  5
2CD
100
AcDbEntity
  8
0
100
AcDbLine
 62
9
  6
CONTINUOUS
 10
7.666338997
 20
9.1240935594
 11
7.7361684805
 21
9.1240935594
  0
LINE
  5
2CE
100
AcDbEntity
  8
0
100
AcDbLine
 62
9
  6
CONTINUOUS
 10
11.9350421352
 20
9.1240935594
 11
12.0048716187
 21
9.1240935594
  0
LINE
  5
2CF
100
AcDbEntity
  8
0
100
AcDbLine
 62
9
  6
CONTINUOUS
 10
12.0049950011
 20
9.1440151931
 11
11.9351655175
 21
9.1440151931
  0
LINE
  5
2D0
100
AcDbEntity
  8
0
100
AcDbLine
 62
9
  6
CONTINUOUS
 10
7.7360450981
 20
9.1440151931
 11
7.6662156146
 21
9.1440151931
  0
LINE
  5
2D1
100
AcDbEntity
  8
0
100
AcDbLine
 62
7
  6
CONTINUOUS
 10
8.4784923281
 20
9.1440543762
 11
10.6635712776
 21
9.1440543762
  0
LINE
  5
2D2
100
AcDbEntity
  8
0
100
AcDbLine
 62
7
  6
CONTINUOUS
 10
11.3113708057
 20
9.2340543762
 11
11.1652951858
 21
9.2340543762
  0
LINE
  5
2D3
100
AcDbEntity
  8
0
100
AcDbLine
 62
7
  6
CONTINUOUS
 10
7.8444038406
 20
9.2340543762
 11
7.8480318028
 21
9.2340543762
  0
LINE
  5
2D4
100
AcDbEntity
  8
0
100
AcDbLine
 62
9
  6
CONTINUOUS
 10
7.6715973069
 20
9.236199362
 11
7.7414267904
 21
9.236199362
  0
LINE
  5
2D5
100
AcDbEntity
  8
0
100
AcDbLine
 62
9
  6
CONTINUOUS
 10
11.9297838252
 20
9.236199362
 11
11.9996133088
 21
9.236199362
  0
LINE
  5
2D6
100
AcDbEntity
  8
0
100
AcDbLine
 62
7
  6
CONTINUOUS
 10
12.7365318028
 20
9.2673937761
 11
12.7315318028
 21
9.2673937761
  0
LINE
  5
2D7
100
AcDbEntity
  8
0
100
AcDbLine
 62
7
  6
CONTINUOUS
 10
11.3160318028
 20
9.2740543762
 11
11.4160318028
 21
9.2740543762
  0
LINE
  5
2D8
100
AcDbEntity
  8
0
100
AcDbLine
 62
9
  6
CONTINUOUS
 10
7.7215259334
 20
9.2806412925
 11
7.7065140514
 21
9.2806412925
  0
LINE
  5
2D9
100
AcDbEntity
  8
0
100
AcDbLine
 62
7
  6
CONTINUOUS
 10
12.6870318028
 20
9.3065543762
 11
12.6990541314
 21
9.3065543762
  0
LINE
  5
2DA
100
AcDbEntity
  8
0
100
AcDbLine
 62
7
  6
CONTINUOUS
 10
12.0530823279
 20
9.316214377
 11
12.0450318028
 21
9.316214377
  0
LINE
  5
2DB
100
AcDbEntity
  8
0
100
AcDbLine
 62
9
  6
CONTINUOUS
 10
7.3264024549
 20
9.0969518221
 11
6.8196130812
 21
9.0970371735
  0
LINE
  5
2DC
100
AcDbEntity
  8
0
100
AcDbLine
 62
7
  6
CONTINUOUS
 10
11.9804327409
 20
9.2606123328
 11
11.9103293449
 21
9.2609609678
  0
LINE
  5
2DD
100
AcDbEntity
  8
0
100
AcDbLine
 62
7
  6
CONTINUOUS
 10
10.2641509
 20
10.2729867462
 11
10.2639026891
 21
10.2731651721
  0
LINE
  5
2DE
100
AcDbEntity
  8
0
100
AcDbLine
 62
7
  6
CONTINUOUS
 10
10.2639662079
 20
10.2731176158
 11
10.2640693548
 21
10.273042531
  0
LINE
  5
2DF
100
AcDbEntity
  8
0
100
AcDbLine
 62
7
  6
CONTINUOUS
 10
12.2356053078
 20
8.678926545
 11
12.2106053078
 21
8.703926545
  0
LINE
  5
2E0
100
AcDbEntity
  8
0
100
AcDbLine
 62
7
  6
CONTINUOUS
 10
11.8622976097
 20
9.0790977337
 11
11.8273808652
 21
9.1235396642
  0
LINE
  5
2E1
100
AcDbEntity
  8
0
100
AcDbLine
 62
9
  6
CONTINUOUS
 10
11.8443431235
 20
9.1316107847
 11
11.809426379
 21
9.1760527152
  0
LINE
  5
2E2
100
AcDbEntity
  8
0
100
AcDbLine
 62
9
  6
CONTINUOUS
 10
11.8095497614
 20
9.195974349
 11
11.8444665058
 21
9.1515324185
  0
LINE
  5
2E3
100
AcDbEntity
  8
0
100
AcDbLine
 62
9
  6
CONTINUOUS
 10
11.9103293449
 20
9.2609609678
 11
11.9297838252
 21
9.236199362
  0
LINE
  5
2E4
100
AcDbEntity
  8
0
100
AcDbLine
 62
9
  6
CONTINUOUS
 10
11.9996133088
 20
9.236199362
 11
11.9804327409
 21
9.2606123328
  0
LINE
  5
2E5
100
AcDbEntity
  8
0
100
AcDbLine
 62
7
  6
CONTINUOUS
 10
12.0524564072
 20
9.3167563347
 11
12.0670318028
 21
9.2915472362
  0
LINE
  5
2E6
100
AcDbEntity
  8
0
100
AcDbLine
 62
7
  6
CONTINUOUS
 10
12.9273112862
 20
8.9785425652
 11
12.9273112862
 21
8.753926545
  0
LINE
  5
2E7
100
AcDbEntity
  8
0
100
AcDbLine
 62
7
  6
CONTINUOUS
 10
12.9321615813
 20
10.7826133877
 11
12.9321615813
 21
10.4364402467
  0
LINE
  5
2E8
100
AcDbEntity
  8
0
100
AcDbLine
 62
7
  6
CONTINUOUS
 10
12.9990318028
 20
9.4983557767
 11
12.9990318028
 21
9.8697529757
  0
LINE
  5
2E9
100
AcDbEntity
  8
0
100
AcDbLine
 62
7
  6
CONTINUOUS
 10
13.0356053078
 20
7.7035425652
 11
13.0356053078
 21
7.6835425652
  0
LINE
  5
2EA
100
AcDbEntity
  8
0
100
AcDbLine
 62
7
  6
CONTINUOUS
 10
13.0981053078
 20
6.7705425652
 11
13.0981053078
 21
6.8005425652
  0
LINE
  5
2EB
100
AcDbEntity
  8
0
100
AcDbLine
 62
7
  6
CONTINUOUS
 10
13.1481053078
 20
7.3905425652
 11
13.1481053078
 21
7.6835425652
  0
LINE
  5
2EC
100
AcDbEntity
  8
0
100
AcDbLine
 62
9
  6
CONTINUOUS
 10
13.1588952275
 20
7.3547498295
 11
13.1588952275
 21
6.9167104231
  0
LINE
  5
2ED
100
AcDbEntity
  8
0
100
AcDbLine
 62
9
  6
CONTINUOUS
 10
13.205276669
 20
7.2792107141
 11
13.205276669
 21
6.9911711553
  0
LINE
  5
2EE
100
AcDbEntity
  8
0
100
AcDbLine
 62
9
  6
CONTINUOUS
 10
13.2297082346
 20
9.2734004484
 11
13.2297082346
 21
9.5166855895
  0
LINE
  5
2EF
100
AcDbEntity
  8
0
100
AcDbLine
 62
9
  6
CONTINUOUS
 10
13.2297082346
 20
9.8514206666
 11
13.2297082346
 21
10.0947083041
  0
LINE
  5
2F0
100
AcDbEntity
  8
0
100
AcDbLine
 62
7
  6
CONTINUOUS
 10
13.2456053078
 20
10.3145661873
 11
13.2456053078
 21
10.3195268172
  0
LINE
  5
2F1
100
AcDbEntity
  8
0
100
AcDbLine
 62
7
  6
CONTINUOUS
 10
13.2490318028
 20
10.0747197464
 11
13.2490318028
 21
9.2933890061
  0
LINE
  5
2F2
100
AcDbEntity
  8
0
100
AcDbLine
 62
7
  6
CONTINUOUS
 10
13.3330490343
 20
10.4364402467
 11
13.3330490343
 21
10.7826133877
  0
LINE
  5
2F3
100
AcDbEntity
  8
0
100
AcDbLine
 62
7
  6
CONTINUOUS
 10
13.3456053078
 20
11.0725268172
 11
13.3456053078
 21
10.8995268172
  0
LINE
  5
2F4
100
AcDbEntity
  8
0
100
AcDbLine
 62
7
  6
CONTINUOUS
 10
13.3597525256
 20
11.0725268206
 11
13.3597525256
 21
11.1675267973
  0
LINE
  5
2F5
100
AcDbEntity
  8
0
100
AcDbLine
 62
7
  6
CONTINUOUS
 10
13.3688993295
 20
8.753926545
 11
13.3688993295
 21
8.9785425652
  0
LINE
  5
2F6
100
AcDbEntity
  8
0
100
AcDbLine
 62
7
  6
CONTINUOUS
 10
13.4296053078
 20
10.3610960366
 11
13.4296053078
 21
10.8579575978
  0
LINE
  5
2F7
100
AcDbEntity
  8
0
100
AcDbLine
 62
7
  6
CONTINUOUS
 10
13.4606053078
 20
9.028542559
 11
13.4606053078
 21
8.7039265512
  0
LWPOLYLINE
  5
2F8
100
AcDbEntity
  8
0
100
AcDbPolyline
 62
7
  6
CONTINUOUS
 90
9
 70
0
 10
13.3609727086
 20
11.1675268017
 10
13.3624794693
 20
11.2160912636
 10
13.3662434347
 20
11.3042605447
 10
13.3710729468
 20
11.3858187703
 10
13.376712639
 20
11.4579498847
 10
13.3827607907
 20
11.5182069964
 10
13.3886116395
 20
11.5640033126
 10
13.3933578921
 20
11.5931759064
 10
13.3949703509
 20
11.6012707046
  0
LINE
  5
2F9
100
AcDbEntity
  8
0
100
AcDbLine
 62
9
  6
CONTINUOUS
 10
6.6239848342
 20
9.3440545804
 11
6.6234906471
 21
9.3440528254
  0
LINE
  5
2FA
100
AcDbEntity
  8
0
100
AcDbLine
 62
7
  6
CONTINUOUS
 10
6.6239848451
 20
9.3440543762
 11
7.5225322566
 21
9.3440543762
  0
LINE
  5
2FB
100
AcDbEntity
  8
0
100
AcDbLine
 62
7
  6
CONTINUOUS
 10
11.9850318028
 20
9.3540543762
 11
12.0450318028
 21
9.3540543762
  0
LINE
  5
2FC
100
AcDbEntity
  8
0
100
AcDbLine
 62
7
  6
CONTINUOUS
 10
13.2490318028
 20
9.4140543762
 11
17.8390318028
 21
9.4140543762
  0
LINE
  5
2FD
100
AcDbEntity
  8
0
100
AcDbLine
 62
7
  6
CONTINUOUS
 10
12.3252719526
 20
9.075862553
 11
12.3252680862
 21
9.0758662079
  0
LINE
  5
2FE
100
AcDbEntity
  8
0
100
AcDbLine
 62
7
  6
CONTINUOUS
 10
12.0659273917
 20
9.2040454695
 11
12.0310106472
 21
9.2484874
  0
LINE
  5
2FF
100
AcDbEntity
  8
0
100
AcDbLine
 62
7
  6
CONTINUOUS
 10
9.3334606091
 20
10.2476252463
 11
9.140782419
 21
10.2240543762
  0
LINE
  5
300
100
AcDbEntity
  8
0
100
AcDbLine
 62
7
  6
CONTINUOUS
 10
11.9103293449
 20
10.1071477847
 11
11.9804327409
 21
10.1074964197
  0
LINE
  5
301
100
AcDbEntity
  8
0
100
AcDbLine
 62
7
  6
CONTINUOUS
 10
13.2490318028
 20
9.9540543762
 11
17.8390318028
 21
9.9540543762
  0
LINE
  5
302
100
AcDbEntity
  8
0
100
AcDbLine
 62
7
  6
CONTINUOUS
 10
11.9850318028
 20
10.0140543762
 11
12.0450318028
 21
10.0140543762
  0
LINE
  5
303
100
AcDbEntity
  8
0
100
AcDbLine
 62
7
  6
CONTINUOUS
 10
6.6239848451
 20
10.0240543762
 11
7.5225322566
 21
10.0240543762
  0
LINE
  5
304
100
AcDbEntity
  8
0
100
AcDbLine
 62
7
  6
CONTINUOUS
 10
12.6870318028
 20
10.0615543762
 11
12.6990541314
 21
10.0615543762
  0
LINE
  5
305
100
AcDbEntity
  8
0
100
AcDbLine
 62
9
  6
CONTINUOUS
 10
7.7065140514
 20
10.08746746
 11
7.7215259334
 21
10.08746746
  0
LINE
  5
306
100
AcDbEntity
  8
0
100
AcDbLine
 62
7
  6
CONTINUOUS
 10
12.0450318028
 20
10.0905543762
 11
12.0485681394
 21
10.0905543762
  0
LINE
  5
307
100
AcDbEntity
  8
0
100
AcDbLine
 62
7
  6
CONTINUOUS
 10
11.3160318028
 20
10.0940543762
 11
11.4160318028
 21
10.0940543762
  0
LINE
  5
308
100
AcDbEntity
  8
0
100
AcDbLine
 62
7
  6
CONTINUOUS
 10
12.7365318028
 20
10.1007149764
 11
12.7315318028
 21
10.1007149764
  0
LINE
  5
309
100
AcDbEntity
  8
0
100
AcDbLine
 62
9
  6
CONTINUOUS
 10
11.9996133088
 20
10.1319093905
 11
11.9297838252
 21
10.1319093905
  0
LINE
  5
30A
100
AcDbEntity
  8
0
100
AcDbLine
 62
9
  6
CONTINUOUS
 10
7.7414267904
 20
10.1319093905
 11
7.6715973069
 21
10.1319093905
  0
LINE
  5
30B
100
AcDbEntity
  8
0
100
AcDbLine
 62
7
  6
CONTINUOUS
 10
7.8444038406
 20
10.1340543762
 11
7.8480318028
 21
10.1340543762
  0
LINE
  5
30C
100
AcDbEntity
  8
0
100
AcDbLine
 62
7
  6
CONTINUOUS
 10
11.1652951858
 20
10.1340543762
 11
11.3113708057
 21
10.1340543762
  0
LINE
  5
30D
100
AcDbEntity
  8
0
100
AcDbLine
 62
7
  6
CONTINUOUS
 10
8.4784923281
 20
10.2240543762
 11
10.6635712776
 21
10.2240543762
  0
LINE
  5
30E
100
AcDbEntity
  8
0
100
AcDbLine
 62
9
  6
CONTINUOUS
 10
7.6662156146
 20
10.2240935594
 11
7.7360450981
 21
10.2240935594
  0
LINE
  5
30F
100
AcDbEntity
  8
0
100
AcDbLine
 62
9
  6
CONTINUOUS
 10
11.9351655175
 20
10.2240935594
 11
12.0049950011
 21
10.2240935594
  0
LINE
  5
310
100
AcDbEntity
  8
0
100
AcDbLine
 62
9
  6
CONTINUOUS
 10
12.0048716187
 20
10.2440151931
 11
11.9350421351
 21
10.2440151931
  0
LINE
  5
311
100
AcDbEntity
  8
0
100
AcDbLine
 62
9
  6
CONTINUOUS
 10
7.7361684805
 20
10.2440151931
 11
7.666338997
 21
10.2440151931
  0
LINE
  5
312
100
AcDbEntity
  8
0
100
AcDbLine
 62
9
  6
CONTINUOUS
 10
6.8173545373
 20
10.2710709626
 11
7.3264142781
 21
10.2710703789
  0
LINE
  5
313
100
AcDbEntity
  8
0
100
AcDbLine
 62
7
  6
CONTINUOUS
 10
13.303645693
 20
10.3145661873
 11
12.3675647868
 21
10.3145661873
  0
LINE
  5
314
100
AcDbEntity
  8
0
100
AcDbLine
 62
7
  6
CONTINUOUS
 10
7.3036718697
 20
10.3145661873
 11
6.7873934925
 21
10.3145661873
  0
LINE
  5
315
100
AcDbEntity
  8
0
100
AcDbLine
 62
7
  6
CONTINUOUS
 10
6.7839764357
 20
10.3195268172
 11
7.4056053078
 21
10.3195268172
  0
LINE
  5
316
100
AcDbEntity
  8
0
100
AcDbLine
 62
7
  6
CONTINUOUS
 10
12.2656053078
 20
10.3195268172
 11
13.4056053078
 21
10.3195268172
  0
LINE
  5
317
100
AcDbEntity
  8
0
100
AcDbLine
 62
7
  6
CONTINUOUS
 10
11.9989655512
 20
10.3214979677
 11
11.9291360677
 21
10.3214979677
  0
LINE
  5
318
100
AcDbEntity
  8
0
100
AcDbLine
 62
7
  6
CONTINUOUS
 10
7.7420745479
 20
10.3214979677
 11
7.6722450644
 21
10.3214979677
  0
LINE
  5
319
100
AcDbEntity
  8
0
100
AcDbLine
 62
7
  6
CONTINUOUS
 10
6.7390490343
 20
10.4364402467
 11
6.9321615813
 21
10.4364402467
  0
LINE
  5
31A
100
AcDbEntity
  8
0
100
AcDbLine
 62
7
  6
CONTINUOUS
 10
7.3330490343
 20
10.4364402467
 11
7.4296053078
 21
10.4364402467
  0
LINE
  5
31B
100
AcDbEntity
  8
0
100
AcDbLine
 62
7
  6
CONTINUOUS
 10
12.2416053078
 20
10.4364402467
 11
12.3381615813
 21
10.4364402467
  0
LINE
  5
31C
100
AcDbEntity
  8
0
100
AcDbLine
 62
7
  6
CONTINUOUS
 10
12.7390490343
 20
10.4364402467
 11
12.9321615813
 21
10.4364402467
  0
LINE
  5
31D
100
AcDbEntity
  8
0
100
AcDbLine
 62
7
  6
CONTINUOUS
 10
13.3330490343
 20
10.4364402467
 11
13.4296053078
 21
10.4364402467
  0
LINE
  5
31E
100
AcDbEntity
  8
0
100
AcDbLine
 62
9
  6
CONTINUOUS
 10
12.344808294
 20
10.2711568664
 11
13.3542730167
 21
10.2710703775
  0
LINE
  5
31F
100
AcDbEntity
  8
0
100
AcDbLine
 62
9
  6
CONTINUOUS
 10
6.6239847954
 20
10.0240542228
 11
6.6235040145
 21
10.0240558843
  0
LINE
  5
320
100
AcDbEntity
  8
0
100
AcDbLine
 62
7
  6
CONTINUOUS
 10
13.2297082346
 20
10.0947083041
 11
12.7690318028
 21
10.1102980311
  0
LINE
  5
321
100
AcDbEntity
  8
0
100
AcDbLine
 62
7
  6
CONTINUOUS
 10
12.6870318028
 20
10.1130729888
 11
12.0670318028
 21
10.1340543762
  0
LINE
  5
322
100
AcDbEntity
  8
0
100
AcDbLine
 62
7
  6
CONTINUOUS
 10
6.2130242939
 20
10.8169444612
 11
6.002942741
 21
10.840255274
  0
LINE
  5
323
100
AcDbEntity
  8
0
100
AcDbLine
 62
7
  6
CONTINUOUS
 10
10.3381720408
 20
10.2475737125
 11
10.5304281958
 21
10.2240543762
  0
LINE
  5
324
100
AcDbEntity
  8
0
100
AcDbLine
 62
7
  6
CONTINUOUS
 10
11.119830696
 20
10.1519508037
 11
11.2661230188
 21
10.1340543762
  0
LINE
  5
325
100
AcDbEntity
  8
0
100
AcDbLine
 62
7
  6
CONTINUOUS
 10
11.3224475601
 20
10.1271640073
 11
11.7738213284
 21
10.0719459497
  0
LINE
  5
326
100
AcDbEntity
  8
0
100
AcDbLine
 62
7
  6
CONTINUOUS
 10
12.0290553539
 20
10.0407223206
 11
12.0449698803
 21
10.0387754435
  0
LWPOLYLINE
  5
327
100
AcDbEntity
  8
0
100
AcDbPolyline
 62
7
  6
CONTINUOUS
 90
4
 70
0
 10
10.3377487032
 20
10.2476256418
 10
10.3108513418
 20
10.2527922624
 10
10.2733241284
 20
10.2673518421
 10
10.2641509
 20
10.2729867462
  0
LINE
  5
328
100
AcDbEntity
  8
0
100
AcDbLine
 62
7
  6
CONTINUOUS
 10
12.0485956685
 20
10.0905543762
 11
12.0491573309
 21
10.0900588741
  0
LINE
  5
329
100
AcDbEntity
  8
0
100
AcDbLine
 62
7
  6
CONTINUOUS
 10
13.4356053078
 20
9.0535425652
 11
13.4606053078
 21
9.0285425652
  0
LINE
  5
32A
100
AcDbEntity
  8
0
100
AcDbLine
 62
7
  6
CONTINUOUS
 10
12.2656053078
 20
10.3195268172
 11
12.2416053078
 21
10.3610960366
  0
LINE
  5
32B
100
AcDbEntity
  8
0
100
AcDbLine
 62
9
  6
CONTINUOUS
 10
14.5490318028
 20
9.4140543762
 11
14.5490318028
 21
9.9540543762
  0
LINE
  5
32C
100
AcDbEntity
  8
0
100
AcDbLine
 62
7
  6
CONTINUOUS
 10
13.458186326
 20
10.8169442886
 11
13.6682730516
 21
10.8402564327
  0
LINE
  5
32D
100
AcDbEntity
  8
0
100
AcDbLine
 62
7
  6
CONTINUOUS
 10
13.4417161825
 20
10.8138249211
 11
13.4416642142
 21
10.81382487
  0
LINE
  5
32E
100
AcDbEntity
  8
0
100
AcDbLine
 62
7
  6
CONTINUOUS
 10
13.4296053078
 20
10.7826133877
 11
13.3330490343
 21
10.7826133877
  0
LINE
  5
32F
100
AcDbEntity
  8
0
100
AcDbLine
 62
7
  6
CONTINUOUS
 10
12.9321615813
 20
10.7826133877
 11
12.7390490343
 21
10.7826133877
  0
LINE
  5
330
100
AcDbEntity
  8
0
100
AcDbLine
 62
7
  6
CONTINUOUS
 10
12.3381615813
 20
10.7826133877
 11
12.2416053078
 21
10.7826133877
  0
LINE
  5
331
100
AcDbEntity
  8
0
100
AcDbLine
 62
7
  6
CONTINUOUS
 10
7.4296053078
 20
10.7826133877
 11
7.3330490343
 21
10.7826133877
  0
LINE
  5
332
100
AcDbEntity
  8
0
100
AcDbLine
 62
7
  6
CONTINUOUS
 10
6.9321615813
 20
10.7826133877
 11
6.7390490343
 21
10.7826133877
  0
LINE
  5
333
100
AcDbEntity
  8
0
100
AcDbLine
 62
7
  6
CONTINUOUS
 10
6.3381615813
 20
10.7826133877
 11
6.2416053078
 21
10.7826133877
  0
LINE
  5
334
100
AcDbEntity
  8
0
100
AcDbLine
 62
7
  6
CONTINUOUS
 10
13.4056053078
 20
10.8995268172
 11
12.2656053078
 21
10.8995268172
  0
LINE
  5
335
100
AcDbEntity
  8
0
100
AcDbLine
 62
7
  6
CONTINUOUS
 10
7.4056053078
 20
10.8995268172
 11
6.2656053078
 21
10.8995268172
  0
LINE
  5
336
100
AcDbEntity
  8
0
100
AcDbLine
 62
7
  6
CONTINUOUS
 10
6.3126856356
 20
11.0725268172
 11
7.3577896927
 21
11.0725268172
  0
LINE
  5
337
100
AcDbEntity
  8
0
100
AcDbLine
 62
7
  6
CONTINUOUS
 10
12.3134192875
 20
11.0725268172
 11
13.3585266154
 21
11.0725268172
  0
LINE
  5
338
100
AcDbEntity
  8
0
100
AcDbLine
 62
7
  6
CONTINUOUS
 10
6.2294982032
 20
10.8138250273
 11
6.2295463193
 21
10.8138249834
  0
LINE
  5
339
100
AcDbEntity
  8
0
100
AcDbLine
 62
7
  6
CONTINUOUS
 10
7.3590172379
 20
11.1675267973
 11
6.3114580901
 21
11.1675267973
  0
LINE
  5
33A
100
AcDbEntity
  8
0
100
AcDbLine
 62
7
  6
CONTINUOUS
 10
12.3121933778
 20
11.1675267973
 11
13.3597525256
 21
11.1675267973
  0
LINE
  5
33B
100
AcDbEntity
  8
0
100
AcDbLine
 62
7
  6
CONTINUOUS
 10
13.4296053078
 20
10.8579575978
 11
13.4056053078
 21
10.8995268172
  0
LINE
  5
33C
100
AcDbEntity
  8
0
100
AcDbLine
 62
9
  6
CONTINUOUS
 10
15.644540891
 20
6.8792953824
 11
15.6443973425
 21
6.89691342
  0
LINE
  5
33D
100
AcDbEntity
  8
0
100
AcDbLine
 62
9
  6
CONTINUOUS
 10
15.6442027535
 20
6.9365451125
 11
15.6442026629
 21
7.2708638866
  0
LINE
  5
33E
100
AcDbEntity
  8
0
100
AcDbLine
 62
7
  6
CONTINUOUS
 10
15.6856053078
 20
6.9192841458
 11
15.6856053078
 21
7.2881208674
  0
LINE
  5
33F
100
AcDbEntity
  8
0
100
AcDbLine
 62
9
  6
CONTINUOUS
 10
15.6454372698
 20
7.3105134416
 11
15.6456236474
 21
7.3281238167
  0
LWPOLYLINE
  5
340
100
AcDbEntity
  8
0
100
AcDbPolyline
 62
7
  6
CONTINUOUS
 90
12
 70
0
 10
12.9119776101
 20
12.3223103189
 10
12.7680256391
 20
12.3027687167
 10
12.6287357562
 20
12.2421611556
 10
12.5208946023
 20
12.1556335086
 10
12.4433930904
 20
12.0554440887
 10
12.39177877
 20
11.9501921045
 10
12.3600749461
 20
11.8475989922
 10
12.3390499999
 20
11.7404552569
 10
12.3237845834
 20
11.6162252736
 10
12.3136098176
 20
11.4692581226
 10
12.3094445413
 20
11.3001369008
 10
12.3109731957
 20
11.167526764
  0
LINE
  5
341
100
AcDbEntity
  8
0
100
AcDbLine
 62
7
  6
CONTINUOUS
 10
6.7146797108
 20
12.3204595808
 11
6.7141091881
 21
12.3204119108
  0
LINE
  5
342
100
AcDbEntity
  8
0
100
AcDbLine
 62
7
  6
CONTINUOUS
 10
6.7592722303
 20
12.3223103634
 11
6.7146004766
 21
12.3204555677
  0
LINE
  5
343
100
AcDbEntity
  8
0
100
AcDbLine
 62
7
  6
CONTINUOUS
 10
6.7592330053
 20
12.3223103189
 11
6.7592722303
 21
12.3223103634
  0
LINE
  5
344
100
AcDbEntity
  8
0
100
AcDbLine
 62
7
  6
CONTINUOUS
 10
6.2294944332
 20
12.7712287161
 11
6.2295464006
 21
12.7712287673
  0
LINE
  5
345
100
AcDbEntity
  8
0
100
AcDbLine
 62
7
  6
CONTINUOUS
 10
13.4417124127
 20
12.7712286115
 11
13.4416642956
 21
12.7712286554
  0
LINE
  5
346
100
AcDbEntity
  8
0
100
AcDbLine
 62
7
  6
CONTINUOUS
 10
12.9119776101
 20
12.3223103189
 11
12.9119383857
 21
12.3223103634
  0
LINE
  5
347
100
AcDbEntity
  8
0
100
AcDbLine
 62
7
  6
CONTINUOUS
 10
12.9566101291
 20
12.3204555685
 11
12.9119383854
 21
12.3223103634
  0
LINE
  5
348
100
AcDbEntity
  8
0
100
AcDbLine
 62
7
  6
CONTINUOUS
 10
12.9566101291
 20
12.3204555685
 11
12.9572055281
 21
12.3204057469
  0
LINE
  5
349
100
AcDbEntity
  8
0
100
AcDbLine
 62
7
  6
CONTINUOUS
 10
6.0029386876
 20
12.7447974658
 11
6.2130242939
 21
12.7681091732
  0
LINE
  5
34A
100
AcDbEntity
  8
0
100
AcDbLine
 62
7
  6
CONTINUOUS
 10
13.6682660606
 20
12.7447987436
 11
13.4581863356
 21
12.7681093446
  0
ARC
  5
34B
100
AcDbEntity
  8
0
100
AcDbCircle
 62
7
  6
CONTINUOUS
 10
6.3545263213
 20
9.4100512056
 40
1.5318831928
100
AcDbArc
 50
353.8794659936
 51
354.8041054053
  0
ARC
  5
34C
100
AcDbEntity
  8
0
100
AcDbCircle
 62
7
  6
CONTINUOUS
 10
5.1874678986
 20
7.6353296072
 40
1.25
100
AcDbArc
 50
4.4005657616
 51
30.5952280492
  0
ARC
  5
34D
100
AcDbEntity
  8
0
100
AcDbCircle
 62
9
  6
CONTINUOUS
 10
6.3259351914
 20
7.5711265276
 40
0.2855799569
100
AcDbArc
 50
305.3401703137
 51
310.7406768042
  0
ARC
  5
34E
100
AcDbEntity
  8
0
100
AcDbCircle
 62
9
  6
CONTINUOUS
 10
6.3295492691
 20
6.6995057084
 40
0.2838677746
100
AcDbArc
 50
49.9210925836
 51
55.3176231488
  0
ARC
  5
34F
100
AcDbEntity
  8
0
100
AcDbCircle
 62
9
  6
CONTINUOUS
 10
6.3161055925
 20
7.4195329368
 40
0.2066274371
100
AcDbArc
 50
337.9388559195
 51
341.7284925321
  0
ARC
  5
350
100
AcDbEntity
  8
0
100
AcDbCircle
 62
7
  6
CONTINUOUS
 10
6.4356053078
 20
8.3733357099
 40
0.2
100
AcDbArc
 50
149.9315492034
 51
210.5952280491
  0
ARC
  5
351
100
AcDbEntity
  8
0
100
AcDbCircle
 62
9
  6
CONTINUOUS
 10
6.3289202712
 20
6.8552784847
 40
0.1934105566
100
AcDbArc
 50
18.5194950598
 51
20.2183464806
  0
ARC
  5
352
100
AcDbEntity
  8
0
100
AcDbCircle
 62
7
  6
CONTINUOUS
 10
6.115397155
 20
8.5587183922
 40
0.17
100
AcDbArc
 50
329.9315492035
 51
45.0
  0
ARC
  5
353
100
AcDbEntity
  8
0
100
AcDbCircle
 62
7
  6
CONTINUOUS
 10
6.4481053078
 20
6.8205425652
 40
0.075
100
AcDbArc
 50
0.0
 51
67.5
  0
ARC
  5
354
100
AcDbEntity
  8
0
100
AcDbCircle
 62
7
  6
CONTINUOUS
 10
6.380582865
 20
6.897728653
 40
0.0550238412
100
AcDbArc
 50
0.0243948853
 51
91.6830429716
  0
ARC
  5
355
100
AcDbEntity
  8
0
100
AcDbCircle
 62
7
  6
CONTINUOUS
 10
4.0256057654
 20
7.2881237977
 40
0.0400000234
100
AcDbArc
 50
96.340219486
 51
180.0
  0
ARC
  5
356
100
AcDbEntity
  8
0
100
AcDbCircle
 62
7
  6
CONTINUOUS
 10
4.0256057533
 20
6.9192812516
 40
0.0400000222
100
AcDbArc
 50
180.0
 51
265.6960007324
  0
ARC
  5
357
100
AcDbEntity
  8
0
100
AcDbCircle
 62
9
  6
CONTINUOUS
 10
4.0251194309
 20
6.9365692645
 40
0.0395141349
100
AcDbArc
 50
180.0444287647
 51
194.6971897439
  0
ARC
  5
358
100
AcDbEntity
  8
0
100
AcDbCircle
 62
7
  6
CONTINUOUS
 10
6.4636944517
 20
7.7335425652
 40
0.03
100
AcDbArc
 50
184.4005657615
 51
270.0
  0
ARC
  5
359
100
AcDbEntity
  8
0
100
AcDbCircle
 62
7
  6
CONTINUOUS
 10
6.5031053078
 20
7.3905425652
 40
0.02
100
AcDbArc
 50
283.9347317256
 51
360.0
  0
ARC
  5
35A
100
AcDbEntity
  8
0
100
AcDbCircle
 62
9
  6
CONTINUOUS
 10
6.9743880322
 20
4.8661836061
 40
2.1019440414
100
AcDbArc
 50
102.6991122265
 51
103.8766997997
  0
ARC
  5
35B
100
AcDbEntity
  8
0
100
AcDbCircle
 62
7
  6
CONTINUOUS
 10
8.9981685002
 20
2.6840898468
 40
0.1275632077
100
AcDbArc
 50
176.7637254836
 51
180.0159318387
  0
ARC
  5
35C
100
AcDbEntity
  8
0
100
AcDbCircle
 62
9
  6
CONTINUOUS
 10
6.9039313289
 20
9.3517698015
 40
2.0350550861
100
AcDbArc
 50
257.9191211945
 51
258.9050732332
  0
ARC
  5
35D
100
AcDbEntity
  8
0
100
AcDbCircle
 62
7
  6
CONTINUOUS
 10
8.4784923281
 20
8.7240543762
 40
1.5
100
AcDbArc
 50
90.0
 51
114.8539722589
  0
ARC
  5
35E
100
AcDbEntity
  8
0
100
AcDbCircle
 62
7
  6
CONTINUOUS
 10
8.4837427171
 20
7.6353296072
 40
1.25
100
AcDbArc
 50
149.4047719508
 51
175.5994342384
  0
ARC
  5
35F
100
AcDbEntity
  8
0
100
AcDbCircle
 62
9
  6
CONTINUOUS
 10
7.6651881925
 20
9.3865338606
 40
0.837560329
100
AcDbArc
 50
89.9297161493
 51
92.1192044212
  0
ARC
  5
360
100
AcDbEntity
  8
0
100
AcDbCircle
 62
9
  6
CONTINUOUS
 10
9.754885101
 20
9.1710059585
 40
0.6830453194
100
AcDbArc
 50
337.6769046921
 51
348.7084210345
  0
ARC
  5
361
100
AcDbEntity
  8
0
100
AcDbCircle
 62
9
  6
CONTINUOUS
 10
9.7769611279
 20
9.1625720891
 40
0.6594205723
100
AcDbArc
 50
337.0862536229
 51
337.6262220483
  0
ARC
  5
362
100
AcDbEntity
  8
0
100
AcDbCircle
 62
7
  6
CONTINUOUS
 10
7.5225322566
 20
8.9940543762
 40
0.35
100
AcDbArc
 50
53.2130265183
 51
90.0
  0
ARC
  5
363
100
AcDbEntity
  8
0
100
AcDbCircle
 62
9
  6
CONTINUOUS
 10
7.5313082177
 20
9.2883623739
 40
0.3451500271
100
AcDbArc
 50
349.5303117653
 51
350.1611561797
  0
ARC
  5
364
100
AcDbEntity
  8
0
100
AcDbCircle
 62
7
  6
CONTINUOUS
 10
7.5960206652
 20
9.0797100763
 40
0.2514531525
100
AcDbArc
 50
84.8923656229
 51
102.5300047106
  0
ARC
  5
365
100
AcDbEntity
  8
0
100
AcDbCircle
 62
7
  6
CONTINUOUS
 10
9.0355123181
 20
8.904972261
 40
0.2500996742
100
AcDbArc
 50
0.0194841584
 51
75.1521620852
  0
ARC
  5
366
100
AcDbEntity
  8
0
100
AcDbCircle
 62
7
  6
CONTINUOUS
 10
7.595878679
 20
9.0811928771
 40
0.2499753754
100
AcDbArc
 50
102.5719701596
 51
181.1698379669
  0
ARC
  5
367
100
AcDbEntity
  8
0
100
AcDbCircle
 62
7
  6
CONTINUOUS
 10
7.2356053078
 20
8.3733357099
 40
0.2
100
AcDbArc
 50
329.4047719509
 51
30.0684507966
  0
ARC
  5
368
100
AcDbEntity
  8
0
100
AcDbCircle
 62
7
  6
CONTINUOUS
 10
7.5558134606
 20
8.5587183922
 40
0.17
100
AcDbArc
 50
135.0
 51
210.0684507965
  0
ARC
  5
369
100
AcDbEntity
  8
0
100
AcDbCircle
 62
9
  6
CONTINUOUS
 10
7.6717028765
 20
9.1509129218
 40
0.0852865055
100
AcDbArc
 50
90.0709220938
 51
109.3227816602
  0
ARC
  5
36A
100
AcDbEntity
  8
0
100
AcDbCircle
 62
9
  6
CONTINUOUS
 10
7.7065878017
 20
9.1955617403
 40
0.0850795842
100
AcDbArc
 50
90.0496662129
 51
112.4447165551
  0
ARC
  5
36B
100
AcDbEntity
  8
0
100
AcDbCircle
 62
7
  6
CONTINUOUS
 10
7.7420701297
 20
9.1316198749
 40
0.0850085481
100
AcDbArc
 50
270.0029778956
 51
321.8413221717
  0
ARC
  5
36C
100
AcDbEntity
  8
0
100
AcDbCircle
 62
7
  6
CONTINUOUS
 10
7.6722450646
 20
9.131610785
 40
0.0850000002
100
AcDbArc
 50
180.3548505519
 51
269.9999998384
  0
ARC
  5
36D
100
AcDbEntity
  8
0
100
AcDbCircle
 62
7
  6
CONTINUOUS
 10
7.6721213312
 20
9.1515325952
 40
0.084999615
100
AcDbArc
 50
141.8442476731
 51
180.3521373917
  0
ARC
  5
36E
100
AcDbEntity
  8
0
100
AcDbCircle
 62
9
  6
CONTINUOUS
 10
7.7767291286
 20
9.1954171432
 40
0.0849335535
100
AcDbArc
 50
0.3758911297
 51
29.5439210979
  0
ARC
  5
36F
100
AcDbEntity
  8
0
100
AcDbCircle
 62
9
  6
CONTINUOUS
 10
7.7427287471
 20
9.1310531802
 40
0.0841401677
100
AcDbArc
 50
321.8676563563
 51
0.3797051743
  0
ARC
  5
370
100
AcDbEntity
  8
0
100
AcDbCircle
 62
9
  6
CONTINUOUS
 10
7.7776454917
 20
9.1754951107
 40
0.0841401676
100
AcDbArc
 50
321.8676563433
 51
0.3797051895
  0
ARC
  5
371
100
AcDbEntity
  8
0
100
AcDbCircle
 62
9
  6
CONTINUOUS
 10
7.7063067872
 20
9.1965242349
 40
0.0840827801
100
AcDbArc
 50
112.5181366094
 51
141.8309352414
  0
ARC
  5
372
100
AcDbEntity
  8
0
100
AcDbCircle
 62
9
  6
CONTINUOUS
 10
7.6713692318
 20
9.1521013813
 40
0.0840546296
100
AcDbArc
 50
109.3762219939
 51
141.8323920834
  0
ARC
  5
373
100
AcDbEntity
  8
0
100
AcDbCircle
 62
7
  6
CONTINUOUS
 10
9.3906053078
 20
7.5505110692
 40
0.08
100
AcDbArc
 50
0.0
 51
90.0
  0
ARC
  5
374
100
AcDbEntity
  8
0
100
AcDbCircle
 62
7
  6
CONTINUOUS
 10
7.2231053078
 20
6.8205425652
 40
0.075
100
AcDbArc
 50
90.0
 51
180.0
  0
ARC
  5
375
100
AcDbEntity
  8
0
100
AcDbCircle
 62
7
  6
CONTINUOUS
 10
7.3036725371
 20
9.1047236676
 40
0.0511811024
100
AcDbArc
 50
270.0
 51
325.6957080071
  0
ARC
  5
376
100
AcDbEntity
  8
0
100
AcDbCircle
 62
7
  6
CONTINUOUS
 10
9.3156053078
 20
7.6605110692
 40
0.03
100
AcDbArc
 50
180.0
 51
270.0
  0
ARC
  5
377
100
AcDbEntity
  8
0
100
AcDbCircle
 62
7
  6
CONTINUOUS
 10
7.207516164
 20
7.7335425652
 40
0.03
100
AcDbArc
 50
270.0
 51
355.5994342385
  0
ARC
  5
378
100
AcDbEntity
  8
0
100
AcDbCircle
 62
7
  6
CONTINUOUS
 10
9.5009202685
 20
7.5308260298
 40
0.0196850394
100
AcDbArc
 50
0.0
 51
90.0
  0
ARC
  5
379
100
AcDbEntity
  8
0
100
AcDbCircle
 62
7
  6
CONTINUOUS
 10
10.3911041501
 20
-24.4107040805
 40
34.3795121903
100
AcDbArc
 50
85.263877836
 51
85.649533263
  0
ARC
  5
37A
100
AcDbEntity
  8
0
100
AcDbCircle
 62
7
  6
CONTINUOUS
 10
10.6733878909
 20
2.6841093153
 40
0.1272167943
100
AcDbArc
 50
359.9881242123
 51
3.2054539505
  0
ARC
  5
37B
100
AcDbEntity
  8
0
100
AcDbCircle
 62
9
  6
CONTINUOUS
 10
10.6817620289
 20
2.684228814
 40
0.1188358527
100
AcDbArc
 50
349.6332061314
 51
359.9877791854
  0
ARC
  5
37C
100
AcDbEntity
  8
0
100
AcDbCircle
 62
7
  6
CONTINUOUS
 10
11.1874678986
 20
7.6353296072
 40
1.25
100
AcDbArc
 50
4.4005657616
 51
30.5952280492
  0
ARC
  5
37D
100
AcDbEntity
  8
0
100
AcDbCircle
 62
7
  6
CONTINUOUS
 10
10.2806053078
 20
7.5505110692
 40
0.08
100
AcDbArc
 50
90.0
 51
180.0
  0
ARC
  5
37E
100
AcDbEntity
  8
0
100
AcDbCircle
 62
7
  6
CONTINUOUS
 10
10.3556053078
 20
7.6605110692
 40
0.03
100
AcDbArc
 50
270.0
 51
360.0
  0
ARC
  5
37F
100
AcDbEntity
  8
0
100
AcDbCircle
 62
7
  6
CONTINUOUS
 10
10.1702903472
 20
7.5308260298
 40
0.0196850394
100
AcDbArc
 50
90.0
 51
180.0
  0
ARC
  5
380
100
AcDbEntity
  8
0
100
AcDbCircle
 62
7
  6
CONTINUOUS
 10
10.6635712776
 20
8.7240543762
 40
1.5
100
AcDbArc
 50
64.2163806705
 51
90.0
  0
ARC
  5
381
100
AcDbEntity
  8
0
100
AcDbCircle
 62
9
  6
CONTINUOUS
 10
9.9163256299
 20
9.1710059803
 40
0.6830454343
100
AcDbArc
 50
191.2906503285
 51
202.3230933318
  0
ARC
  5
382
100
AcDbEntity
  8
0
100
AcDbCircle
 62
9
  6
CONTINUOUS
 10
9.8942492149
 20
9.1625719758
 40
0.6594202768
100
AcDbArc
 50
202.3737778717
 51
202.913862201
  0
ARC
  5
383
100
AcDbEntity
  8
0
100
AcDbCircle
 62
9
  6
CONTINUOUS
 10
9.9769071069
 20
9.6454860587
 40
0.5981060673
100
AcDbArc
 50
302.1823483511
 51
302.9570951662
  0
ARC
  5
384
100
AcDbEntity
  8
0
100
AcDbCircle
 62
7
  6
CONTINUOUS
 10
11.1520318028
 20
9.6280543762
 40
0.425
100
AcDbArc
 50
292.0191155054
 51
301.9657187508
  0
ARC
  5
385
100
AcDbEntity
  8
0
100
AcDbCircle
 62
9
  6
CONTINUOUS
 10
10.577388232
 20
8.9411566342
 40
0.2918528229
100
AcDbArc
 50
135.3965100781
 51
143.5352408475
  0
ARC
  5
386
100
AcDbEntity
  8
0
100
AcDbCircle
 62
7
  6
CONTINUOUS
 10
10.6357062168
 20
8.904969944
 40
0.2501046536
100
AcDbArc
 50
104.8499963545
 51
179.9799854107
  0
ARC
  5
387
100
AcDbEntity
  8
0
100
AcDbCircle
 62
7
  6
CONTINUOUS
 10
12.4481053078
 20
6.8205425652
 40
0.075
100
AcDbArc
 50
0.0
 51
90.0
  0
ARC
  5
388
100
AcDbEntity
  8
0
100
AcDbCircle
 62
7
  6
CONTINUOUS
 10
12.4636944517
 20
7.7335425652
 40
0.03
100
AcDbArc
 50
184.4005657615
 51
270.0
  0
ARC
  5
389
100
AcDbEntity
  8
0
100
AcDbCircle
 62
9
  6
CONTINUOUS
 10
12.7023571933
 20
9.602683164
 40
2.2940981875
100
AcDbArc
 50
282.9820050314
 51
283.3462890452
  0
ARC
  5
38A
100
AcDbEntity
  8
0
100
AcDbCircle
 62
9
  6
CONTINUOUS
 10
12.7567065442
 20
9.4050185962
 40
2.0893432406
100
AcDbArc
 50
281.0984351141
 51
281.461305664
  0
ARC
  5
38B
100
AcDbEntity
  8
0
100
AcDbCircle
 62
9
  6
CONTINUOUS
 10
12.0058990408
 20
9.4064554943
 40
0.837560329
100
AcDbArc
 50
87.8807955789
 51
90.0702838507
  0
ARC
  5
38C
100
AcDbEntity
  8
0
100
AcDbCircle
 62
7
  6
CONTINUOUS
 10
11.6196457303
 20
8.8919151758
 40
0.433
100
AcDbArc
 50
57.9057842818
 51
118.0498776996
  0
ARC
  5
38D
100
AcDbEntity
  8
0
100
AcDbCircle
 62
7
  6
CONTINUOUS
 10
12.0744158381
 20
9.081000806
 40
0.2508960714
100
AcDbArc
 50
358.8300330026
 51
2.9284925766
  0
ARC
  5
38E
100
AcDbEntity
  8
0
100
AcDbCircle
 62
7
  6
CONTINUOUS
 10
12.0754323065
 20
9.0812324086
 40
0.2498703277
100
AcDbArc
 50
2.8873626627
 51
39.9443168468
  0
ARC
  5
38F
100
AcDbEntity
  8
0
100
AcDbCircle
 62
7
  6
CONTINUOUS
 10
12.4356053078
 20
8.3733357099
 40
0.2
100
AcDbArc
 50
149.9315492034
 51
210.5952280491
  0
ARC
  5
390
100
AcDbEntity
  8
0
100
AcDbCircle
 62
7
  6
CONTINUOUS
 10
12.115397155
 20
8.5587183922
 40
0.17
100
AcDbArc
 50
329.9315492035
 51
45.0
  0
ARC
  5
391
100
AcDbEntity
  8
0
100
AcDbCircle
 62
7
  6
CONTINUOUS
 10
11.9799225463
 20
9.1560760764
 40
0.1045375013
100
AcDbArc
 50
87.1985603071
 51
89.7203672169
  0
ARC
  5
392
100
AcDbEntity
  8
0
100
AcDbCircle
 62
9
  6
CONTINUOUS
 10
11.8945937336
 20
9.1953943459
 40
0.0850459501
100
AcDbArc
 50
127.8752920406
 51
179.609246715
  0
ARC
  5
393
100
AcDbEntity
  8
0
100
AcDbCircle
 62
9
  6
CONTINUOUS
 10
11.9644655083
 20
9.19567955
 40
0.0850169962
100
AcDbArc
 50
50.767487748
 51
70.6936171293
  0
ARC
  5
394
100
AcDbEntity
  8
0
100
AcDbCircle
 62
7
  6
CONTINUOUS
 10
11.9291404891
 20
9.1316198812
 40
0.0850085555
100
AcDbArc
 50
218.1586799093
 51
269.9970200235
  0
ARC
  5
395
100
AcDbEntity
  8
0
100
AcDbCircle
 62
7
  6
CONTINUOUS
 10
11.9990887038
 20
9.1515323398
 40
0.0850002293
100
AcDbArc
 50
359.6452036043
 51
38.1556459333
  0
ARC
  5
396
100
AcDbEntity
  8
0
100
AcDbCircle
 62
7
  6
CONTINUOUS
 10
11.9990110591
 20
9.1315590537
 40
0.0849307472
100
AcDbArc
 50
270.0335175859
 51
359.6329573038
  0
ARC
  5
397
100
AcDbEntity
  8
0
100
AcDbCircle
 62
9
  6
CONTINUOUS
 10
11.893565124
 20
9.1754951107
 40
0.0841401699
100
AcDbArc
 50
179.6202948001
 51
218.1323436314
  0
ARC
  5
398
100
AcDbEntity
  8
0
100
AcDbCircle
 62
9
  6
CONTINUOUS
 10
11.9284818685
 20
9.1310531802
 40
0.0841401677
100
AcDbArc
 50
179.6202948255
 51
218.1323436453
  0
ARC
  5
399
100
AcDbEntity
  8
0
100
AcDbCircle
 62
9
  6
CONTINUOUS
 10
11.9999746144
 20
9.1522575082
 40
0.0838534118
100
AcDbArc
 50
38.1399921064
 51
90.0512370531
  0
ARC
  5
39A
100
AcDbEntity
  8
0
100
AcDbCircle
 62
9
  6
CONTINUOUS
 10
11.9654351561
 20
9.1970084567
 40
0.0833744199
100
AcDbArc
 50
38.1330954448
 51
50.7060395435
  0
ARC
  5
39B
100
AcDbEntity
  8
0
100
AcDbCircle
 62
9
  6
CONTINUOUS
 10
11.9650794074
 20
9.1975599322
 40
0.0830394027
100
AcDbArc
 50
70.6644203664
 51
76.0971551446
  0
ARC
  5
39C
100
AcDbEntity
  8
0
100
AcDbCircle
 62
7
  6
CONTINUOUS
 10
12.3675380786
 20
9.1047236676
 40
0.0511811024
100
AcDbArc
 50
214.3042919931
 51
270.0
  0
ARC
  5
39D
100
AcDbEntity
  8
0
100
AcDbCircle
 62
7
  6
CONTINUOUS
 10
12.7340318028
 20
9.3053043762
 40
0.035
100
AcDbArc
 50
177.9532869023
 51
265.9039562418
  0
ARC
  5
39E
100
AcDbEntity
  8
0
100
AcDbCircle
 62
7
  6
CONTINUOUS
 10
12.7340318028
 20
9.3053043762
 40
0.035
100
AcDbArc
 50
274.0960437582
 51
332.7298233178
  0
ARC
  5
39F
100
AcDbEntity
  8
0
100
AcDbCircle
 62
7
  6
CONTINUOUS
 10
14.3456145234
 20
9.5054768661
 40
2.3234484923
100
AcDbArc
 50
183.7846728757
 51
184.5240634921
  0
ARC
  5
3A0
100
AcDbEntity
  8
0
100
AcDbCircle
 62
9
  6
CONTINUOUS
 10
12.8170176322
 20
9.1148189237
 40
1.7929468042
100
AcDbArc
 50
281.4151613444
 51
282.9138257479
  0
ARC
  5
3A1
100
AcDbEntity
  8
0
100
AcDbCircle
 62
7
  6
CONTINUOUS
 10
14.4837427171
 20
7.6353296072
 40
1.25
100
AcDbArc
 50
149.4047719508
 51
175.5994342384
  0
ARC
  5
3A2
100
AcDbEntity
  8
0
100
AcDbCircle
 62
9
  6
CONTINUOUS
 10
13.34636844
 20
7.572531606
 40
0.2873580773
100
AcDbArc
 50
229.2770185636
 51
234.6715156727
  0
ARC
  5
3A3
100
AcDbEntity
  8
0
100
AcDbCircle
 62
9
  6
CONTINUOUS
 10
13.3400381417
 20
6.7016262563
 40
0.2812004407
100
AcDbArc
 50
124.6838793113
 51
130.1040084718
  0
ARC
  5
3A4
100
AcDbEntity
  8
0
100
AcDbCircle
 62
9
  6
CONTINUOUS
 10
13.3550042491
 20
7.4195040163
 40
0.2065232552
100
AcDbArc
 50
198.2729603118
 51
202.0618156769
  0
ARC
  5
3A5
100
AcDbEntity
  8
0
100
AcDbCircle
 62
7
  6
CONTINUOUS
 10
13.2356053078
 20
8.3733357099
 40
0.2
100
AcDbArc
 50
329.4047719509
 51
30.0684507966
  0
ARC
  5
3A6
100
AcDbEntity
  8
0
100
AcDbCircle
 62
9
  6
CONTINUOUS
 10
13.3424705323
 20
6.8552155436
 40
0.1936014229
100
AcDbArc
 50
159.7797526714
 51
161.4799536432
  0
ARC
  5
3A7
100
AcDbEntity
  8
0
100
AcDbCircle
 62
7
  6
CONTINUOUS
 10
13.5558134606
 20
8.5587183922
 40
0.17
100
AcDbArc
 50
135.0
 51
210.0684507965
  0
ARC
  5
3A8
100
AcDbEntity
  8
0
100
AcDbCircle
 62
7
  6
CONTINUOUS
 10
13.2231053078
 20
6.8205425652
 40
0.075
100
AcDbArc
 50
112.5
 51
180.0
  0
ARC
  5
3A9
100
AcDbEntity
  8
0
100
AcDbCircle
 62
7
  6
CONTINUOUS
 10
13.2906277506
 20
6.897728653
 40
0.0550238412
100
AcDbArc
 50
88.3169570172
 51
179.9756051259
  0
ARC
  5
3AA
100
AcDbEntity
  8
0
100
AcDbCircle
 62
7
  6
CONTINUOUS
 10
13.2906427964
 20
7.3714042571
 40
0.0549149323
100
AcDbArc
 50
203.2634578239
 51
270.1570700186
  0
ARC
  5
3AB
100
AcDbEntity
  8
0
100
AcDbCircle
 62
7
  6
CONTINUOUS
 10
13.3036725371
 20
9.1047236676
 40
0.0511811024
100
AcDbArc
 50
270.0
 51
351.3638693749
  0
ARC
  5
3AC
100
AcDbEntity
  8
0
100
AcDbCircle
 62
9
  6
CONTINUOUS
 10
15.6456065132
 20
6.9373094971
 40
0.0404153841
100
AcDbArc
 50
268.2854086583
 51
277.2351718416
  0
ARC
  5
3AD
100
AcDbEntity
  8
0
100
AcDbCircle
 62
9
  6
CONTINUOUS
 10
15.645607721
 20
7.2701199653
 40
0.0403950258
100
AcDbArc
 50
82.7643555998
 51
90.2418003809
  0
ARC
  5
3AE
100
AcDbEntity
  8
0
100
AcDbCircle
 62
7
  6
CONTINUOUS
 10
15.6456048502
 20
7.2881237977
 40
0.0400000234
100
AcDbArc
 50
0.0
 51
89.9730750015
  0
ARC
  5
3AF
100
AcDbEntity
  8
0
100
AcDbCircle
 62
7
  6
CONTINUOUS
 10
15.6456048624
 20
6.9192812516
 40
0.0400000222
100
AcDbArc
 50
268.475794368
 51
360.0
  0
ARC
  5
3B0
100
AcDbEntity
  8
0
100
AcDbCircle
 62
9
  6
CONTINUOUS
 10
15.6460152248
 20
7.2708222092
 40
0.0395901123
100
AcDbArc
 50
0.0696343319
 51
20.4836974032
  0
ARC
  5
3B1
100
AcDbEntity
  8
0
100
AcDbCircle
 62
7
  6
CONTINUOUS
 10
13.207516164
 20
7.7335425652
 40
0.03
100
AcDbArc
 50
270.0
 51
355.5994342385
  0
ARC
  5
3B2
100
AcDbEntity
  8
0
100
AcDbCircle
 62
7
  6
CONTINUOUS
 10
13.1681053078
 20
7.3905425652
 40
0.02
100
AcDbArc
 50
180.0
 51
256.0651860186
  0
ARC
  5
3B3
100
AcDbEntity
  8
0
100
AcDbCircle
 62
7
  6
CONTINUOUS
 10
13.2290318028
 20
9.2933890061
 40
0.02
100
AcDbArc
 50
271.9382038126
 51
360.0
  0
ARC
  5
3B4
100
AcDbEntity
  8
0
100
AcDbCircle
 62
7
  6
CONTINUOUS
 10
7.1292714137
 20
9.7790442184
 40
4.9320159344
100
AcDbArc
 50
2.1498591206
 51
2.7639701377
  0
ARC
  5
3B5
100
AcDbEntity
  8
0
100
AcDbCircle
 62
9
  6
CONTINUOUS
 10
6.9051077766
 20
9.8863177848
 40
2.6229174354
100
AcDbArc
 50
258.5540131774
 51
259.3110318417
  0
ARC
  5
3B6
100
AcDbEntity
  8
0
100
AcDbCircle
 62
7
  6
CONTINUOUS
 10
6.1914751891
 20
9.9326772984
 40
1.4547414027
100
AcDbArc
 50
4.5065978376
 51
5.8681641138
  0
ARC
  5
3B7
100
AcDbEntity
  8
0
100
AcDbCircle
 62
7
  6
CONTINUOUS
 10
6.4465830514
 20
9.9671678722
 40
1.4393798768
100
AcDbArc
 50
5.1646581027
 51
6.2033126088
  0
ARC
  5
3B8
100
AcDbEntity
  8
0
100
AcDbCircle
 62
7
  6
CONTINUOUS
 10
5.9680318028
 20
9.6840543762
 40
1.04
100
AcDbArc
 50
19.2273138642
 51
340.7922279637
  0
ARC
  5
3B9
100
AcDbEntity
  8
0
100
AcDbCircle
 62
9
  6
CONTINUOUS
 10
5.9680318028
 20
9.6840543762
 40
1.0277893215
100
AcDbArc
 50
19.4427643499
 51
340.5556411479
  0
ARC
  5
3BA
100
AcDbEntity
  8
0
100
AcDbCircle
 62
9
  6
CONTINUOUS
 10
5.9680318028
 20
9.6840543762
 40
0.840293406
100
AcDbArc
 50
23.9306738939
 51
336.0657848045
  0
ARC
  5
3BB
100
AcDbEntity
  8
0
100
AcDbCircle
 62
9
  6
CONTINUOUS
 10
5.9680318028
 20
9.6840543762
 40
0.7923149729
100
AcDbArc
 50
25.6561576139
 51
334.4730139883
  0
CIRCLE
  5
3BC
100
AcDbEntity
  8
0
100
AcDbCircle
 62
9
  6
CONTINUOUS
 10
5.9680318028
 20
9.6840543762
 40
0.0291338583
  0
ARC
  5
3BD
100
AcDbEntity
  8
0
100
AcDbCircle
 62
9
  6
CONTINUOUS
 10
7.6653115749
 20
9.9616532582
 40
0.837560329
100
AcDbArc
 50
267.8807955788
 51
270.0702838507
  0
ARC
  5
3BE
100
AcDbEntity
  8
0
100
AcDbCircle
 62
7
  6
CONTINUOUS
 10
8.4784923281
 20
10.6440543762
 40
1.5
100
AcDbArc
 50
245.1460277411
 51
270.0
  0
ARC
  5
3BF
100
AcDbEntity
  8
0
100
AcDbCircle
 62
7
  6
CONTINUOUS
 10
7.5225322566
 20
10.3740543762
 40
0.35
100
AcDbArc
 50
270.0
 51
306.7869734806
  0
ARC
  5
3C0
100
AcDbEntity
  8
0
100
AcDbCircle
 62
7
  6
CONTINUOUS
 10
7.5960206652
 20
10.2883986768
 40
0.2514531531
100
AcDbArc
 50
257.469965291
 51
275.1076362228
  0
ARC
  5
3C1
100
AcDbEntity
  8
0
100
AcDbCircle
 62
7
  6
CONTINUOUS
 10
7.5958786693
 20
10.286915861
 40
0.2499753596
100
AcDbArc
 50
178.8300116328
 51
257.4280010978
  0
ARC
  5
3C2
100
AcDbEntity
  8
0
100
AcDbCircle
 62
9
  6
CONTINUOUS
 10
7.7065878017
 20
10.1725470122
 40
0.0850795842
100
AcDbArc
 50
247.5552834448
 51
269.9503337871
  0
ARC
  5
3C3
100
AcDbEntity
  8
0
100
AcDbCircle
 62
7
  6
CONTINUOUS
 10
7.7420701266
 20
10.2364888712
 40
0.0850085555
100
AcDbArc
 50
38.1586799263
 51
89.9970200146
  0
ARC
  5
3C4
100
AcDbEntity
  8
0
100
AcDbCircle
 62
7
  6
CONTINUOUS
 10
7.6721216949
 20
10.2165763401
 40
0.0850000139
100
AcDbArc
 50
179.662054736
 51
218.1556977803
  0
ARC
  5
3C5
100
AcDbEntity
  8
0
100
AcDbCircle
 62
7
  6
CONTINUOUS
 10
7.6722450647
 20
10.2364979674
 40
0.0850000003
100
AcDbArc
 50
90.0000002052
 51
179.6451494044
  0
ARC
  5
3C6
100
AcDbEntity
  8
0
100
AcDbCircle
 62
9
  6
CONTINUOUS
 10
7.7767255798
 20
10.1726880388
 40
0.0849370789
100
AcDbArc
 50
327.1152012403
 51
359.6265330703
  0
ARC
  5
3C7
100
AcDbEntity
  8
0
100
AcDbCircle
 62
9
  6
CONTINUOUS
 10
7.7776454917
 20
10.1926136418
 40
0.0841401676
100
AcDbArc
 50
359.6202948081
 51
38.1323436586
  0
ARC
  5
3C8
100
AcDbEntity
  8
0
100
AcDbCircle
 62
9
  6
CONTINUOUS
 10
7.7063067872
 20
10.1715845176
 40
0.0840827801
100
AcDbArc
 50
218.1690647584
 51
247.4818633905
  0
ARC
  5
3C9
100
AcDbEntity
  8
0
100
AcDbCircle
 62
9
  6
CONTINUOUS
 10
7.6712360012
 20
10.2158512443
 40
0.0838534118
100
AcDbArc
 50
218.1399920939
 51
270.0512370531
  0
ARC
  5
3CA
100
AcDbEntity
  8
0
100
AcDbCircle
 62
9
  6
CONTINUOUS
 10
7.743696667
 20
10.2370062607
 40
0.0831723784
100
AcDbArc
 50
359.6498450236
 51
38.1419812103
  0
ARC
  5
3CB
100
AcDbEntity
  8
0
100
AcDbCircle
 62
7
  6
CONTINUOUS
 10
7.3036725371
 20
10.2633850849
 40
0.0511811024
100
AcDbArc
 50
34.3042919931
 51
90.0
  0
ARC
  5
3CC
100
AcDbEntity
  8
0
100
AcDbCircle
 62
7
  6
CONTINUOUS
 10
6.232394426
 20
11.8265100396
 40
1.0128945417
100
AcDbArc
 50
258.0946496447
 51
260.2950879599
  0
ARC
  5
3CD
100
AcDbEntity
  8
0
100
AcDbCircle
 62
7
  6
CONTINUOUS
 10
6.2303723457
 20
11.814772451
 40
1.0009840597
100
AcDbArc
 50
260.2959174407
 51
265.1155200413
  0
ARC
  5
3CE
100
AcDbEntity
  8
0
100
AcDbCircle
 62
7
  6
CONTINUOUS
 10
6.2300130985
 20
11.7730550924
 40
0.9981894297
100
AcDbArc
 50
93.8923864149
 51
99.7591163786
  0
ARC
  5
3CF
100
AcDbEntity
  8
0
100
AcDbCircle
 62
7
  6
CONTINUOUS
 10
6.2296022833
 20
11.8067624836
 40
0.9929376165
100
AcDbArc
 50
265.1204387219
 51
269.9967705262
  0
ARC
  5
3D0
100
AcDbEntity
  8
0
100
AcDbCircle
 62
7
  6
CONTINUOUS
 10
6.2295565828
 20
11.7796576744
 40
0.9915710883
100
AcDbArc
 50
90.0005872457
 51
93.8919668309
  0
ARC
  5
3D1
100
AcDbEntity
  8
0
100
AcDbCircle
 62
7
  6
CONTINUOUS
 10
6.2293237249
 20
11.8026191606
 40
0.9887889865
100
AcDbArc
 50
270.0100741309
 51
270.711314147
  0
ARC
  5
3D2
100
AcDbEntity
  8
0
100
AcDbCircle
 62
7
  6
CONTINUOUS
 10
6.2156797404
 20
11.805451681
 40
0.9883570393
100
AcDbArc
 50
255.3994161424
 51
257.5702888363
  0
ARC
  5
3D3
100
AcDbEntity
  8
0
100
AcDbCircle
 62
7
  6
CONTINUOUS
 10
6.2156752626
 20
11.7796066979
 40
0.9883512049
100
AcDbArc
 50
102.4297574254
 51
104.7548292138
  0
ARC
  5
3D4
100
AcDbEntity
  8
0
100
AcDbCircle
 62
7
  6
CONTINUOUS
 10
6.7648212973
 20
11.7924187199
 40
0.5326574358
100
AcDbArc
 50
201.5760378439
 51
204.7953327906
  0
ARC
  5
3D5
100
AcDbEntity
  8
0
100
AcDbCircle
 62
7
  6
CONTINUOUS
 10
9.4892966313
 20
9.6840543762
 40
3.9093008025
100
AcDbArc
 50
351.3638693749
 51
356.0277811809
  0
ARC
  5
3D6
100
AcDbEntity
  8
0
100
AcDbCircle
 62
7
  6
CONTINUOUS
 10
9.4892966313
 20
9.6840543762
 40
3.9093008025
100
AcDbArc
 50
3.9722162833
 51
8.636130625
  0
ARC
  5
3D7
100
AcDbEntity
  8
0
100
AcDbCircle
 62
7
  6
CONTINUOUS
 10
9.359849359
 20
9.886278164
 40
2.6988619509
100
AcDbArc
 50
2.7735871568
 51
3.1073323195
  0
ARC
  5
3D8
100
AcDbEntity
  8
0
100
AcDbCircle
 62
7
  6
CONTINUOUS
 10
10.6635712776
 20
10.6440543762
 40
1.5
100
AcDbArc
 50
270.0
 51
295.7836193295
  0
ARC
  5
3D9
100
AcDbEntity
  8
0
100
AcDbCircle
 62
7
  6
CONTINUOUS
 10
9.8356053078
 20
9.6840543762
 40
0.7283464567
100
AcDbArc
 50
53.9757267195
 51
126.0210273832
  0
ARC
  5
3DA
100
AcDbEntity
  8
0
100
AcDbCircle
 62
7
  6
CONTINUOUS
 10
9.8356092835
 20
9.6840508813
 40
0.6799924429
100
AcDbArc
 50
233.2766398441
 51
307.2704622529
  0
ARC
  5
3DB
100
AcDbEntity
  8
0
100
AcDbCircle
 62
7
  6
CONTINUOUS
 10
9.8356083042
 20
9.6840664848
 40
0.6799839324
100
AcDbArc
 50
52.7526878395
 51
126.7175947732
  0
ARC
  5
3DC
100
AcDbEntity
  8
0
100
AcDbCircle
 62
7
  6
CONTINUOUS
 10
11.6196457303
 20
10.4761935767
 40
0.433
100
AcDbArc
 50
241.9501223004
 51
302.0942157182
  0
ARC
  5
3DD
100
AcDbEntity
  8
0
100
AcDbCircle
 62
7
  6
CONTINUOUS
 10
11.1520318028
 20
9.7400543762
 40
0.425
100
AcDbArc
 50
58.0342812492
 51
67.9808844946
  0
ARC
  5
3DE
100
AcDbEntity
  8
0
100
AcDbCircle
 62
9
  6
CONTINUOUS
 10
10.017887266
 20
9.997445454
 40
0.3712030338
100
AcDbArc
 50
37.8709936628
 51
39.0084204178
  0
ARC
  5
3DF
100
AcDbEntity
  8
0
100
AcDbCircle
 62
9
  6
CONTINUOUS
 10
10.1798772613
 20
10.1577805259
 40
0.142739651
100
AcDbArc
 50
50.9793822689
 51
53.8646818893
  0
ARC
  5
3E0
100
AcDbEntity
  8
0
100
AcDbCircle
 62
9
  6
CONTINUOUS
 10
11.8935651138
 20
10.1926136428
 40
0.0841401635
100
AcDbArc
 50
141.8676526022
 51
180.379705921
  0
ARC
  5
3E1
100
AcDbEntity
  8
0
100
AcDbCircle
 62
7
  6
CONTINUOUS
 10
10.391173211
 20
43.7779681157
 40
34.3786676255
100
AcDbArc
 50
274.3504583886
 51
274.7360989977
  0
ARC
  5
3E2
100
AcDbEntity
  8
0
100
AcDbCircle
 62
9
  6
CONTINUOUS
 10
12.7926316557
 20
9.7506275434
 40
2.4846616112
100
AcDbArc
 50
280.6682304519
 51
281.4673507284
  0
ARC
  5
3E3
100
AcDbEntity
  8
0
100
AcDbCircle
 62
7
  6
CONTINUOUS
 10
14.2252758233
 20
9.8713022293
 40
2.2028007559
100
AcDbArc
 50
175.4167678553
 51
176.2687035302
  0
ARC
  5
3E4
100
AcDbEntity
  8
0
100
AcDbCircle
 62
7
  6
CONTINUOUS
 10
13.4769998942
 20
9.9329455265
 40
1.4519927817
100
AcDbArc
 50
174.1313285172
 51
175.482016705
  0
ARC
  5
3E5
100
AcDbEntity
  8
0
100
AcDbCircle
 62
9
  6
CONTINUOUS
 10
12.0060224232
 20
9.9815748919
 40
0.837560329
100
AcDbArc
 50
269.9297161493
 51
272.1192044212
  0
ARC
  5
3E6
100
AcDbEntity
  8
0
100
AcDbCircle
 62
7
  6
CONTINUOUS
 10
12.0744206597
 20
10.2871079142
 40
0.2508912515
100
AcDbArc
 50
357.0916776835
 51
1.1698379516
  0
ARC
  5
3E7
100
AcDbEntity
  8
0
100
AcDbCircle
 62
7
  6
CONTINUOUS
 10
12.075431762
 20
10.2868766103
 40
0.2498709261
100
AcDbArc
 50
320.0557282907
 51
357.1328844219
  0
ARC
  5
3E8
100
AcDbEntity
  8
0
100
AcDbCircle
 62
7
  6
CONTINUOUS
 10
11.9799225463
 20
10.2120326761
 40
0.1045375013
100
AcDbArc
 50
270.2796327832
 51
272.8014396928
  0
ARC
  5
3E9
100
AcDbEntity
  8
0
100
AcDbCircle
 62
7
  6
CONTINUOUS
 10
11.929140486
 20
10.2364888776
 40
0.0850085481
100
AcDbArc
 50
90.0029778986
 51
141.8413221745
  0
ARC
  5
3EA
100
AcDbEntity
  8
0
100
AcDbCircle
 62
7
  6
CONTINUOUS
 10
11.9990977656
 20
10.2165733101
 40
0.084991187
100
AcDbArc
 50
321.8422246915
 51
0.3569257697
  0
ARC
  5
3EB
100
AcDbEntity
  8
0
100
AcDbCircle
 62
7
  6
CONTINUOUS
 10
11.9990107412
 20
10.2365494856
 40
0.0849311088
100
AcDbArc
 50
0.3671058362
 51
89.9238665501
  0
ARC
  5
3EC
100
AcDbEntity
  8
0
100
AcDbCircle
 62
9
  6
CONTINUOUS
 10
11.9284818686
 20
10.2370555722
 40
0.0841401677
100
AcDbArc
 50
141.8676563631
 51
180.3797051696
  0
ARC
  5
3ED
100
AcDbEntity
  8
0
100
AcDbCircle
 62
9
  6
CONTINUOUS
 10
11.9999339709
 20
10.2159045177
 40
0.0839182806
100
AcDbArc
 50
269.957197248
 51
321.8485382758
  0
ARC
  5
3EE
100
AcDbEntity
  8
0
100
AcDbCircle
 62
9
  6
CONTINUOUS
 10
11.9650733541
 20
10.171426483
 40
0.0838604296
100
AcDbArc
 50
316.0699793943
 51
321.8442469431
  0
ARC
  5
3EF
100
AcDbEntity
  8
0
100
AcDbCircle
 62
9
  6
CONTINUOUS
 10
11.9650794074
 20
10.1705488203
 40
0.0830394027
100
AcDbArc
 50
283.9028448552
 51
289.3355796333
  0
ARC
  5
3F0
100
AcDbEntity
  8
0
100
AcDbCircle
 62
7
  6
CONTINUOUS
 10
13.3036725371
 20
10.2633850849
 40
0.0511811024
100
AcDbArc
 50
8.636130625
 51
90.0
  0
ARC
  5
3F1
100
AcDbEntity
  8
0
100
AcDbCircle
 62
7
  6
CONTINUOUS
 10
12.3675380786
 20
10.2633850849
 40
0.0511811024
100
AcDbArc
 50
90.0
 51
145.6957080078
  0
ARC
  5
3F2
100
AcDbEntity
  8
0
100
AcDbCircle
 62
7
  6
CONTINUOUS
 10
12.7340318028
 20
10.0628043762
 40
0.035
100
AcDbArc
 50
94.0960437582
 51
182.0467130977
  0
ARC
  5
3F3
100
AcDbEntity
  8
0
100
AcDbCircle
 62
7
  6
CONTINUOUS
 10
12.7340318028
 20
10.0628043762
 40
0.035
100
AcDbArc
 50
27.2701766822
 51
85.9039562418
  0
ARC
  5
3F4
100
AcDbEntity
  8
0
100
AcDbCircle
 62
7
  6
CONTINUOUS
 10
13.2290318028
 20
10.0747197464
 40
0.02
100
AcDbArc
 50
0.0
 51
88.0617961874
  0
ARC
  5
3F5
100
AcDbEntity
  8
0
100
AcDbCircle
 62
7
  6
CONTINUOUS
 10
13.4388161942
 20
11.758543592
 40
1.0128945417
100
AcDbArc
 50
78.0946483888
 51
80.2950869228
  0
ARC
  5
3F6
100
AcDbEntity
  8
0
100
AcDbCircle
 62
7
  6
CONTINUOUS
 10
13.440838275
 20
11.7702811821
 40
1.0009840581
100
AcDbArc
 50
80.2959164032
 51
85.1155195443
  0
ARC
  5
3F7
100
AcDbEntity
  8
0
100
AcDbCircle
 62
7
  6
CONTINUOUS
 10
13.4411975227
 20
11.8119985388
 40
0.9981894236
100
AcDbArc
 50
273.8923850988
 51
279.7591148187
  0
ARC
  5
3F8
100
AcDbEntity
  8
0
100
AcDbCircle
 62
7
  6
CONTINUOUS
 10
13.4416083376
 20
11.7782911508
 40
0.9929376136
100
AcDbArc
 50
85.1204382261
 51
89.9967708668
  0
ARC
  5
3F9
100
AcDbEntity
  8
0
100
AcDbCircle
 62
7
  6
CONTINUOUS
 10
13.4416361288
 20
11.8058279036
 40
0.9920032486
100
AcDbArc
 50
270.6954269941
 51
273.8913041603
  0
ARC
  5
3FA
100
AcDbEntity
  8
0
100
AcDbCircle
 62
7
  6
CONTINUOUS
 10
13.4418929673
 20
11.8031706583
 40
0.9893397063
100
AcDbArc
 50
269.2887513638
 51
270.6949767221
  0
ARC
  5
3FB
100
AcDbEntity
  8
0
100
AcDbCircle
 62
7
  6
CONTINUOUS
 10
13.4554845461
 20
11.7794260921
 40
0.9885384826
100
AcDbArc
 50
75.3989532265
 51
77.5699655264
  0
ARC
  5
3FC
100
AcDbEntity
  8
0
100
AcDbCircle
 62
7
  6
CONTINUOUS
 10
13.4554943693
 20
11.8055642436
 40
0.9884747846
100
AcDbArc
 50
282.4306831356
 51
284.7550639317
  0
ARC
  5
3FD
100
AcDbEntity
  8
0
100
AcDbCircle
 62
7
  6
CONTINUOUS
 10
12.9064045522
 20
11.7924117491
 40
0.5326406828
100
AcDbArc
 50
335.2062960419
 51
338.6770967807
  0
ARC
  5
3FE
100
AcDbEntity
  8
0
100
AcDbCircle
 62
7
  6
CONTINUOUS
 10
17.8390318028
 20
9.6840543762
 40
0.27
100
AcDbArc
 50
270.0
 51
90.0
  0
ARC
  5
3FF
100
AcDbEntity
  8
0
100
AcDbCircle
 62
7
  6
CONTINUOUS
 10
58.2657058045
 20
10.9376037201
 40
46.2251808679
100
AcDbArc
 50
181.5542890314
 51
181.8176052041
  0
SPLINE
  5
400
100
AcDbEntity
  8
0
100
AcDbSpline
 62
7
  6
CONTINUOUS
 70
0
 71
3
 72
23
 73
19
 74
0
 42
0.0000001
 43
0.0000001
 44
0.0000000001
 40
0.0
 40
0.0
 40
0.0
 40
0.0
 40
0.125
 40
0.25
 40
0.375
 40
0.5
 40
0.625
 40
0.6875
 40
0.75
 40
0.8125
 40
0.84375
 40
0.875
 40
0.90625
 40
0.9375
 40
0.953125
 40
0.96875
 40
0.984375
 40
1.0
 40
1.0
 40
1.0
 40
1.0
 10
9.8356053078
 20
2.1965543762
 30
0.0
 10
9.7783200372
 20
2.1965543762
 30
0.0
 10
9.666772226
 20
2.1998836107
 30
0.0
 10
9.5081932267
 20
2.2141658409
 30
0.0
 10
9.3571169503
 20
2.2370949716
 30
0.0
 10
9.2127597083
 20
2.2695235911
 30
0.0
 10
9.098195679
 20
2.3058334085
 30
0.0
 10
9.0094194867
 20
2.3427795616
 30
0.0
 10
8.9443425303
 20
2.3758917742
 30
0.0
 10
8.8914383495
 20
2.4092998042
 30
0.0
 10
8.8492768892
 20
2.4425423211
 30
0.0
 10
8.818877637
 20
2.4707648115
 30
0.0
 10
8.788154269
 20
2.5056108491
 30
0.0
 10
8.7642198188
 20
2.5415483972
 30
0.0
 10
8.7472685472
 20
2.5766739792
 30
0.0
 10
8.7364886857
 20
2.6059497967
 30
0.0
 10
8.727944635
 20
2.6416921274
 30
0.0
 10
8.7256053078
 20
2.6697458241
 30
0.0
 10
8.7256053078
 20
2.6840543762
 30
0.0
  0
SPLINE
  5
401
100
AcDbEntity
  8
0
100
AcDbSpline
 62
7
  6
CONTINUOUS
 70
0
 71
3
 72
15
 73
11
 74
0
 42
0.0000001
 43
0.0000001
 44
0.0000000001
 40
0.0
 40
0.0
 40
0.0
 40
0.0
 40
0.0822272526
 40
0.1644545053
 40
0.2466817579
 40
0.3289090106
 40
0.4933635159
 40
0.6578180212
 40
0.9867270318
 40
1.0
 40
1.0
 40
1.0
 40
1.0
 10
8.7256053078
 20
2.6840543762
 30
0.0
 10
8.7256053078
 20
2.6983629284
 30
0.0
 10
8.7279608269
 20
2.7264795578
 30
0.0
 10
8.7364472998
 20
2.7619805861
 30
0.0
 10
8.7473263516
 20
2.7915911344
 30
0.0
 10
8.7641277352
 20
2.8263797672
 30
0.0
 10
8.7883041632
 20
2.8626587348
 30
0.0
 10
8.8287662444
 20
2.9085769942
 30
0.0
 10
8.8607247087
 20
2.935235259
 30
0.0
 10
8.8825837864
 20
2.9511708286
 30
0.0
 10
8.8834320926
 20
2.9517858874
 30
0.0
  0
SPLINE
  5
402
100
AcDbEntity
  8
0
100
AcDbSpline
 62
7
  6
CONTINUOUS
 70
0
 71
3
 72
15
 73
11
 74
0
 42
0.0000001
 43
0.0000001
 44
0.0000000001
 40
0.0
 40
0.0
 40
0.0
 40
0.0
 40
0.020834982
 40
0.3472233213
 40
0.510417491
 40
0.6736116607
 40
0.7552087455
 40
0.8368058303
 40
0.9184029152
 40
1.0
 40
1.0
 40
1.0
 40
1.0
 10
10.7862942119
 20
2.9528576747
 30
0.0
 10
10.7876353499
 20
2.9518917073
 30
0.0
 10
10.8099662178
 20
2.9356687057
 30
0.0
 10
10.8422990811
 20
2.908696009
 30
0.0
 10
10.8830130019
 20
2.8625682033
 30
0.0
 10
10.9070076711
 20
2.8264470041
 30
0.0
 10
10.9239305373
 20
2.7915465975
 30
0.0
 10
10.9347372596
 20
2.7620006104
 30
0.0
 10
10.9432686691
 20
2.7264646156
 30
0.0
 10
10.9456053078
 20
2.6983629284
 30
0.0
 10
10.9456053078
 20
2.6840543762
 30
0.0
  0
SPLINE
  5
403
100
AcDbEntity
  8
0
100
AcDbSpline
 62
7
  6
CONTINUOUS
 70
0
 71
3
 72
21
 73
17
 74
0
 42
0.0000001
 43
0.0000001
 44
0.0000000001
 40
0.0
 40
0.0
 40
0.0
 40
0.0
 40
0.015625
 40
0.03125
 40
0.0625
 40
0.09375
 40
0.125
 40
0.1875
 40
0.25
 40
0.3125
 40
0.375
 40
0.5
 40
0.625
 40
0.75
 40
0.875
 40
1.0
 40
1.0
 40
1.0
 40
1.0
 10
10.9456053078
 20
2.6840543762
 30
0.0
 10
10.9456053078
 20
2.6697458241
 30
0.0
 10
10.9432545548
 20
2.6415874162
 30
0.0
 10
10.9319166623
 20
2.5943946998
 30
0.0
 10
10.9118478761
 20
2.5491077716
 30
0.0
 10
10.8829719671
 20
2.5054396522
 30
0.0
 10
10.8423227957
 20
2.4594710162
 30
0.0
 10
10.7906024037
 20
2.4162732991
 30
0.0
 10
10.7268078048
 20
2.3758258882
 30
0.0
 10
10.6617829495
 20
2.3427512169
 30
0.0
 10
10.573019462
 20
2.3058497597
 30
0.0
 10
10.4584510762
 20
2.2695181547
 30
0.0
 10
10.3140875931
 20
2.2370960085
 30
0.0
 10
10.1630415089
 20
2.2141671296
 30
0.0
 10
10.0043479822
 20
2.199877419
 30
0.0
 10
9.8928905785
 20
2.1965543763
 30
0.0
 10
9.8356053078
 20
2.1965543763
 30
0.0
  0
SPLINE
  5
404
100
AcDbEntity
  8
0
100
AcDbSpline
 62
7
  6
CONTINUOUS
 70
0
 71
3
 72
9
 73
5
 74
0
 42
0.0000001
 43
0.0000001
 44
0.0000000001
 40
0.0
 40
0.0
 40
0.0
 40
0.0
 40
0.4239371999
 40
1.0
 40
1.0
 40
1.0
 40
1.0
 10
7.63172955
 20
10.130986061
 30
0.0
 10
7.6324351299
 20
10.1275478819
 30
0.0
 10
7.6338783329
 20
10.1193926948
 30
0.0
 10
7.6350495337
 20
10.1111958568
 30
0.0
 10
7.6356757216
 20
10.1064678438
 30
0.0
  0
LINE
  5
405
100
AcDbEntity
  8
0
100
AcDbLine
 62
7
  6
CONTINUOUS
 10
7.6356757216
 20
10.1064678438
 11
7.6385934259
 21
10.0814098023
  0
LINE
  5
406
100
AcDbEntity
  8
0
100
AcDbLine
 62
7
  6
CONTINUOUS
 10
7.6417144687
 20
9.3210707945
 11
7.638689403
 21
9.2876316592
  0
LINE
  5
407
100
AcDbEntity
  8
0
100
AcDbLine
 62
7
  6
CONTINUOUS
 10
7.638689403
 20
9.2876316592
 11
7.6357499882
 21
9.2622033365
  0
SPLINE
  5
408
100
AcDbEntity
  8
0
100
AcDbSpline
 62
7
  6
CONTINUOUS
 70
0
 71
3
 72
9
 73
5
 74
0
 42
0.0000001
 43
0.0000001
 44
0.0000000001
 40
0.0
 40
0.0
 40
0.0
 40
0.0
 40
0.5767352207
 40
1.0
 40
1.0
 40
1.0
 40
1.0
 10
7.6357499882
 20
9.2622033365
 30
0.0
 10
7.6351131825
 20
9.257362699
 30
0.0
 10
7.6339224176
 20
9.2489803824
 30
0.0
 10
7.6324511902
 20
9.2406407686
 30
0.0
 10
7.6317312775
 20
9.2371306919
 30
0.0
  0
SPLINE
  5
409
100
AcDbEntity
  8
0
100
AcDbSpline
 62
7
  6
CONTINUOUS
 70
0
 71
3
 72
9
 73
5
 74
0
 42
0.0000001
 43
0.0000001
 44
0.0000000001
 40
0.0
 40
0.0
 40
0.0
 40
0.0
 40
0.5371578771
 40
1.0
 40
1.0
 40
1.0
 40
1.0
 10
7.8438297505
 20
10.2445690883
 30
0.0
 10
7.8466845476
 20
10.2409355108
 30
0.0
 10
7.8515131268
 20
10.2337735287
 30
0.0
 10
7.8553891634
 20
10.2260761902
 30
0.0
 10
7.8570194344
 20
10.2224436468
 30
0.0
  0
SPLINE
  5
40A
100
AcDbEntity
  8
0
100
AcDbSpline
 62
7
  6
CONTINUOUS
 70
0
 71
3
 72
10
 73
6
 74
0
 42
0.0000001
 43
0.0000001
 44
0.0000000001
 40
0.0
 40
0.0
 40
0.0
 40
0.0
 40
0.2748466307
 40
0.5182585999
 40
1.0
 40
1.0
 40
1.0
 40
1.0
 10
7.8570194344
 20
10.2224436468
 30
0.0
 10
7.8586197927
 20
10.2188777542
 30
0.0
 10
7.8613431866
 20
10.2120143849
 30
0.0
 10
7.8653967002
 20
10.1983752145
 30
0.0
 10
7.8677089311
 20
10.1883147454
 30
0.0
 10
7.8690455472
 20
10.181595639
 30
0.0
  0
SPLINE
  5
40B
100
AcDbEntity
  8
0
100
AcDbSpline
 62
7
  6
CONTINUOUS
 70
0
 71
3
 72
9
 73
5
 74
0
 42
0.0000001
 43
0.0000001
 44
0.0000000001
 40
0.0
 40
0.0
 40
0.0
 40
0.0
 40
0.2379586513
 40
1.0
 40
1.0
 40
1.0
 40
1.0
 10
7.8690455472
 20
10.181595639
 30
0.0
 10
7.8694483029
 20
10.1795710051
 30
0.0
 10
7.8710683234
 20
10.1710481984
 30
0.0
 10
7.8724264122
 20
10.1624772639
 30
0.0
 10
7.8733737127
 20
10.1559347363
 30
0.0
  0
SPLINE
  5
40C
100
AcDbEntity
  8
0
100
AcDbSpline
 62
7
  6
CONTINUOUS
 70
0
 71
3
 72
9
 73
5
 74
0
 42
0.0000001
 43
0.0000001
 44
0.0000000001
 40
0.0
 40
0.0
 40
0.0
 40
0.0
 40
0.2349283461
 40
1.0
 40
1.0
 40
1.0
 40
1.0
 10
7.8733737127
 20
10.1559347363
 30
0.0
 10
7.8737495497
 20
10.1533390198
 30
0.0
 10
7.8752893476
 20
10.1422813642
 30
0.0
 10
7.8766097959
 20
10.1311938558
 30
0.0
 10
7.8775349535
 20
10.1227027036
 30
0.0
  0
SPLINE
  5
40D
100
AcDbEntity
  8
0
100
AcDbSpline
 62
7
  6
CONTINUOUS
 70
0
 71
3
 72
9
 73
5
 74
0
 42
0.0000001
 43
0.0000001
 44
0.0000000001
 40
0.0
 40
0.0
 40
0.0
 40
0.0
 40
0.2654221642
 40
1.0
 40
1.0
 40
1.0
 40
1.0
 10
7.8776774684
 20
9.2467211742
 30
0.0
 10
7.8773539237
 20
9.2437225373
 30
0.0
 10
7.8760945784
 20
9.2324294178
 30
0.0
 10
7.8746651813
 20
9.2211544955
 30
0.0
 10
7.8734775856
 20
9.2128922666
 30
0.0
  0
SPLINE
  5
40E
100
AcDbEntity
  8
0
100
AcDbSpline
 62
7
  6
CONTINUOUS
 70
0
 71
3
 72
9
 73
5
 74
0
 42
0.0000001
 43
0.0000001
 44
0.0000000001
 40
0.0
 40
0.0
 40
0.0
 40
0.0
 40
0.2632458414
 40
1.0
 40
1.0
 40
1.0
 40
1.0
 10
7.8734775856
 20
9.2128922666
 30
0.0
 10
7.8731480458
 20
9.2105996228
 30
0.0
 10
7.8718551209
 20
9.2018966673
 30
0.0
 10
7.870372954
 20
9.1932201264
 30
0.0
 10
7.8691142782
 20
9.1868610597
 30
0.0
  0
SPLINE
  5
40F
100
AcDbEntity
  8
0
100
AcDbSpline
 62
7
  6
CONTINUOUS
 70
0
 71
3
 72
11
 73
7
 74
0
 42
0.0000001
 43
0.0000001
 44
0.0000000001
 40
0.0
 40
0.0
 40
0.0
 40
0.0
 40
0.2436730141
 40
0.4821808362
 40
0.7254183988
 40
1.0
 40
1.0
 40
1.0
 40
1.0
 10
7.8691142782
 20
9.1868610597
 30
0.0
 10
7.8684367747
 20
9.1834381846
 30
0.0
 10
7.866999592
 20
9.176683109
 30
0.0
 10
7.8644632502
 20
9.1666081239
 30
0.0
 10
7.8613879458
 20
9.1562166288
 30
0.0
 10
7.8586524715
 20
9.1493097462
 30
0.0
 10
7.8570445758
 20
9.1457216642
 30
0.0
  0
SPLINE
  5
410
100
AcDbEntity
  8
0
100
AcDbSpline
 62
7
  6
CONTINUOUS
 70
0
 71
3
 72
9
 73
5
 74
0
 42
0.0000001
 43
0.0000001
 44
0.0000000001
 40
0.0
 40
0.0
 40
0.0
 40
0.0
 40
0.4626317055
 40
1.0
 40
1.0
 40
1.0
 40
1.0
 10
7.8570445758
 20
9.1457216642
 30
0.0
 10
7.8554131861
 20
9.1420811539
 30
0.0
 10
7.8515321609
 20
9.1343631147
 30
0.0
 10
7.8466925098
 20
9.127183376
 30
0.0
 10
7.8438297505
 20
9.1235396642
 30
0.0
  0
SPLINE
  5
411
100
AcDbEntity
  8
0
100
AcDbSpline
 62
7
  6
CONTINUOUS
 70
0
 71
3
 72
9
 73
5
 74
0
 42
0.0000001
 43
0.0000001
 44
0.0000000001
 40
0.0
 40
0.0
 40
0.0
 40
0.0
 40
0.5371578771
 40
1.0
 40
1.0
 40
1.0
 40
1.0
 10
11.8273808652
 20
10.2445690883
 30
0.0
 10
11.824526068
 20
10.2409355108
 30
0.0
 10
11.8196974889
 20
10.2337735287
 30
0.0
 10
11.8158214523
 20
10.2260761902
 30
0.0
 10
11.8141911813
 20
10.2224436468
 30
0.0
  0
SPLINE
  5
412
100
AcDbEntity
  8
0
100
AcDbSpline
 62
7
  6
CONTINUOUS
 70
0
 71
3
 72
10
 73
6
 74
0
 42
0.0000001
 43
0.0000001
 44
0.0000000001
 40
0.0
 40
0.0
 40
0.0
 40
0.0
 40
0.2748466307
 40
0.5182585999
 40
1.0
 40
1.0
 40
1.0
 40
1.0
 10
11.8141911813
 20
10.2224436468
 30
0.0
 10
11.8125908229
 20
10.2188777542
 30
0.0
 10
11.8098674291
 20
10.2120143849
 30
0.0
 10
11.8058139155
 20
10.1983752145
 30
0.0
 10
11.8035016845
 20
10.1883147454
 30
0.0
 10
11.8021650684
 20
10.181595639
 30
0.0
  0
SPLINE
  5
413
100
AcDbEntity
  8
0
100
AcDbSpline
 62
7
  6
CONTINUOUS
 70
0
 71
3
 72
9
 73
5
 74
0
 42
0.0000001
 43
0.0000001
 44
0.0000000001
 40
0.0
 40
0.0
 40
0.0
 40
0.0
 40
0.2379586513
 40
1.0
 40
1.0
 40
1.0
 40
1.0
 10
11.8021650684
 20
10.181595639
 30
0.0
 10
11.8017623127
 20
10.1795710051
 30
0.0
 10
11.8001422923
 20
10.1710481984
 30
0.0
 10
11.7987842035
 20
10.1624772639
 30
0.0
 10
11.7978369029
 20
10.1559347363
 30
0.0
  0
SPLINE
  5
414
100
AcDbEntity
  8
0
100
AcDbSpline
 62
7
  6
CONTINUOUS
 70
0
 71
3
 72
9
 73
5
 74
0
 42
0.0000001
 43
0.0000001
 44
0.0000000001
 40
0.0
 40
0.0
 40
0.0
 40
0.0
 40
0.2349283461
 40
1.0
 40
1.0
 40
1.0
 40
1.0
 10
11.7978369029
 20
10.1559347363
 30
0.0
 10
11.797461066
 20
10.1533390198
 30
0.0
 10
11.7959212681
 20
10.1422813642
 30
0.0
 10
11.7946008198
 20
10.1311938558
 30
0.0
 10
11.7936756622
 20
10.1227027036
 30
0.0
  0
SPLINE
  5
415
100
AcDbEntity
  8
0
100
AcDbSpline
 62
7
  6
CONTINUOUS
 70
0
 71
3
 72
9
 73
5
 74
0
 42
0.0000001
 43
0.0000001
 44
0.0000000001
 40
0.0
 40
0.0
 40
0.0
 40
0.0
 40
0.235321426
 40
1.0
 40
1.0
 40
1.0
 40
1.0
 10
11.7936756622
 20
10.1227027036
 30
0.0
 10
11.7933047638
 20
10.1192985758
 30
0.0
 10
11.7917882215
 20
10.1048262231
 30
0.0
 10
11.7904886833
 20
10.0903316249
 30
0.0
 10
11.7895807223
 20
10.0792415296
 30
0.0
  0
LINE
  5
416
100
AcDbEntity
  8
0
100
AcDbLine
 62
7
  6
CONTINUOUS
 10
11.7894036258
 20
9.2910435094
 11
11.7895789097
 21
9.2888886726
  0
SPLINE
  5
417
100
AcDbEntity
  8
0
100
AcDbSpline
 62
7
  6
CONTINUOUS
 70
0
 71
3
 72
9
 73
5
 74
0
 42
0.0000001
 43
0.0000001
 44
0.0000000001
 40
0.0
 40
0.0
 40
0.0
 40
0.0
 40
0.2640917005
 40
1.0
 40
1.0
 40
1.0
 40
1.0
 10
11.7895789097
 20
9.2888886726
 30
0.0
 10
11.7898830878
 20
9.2851727323
 30
0.0
 10
11.791072497
 20
9.2711052552
 30
0.0
 10
11.7924186348
 20
9.2570505593
 30
0.0
 10
11.7935331472
 20
9.2467211742
 30
0.0
  0
SPLINE
  5
418
100
AcDbEntity
  8
0
100
AcDbSpline
 62
7
  6
CONTINUOUS
 70
0
 71
3
 72
9
 73
5
 74
0
 42
0.0000001
 43
0.0000001
 44
0.0000000001
 40
0.0
 40
0.0
 40
0.0
 40
0.0
 40
0.2654221642
 40
1.0
 40
1.0
 40
1.0
 40
1.0
 10
11.7935331472
 20
9.2467211742
 30
0.0
 10
11.7938566919
 20
9.2437225373
 30
0.0
 10
11.7951160372
 20
9.2324294178
 30
0.0
 10
11.7965454344
 20
9.2211544955
 30
0.0
 10
11.79773303
 20
9.2128922666
 30
0.0
  0
SPLINE
  5
419
100
AcDbEntity
  8
0
100
AcDbSpline
 62
7
  6
CONTINUOUS
 70
0
 71
3
 72
9
 73
5
 74
0
 42
0.0000001
 43
0.0000001
 44
0.0000000001
 40
0.0
 40
0.0
 40
0.0
 40
0.0
 40
0.2632458414
 40
1.0
 40
1.0
 40
1.0
 40
1.0
 10
11.79773303
 20
9.2128922666
 30
0.0
 10
11.7980625699
 20
9.2105996228
 30
0.0
 10
11.7993554948
 20
9.2018966673
 30
0.0
 10
11.8008376617
 20
9.1932201264
 30
0.0
 10
11.8020963375
 20
9.1868610597
 30
0.0
  0
SPLINE
  5
41A
100
AcDbEntity
  8
0
100
AcDbSpline
 62
7
  6
CONTINUOUS
 70
0
 71
3
 72
11
 73
7
 74
0
 42
0.0000001
 43
0.0000001
 44
0.0000000001
 40
0.0
 40
0.0
 40
0.0
 40
0.0
 40
0.2436730141
 40
0.4821808362
 40
0.7254183988
 40
1.0
 40
1.0
 40
1.0
 40
1.0
 10
11.8020963375
 20
9.1868610597
 30
0.0
 10
11.8027738409
 20
9.1834381846
 30
0.0
 10
11.8042110237
 20
9.176683109
 30
0.0
 10
11.8067473655
 20
9.1666081239
 30
0.0
 10
11.8098226699
 20
9.1562166288
 30
0.0
 10
11.8125581442
 20
9.1493097462
 30
0.0
 10
11.8141660398
 20
9.1457216642
 30
0.0
  0
SPLINE
  5
41B
100
AcDbEntity
  8
0
100
AcDbSpline
 62
7
  6
CONTINUOUS
 70
0
 71
3
 72
9
 73
5
 74
0
 42
0.0000001
 43
0.0000001
 44
0.0000000001
 40
0.0
 40
0.0
 40
0.0
 40
0.0
 40
0.4626317055
 40
1.0
 40
1.0
 40
1.0
 40
1.0
 10
11.8141660398
 20
9.1457216642
 30
0.0
 10
11.8157974296
 20
9.1420811539
 30
0.0
 10
11.8196784548
 20
9.1343631147
 30
0.0
 10
11.8245181058
 20
9.127183376
 30
0.0
 10
11.8273808652
 20
9.1235396642
 30
0.0
  0
LINE
  5
41C
100
AcDbEntity
  8
0
100
AcDbLine
 62
7
  6
CONTINUOUS
 10
12.0394810656
 20
10.130986061
 11
12.0381125764
 21
10.1236869347
  0
LINE
  5
41D
100
AcDbEntity
  8
0
100
AcDbLine
 62
7
  6
CONTINUOUS
 10
12.0381125764
 20
10.1236869347
 11
12.035534894
 21
10.1064678438
  0
LINE
  5
41E
100
AcDbEntity
  8
0
100
AcDbLine
 62
7
  6
CONTINUOUS
 10
12.035534894
 20
10.1064678438
 11
12.0326171898
 21
10.0814098023
  0
LINE
  5
41F
100
AcDbEntity
  8
0
100
AcDbLine
 62
7
  6
CONTINUOUS
 10
12.0294052135
 20
9.3222084041
 11
12.0325212127
 21
9.2876316592
  0
LINE
  5
420
100
AcDbEntity
  8
0
100
AcDbLine
 62
7
  6
CONTINUOUS
 10
12.0325212127
 20
9.2876316592
 11
12.0354606275
 21
9.2622033365
  0
SPLINE
  5
421
100
AcDbEntity
  8
0
100
AcDbSpline
 62
7
  6
CONTINUOUS
 70
0
 71
3
 72
9
 73
5
 74
0
 42
0.0000001
 43
0.0000001
 44
0.0000000001
 40
0.0
 40
0.0
 40
0.0
 40
0.0
 40
0.5767352207
 40
1.0
 40
1.0
 40
1.0
 40
1.0
 10
12.0354606275
 20
9.2622033365
 30
0.0
 10
12.0360974331
 20
9.257362699
 30
0.0
 10
12.037288198
 20
9.2489803824
 30
0.0
 10
12.0387594254
 20
9.2406407686
 30
0.0
 10
12.0394793382
 20
9.2371306919
 30
0.0
  0
SPLINE
  5
422
100
AcDbEntity
  8
0
100
AcDbSpline
 62
7
  6
CONTINUOUS
 70
0
 71
3
 72
9
 73
5
 74
0
 42
0.0000001
 43
0.0000001
 44
0.0000000001
 40
0.0
 40
0.0
 40
0.0
 40
0.0
 40
0.5151005769
 40
1.0
 40
1.0
 40
1.0
 40
1.0
 10
13.2402471835
 20
7.3497385697
 30
0.0
 10
13.2387986886
 20
7.353117922
 30
0.0
 10
13.236579791
 20
7.3599481431
 30
0.0
 10
13.2356604366
 20
7.3670818698
 30
0.0
 10
13.2356053214
 20
7.3705425649
 30
0.0
  0
SPLINE
  5
423
100
AcDbEntity
  8
0
100
AcDbSpline
 62
7
  6
CONTINUOUS
 70
0
 71
3
 72
16
 73
12
 74
0
 42
0.0000001
 43
0.0000001
 44
0.0000000001
 40
0.0
 40
0.0
 40
0.0
 40
0.0
 40
0.1250372794
 40
0.2500747277
 40
0.3751098161
 40
0.4376693386
 40
0.5002295826
 40
0.6252629953
 40
0.7502661878
 40
0.8752406033
 40
1.0
 40
1.0
 40
1.0
 40
1.0
 10
7.1316015778
 20
12.1765104081
 30
0.0
 10
7.1129006575
 20
12.2203523252
 30
0.0
 10
7.0689898152
 20
12.3054199974
 30
0.0
 10
6.9853319984
 20
12.421969561
 30
0.0
 10
6.9021134735
 20
12.5079290072
 30
0.0
 10
6.8286441068
 20
12.5688331388
 30
0.0
 10
6.7509048952
 20
12.6241848772
 30
0.0
 10
6.646466315
 20
12.682508591
 30
0.0
 10
6.5123569489
 20
12.7334456229
 30
0.0
 10
6.3723929808
 20
12.7643449201
 30
0.0
 10
6.2770515492
 20
12.7712142678
 30
0.0
 10
6.229493675
 20
12.7712226622
 30
0.0
  0
SPLINE
  5
424
100
AcDbEntity
  8
0
100
AcDbSpline
 62
7
  6
CONTINUOUS
 70
0
 71
3
 72
10
 73
6
 74
0
 42
0.0000001
 43
0.0000001
 44
0.0000000001
 40
0.0
 40
0.0
 40
0.0
 40
0.0
 40
0.537580784
 40
0.790987555
 40
1.0
 40
1.0
 40
1.0
 40
1.0
 10
6.0608136872
 20
12.7567998239
 30
0.0
 10
6.0438448364
 20
12.7538840382
 30
0.0
 10
6.0189822113
 20
12.7489473674
 30
0.0
 10
5.9878157734
 20
12.7415609372
 30
0.0
 10
5.9734828907
 20
12.7378268095
 30
0.0
 10
5.9670174183
 20
12.7360918301
 30
0.0
  0
LINE
  5
425
100
AcDbEntity
  8
0
100
AcDbLine
 62
7
  6
CONTINUOUS
 10
5.9670174183
 20
12.7360918301
 11
5.9637797575
 21
12.7352178651
  0
SPLINE
  5
426
100
AcDbEntity
  8
0
100
AcDbSpline
 62
7
  6
CONTINUOUS
 70
0
 71
3
 72
16
 73
12
 74
0
 42
0.0000001
 43
0.0000001
 44
0.0000000001
 40
0.0
 40
0.0
 40
0.0
 40
0.0
 40
0.0490099005
 40
0.0804278102
 40
0.1875378484
 40
0.3301527438
 40
0.4077670175
 40
0.4881369301
 40
0.6545022951
 40
0.8257440159
 40
1.0
 40
1.0
 40
1.0
 40
1.0
 10
5.9663620856
 20
10.8491473884
 30
0.0
 10
5.9653344018
 20
10.8494209112
 30
0.0
 10
5.961777829
 20
10.8503769205
 30
0.0
 10
5.9678033421
 20
10.8487498344
 30
0.0
 10
5.9722231508
 20
10.8475654304
 30
0.0
 10
5.9796844033
 20
10.8456211645
 30
0.0
 10
5.9859149437
 20
10.8440482003
 30
0.0
 10
5.9927719888
 20
10.8423503896
 30
0.0
 10
6.0015797079
 20
10.8402423535
 30
0.0
 10
6.0124127815
 20
10.8377701033
 30
0.0
 10
6.0197389388
 20
10.836183113
 30
0.0
 10
6.0234387803
 20
10.8354031377
 30
0.0
  0
SPLINE
  5
427
100
AcDbEntity
  8
0
100
AcDbSpline
 62
7
  6
CONTINUOUS
 70
0
 71
3
 72
29
 73
25
 74
0
 42
0.0000001
 43
0.0000001
 44
0.0000000001
 40
0.0
 40
0.0
 40
0.0
 40
0.0
 40
0.0624840491
 40
0.1249577191
 40
0.1874401818
 40
0.2499200139
 40
0.2811856392
 40
0.3124529972
 40
0.3749338933
 40
0.4374150032
 40
0.4686814846
 40
0.4999486957
 40
0.531215787
 40
0.5624817773
 40
0.593748237
 40
0.625014802
 40
0.6562806294
 40
0.6875471921
 40
0.7188136902
 40
0.7500787322
 40
0.8125580985
 40
0.8750408395
 40
0.9375153556
 40
1.0
 40
1.0
 40
1.0
 40
1.0
 10
5.9665354695
 20
10.8490120491
 30
0.0
 10
5.9147626161
 20
10.862499285
 30
0.0
 10
5.8132239747
 20
10.8979468795
 30
0.0
 10
5.6716585999
 20
10.974981785
 30
0.0
 10
5.5443808942
 20
11.0738956821
 30
0.0
 10
5.4531279124
 20
11.172592967
 30
0.0
 10
5.3905943391
 20
11.2595958257
 30
0.0
 10
5.3354463212
 20
11.3514607544
 30
0.0
 10
5.2809814582
 20
11.4743491004
 30
0.0
 10
5.2476188103
 20
11.6045702109
 30
0.0
 10
5.2341247715
 20
11.7108619682
 30
0.0
 10
5.2306824393
 20
11.791200189
 30
0.0
 10
5.2339047084
 20
11.8715416132
 30
0.0
 10
5.2438095335
 20
11.951337109
 30
0.0
 10
5.2603212136
 20
12.0300291642
 30
0.0
 10
5.2832794754
 20
12.1070873336
 30
0.0
 10
5.3125612564
 20
12.1819725321
 30
0.0
 10
5.3479382445
 20
12.2541748218
 30
0.0
 10
5.3891315584
 20
12.3232298422
 30
0.0
 10
5.451424685
 20
12.4103968663
 30
0.0
 10
5.5424092296
 20
12.5093441131
 30
0.0
 10
5.6694189621
 20
12.6086017916
 30
0.0
 10
5.8107774263
 20
12.6860194277
 30
0.0
 10
5.9122217284
 20
12.7217397506
 30
0.0
 10
5.9639585625
 20
12.7353665042
 30
0.0
  0
SPLINE
  5
428
100
AcDbEntity
  8
0
100
AcDbSpline
 62
7
  6
CONTINUOUS
 70
0
 71
3
 72
21
 73
17
 74
0
 42
0.0000001
 43
0.0000001
 44
0.0000000001
 40
0.0
 40
0.0
 40
0.0
 40
0.0
 40
0.0622358025
 40
0.124421856
 40
0.1866937477
 40
0.2490522703
 40
0.3114582491
 40
0.3739090818
 40
0.4364104119
 40
0.4989646839
 40
0.6240173905
 40
0.7492021611
 40
0.8119176913
 40
0.8746321162
 40
0.9373318603
 40
1.0
 40
1.0
 40
1.0
 40
1.0
 10
6.7141089697
 20
12.3204144888
 30
0.0
 10
6.6937502995
 20
12.3187032962
 30
0.0
 10
6.653209631
 20
12.3128873167
 30
0.0
 10
6.5938546497
 20
12.2970855595
 30
0.0
 10
6.53672518
 20
12.2743989958
 30
0.0
 10
6.4825549327
 20
12.2452019774
 30
0.0
 10
6.4321157387
 20
12.2098390465
 30
0.0
 10
6.386138721
 20
12.1687784513
 30
0.0
 10
6.345189496
 20
12.1226272185
 30
0.0
 10
6.2981448475
 20
12.0551478908
 30
0.0
 10
6.2544437841
 20
11.9611400671
 30
0.0
 10
6.2336159386
 20
11.8595348623
 30
0.0
 10
6.2312058829
 20
11.7771463365
 30
0.0
 10
6.2365841209
 20
11.7154764509
 30
0.0
 10
6.2490020444
 20
11.6548635493
 30
0.0
 10
6.2619219608
 20
11.6156725379
 30
0.0
 10
6.2694869757
 20
11.5965415805
 30
0.0
  0
SPLINE
  5
429
100
AcDbEntity
  8
0
100
AcDbSpline
 62
7
  6
CONTINUOUS
 70
0
 71
3
 72
11
 73
7
 74
0
 42
0.0000001
 43
0.0000001
 44
0.0000000001
 40
0.0
 40
0.0
 40
0.0
 40
0.0
 40
0.3399852251
 40
0.6208523307
 40
0.8432180047
 40
1.0
 40
1.0
 40
1.0
 40
1.0
 10
6.7141287731
 20
12.3204165332
 30
0.0
 10
6.7063141178
 20
12.3197682262
 30
0.0
 10
6.6920523291
 20
12.3184766949
 30
0.0
 10
6.6727066199
 20
12.3164815634
 30
0.0
 10
6.6575691538
 20
12.314872341
 30
0.0
 10
6.6488679555
 20
12.3140002143
 30
0.0
 10
6.6452694048
 20
12.3136448188
 30
0.0
  0
SPLINE
  5
42A
100
AcDbEntity
  8
0
100
AcDbSpline
 62
7
  6
CONTINUOUS
 70
0
 71
3
 72
9
 73
5
 74
0
 42
0.0000001
 43
0.0000001
 44
0.0000000001
 40
0.0
 40
0.0
 40
0.0
 40
0.0
 40
0.4851965216
 40
1.0
 40
1.0
 40
1.0
 40
1.0
 10
6.3804170823
 20
7.3164187444
 30
0.0
 10
6.3838800543
 20
7.3164064541
 30
0.0
 10
6.3910298655
 20
7.317188643
 30
0.0
 10
6.397900391
 20
7.3192771011
 30
0.0
 10
6.4013047508
 20
7.3206594434
 30
0.0
  0
SPLINE
  5
42B
100
AcDbEntity
  8
0
100
AcDbSpline
 62
7
  6
CONTINUOUS
 70
0
 71
3
 72
9
 73
5
 74
0
 42
0.0000001
 43
0.0000001
 44
0.0000000001
 40
0.0
 40
0.0
 40
0.0
 40
0.0
 40
0.5003554453
 40
1.0
 40
1.0
 40
1.0
 40
1.0
 10
6.4013047508
 20
7.3206594434
 30
0.0
 10
6.4078575592
 20
7.3233202152
 30
0.0
 10
6.4202336438
 20
7.3310252039
 30
0.0
 10
6.4281811046
 20
7.3432473735
 30
0.0
 10
6.4309634321
 20
7.3497385697
 30
0.0
  0
SPLINE
  5
42C
100
AcDbEntity
  8
0
100
AcDbSpline
 62
7
  6
CONTINUOUS
 70
0
 71
3
 72
9
 73
5
 74
0
 42
0.0000001
 43
0.0000001
 44
0.0000000001
 40
0.0
 40
0.0
 40
0.0
 40
0.0
 40
0.5151005769
 40
1.0
 40
1.0
 40
1.0
 40
1.0
 10
6.4309634321
 20
7.3497385697
 30
0.0
 10
6.4324119271
 20
7.353117922
 30
0.0
 10
6.4346308247
 20
7.3599481431
 30
0.0
 10
6.4355501791
 20
7.3670818698
 30
0.0
 10
6.4356052943
 20
7.3705425649
 30
0.0
  0
SPLINE
  5
42D
100
AcDbEntity
  8
0
100
AcDbSpline
 62
7
  6
CONTINUOUS
 70
0
 71
3
 72
17
 73
13
 74
0
 42
0.0000001
 43
0.0000001
 44
0.0000000001
 40
0.0
 40
0.0
 40
0.0
 40
0.0
 40
0.1247466208
 40
0.1872678212
 40
0.2497963275
 40
0.3747890877
 40
0.499811879
 40
0.5623670984
 40
0.6249214579
 40
0.7499462273
 40
0.874973124
 40
1.0
 40
1.0
 40
1.0
 40
1.0
 10
13.4417130354
 20
12.7712234494
 30
0.0
 10
13.3941418966
 20
12.7712151558
 30
0.0
 10
13.3225890051
 20
12.7660450847
 30
0.0
 10
13.228824252
 20
12.7489034977
 30
0.0
 10
13.1364544208
 20
12.72493572
 30
0.0
 10
13.0246150788
 20
12.682455373
 30
0.0
 10
12.9201641198
 20
12.6240961425
 30
0.0
 10
12.8424103247
 20
12.5687141768
 30
0.0
 10
12.7689320756
 20
12.5077762348
 30
0.0
 10
12.6857095302
 20
12.4217704884
 30
0.0
 10
12.6020608314
 20
12.3051615478
 30
0.0
 10
12.5581640681
 20
12.2200542755
 30
0.0
 10
12.5394731713
 20
12.1761926378
 30
0.0
  0
SPLINE
  5
42E
100
AcDbEntity
  8
0
100
AcDbSpline
 62
7
  6
CONTINUOUS
 70
0
 71
3
 72
28
 73
24
 74
0
 42
0.0000001
 43
0.0000001
 44
0.0000000001
 40
0.0
 40
0.0
 40
0.0
 40
0.0
 40
0.0624865847
 40
0.1249635052
 40
0.1874491152
 40
0.2499320761
 40
0.2811993219
 40
0.3124683703
 40
0.3437376672
 40
0.3750063077
 40
0.4374910712
 40
0.4687594655
 40
0.5000286737
 40
0.5312977055
 40
0.5625655921
 40
0.6250485581
 40
0.6875308749
 40
0.7187989713
 40
0.7500655624
 40
0.812548141
 40
0.8750341146
 40
0.9375113916
 40
1.0
 40
1.0
 40
1.0
 40
1.0
 10
13.707246459
 20
10.8496859641
 30
0.0
 10
13.7589819858
 20
10.8633125418
 30
0.0
 10
13.8604247591
 20
10.8990302012
 30
0.0
 10
14.0017814037
 20
10.9764458755
 30
0.0
 10
14.1287897926
 20
11.075702871
 30
0.0
 10
14.2197774182
 20
11.174646919
 30
0.0
 10
14.282071993
 20
11.2618151021
 30
0.0
 10
14.3232662824
 20
11.3308699075
 30
0.0
 10
14.35864673
 20
11.4030801805
 30
0.0
 10
14.3976652267
 20
11.5028573617
 30
0.0
 10
14.424109134
 20
11.6071899519
 30
0.0
 10
14.4373042183
 20
11.7135102562
 30
0.0
 10
14.4405271376
 20
11.7938588539
 30
0.0
 10
14.4370836568
 20
11.8741954843
 30
0.0
 10
14.4235904798
 20
11.9804862931
 30
0.0
 10
14.390226707
 20
12.1107032772
 30
0.0
 10
14.3357655564
 20
12.2335887932
 30
0.0
 10
14.2806198689
 20
12.325451354
 30
0.0
 10
14.2180875493
 20
12.412452503
 30
0.0
 10
14.126835825
 20
12.5111490803
 30
0.0
 10
13.9995607797
 20
12.6100655278
 30
0.0
 10
13.8579954611
 20
12.68710311
 30
0.0
 10
13.756455924
 20
12.7225513753
 30
0.0
 10
13.7046822841
 20
12.7360392945
 30
0.0
  0
SPLINE
  5
42F
100
AcDbEntity
  8
0
100
AcDbSpline
 62
7
  6
CONTINUOUS
 70
0
 71
3
 72
10
 73
6
 74
0
 42
0.0000001
 43
0.0000001
 44
0.0000000001
 40
0.0
 40
0.0
 40
0.0
 40
0.0
 40
0.5375806597
 40
0.790987407
 40
1.0
 40
1.0
 40
1.0
 40
1.0
 10
13.6103969061
 20
10.8282538086
 30
0.0
 10
13.6273657557
 20
10.8311695937
 30
0.0
 10
13.6522283802
 20
10.8361062635
 30
0.0
 10
13.6833948231
 20
10.8434926941
 30
0.0
 10
13.697727712
 20
10.8472268229
 30
0.0
 10
13.70419319
 20
10.8489618039
 30
0.0
  0
LINE
  5
430
100
AcDbEntity
  8
0
100
AcDbLine
 62
7
  6
CONTINUOUS
 10
13.70419319
 20
10.8489618039
 11
13.7074308705
 21
10.8498357743
  0
SPLINE
  5
431
100
AcDbEntity
  8
0
100
AcDbSpline
 62
7
  6
CONTINUOUS
 70
0
 71
3
 72
16
 73
12
 74
0
 42
0.0000001
 43
0.0000001
 44
0.0000000001
 40
0.0
 40
0.0
 40
0.0
 40
0.0
 40
0.0490099633
 40
0.0804278063
 40
0.187537816
 40
0.3301527057
 40
0.4077669817
 40
0.4881368979
 40
0.6545022721
 40
0.8257440037
 40
1.0
 40
1.0
 40
1.0
 40
1.0
 10
13.7048485505
 20
12.7359062388
 30
0.0
 10
13.7058762356
 20
12.7356327156
 30
0.0
 10
13.7094328111
 20
12.7346767055
 30
0.0
 10
13.7034073032
 20
12.7363037904
 30
0.0
 10
13.6989874938
 20
12.7374881947
 30
0.0
 10
13.6915262425
 20
12.7394324605
 30
0.0
 10
13.6852957019
 20
12.7410054249
 30
0.0
 10
13.6784386562
 20
12.7427032359
 30
0.0
 10
13.6696309363
 20
12.7448112725
 30
0.0
 10
13.6587978616
 20
12.7472835232
 30
0.0
 10
13.6514717036
 20
12.7488705139
 30
0.0
 10
13.6477718616
 20
12.7496504893
 30
0.0
  0
SPLINE
  5
432
100
AcDbEntity
  8
0
100
AcDbSpline
 62
7
  6
CONTINUOUS
 70
0
 71
3
 72
21
 73
17
 74
0
 42
0.0000001
 43
0.0000001
 44
0.0000000001
 40
0.0
 40
0.0
 40
0.0
 40
0.0
 40
0.0622358572
 40
0.1244219534
 40
0.1866935306
 40
0.249051777
 40
0.3114575228
 40
0.3739079198
 40
0.4364086844
 40
0.498962126
 40
0.6240144896
 40
0.7491993426
 40
0.8119150036
 40
0.874629719
 40
0.9373305205
 40
1.0
 40
1.0
 40
1.0
 40
1.0
 10
12.9572055281
 20
12.3204057469
 30
0.0
 10
12.9775132393
 20
12.3186947606
 30
0.0
 10
13.0179522486
 20
12.3128911375
 30
0.0
 10
13.077162654
 20
12.2971430626
 30
0.0
 10
13.1341612542
 20
12.2745435511
 30
0.0
 10
13.1882195775
 20
12.2454635545
 30
0.0
 10
13.2385719129
 20
12.2102454918
 30
0.0
 10
13.2844911249
 20
12.1693520007
 30
0.0
 10
13.3254148699
 20
12.1233852264
 30
0.0
 10
13.3724752618
 20
12.0561681158
 30
0.0
 10
13.4162895469
 20
11.9625031781
 30
0.0
 10
13.4373655259
 20
11.861217801
 30
0.0
 10
13.4400501657
 20
11.7790435033
 30
0.0
 10
13.4349126861
 20
11.7175077435
 30
0.0
 10
13.4227647915
 20
11.6569969426
 30
0.0
 10
13.4100457571
 20
11.6178479612
 30
0.0
 10
13.4025838222
 20
11.5987310092
 30
0.0
  0
SPLINE
  5
433
100
AcDbEntity
  8
0
100
AcDbSpline
 62
7
  6
CONTINUOUS
 70
0
 71
3
 72
16
 73
12
 74
0
 42
0.0000001
 43
0.0000001
 44
0.0000000001
 40
0.0
 40
0.0
 40
0.0
 40
0.0
 40
0.0242299597
 40
0.0345167134
 40
0.0542169267
 40
0.1222387165
 40
0.2319436386
 40
0.3767711064
 40
0.5530325837
 40
0.7606995832
 40
1.0
 40
1.0
 40
1.0
 40
1.0
 10
13.0285882549
 20
12.3132590304
 30
0.0
 10
13.0292108902
 20
12.3132317599
 30
0.0
 10
13.0298889464
 20
12.3132016924
 30
0.0
 10
13.03188631
 20
12.3130607365
 30
0.0
 10
13.0273880948
 20
12.3135100208
 30
0.0
 10
13.0241492868
 20
12.3138203439
 30
0.0
 10
13.0148874773
 20
12.3147485008
 30
0.0
 10
13.0042813815
 20
12.3158621059
 30
0.0
 10
12.9906061277
 20
12.3173089626
 30
0.0
 10
12.9747062785
 20
12.3188851406
 30
0.0
 10
12.9632407577
 20
12.31990562
 30
0.0
 10
12.957106656
 20
12.3204145514
 30
0.0
  0
SPLINE
  5
434
100
AcDbEntity
  8
0
100
AcDbSpline
 62
9
  6
CONTINUOUS
 70
0
 71
3
 72
13
 73
9
 74
0
 42
0.0000001
 43
0.0000001
 44
0.0000000001
 40
0.0
 40
0.0
 40
0.0
 40
0.0
 40
0.2883570387
 40
0.4234915887
 40
0.5522524106
 40
0.6743253237
 40
0.7893597837
 40
1.0
 40
1.0
 40
1.0
 40
1.0
 10
9.6519398647
 20
9.0337358806
 30
0.0
 10
9.6231329905
 20
9.0393278172
 30
0.0
 10
9.5811690066
 20
9.049535344
 30
0.0
 10
9.5276834481
 20
9.0668405496
 30
0.0
 10
9.490924907
 20
9.0807257037
 30
0.0
 10
9.4567328267
 20
9.0954981592
 30
0.0
 10
9.4157499545
 20
9.1154298396
 30
0.0
 10
9.3869344721
 20
9.1319443147
 30
0.0
 10
9.3689498814
 20
9.1436082123
 30
0.0
  0
SPLINE
  5
435
100
AcDbEntity
  8
0
100
AcDbSpline
 62
9
  6
CONTINUOUS
 70
0
 71
3
 72
12
 73
8
 74
0
 42
0.0000001
 43
0.0000001
 44
0.0000000001
 40
0.0
 40
0.0
 40
0.0
 40
0.0
 40
0.2241840291
 40
0.4669993113
 40
0.5958317763
 40
0.7286957932
 40
1.0
 40
1.0
 40
1.0
 40
1.0
 10
6.6235040151
 20
10.0240559992
 30
0.0
 10
6.6165385475
 20
10.0241074269
 30
0.0
 10
6.6019842803
 20
10.0265139347
 30
0.0
 10
6.5851007507
 20
10.0347843069
 30
0.0
 10
6.5728980809
 20
10.0447070902
 30
0.0
 10
6.5615575767
 20
10.0568217038
 30
0.0
 10
6.5547655505
 20
10.0675935537
 30
0.0
 10
6.5512015401
 20
10.0752328128
 30
0.0
  0
SPLINE
  5
436
100
AcDbEntity
  8
0
100
AcDbSpline
 62
9
  6
CONTINUOUS
 70
0
 71
3
 72
11
 73
7
 74
0
 42
0.0000001
 43
0.0000001
 44
0.0000000001
 40
0.0
 40
0.0
 40
0.0
 40
0.0
 40
0.2328243729
 40
0.479575736
 40
0.7379379171
 40
1.0
 40
1.0
 40
1.0
 40
1.0
 10
6.6234906479
 20
9.3440526818
 30
0.0
 10
6.6162625182
 20
9.3439971846
 30
0.0
 10
6.6013271522
 20
9.3413989376
 30
0.0
 10
6.5805703213
 20
9.3309211926
 30
0.0
 10
6.5632744481
 20
9.3141073922
 30
0.0
 10
6.5546413495
 20
9.3002490941
 30
0.0
 10
6.5512015022
 20
9.2928759655
 30
0.0
  0
SPLINE
  5
437
100
AcDbEntity
  8
0
100
AcDbSpline
 62
9
  6
CONTINUOUS
 70
0
 71
3
 72
17
 73
13
 74
0
 42
0.0000001
 43
0.0000001
 44
0.0000000001
 40
0.0
 40
0.0
 40
0.0
 40
0.0
 40
0.1688612959
 40
0.3183233001
 40
0.3860179056
 40
0.4500826768
 40
0.5114483497
 40
0.5708789694
 40
0.6850666006
 40
0.7940858428
 40
0.8988506267
 40
1.0
 40
1.0
 40
1.0
 40
1.0
 10
8.7925391482
 20
2.6840543762
 30
0.0
 10
8.7925391482
 20
2.695531024
 30
0.0
 10
8.7944469679
 20
2.7172098425
 30
0.0
 10
8.8008414731
 20
2.7427442699
 30
0.0
 10
8.8073155971
 20
2.760739051
 30
0.0
 10
8.8125384851
 20
2.772790308
 30
0.0
 10
8.8181879947
 20
2.7840188439
 30
0.0
 10
8.8260308352
 20
2.7979363038
 30
0.0
 10
8.8365619594
 20
2.8140329204
 30
0.0
 10
8.8502691118
 20
2.831638301
 30
0.0
 10
8.8645956972
 20
2.8475598771
 30
0.0
 10
8.8745383784
 20
2.8574196485
 30
0.0
 10
8.8795458825
 20
2.8621297632
 30
0.0
  0
SPLINE
  5
438
100
AcDbEntity
  8
0
100
AcDbSpline
 62
9
  6
CONTINUOUS
 70
0
 71
3
 72
10
 73
6
 74
0
 42
0.0000001
 43
0.0000001
 44
0.0000000001
 40
0.0
 40
0.0
 40
0.0
 40
0.0
 40
0.2385504695
 40
0.4861349123
 40
1.0
 40
1.0
 40
1.0
 40
1.0
 10
6.4911231145
 20
7.3381697464
 30
0.0
 10
6.4879466607
 20
7.3359152777
 30
0.0
 10
6.4813828647
 20
7.3314452828
 30
0.0
 10
6.4675104453
 20
7.3228340214
 30
0.0
 10
6.4563380964
 20
7.3172337296
 30
0.0
 10
6.4485258232
 20
7.3141723702
 30
0.0
  0
SPLINE
  5
439
100
AcDbEntity
  8
0
100
AcDbSpline
 62
9
  6
CONTINUOUS
 70
0
 71
3
 72
9
 73
5
 74
0
 42
0.0000001
 43
0.0000001
 44
0.0000000001
 40
0.0
 40
0.0
 40
0.0
 40
0.0
 40
0.2494814665
 40
1.0
 40
1.0
 40
1.0
 40
1.0
 10
6.448526194
 20
7.3141722073
 30
0.0
 10
6.4461660966
 20
7.3132477933
 30
0.0
 10
6.4365185216
 20
7.3100354861
 30
0.0
 10
6.4262399914
 20
7.3087609317
 30
0.0
 10
6.4186163782
 20
7.3089120956
 30
0.0
  0
SPLINE
  5
43A
100
AcDbEntity
  8
0
100
AcDbSpline
 62
9
  6
CONTINUOUS
 70
0
 71
3
 72
9
 73
5
 74
0
 42
0.0000001
 43
0.0000001
 44
0.0000000001
 40
0.0
 40
0.0
 40
0.0
 40
0.0
 40
0.4844681819
 40
1.0
 40
1.0
 40
1.0
 40
1.0
 10
6.3846048437
 20
7.3155643347
 30
0.0
 10
6.3880617025
 20
7.3155652526
 30
0.0
 10
6.3952065544
 20
7.3163896919
 30
0.0
 10
6.4020585351
 20
7.3185350447
 30
0.0
 10
6.4054537959
 20
7.3199505434
 30
0.0
  0
SPLINE
  5
43B
100
AcDbEntity
  8
0
100
AcDbSpline
 62
9
  6
CONTINUOUS
 70
0
 71
3
 72
9
 73
5
 74
0
 42
0.0000001
 43
0.0000001
 44
0.0000000001
 40
0.0
 40
0.0
 40
0.0
 40
0.0
 40
0.4991209003
 40
1.0
 40
1.0
 40
1.0
 40
1.0
 10
6.4054537959
 20
7.3199505434
 30
0.0
 10
6.4119946742
 20
7.3226774633
 30
0.0
 10
6.4243413
 20
7.3305654028
 30
0.0
 10
6.4321528047
 20
7.3429534752
 30
0.0
 10
6.4348714706
 20
7.3495248117
 30
0.0
  0
SPLINE
  5
43C
100
AcDbEntity
  8
0
100
AcDbSpline
 62
9
  6
CONTINUOUS
 70
0
 71
3
 72
9
 73
5
 74
0
 42
0.0000001
 43
0.0000001
 44
0.0000000001
 40
0.0
 40
0.0
 40
0.0
 40
0.0
 40
0.515193625
 40
1.0
 40
1.0
 40
1.0
 40
1.0
 10
6.4348714706
 20
7.3495248117
 30
0.0
 10
6.4362879634
 20
7.3529486422
 30
0.0
 10
6.4384384891
 20
7.3598573844
 30
0.0
 10
6.4392798825
 20
7.3670557118
 30
0.0
 10
6.4392931865
 20
7.3705424166
 30
0.0
  0
SPLINE
  5
43D
100
AcDbEntity
  8
0
100
AcDbSpline
 62
9
  6
CONTINUOUS
 70
0
 71
3
 72
13
 73
9
 74
0
 42
0.0000001
 43
0.0000001
 44
0.0000000001
 40
0.0
 40
0.0
 40
0.0
 40
0.0
 40
0.2569186863
 40
0.3841603344
 40
0.5099049067
 40
0.6344022984
 40
0.7576505187
 40
1.0
 40
1.0
 40
1.0
 40
1.0
 10
6.4659339467
 20
7.2792107342
 30
0.0
 10
6.4708051428
 20
7.2835246892
 30
0.0
 10
6.4776659119
 20
7.2904853222
 30
0.0
 10
6.4856447844
 20
7.3006522104
 30
0.0
 10
6.4909550326
 20
7.3086124111
 30
0.0
 10
6.4957145781
 20
7.3167920583
 30
0.0
 10
6.5014555733
 20
7.3277990569
 30
0.0
 10
6.5053009059
 20
7.3362353751
 30
0.0
 10
6.5076045042
 20
7.3419245313
 30
0.0
  0
SPLINE
  5
43E
100
AcDbEntity
  8
0
100
AcDbSpline
 62
9
  6
CONTINUOUS
 70
0
 71
3
 72
9
 73
5
 74
0
 42
0.0000001
 43
0.0000001
 44
0.0000000001
 40
0.0
 40
0.0
 40
0.0
 40
0.0
 40
0.6310188307
 40
1.0
 40
1.0
 40
1.0
 40
1.0
 10
6.4780100959
 20
7.3617847999
 30
0.0
 10
6.4698459709
 20
7.3635347431
 30
0.0
 10
6.4569248183
 20
7.366388701
 30
0.0
 10
6.4440445894
 20
7.3694193929
 30
0.0
 10
6.4392931882
 20
7.370542416
 30
0.0
  0
SPLINE
  5
43F
100
AcDbEntity
  8
0
100
AcDbSpline
 62
9
  6
CONTINUOUS
 70
0
 71
3
 72
18
 73
14
 74
0
 42
0.0000001
 43
0.0000001
 44
0.0000000001
 40
0.0
 40
0.0
 40
0.0
 40
0.0
 40
0.0041394219
 40
0.016450153
 40
0.036848291
 40
0.0652500364
 40
0.1015716955
 40
0.1457296822
 40
0.2572207836
 40
0.3990569431
 40
0.5705735958
 40
0.7711081355
 40
1.0
 40
1.0
 40
1.0
 40
1.0
 10
6.4356057136
 20
6.8977522348
 30
0.0
 10
6.4356499054
 20
6.8977743799
 30
0.0
 10
6.43584694
 20
6.8978073323
 30
0.0
 10
6.4362627807
 20
6.8979463253
 30
0.0
 10
6.4369700164
 20
6.8981313372
 30
0.0
 10
6.4379476843
 20
6.8984075515
 30
0.0
 10
6.4392021633
 20
6.898750058
 30
0.0
 10
6.4414135887
 20
6.8993534846
 30
0.0
 10
6.4448444484
 20
6.9002748849
 30
0.0
 10
6.4497493144
 20
6.9015707481
 30
0.0
 10
6.4556892219
 20
6.9031115743
 30
0.0
 10
6.4626434101
 20
6.9048821333
 30
0.0
 10
6.4676186044
 20
6.9061243157
 30
0.0
 10
6.4702719278
 20
6.9067805057
 30
0.0
  0
SPLINE
  5
440
100
AcDbEntity
  8
0
100
AcDbSpline
 62
9
  6
CONTINUOUS
 70
0
 71
3
 72
9
 73
5
 74
0
 42
0.0000001
 43
0.0000001
 44
0.0000000001
 40
0.0
 40
0.0
 40
0.0
 40
0.0
 40
0.4889456963
 40
1.0
 40
1.0
 40
1.0
 40
1.0
 10
9.3599612868
 20
9.1445408452
 30
0.0
 10
9.3673354861
 20
9.1346094929
 30
0.0
 10
9.3799222951
 20
9.1123688277
 30
0.0
 10
9.3873579919
 20
9.087966938
 30
0.0
 10
9.3898409433
 20
9.0752785301
 30
0.0
  0
SPLINE
  5
441
100
AcDbEntity
  8
0
100
AcDbSpline
 62
9
  6
CONTINUOUS
 70
0
 71
3
 72
9
 73
5
 74
0
 42
0.0000001
 43
0.0000001
 44
0.0000000001
 40
0.0
 40
0.0
 40
0.0
 40
0.0
 40
0.4974504633
 40
1.0
 40
1.0
 40
1.0
 40
1.0
 10
9.3898413118
 20
9.0752782592
 30
0.0
 10
9.3931171511
 20
9.0585380096
 30
0.0
 10
9.3952210752
 20
9.0239472776
 30
0.0
 10
9.3902189822
 20
8.989796476
 30
0.0
 10
9.386131878
 20
8.9730555591
 30
0.0
  0
SPLINE
  5
442
100
AcDbEntity
  8
0
100
AcDbSpline
 62
7
  6
CONTINUOUS
 70
0
 71
3
 72
26
 73
22
 74
0
 42
0.0000001
 43
0.0000001
 44
0.0000000001
 40
0.0
 40
0.0
 40
0.0
 40
0.0
 40
0.0008136757
 40
0.0032244711
 40
0.0072603104
 40
0.0129161163
 40
0.020187365
 40
0.0290765724
 40
0.0517828253
 40
0.0811897697
 40
0.1174770002
 40
0.1608736451
 40
0.2116588088
 40
0.2702331556
 40
0.3370885315
 40
0.4128676676
 40
0.4986450392
 40
0.5959265332
 40
0.7064008784
 40
0.8367380681
 40
1.0
 40
1.0
 40
1.0
 40
1.0
 10
7.3459392354
 20
10.2922473734
 30
0.0
 10
7.3459348114
 20
10.2922538806
 30
0.0
 10
7.3458985517
 20
10.2922196493
 30
0.0
 10
7.345855198
 20
10.2921899421
 30
0.0
 10
7.3457608356
 20
10.2921044218
 30
0.0
 10
7.3456385541
 20
10.2920020013
 30
0.0
 10
7.3454744811
 20
10.2918665775
 30
0.0
 10
7.3451793247
 20
10.291635183
 30
0.0
 10
7.3447101488
 20
10.2912766717
 30
0.0
 10
7.3440343871
 20
10.2907534335
 30
0.0
 10
7.3432090169
 20
10.2900961947
 30
0.0
 10
7.3422300868
 20
10.2893002348
 30
0.0
 10
7.3410938236
 20
10.2883561658
 30
0.0
 10
7.3397999796
 20
10.2872470399
 30
0.0
 10
7.3383463081
 20
10.2859534265
 30
0.0
 10
7.336726101
 20
10.2844518667
 30
0.0
 10
7.3349393248
 20
10.282697942
 30
0.0
 10
7.3330002271
 20
10.2806242453
 30
0.0
 10
7.3308267633
 20
10.2781803066
 30
0.0
 10
7.3284887883
 20
10.2750380736
 30
0.0
 10
7.3271156936
 20
10.2725430133
 30
0.0
 10
7.3264081608
 20
10.271131599
 30
0.0
  0
SPLINE
  5
443
100
AcDbEntity
  8
0
100
AcDbSpline
 62
9
  6
CONTINUOUS
 70
0
 71
3
 72
13
 73
9
 74
0
 42
0.0000001
 43
0.0000001
 44
0.0000000001
 40
0.0
 40
0.0
 40
0.0
 40
0.0
 40
0.2353905271
 40
0.3590347105
 40
0.485662351
 40
0.6142257555
 40
0.7435517913
 40
1.0
 40
1.0
 40
1.0
 40
1.0
 10
9.3861270516
 20
8.9730547409
 30
0.0
 10
9.3840577498
 20
8.9881280477
 30
0.0
 10
9.3791208071
 20
9.0109187528
 30
0.0
 10
9.3691208183
 20
9.0406964382
 30
0.0
 10
9.3595166141
 20
9.0632499769
 30
0.0
 10
9.348011736
 20
9.0853111651
 30
0.0
 10
9.3303424339
 20
9.1134995511
 30
0.0
 10
9.3144483144
 20
9.1329193398
 30
0.0
 10
9.3028764695
 20
9.1447872974
 30
0.0
  0
SPLINE
  5
444
100
AcDbEntity
  8
0
100
AcDbSpline
 62
9
  6
CONTINUOUS
 70
0
 71
3
 72
15
 73
11
 74
0
 42
0.0000001
 43
0.0000001
 44
0.0000000001
 40
0.0
 40
0.0
 40
0.0
 40
0.0
 40
0.0344721224
 40
0.0592055747
 40
0.0902781967
 40
0.1729222868
 40
0.2839766833
 40
0.42334827
 40
0.5899896194
 40
1.0
 40
1.0
 40
1.0
 40
1.0
 10
7.5872503614
 20
9.13108438
 30
0.0
 10
7.5872546995
 20
9.1308336248
 30
0.0
 10
7.5875311523
 20
9.1304323967
 30
0.0
 10
7.588056415
 20
9.1300527454
 30
0.0
 10
7.5889488663
 20
9.1295713201
 30
0.0
 10
7.5904938771
 20
9.1290242484
 30
0.0
 10
7.5928419514
 20
9.1284187388
 30
0.0
 10
7.5958212464
 20
9.1278371843
 30
0.0
 10
7.6009694403
 20
9.127037213
 30
0.0
 10
7.6051417084
 20
9.126578268
 30
0.0
 10
7.6081111782
 20
9.1262953037
 30
0.0
  0
SPLINE
  5
445
100
AcDbEntity
  8
0
100
AcDbSpline
 62
9
  6
CONTINUOUS
 70
0
 71
3
 72
9
 73
5
 74
0
 42
0.0000001
 43
0.0000001
 44
0.0000000001
 40
0.0
 40
0.0
 40
0.0
 40
0.0
 40
0.4621236854
 40
1.0
 40
1.0
 40
1.0
 40
1.0
 10
7.6081111782
 20
9.1262953037
 30
0.0
 10
7.6121413763
 20
9.1259112613
 30
0.0
 10
7.6208797812
 20
9.1252631581
 30
0.0
 10
7.6296309802
 20
9.124843544
 30
0.0
 10
7.6343397146
 20
9.1246657741
 30
0.0
  0
SPLINE
  5
446
100
AcDbEntity
  8
0
100
AcDbSpline
 62
9
  6
CONTINUOUS
 70
0
 71
3
 72
16
 73
12
 74
0
 42
0.0000001
 43
0.0000001
 44
0.0000000001
 40
0.0
 40
0.0
 40
0.0
 40
0.0
 40
0.0274681468
 40
0.0510735886
 40
0.0822276849
 40
0.1211431595
 40
0.1678066597
 40
0.2834933896
 40
0.4272549298
 40
0.5967299562
 40
1.0
 40
1.0
 40
1.0
 40
1.0
 10
12.0840836366
 20
9.1510060137
 30
0.0
 10
12.0840760226
 20
9.1505659003
 30
0.0
 10
12.0832954955
 20
9.1499365322
 30
0.0
 10
12.0821504975
 20
9.1494112079
 30
0.0
 10
12.0807091382
 20
9.1489155579
 30
0.0
 10
12.0789050036
 20
9.1484468026
 30
0.0
 10
12.0757444297
 20
9.1477825563
 30
0.0
 10
12.0708951082
 20
9.1470377475
 30
0.0
 10
12.0640638143
 20
9.1462615988
 30
0.0
 10
12.0526213926
 20
9.1452980103
 30
0.0
 10
12.043452119
 20
9.1448312119
 30
0.0
 10
12.0369942834
 20
9.1445874078
 30
0.0
  0
SPLINE
  5
447
100
AcDbEntity
  8
0
100
AcDbSpline
 62
9
  6
CONTINUOUS
 70
0
 71
3
 72
9
 73
5
 74
0
 42
0.0000001
 43
0.0000001
 44
0.0000000001
 40
0.0
 40
0.0
 40
0.0
 40
0.0
 40
0.6155264374
 40
1.0
 40
1.0
 40
1.0
 40
1.0
 10
13.1588950185
 20
6.9167098405
 30
0.0
 10
13.1728759494
 20
6.9135496716
 30
0.0
 10
13.1955452967
 20
6.9082154208
 30
0.0
 10
13.2181144475
 20
6.9024731431
 30
0.0
 10
13.226765056
 20
6.9001653387
 30
0.0
  0
LINE
  5
448
100
AcDbEntity
  8
0
100
AcDbLine
 62
9
  6
CONTINUOUS
 10
13.226765056
 20
6.9001653387
 11
13.2356049383
 21
6.8977522183
  0
SPLINE
  5
449
100
AcDbEntity
  8
0
100
AcDbSpline
 62
9
  6
CONTINUOUS
 70
0
 71
3
 72
15
 73
11
 74
0
 42
0.0000001
 43
0.0000001
 44
0.0000000001
 40
0.0
 40
0.0
 40
0.0
 40
0.0
 40
0.3549495331
 40
0.5181930925
 40
0.664368327
 40
0.7890944381
 40
0.8885788722
 40
0.9595800065
 40
0.9836945154
 40
1.0
 40
1.0
 40
1.0
 40
1.0
 10
4.027008037
 20
6.9365386241
 30
0.0
 10
4.0271287875
 20
6.9318490421
 30
0.0
 10
4.0272521622
 20
6.9250012851
 30
0.0
 10
4.027339443
 20
6.9162211489
 30
0.0
 10
4.0273550986
 20
6.9104833534
 30
0.0
 10
4.0273077503
 20
6.9055880088
 30
0.0
 10
4.0271976898
 20
6.9016882629
 30
0.0
 10
4.0270747146
 20
6.8991179322
 30
0.0
 10
4.0269379305
 20
6.8976521324
 30
0.0
 10
4.0268624128
 20
6.8971220465
 30
0.0
 10
4.0268133569
 20
6.8969122054
 30
0.0
  0
SPLINE
  5
44A
100
AcDbEntity
  8
0
100
AcDbSpline
 62
9
  6
CONTINUOUS
 70
0
 71
3
 72
12
 73
8
 74
0
 42
0.0000001
 43
0.0000001
 44
0.0000000001
 40
0.0
 40
0.0
 40
0.0
 40
0.0
 40
0.250426642
 40
0.3759217562
 40
0.5014046287
 40
0.7508835646
 40
1.0
 40
1.0
 40
1.0
 40
1.0
 10
4.0268133569
 20
6.8969122054
 30
0.0
 10
4.0223533158
 20
6.896778601
 30
0.0
 10
4.015558526
 20
6.8977190719
 30
0.0
 10
4.007252086
 20
6.9010908972
 30
0.0
 10
3.9996428786
 20
6.9058139517
 30
0.0
 10
3.9917758467
 20
6.9139770261
 30
0.0
 10
3.9880255953
 20
6.9222509808
 30
0.0
 10
3.9868981906
 20
6.9265441135
 30
0.0
  0
SPLINE
  5
44B
100
AcDbEntity
  8
0
100
AcDbSpline
 62
9
  6
CONTINUOUS
 70
0
 71
3
 72
17
 73
13
 74
0
 42
0.0000001
 43
0.0000001
 44
0.0000000001
 40
0.0
 40
0.0
 40
0.0
 40
0.0
 40
0.1750274075
 40
0.3535689721
 40
0.5250204231
 40
0.6787812348
 40
0.8057374101
 40
0.9026929783
 40
0.939389894
 40
0.9679563885
 40
0.9882024055
 40
1.0
 40
1.0
 40
1.0
 40
1.0
 10
6.4174315731
 20
7.0010908279
 30
0.0
 10
6.4174937916
 20
6.9987652192
 30
0.0
 10
6.4176027443
 20
6.9940668538
 30
0.0
 10
6.4177211908
 20
6.9870893015
 30
0.0
 10
6.4177892755
 20
6.9803937992
 30
0.0
 10
6.4177999923
 20
6.9743834205
 30
0.0
 10
6.4177411903
 20
6.969363895
 30
0.0
 10
6.4176409617
 20
6.9659004733
 30
0.0
 10
6.4175240877
 20
6.9637480183
 30
0.0
 10
6.4174390589
 20
6.9626132019
 30
0.0
 10
6.4173422261
 20
6.9618157687
 30
0.0
 10
6.4172694961
 20
6.9613917841
 30
0.0
 10
6.4172124746
 20
6.9612457068
 30
0.0
  0
SPLINE
  5
44C
100
AcDbEntity
  8
0
100
AcDbSpline
 62
9
  6
CONTINUOUS
 70
0
 71
3
 72
9
 73
5
 74
0
 42
0.0000001
 43
0.0000001
 44
0.0000000001
 40
0.0
 40
0.0
 40
0.0
 40
0.0
 40
0.5000063595
 40
1.0
 40
1.0
 40
1.0
 40
1.0
 10
6.4198775423
 20
7.2690493726
 30
0.0
 10
6.4277856646
 20
7.2690444431
 30
0.0
 10
6.4436490479
 20
7.270747885
 30
0.0
 10
6.4587736415
 20
7.2758543565
 30
0.0
 10
6.4659339467
 20
7.2792107342
 30
0.0
  0
SPLINE
  5
44D
100
AcDbEntity
  8
0
100
AcDbSpline
 62
9
  6
CONTINUOUS
 70
0
 71
3
 72
12
 73
8
 74
0
 42
0.0000001
 43
0.0000001
 44
0.0000000001
 40
0.0
 40
0.0
 40
0.0
 40
0.0
 40
0.0550585187
 40
0.1354948751
 40
0.3661051597
 40
0.6713221872
 40
1.0
 40
1.0
 40
1.0
 40
1.0
 10
6.4485260653
 20
7.3141720235
 30
0.0
 10
6.4488999749
 20
7.3135603138
 30
0.0
 10
6.449767331
 20
7.312023148
 30
0.0
 10
6.4520207089
 20
7.3078223064
 30
0.0
 10
6.4556454586
 20
7.3006617615
 30
0.0
 10
6.4605770099
 20
7.2905425106
 30
0.0
 10
6.4641187353
 20
7.2830865482
 30
0.0
 10
6.4659337424
 20
7.2792106393
 30
0.0
  0
SPLINE
  5
44E
100
AcDbEntity
  8
0
100
AcDbSpline
 62
9
  6
CONTINUOUS
 70
0
 71
3
 72
17
 73
13
 74
0
 42
0.0000001
 43
0.0000001
 44
0.0000000001
 40
0.0
 40
0.0
 40
0.0
 40
0.0
 40
0.011796015
 40
0.0320431961
 40
0.0606132448
 40
0.0973157156
 40
0.1942868273
 40
0.3212618488
 40
0.4750402971
 40
0.6464980977
 40
0.8250232483
 40
1.0
 40
1.0
 40
1.0
 40
1.0
 10
6.4186126789
 20
7.3089118367
 30
0.0
 10
6.4186735811
 20
7.3087671999
 30
0.0
 10
6.4187574716
 20
7.3083448756
 30
0.0
 10
6.4188753054
 20
7.3075494866
 30
0.0
 10
6.4189901782
 20
7.3064161052
 30
0.0
 10
6.4191636435
 20
7.3042651447
 30
0.0
 10
6.4193548619
 20
7.3008018143
 30
0.0
 10
6.4195454589
 20
7.2957802306
 30
0.0
 10
6.4196924642
 20
7.2897655158
 30
0.0
 10
6.4198000203
 20
7.2830642437
 30
0.0
 10
6.4198645604
 20
7.276080345
 30
0.0
 10
6.4198787917
 20
7.2713772885
 30
0.0
 10
6.4198775341
 20
7.2690493726
 30
0.0
  0
SPLINE
  5
44F
100
AcDbEntity
  8
0
100
AcDbSpline
 62
9
  6
CONTINUOUS
 70
0
 71
3
 72
10
 73
6
 74
0
 42
0.0000001
 43
0.0000001
 44
0.0000000001
 40
0.0
 40
0.0
 40
0.0
 40
0.0
 40
0.5137759342
 40
0.7613838696
 40
1.0
 40
1.0
 40
1.0
 40
1.0
 10
13.2226847164
 20
7.3141724771
 30
0.0
 10
13.2148957546
 20
7.3172248183
 30
0.0
 10
13.2037545825
 20
7.3228059442
 30
0.0
 10
13.1899175745
 20
7.3313874546
 30
0.0
 10
13.183369278
 20
7.3358431807
 30
0.0
 10
13.1801998122
 20
7.3380904583
 30
0.0
  0
SPLINE
  5
450
100
AcDbEntity
  8
0
100
AcDbSpline
 62
9
  6
CONTINUOUS
 70
0
 71
3
 72
9
 73
5
 74
0
 42
0.0000001
 43
0.0000001
 44
0.0000000001
 40
0.0
 40
0.0
 40
0.0
 40
0.0
 40
0.2510816464
 40
1.0
 40
1.0
 40
1.0
 40
1.0
 10
13.252596305
 20
7.3089120362
 30
0.0
 10
13.2500459112
 20
7.3088615987
 30
0.0
 10
13.2398861317
 20
7.3091502843
 30
0.0
 10
13.2297690119
 20
7.3113970085
 30
0.0
 10
13.2226844012
 20
7.3141720632
 30
0.0
  0
SPLINE
  5
451
100
AcDbEntity
  8
0
100
AcDbSpline
 62
9
  6
CONTINUOUS
 70
0
 71
3
 72
13
 73
9
 74
0
 42
0.0000001
 43
0.0000001
 44
0.0000000001
 40
0.0
 40
0.0
 40
0.0
 40
0.0
 40
0.2569232519
 40
0.3841643097
 40
0.5099081008
 40
0.6344053506
 40
0.7576542372
 40
1.0
 40
1.0
 40
1.0
 40
1.0
 10
13.205276669
 20
7.2792107141
 30
0.0
 10
13.2004086011
 20
7.283529453
 30
0.0
 10
13.1935469075
 20
7.2904898755
 30
0.0
 10
13.1855634325
 20
7.3006552205
 30
0.0
 10
13.1802518989
 20
7.3086158353
 30
0.0
 10
13.1754923455
 20
7.3167967006
 30
0.0
 10
13.1697523816
 20
7.3278056837
 30
0.0
 10
13.1659066601
 20
7.3362428193
 30
0.0
 10
13.1636028008
 20
7.3419324975
 30
0.0
  0
SPLINE
  5
452
100
AcDbEntity
  8
0
100
AcDbSpline
 62
9
  6
CONTINUOUS
 70
0
 71
3
 72
9
 73
5
 74
0
 42
0.0000001
 43
0.0000001
 44
0.0000000001
 40
0.0
 40
0.0
 40
0.0
 40
0.0
 40
0.5000085864
 40
1.0
 40
1.0
 40
1.0
 40
1.0
 10
13.2513330598
 20
7.2690493718
 30
0.0
 10
13.2434249082
 20
7.2690451021
 30
0.0
 10
13.2275615969
 20
7.2707478002
 30
0.0
 10
13.2124368786
 20
7.2758542304
 30
0.0
 10
13.205276669
 20
7.2792107141
 30
0.0
  0
SPLINE
  5
453
100
AcDbEntity
  8
0
100
AcDbSpline
 62
9
  6
CONTINUOUS
 70
0
 71
3
 72
9
 73
5
 74
0
 42
0.0000001
 43
0.0000001
 44
0.0000000001
 40
0.0
 40
0.0
 40
0.0
 40
0.0
 40
0.2499885858
 40
1.0
 40
1.0
 40
1.0
 40
1.0
 10
6.4186158093
 20
7.3089118351
 30
0.0
 10
6.2192213566
 20
7.3090092857
 30
0.0
 10
5.4216073656
 20
7.3096860614
 30
0.0
 10
4.6239931791
 20
7.3107579588
 30
0.0
 10
4.0257733828
 20
7.3105144632
 30
0.0
  0
SPLINE
  5
454
100
AcDbEntity
  8
0
100
AcDbSpline
 62
9
  6
CONTINUOUS
 70
0
 71
3
 72
12
 73
8
 74
0
 42
0.0000001
 43
0.0000001
 44
0.0000000001
 40
0.0
 40
0.0
 40
0.0
 40
0.0
 40
0.3286782659
 40
0.6338953378
 40
0.8645054038
 40
0.9449416149
 40
1.0
 40
1.0
 40
1.0
 40
1.0
 10
13.2052768326
 20
7.2792106381
 30
0.0
 10
13.2070918418
 20
7.2830865449
 30
0.0
 10
13.2106335686
 20
7.2905424993
 30
0.0
 10
13.2155651185
 20
7.3006617348
 30
0.0
 10
13.2191898632
 20
7.3078222631
 30
0.0
 10
13.2214432355
 20
7.3120230917
 30
0.0
 10
13.2223105887
 20
7.3135602517
 30
0.0
 10
13.2226844968
 20
7.314171959
 30
0.0
  0
SPLINE
  5
455
100
AcDbEntity
  8
0
100
AcDbSpline
 62
9
  6
CONTINUOUS
 70
0
 71
3
 72
9
 73
5
 74
0
 42
0.0000001
 43
0.0000001
 44
0.0000000001
 40
0.0
 40
0.0
 40
0.0
 40
0.0
 40
0.4778602236
 40
1.0
 40
1.0
 40
1.0
 40
1.0
 10
13.4416663266
 20
10.81382487
 30
0.0
 10
13.4396277872
 20
10.813824874
 30
0.0
 10
13.4353294127
 20
10.8143399935
 30
0.0
 10
13.4313969981
 20
10.8162042157
 30
0.0
 10
13.4295403
 20
10.8174347187
 30
0.0
  0
SPLINE
  5
456
100
AcDbEntity
  8
0
100
AcDbSpline
 62
9
  6
CONTINUOUS
 70
0
 71
3
 72
9
 73
5
 74
0
 42
0.0000001
 43
0.0000001
 44
0.0000000001
 40
0.0
 40
0.0
 40
0.0
 40
0.0
 40
0.2418121568
 40
1.0
 40
1.0
 40
1.0
 40
1.0
 10
13.3876529771
 20
10.8945978889
 30
0.0
 10
13.3863431219
 20
10.8981295687
 30
0.0
 10
13.3810140497
 20
10.9127672309
 30
0.0
 10
13.3759549176
 20
10.9275014149
 30
0.0
 10
13.3721675866
 20
10.938688148
 30
0.0
  0
SPLINE
  5
457
100
AcDbEntity
  8
0
100
AcDbSpline
 62
9
  6
CONTINUOUS
 70
0
 71
3
 72
9
 73
5
 74
0
 42
0.0000001
 43
0.0000001
 44
0.0000000001
 40
0.0
 40
0.0
 40
0.0
 40
0.0
 40
0.5068004228
 40
1.0
 40
1.0
 40
1.0
 40
1.0
 10
13.3721675866
 20
10.938688148
 30
0.0
 10
13.3677261067
 20
10.9518070567
 30
0.0
 10
13.3590999797
 20
10.9777384591
 30
0.0
 10
13.3502523085
 20
11.0035982102
 30
0.0
 10
13.3456838136
 20
11.0162790313
 30
0.0
  0
SPLINE
  5
458
100
AcDbEntity
  8
0
100
AcDbSpline
 62
7
  6
CONTINUOUS
 70
0
 71
3
 72
11
 73
7
 74
0
 42
0.0000001
 43
0.0000001
 44
0.0000000001
 40
0.0
 40
0.0
 40
0.0
 40
0.0
 40
0.2494083906
 40
0.4992104037
 40
0.7492718389
 40
1.0
 40
1.0
 40
1.0
 40
1.0
 10
3.9856053078
 20
7.2708703249
 30
0.0
 10
3.9856053076
 20
7.2747887716
 30
0.0
 10
3.9867988607
 20
7.2826806337
 30
0.0
 10
3.9919919428
 20
7.2934373157
 30
0.0
 10
4.0001384278
 20
7.3021928745
 30
0.0
 10
4.007053937
 20
7.3062248784
 30
0.0
 10
4.010717917
 20
7.3076713919
 30
0.0
  0
SPLINE
  5
459
100
AcDbEntity
  8
0
100
AcDbSpline
 62
7
  6
CONTINUOUS
 70
0
 71
3
 72
11
 73
7
 74
0
 42
0.0000001
 43
0.0000001
 44
0.0000000001
 40
0.0
 40
0.0
 40
0.0
 40
0.0
 40
0.2497828355
 40
0.4997767891
 40
0.7499827332
 40
1.0
 40
1.0
 40
1.0
 40
1.0
 10
4.010717917
 20
7.3076713919
 30
0.0
 10
4.0119112041
 20
7.3081424932
 30
0.0
 10
4.0143463207
 20
7.3089682541
 30
0.0
 10
4.0180954292
 20
7.3098740856
 30
0.0
 10
4.0219182456
 20
7.3104119264
 30
0.0
 10
4.0244892982
 20
7.3105031446
 30
0.0
 10
4.0257733657
 20
7.3105146288
 30
0.0
  0
SPLINE
  5
45A
100
AcDbEntity
  8
0
100
AcDbSpline
 62
9
  6
CONTINUOUS
 70
0
 71
3
 72
15
 73
11
 74
0
 42
0.0000001
 43
0.0000001
 44
0.0000000001
 40
0.0
 40
0.0
 40
0.0
 40
0.0
 40
0.0163426431
 40
0.0405962606
 40
0.1117997292
 40
0.2113572842
 40
0.3362792062
 40
0.4825551796
 40
0.6459440495
 40
1.0
 40
1.0
 40
1.0
 40
1.0
 10
4.0257733657
 20
7.3105146288
 30
0.0
 10
4.0258280893
 20
7.310305477
 30
0.0
 10
4.0259195291
 20
7.3097751047
 30
0.0
 10
4.0261013496
 20
7.3083077152
 30
0.0
 10
4.0262961987
 20
7.3057337773
 30
0.0
 10
4.026497142
 20
7.3018277116
 30
0.0
 10
4.0266633246
 20
7.2969255466
 30
0.0
 10
4.0268016148
 20
7.2911781942
 30
0.0
 10
4.0269514101
 20
7.2823992261
 30
0.0
 10
4.0270057671
 20
7.2755540358
 30
0.0
 10
4.0270079456
 20
7.2708703249
 30
0.0
  0
SPLINE
  5
45B
100
AcDbEntity
  8
0
100
AcDbSpline
 62
9
  6
CONTINUOUS
 70
0
 71
3
 72
17
 73
13
 74
0
 42
0.0000001
 43
0.0000001
 44
0.0000000001
 40
0.0
 40
0.0
 40
0.0
 40
0.0
 40
0.1749767509
 40
0.3535019042
 40
0.5249597089
 40
0.6787381604
 40
0.8057131824
 40
0.9026842924
 40
0.9393867616
 40
0.9679568084
 40
0.9882039873
 40
1.0
 40
1.0
 40
1.0
 40
1.0
 10
13.251333067
 20
7.2690493718
 30
0.0
 10
13.2513318094
 20
7.2713772881
 30
0.0
 10
13.2513460407
 20
7.2760803453
 30
0.0
 10
13.2514105808
 20
7.2830642452
 30
0.0
 10
13.2515181369
 20
7.2897655184
 30
0.0
 10
13.2516651422
 20
7.2957802343
 30
0.0
 10
13.2518557393
 20
7.3008018187
 30
0.0
 10
13.2520469577
 20
7.3042651496
 30
0.0
 10
13.252220423
 20
7.3064161103
 30
0.0
 10
13.2523352958
 20
7.3075494919
 30
0.0
 10
13.2524531296
 20
7.3083448809
 30
0.0
 10
13.2525370201
 20
7.3087672052
 30
0.0
 10
13.2525979223
 20
7.308911842
 30
0.0
  0
SPLINE
  5
45C
100
AcDbEntity
  8
0
100
AcDbSpline
 62
9
  6
CONTINUOUS
 70
0
 71
3
 72
40
 73
36
 74
0
 42
0.0000001
 43
0.0000001
 44
0.0000000001
 40
0.0
 40
0.0
 40
0.0
 40
0.0
 40
0.0098748247
 40
0.0151349811
 40
0.0208504151
 40
0.0272078437
 40
0.034292402
 40
0.0507339267
 40
0.0701647736
 40
0.0923473589
 40
0.1169515188
 40
0.1436010411
 40
0.2014164236
 40
0.2624534131
 40
0.3232865081
 40
0.3525559166
 40
0.3804965804
 40
0.4748687732
 40
0.5129144714
 40
0.5462240841
 40
0.5758070406
 40
0.6026121243
 40
0.6274853945
 40
0.6511414601
 40
0.6741664547
 40
0.6970581938
 40
0.7201477506
 40
0.7433815174
 40
0.7897862381
 40
0.8353012059
 40
0.8791112412
 40
0.9002276912
 40
0.9208047598
 40
0.9607603271
 40
1.0
 40
1.0
 40
1.0
 40
1.0
 10
13.4416621279
 20
12.7712286554
 30
0.0
 10
13.4394887747
 20
12.7712286563
 30
0.0
 10
13.4361220623
 20
12.7707892456
 30
0.0
 10
13.431843276
 20
12.7690787708
 30
0.0
 10
13.4285757439
 20
12.7670754049
 30
0.0
 10
13.425348497
 20
12.7643428973
 30
0.0
 10
13.4208339724
 20
12.7595459241
 30
0.0
 10
13.4153104828
 20
12.7518295807
 30
0.0
 10
13.4089639127
 20
12.7407287435
 30
0.0
 10
13.402599207
 20
12.7276085191
 30
0.0
 10
13.3962183913
 20
12.7127550838
 30
0.0
 10
13.3874564908
 20
12.6904030035
 30
0.0
 10
13.3767697589
 20
12.6602088816
 30
0.0
 10
13.3642155719
 20
12.6227081915
 30
0.0
 10
13.3536294911
 20
12.5911731056
 30
0.0
 10
13.344976807
 20
12.5666734804
 30
0.0
 10
13.3333577572
 20
12.535407846
 30
0.0
 10
13.319149646
 20
12.5029552449
 30
0.0
 10
13.3005026567
 20
12.4715603706
 30
0.0
 10
13.2874997681
 20
12.4535082441
 30
0.0
 10
13.2744591445
 20
12.4386451011
 30
0.0
 10
13.2613923355
 20
12.4263941988
 30
0.0
 10
13.2483198006
 20
12.4161660013
 30
0.0
 10
13.2352584703
 20
12.4073523432
 30
0.0
 10
13.222208923
 20
12.3993390888
 30
0.0
 10
13.2091981281
 20
12.391504056
 30
0.0
 10
13.1963138369
 20
12.3833747648
 30
0.0
 10
13.1791541755
 20
12.3723273529
 30
0.0
 10
13.1578745888
 20
12.3585595002
 30
0.0
 10
13.1323010555
 20
12.3431051049
 30
0.0
 10
13.1106574242
 20
12.3319570409
 30
0.0
 10
13.0932345626
 20
12.324809526
 30
0.0
 10
13.0761425942
 20
12.319207476
 30
0.0
 10
13.054538493
 20
12.3148334098
 30
0.0
 10
13.0371124785
 20
12.3136053762
 30
0.0
 10
13.0284783817
 20
12.313411571
 30
0.0
  0
SPLINE
  5
45D
100
AcDbEntity
  8
0
100
AcDbSpline
 62
9
  6
CONTINUOUS
 70
0
 71
3
 72
9
 73
5
 74
0
 42
0.0000001
 43
0.0000001
 44
0.0000000001
 40
0.0
 40
0.0
 40
0.0
 40
0.0
 40
0.5000165445
 40
1.0
 40
1.0
 40
1.0
 40
1.0
 10
13.2537790242
 20
7.001090829
 30
0.0
 10
13.245475763
 20
7.001313883
 30
0.0
 10
13.2287653368
 20
6.9998771684
 30
0.0
 10
13.2128109313
 20
6.9946668184
 30
0.0
 10
13.205276669
 20
6.9911711553
 30
0.0
  0
SPLINE
  5
45E
100
AcDbEntity
  8
0
100
AcDbSpline
 62
9
  6
CONTINUOUS
 70
0
 71
3
 72
18
 73
14
 74
0
 42
0.0000001
 43
0.0000001
 44
0.0000000001
 40
0.0
 40
0.0
 40
0.0
 40
0.0
 40
0.0084579591
 40
0.0152491577
 40
0.0240777782
 40
0.0481472402
 40
0.0809406794
 40
0.1717694314
 40
0.2936787236
 40
0.4428502118
 40
0.6143971644
 40
0.8026292844
 40
1.0
 40
1.0
 40
1.0
 40
1.0
 10
7.7420745483
 20
9.0466160257
 30
0.0
 10
7.7418541522
 20
9.0466192255
 30
0.0
 10
7.7415170153
 20
9.0469472124
 30
0.0
 10
7.7412222706
 20
9.0474799921
 30
0.0
 10
7.7408193533
 20
9.0484442171
 30
0.0
 10
7.7403689115
 20
9.0500943423
 30
0.0
 10
7.7396120311
 20
9.0538722837
 30
0.0
 10
7.7388039852
 20
9.0602237371
 30
0.0
 10
7.7379687916
 20
9.0696190345
 30
0.0
 10
7.7372642053
 20
9.0811339278
 30
0.0
 10
7.736706751
 20
9.0943862809
 30
0.0
 10
7.7363279295
 20
9.1089015163
 30
0.0
 10
7.7362003362
 20
9.1189500636
 30
0.0
 10
7.7361684805
 20
9.1240935594
 30
0.0
  0
SPLINE
  5
45F
100
AcDbEntity
  8
0
100
AcDbSpline
 62
9
  6
CONTINUOUS
 70
0
 71
3
 72
9
 73
5
 74
0
 42
0.0000001
 43
0.0000001
 44
0.0000000001
 40
0.0
 40
0.0
 40
0.0
 40
0.0
 40
0.5000151353
 40
1.0
 40
1.0
 40
1.0
 40
1.0
 10
6.4174315823
 20
7.0010908282
 30
0.0
 10
6.4257348102
 20
7.0013130484
 30
0.0
 10
6.4424448408
 20
6.9998757336
 30
0.0
 10
6.4583997749
 20
6.9946669712
 30
0.0
 10
6.4659339467
 20
6.9911711339
 30
0.0
  0
SPLINE
  5
460
100
AcDbEntity
  8
0
100
AcDbSpline
 62
9
  6
CONTINUOUS
 70
0
 71
3
 72
12
 73
8
 74
0
 42
0.0000001
 43
0.0000001
 44
0.0000000001
 40
0.0
 40
0.0
 40
0.0
 40
0.0
 40
0.3275365489
 40
0.6317844926
 40
0.8626791514
 40
0.9438305685
 40
1.0
 40
1.0
 40
1.0
 40
1.0
 10
6.4659334492
 20
6.9911713613
 30
0.0
 10
6.4641456836
 20
6.9873142654
 30
0.0
 10
6.4606564136
 20
6.9798931412
 30
0.0
 10
6.4557915549
 20
6.969808034
 30
0.0
 10
6.4522078382
 20
6.9626553361
 30
0.0
 10
6.4499691148
 20
6.9584329371
 30
0.0
 10
6.4491013486
 20
6.9568754125
 30
0.0
 10
6.4487260981
 20
6.9562503486
 30
0.0
  0
SPLINE
  5
461
100
AcDbEntity
  8
0
100
AcDbSpline
 62
9
  6
CONTINUOUS
 70
0
 71
3
 72
10
 73
6
 74
0
 42
0.0000001
 43
0.0000001
 44
0.0000000001
 40
0.0
 40
0.0
 40
0.0
 40
0.0
 40
0.514110655
 40
0.7616644731
 40
1.0
 40
1.0
 40
1.0
 40
1.0
 10
6.4487262366
 20
6.95625007
 30
0.0
 10
6.4564729436
 20
6.9532701959
 30
0.0
 10
6.4675685338
 20
6.94783184
 30
0.0
 10
6.4813773037
 20
6.9394685019
 30
0.0
 10
6.487914013
 20
6.9351259077
 30
0.0
 10
6.4910775893
 20
6.932935602
 30
0.0
  0
SPLINE
  5
462
100
AcDbEntity
  8
0
100
AcDbSpline
 62
9
  6
CONTINUOUS
 70
0
 71
3
 72
9
 73
5
 74
0
 42
0.0000001
 43
0.0000001
 44
0.0000000001
 40
0.0
 40
0.0
 40
0.0
 40
0.0
 40
0.2512248835
 40
1.0
 40
1.0
 40
1.0
 40
1.0
 10
6.4172125075
 20
6.9612452097
 30
0.0
 10
6.4198920969
 20
6.9613687757
 30
0.0
 10
6.4305740248
 20
6.9613227121
 30
0.0
 10
6.4412640346
 20
6.9591194556
 30
0.0
 10
6.4487264149
 20
6.9562501612
 30
0.0
  0
SPLINE
  5
463
100
AcDbEntity
  8
0
100
AcDbSpline
 62
9
  6
CONTINUOUS
 70
0
 71
3
 72
14
 73
10
 74
0
 42
0.0000001
 43
0.0000001
 44
0.0000000001
 40
0.0
 40
0.0
 40
0.0
 40
0.0
 40
0.1293315646
 40
0.2582237774
 40
0.3856597957
 40
0.511489759
 40
0.6359292624
 40
0.7588432053
 40
1.0
 40
1.0
 40
1.0
 40
1.0
 10
6.4659339467
 20
6.9911711339
 30
0.0
 10
6.4686239002
 20
6.9888122444
 30
0.0
 10
6.4738197337
 20
6.9838986534
 30
0.0
 10
6.480990545
 20
6.9759838463
 30
0.0
 10
6.4874000889
 20
6.9675601137
 30
0.0
 10
6.4930412939
 20
6.9587546722
 30
0.0
 10
6.4980695912
 20
6.9497333293
 30
0.0
 10
6.5041468197
 20
6.9376613018
 30
0.0
 10
6.5081085126
 20
6.9283813206
 30
0.0
 10
6.510413335
 20
6.9221209203
 30
0.0
  0
SPLINE
  5
464
100
AcDbEntity
  8
0
100
AcDbSpline
 62
9
  6
CONTINUOUS
 70
0
 71
3
 72
11
 73
7
 74
0
 42
0.0000001
 43
0.0000001
 44
0.0000000001
 40
0.0
 40
0.0
 40
0.0
 40
0.0
 40
0.2352072026
 40
0.4831693639
 40
0.7399812601
 40
1.0
 40
1.0
 40
1.0
 40
1.0
 10
10.2850652391
 20
8.9730473662
 30
0.0
 10
10.2867102068
 20
8.9850336409
 30
0.0
 10
10.2916055966
 20
9.0094696645
 30
0.0
 10
10.303498057
 20
9.0457253363
 30
0.0
 10
10.3203787685
 20
9.0813681257
 30
0.0
 10
10.3347238268
 20
9.103857151
 30
0.0
 10
10.3426736061
 20
9.1146130108
 30
0.0
  0
SPLINE
  5
465
100
AcDbEntity
  8
0
100
AcDbSpline
 62
9
  6
CONTINUOUS
 70
0
 71
3
 72
27
 73
23
 74
0
 42
0.0000001
 43
0.0000001
 44
0.0000000001
 40
0.0
 40
0.0
 40
0.0
 40
0.0
 40
0.0029794919
 40
0.0060723226
 40
0.0129628287
 40
0.02127616
 40
0.0313340645
 40
0.0433073727
 40
0.057287434
 40
0.0733231936
 40
0.0914397949
 40
0.1116377376
 40
0.1338814319
 40
0.184313726
 40
0.2423270154
 40
0.3074720102
 40
0.3792244069
 40
0.4568522502
 40
0.5395735271
 40
0.6266015751
 40
0.8101650797
 40
1.0
 40
1.0
 40
1.0
 40
1.0
 10
12.9119383857
 20
12.3223103634
 30
0.0
 10
12.9107655042
 20
12.3223103807
 30
0.0
 10
12.908368828
 20
12.3220659833
 30
0.0
 10
12.9034620001
 20
12.3205680417
 30
0.0
 10
12.8972753262
 20
12.3166518694
 30
0.0
 10
12.8903437882
 20
12.3094478971
 30
0.0
 10
12.8835039203
 20
12.299611357
 30
0.0
 10
12.8767435748
 20
12.2871288488
 30
0.0
 10
12.8700590994
 20
12.2719972227
 30
0.0
 10
12.8634665888
 20
12.2542242589
 30
0.0
 10
12.8569845773
 20
12.2338280729
 30
0.0
 10
12.850632417
 20
12.210846307
 30
0.0
 10
12.8419854755
 20
12.175318916
 30
0.0
 10
12.8317976879
 20
12.1248723314
 30
0.0
 10
12.8207378156
 20
12.0574286536
 30
0.0
 10
12.8105344196
 20
11.981373803
 30
0.0
 10
12.8013175689
 20
11.8974235465
 30
0.0
 10
12.7931593476
 20
11.8064161815
 30
0.0
 10
12.7861468943
 20
11.7092841635
 30
0.0
 10
12.7783071474
 20
11.5704183073
 30
0.0
 10
12.7720660333
 20
11.3892548216
 30
0.0
 10
12.7706952567
 20
11.24225511
 30
0.0
 10
12.770945788
 20
11.1675267286
 30
0.0
  0
SPLINE
  5
466
100
AcDbEntity
  8
0
100
AcDbSpline
 62
9
  6
CONTINUOUS
 70
0
 71
3
 72
9
 73
5
 74
0
 42
0.0000001
 43
0.0000001
 44
0.0000000001
 40
0.0
 40
0.0
 40
0.0
 40
0.0
 40
0.2500143315
 40
1.0
 40
1.0
 40
1.0
 40
1.0
 10
4.0268133379
 20
6.8969123769
 30
0.0
 10
4.2260303373
 20
6.9020598608
 30
0.0
 10
5.0228406926
 20
6.9231120122
 30
0.0
 10
5.8196212004
 20
6.9452694447
 30
0.0
 10
6.4172124571
 20
6.9612457064
 30
0.0
  0
LINE
  5
467
100
AcDbEntity
  8
0
100
AcDbLine
 62
9
  6
CONTINUOUS
 10
6.4172124711
 20
6.9612457163
 11
6.3789668239
 21
6.952727669
  0
SPLINE
  5
468
100
AcDbEntity
  8
0
100
AcDbSpline
 62
9
  6
CONTINUOUS
 70
0
 71
3
 72
11
 73
7
 74
0
 42
0.0000001
 43
0.0000001
 44
0.0000000001
 40
0.0
 40
0.0
 40
0.0
 40
0.0
 40
0.3052133836
 40
0.5735976729
 40
0.8048931269
 40
1.0
 40
1.0
 40
1.0
 40
1.0
 10
10.3873843059
 20
10.2252385599
 30
0.0
 10
10.3828045824
 20
10.2283574869
 30
0.0
 10
10.3740012182
 20
10.2339402741
 30
0.0
 10
10.3610289125
 20
10.2407145425
 30
0.0
 10
10.349269995
 20
10.2453459672
 30
0.0
 10
10.3416911797
 20
10.247142775
 30
0.0
 10
10.3381754069
 20
10.2475730647
 30
0.0
  0
SPLINE
  5
469
100
AcDbEntity
  8
0
100
AcDbSpline
 62
7
  6
CONTINUOUS
 70
0
 71
3
 72
9
 73
5
 74
0
 42
0.0000001
 43
0.0000001
 44
0.0000000001
 40
0.0
 40
0.0
 40
0.0
 40
0.0
 40
0.3990157652
 40
1.0
 40
1.0
 40
1.0
 40
1.0
 10
12.0426522859
 20
10.0348740172
 30
0.0
 10
12.0411736161
 20
10.0322973216
 30
0.0
 10
12.0376031927
 20
10.0257620698
 30
0.0
 10
12.0342526431
 20
10.0191112726
 30
0.0
 10
12.0323010504
 20
10.0150847351
 30
0.0
  0
SPLINE
  5
46A
100
AcDbEntity
  8
0
100
AcDbSpline
 62
7
  6
CONTINUOUS
 70
0
 71
3
 72
11
 73
7
 74
0
 42
0.0000001
 43
0.0000001
 44
0.0000000001
 40
0.0
 40
0.0
 40
0.0
 40
0.0
 40
0.3165926958
 40
0.5920247647
 40
0.8228479622
 40
1.0
 40
1.0
 40
1.0
 40
1.0
 10
12.0322529969
 20
9.3530091697
 30
0.0
 10
12.033250227
 20
9.3508122289
 30
0.0
 10
12.035179239
 20
9.3467278354
 30
0.0
 10
12.0384272933
 20
9.34135126
 30
0.0
 10
12.0414481845
 20
9.3371088757
 30
0.0
 10
12.0432969727
 20
9.3346056677
 30
0.0
 10
12.0440234042
 20
9.3334677358
 30
0.0
  0
SPLINE
  5
46B
100
AcDbEntity
  8
0
100
AcDbSpline
 62
9
  6
CONTINUOUS
 70
0
 71
3
 72
9
 73
5
 74
0
 42
0.0000001
 43
0.0000001
 44
0.0000000001
 40
0.0
 40
0.0
 40
0.0
 40
0.0
 40
0.2500143758
 40
1.0
 40
1.0
 40
1.0
 40
1.0
 10
15.6454372294
 20
7.3105144638
 30
0.0
 10
15.446022335
 20
7.3105956348
 30
0.0
 10
14.6484084241
 20
7.3104548464
 30
0.0
 10
13.8507953581
 20
7.3092043052
 30
0.0
 10
13.2525965624
 20
7.3089118413
 30
0.0
  0
LINE
  5
46C
100
AcDbEntity
  8
0
100
AcDbLine
 62
9
  6
CONTINUOUS
 10
13.2866059993
 20
7.3155643676
 11
13.2907935383
 21
7.316418722
  0
SPLINE
  5
46D
100
AcDbEntity
  8
0
100
AcDbSpline
 62
9
  6
CONTINUOUS
 70
0
 71
3
 72
9
 73
5
 74
0
 42
0.0000001
 43
0.0000001
 44
0.0000000001
 40
0.0
 40
0.0
 40
0.0
 40
0.0
 40
0.4844691001
 40
1.0
 40
1.0
 40
1.0
 40
1.0
 10
13.2866046875
 20
7.3155637742
 30
0.0
 10
13.2831479926
 20
7.3155647862
 30
0.0
 10
13.2760035158
 20
7.3163893352
 30
0.0
 10
13.2691519046
 20
7.3185346688
 30
0.0
 10
13.2657568283
 20
7.3199501213
 30
0.0
  0
SPLINE
  5
46E
100
AcDbEntity
  8
0
100
AcDbSpline
 62
9
  6
CONTINUOUS
 70
0
 71
3
 72
9
 73
5
 74
0
 42
0.0000001
 43
0.0000001
 44
0.0000000001
 40
0.0
 40
0.0
 40
0.0
 40
0.0
 40
0.4991211519
 40
1.0
 40
1.0
 40
1.0
 40
1.0
 10
13.2657568283
 20
7.3199501213
 30
0.0
 10
13.2592159356
 20
7.3226771067
 30
0.0
 10
13.2468693031
 20
7.3305651539
 30
0.0
 10
13.2390577983
 20
7.3429533109
 30
0.0
 10
13.2363391512
 20
7.3495246892
 30
0.0
  0
SPLINE
  5
46F
100
AcDbEntity
  8
0
100
AcDbSpline
 62
9
  6
CONTINUOUS
 70
0
 71
3
 72
9
 73
5
 74
0
 42
0.0000001
 43
0.0000001
 44
0.0000000001
 40
0.0
 40
0.0
 40
0.0
 40
0.0
 40
0.5151935231
 40
1.0
 40
1.0
 40
1.0
 40
1.0
 10
13.2363391512
 20
7.3495246892
 30
0.0
 10
13.2349226577
 20
7.352948567
 30
0.0
 10
13.2327721428
 20
7.3598574046
 30
0.0
 10
13.2319307773
 20
7.3670558229
 30
0.0
 10
13.2319174888
 20
7.3705425706
 30
0.0
  0
SPLINE
  5
470
100
AcDbEntity
  8
0
100
AcDbSpline
 62
9
  6
CONTINUOUS
 70
0
 71
3
 72
13
 73
9
 74
0
 42
0.0000001
 43
0.0000001
 44
0.0000000001
 40
0.0
 40
0.0
 40
0.0
 40
0.0
 40
0.124746812
 40
0.2508231773
 40
0.3761184198
 40
0.5012509903
 40
0.7507790851
 40
1.0
 40
1.0
 40
1.0
 40
1.0
 10
15.6506954913
 20
7.3101933068
 30
0.0
 10
15.6524719735
 20
7.3099109795
 30
0.0
 10
15.6560265425
 20
7.3092132615
 30
0.0
 10
15.6612058979
 20
7.307543787
 30
0.0
 10
15.6660724208
 20
7.3050902333
 30
0.0
 10
15.672025491
 20
7.3009952807
 30
0.0
 10
15.6783790979
 20
7.2944664406
 30
0.0
 10
15.6818434391
 20
7.288042387
 30
0.0
 10
15.6831021254
 20
7.2846764068
 30
0.0
  0
SPLINE
  5
471
100
AcDbEntity
  8
0
100
AcDbSpline
 62
9
  6
CONTINUOUS
 70
0
 71
3
 72
15
 73
11
 74
0
 42
0.0000001
 43
0.0000001
 44
0.0000000001
 40
0.0
 40
0.0
 40
0.0
 40
0.0
 40
0.354069813
 40
0.5174632154
 40
0.663727371
 40
0.7886320447
 40
0.8881840025
 40
0.9593967417
 40
0.9836552634
 40
1.0
 40
1.0
 40
1.0
 40
1.0
 10
15.6442026629
 20
7.2708703249
 30
0.0
 10
15.6442048413
 20
7.2755542194
 30
0.0
 10
15.6442592544
 20
7.2823996533
 30
0.0
 10
15.6444090709
 20
7.2911787084
 30
0.0
 10
15.6445472755
 20
7.2969257382
 30
0.0
 10
15.6447133758
 20
7.301827448
 30
0.0
 10
15.6449143681
 20
7.3057333319
 30
0.0
 10
15.6451092418
 20
7.3083073818
 30
0.0
 10
15.6452910764
 20
7.3097749856
 30
0.0
 10
15.6453825158
 20
7.3103054525
 30
0.0
 10
15.6454372459
 20
7.3105146314
 30
0.0
  0
SPLINE
  5
472
100
AcDbEntity
  8
0
100
AcDbSpline
 62
7
  6
CONTINUOUS
 70
0
 71
3
 72
12
 73
8
 74
0
 42
0.0000001
 43
0.0000001
 44
0.0000000001
 40
0.0
 40
0.0
 40
0.0
 40
0.0
 40
0.2012519329
 40
0.4406162319
 40
0.5717127812
 40
0.7092121521
 40
1.0
 40
1.0
 40
1.0
 40
1.0
 10
7.3264142781
 20
10.2710703789
 30
0.0
 10
7.3202833727
 20
10.2589370933
 30
0.0
 10
7.3064959133
 20
10.2325571054
 30
0.0
 10
7.2880625616
 20
10.1986214619
 30
0.0
 10
7.2715462927
 20
10.1685461273
 30
0.0
 10
7.2533270636
 20
10.1354430965
 30
0.0
 10
7.2393225014
 20
10.1101283954
 30
0.0
 10
7.2297741589
 20
10.0929630356
 30
0.0
  0
SPLINE
  5
473
100
AcDbEntity
  8
0
100
AcDbSpline
 62
7
  6
CONTINUOUS
 70
0
 71
3
 72
9
 73
5
 74
0
 42
0.0000001
 43
0.0000001
 44
0.0000000001
 40
0.0
 40
0.0
 40
0.0
 40
0.0
 40
0.2450207871
 40
1.0
 40
1.0
 40
1.0
 40
1.0
 10
7.2298393243
 20
10.0928823392
 30
0.0
 10
7.226781755
 20
10.0872889892
 30
0.0
 10
7.2143327486
 20
10.0644447546
 30
0.0
 10
7.2020397143
 20
10.0415146225
 30
0.0
 10
7.1929255555
 20
10.0241155615
 30
0.0
  0
SPLINE
  5
474
100
AcDbEntity
  8
0
100
AcDbSpline
 62
7
  6
CONTINUOUS
 70
0
 71
3
 72
10
 73
6
 74
0
 42
0.0000001
 43
0.0000001
 44
0.0000000001
 40
0.0
 40
0.0
 40
0.0
 40
0.0
 40
0.5206214068
 40
0.7676798385
 40
1.0
 40
1.0
 40
1.0
 40
1.0
 10
7.1928489746
 20
9.3439242587
 30
0.0
 10
7.1986000979
 20
9.3316217768
 30
0.0
 10
7.2065643788
 20
9.3132320279
 30
0.0
 10
7.2188563082
 20
9.2902040186
 30
0.0
 10
7.225923847
 20
9.2798251629
 30
0.0
 10
7.229774208
 20
9.2751455284
 30
0.0
  0
SPLINE
  5
475
100
AcDbEntity
  8
0
100
AcDbSpline
 62
7
  6
CONTINUOUS
 70
0
 71
3
 72
12
 73
8
 74
0
 42
0.0000001
 43
0.0000001
 44
0.0000000001
 40
0.0
 40
0.0
 40
0.0
 40
0.0
 40
0.2907072679
 40
0.4282108098
 40
0.5592618182
 40
0.7986110207
 40
1.0
 40
1.0
 40
1.0
 40
1.0
 10
7.229774208
 20
9.2751455284
 30
0.0
 10
7.239358412
 20
9.2579985052
 30
0.0
 10
7.2533568463
 20
9.2326745068
 30
0.0
 10
7.2715489524
 20
9.1995508382
 30
0.0
 10
7.2880726877
 20
9.16947034
 30
0.0
 10
7.306530577
 20
9.1355259877
 30
0.0
 10
7.3202595029
 20
9.1090947408
 30
0.0
 10
7.3264024549
 20
9.0969518221
 30
0.0
  0
SPLINE
  5
476
100
AcDbEntity
  8
0
100
AcDbSpline
 62
9
  6
CONTINUOUS
 70
0
 71
3
 72
10
 73
6
 74
0
 42
0.0000001
 43
0.0000001
 44
0.0000000001
 40
0.0
 40
0.0
 40
0.0
 40
0.0
 40
0.2382702005
 40
0.4858008665
 40
1.0
 40
1.0
 40
1.0
 40
1.0
 10
13.1800215418
 20
6.9328585542
 30
0.0
 10
13.1831920745
 20
6.935055857
 30
0.0
 10
13.1897441888
 20
6.9394123533
 30
0.0
 10
13.2035882026
 20
6.9478045799
 30
0.0
 10
13.2147146944
 20
6.9532614998
 30
0.0
 10
13.2224844284
 20
6.9562501529
 30
0.0
  0
SPLINE
  5
477
100
AcDbEntity
  8
0
100
AcDbSpline
 62
9
  6
CONTINUOUS
 70
0
 71
3
 72
9
 73
5
 74
0
 42
0.0000001
 43
0.0000001
 44
0.0000000001
 40
0.0
 40
0.0
 40
0.0
 40
0.0
 40
0.2494237314
 40
1.0
 40
1.0
 40
1.0
 40
1.0
 10
13.22248424
 20
6.9562499843
 30
0.0
 10
13.2249703103
 20
6.9572058269
 30
0.0
 10
13.2351427741
 20
6.9604881744
 30
0.0
 10
13.2459915098
 20
6.9616149841
 30
0.0
 10
13.2539980522
 20
6.9612450112
 30
0.0
  0
SPLINE
  5
478
100
AcDbEntity
  8
0
100
AcDbSpline
 62
9
  6
CONTINUOUS
 70
0
 71
3
 72
14
 73
10
 74
0
 42
0.0000001
 43
0.0000001
 44
0.0000000001
 40
0.0
 40
0.0
 40
0.0
 40
0.0
 40
0.1293291394
 40
0.2582212513
 40
0.3856572913
 40
0.5114876594
 40
0.6359264932
 40
0.758839978
 40
1.0
 40
1.0
 40
1.0
 40
1.0
 10
13.205276669
 20
6.9911711553
 30
0.0
 10
13.2025851182
 20
6.9888147912
 30
0.0
 10
13.1973881954
 20
6.9839033504
 30
0.0
 10
13.1902200089
 20
6.9759877462
 30
0.0
 10
13.1838137316
 20
6.9675630521
 30
0.0
 10
13.1781732804
 20
6.9587585887
 30
0.0
 10
13.1731444886
 20
6.9497388589
 30
0.0
 10
13.1670665171
 20
6.9376687972
 30
0.0
 10
13.1631053952
 20
6.9283896819
 30
0.0
 10
13.1608005827
 20
6.9221299694
 30
0.0
  0
SPLINE
  5
479
100
AcDbEntity
  8
0
100
AcDbSpline
 62
9
  6
CONTINUOUS
 70
0
 71
3
 72
12
 73
8
 74
0
 42
0.0000001
 43
0.0000001
 44
0.0000000001
 40
0.0
 40
0.0
 40
0.0
 40
0.0
 40
0.0561696048
 40
0.1373212431
 40
0.3682162986
 40
0.6724642513
 40
1.0
 40
1.0
 40
1.0
 40
1.0
 10
13.2224846381
 20
6.9562502541
 30
0.0
 10
13.222109385
 20
6.9568753224
 30
0.0
 10
13.2212416141
 20
6.9584328584
 30
0.0
 10
13.2190028824
 20
6.962655286
 30
0.0
 10
13.215419161
 20
6.9698080261
 30
0.0
 10
13.2105543079
 20
6.9798931794
 30
0.0
 10
13.2070650471
 20
6.9873143324
 30
0.0
 10
13.2052772893
 20
6.991171439
 30
0.0
  0
SPLINE
  5
47A
100
AcDbEntity
  8
0
100
AcDbSpline
 62
9
  6
CONTINUOUS
 70
0
 71
3
 72
17
 73
13
 74
0
 42
0.0000001
 43
0.0000001
 44
0.0000000001
 40
0.0
 40
0.0
 40
0.0
 40
0.0
 40
0.0117975991
 40
0.0320436197
 40
0.0606101169
 40
0.0973070344
 40
0.1942626035
 40
0.3212187765
 40
0.4749795835
 40
0.6464310295
 40
0.824972591
 40
1.0
 40
1.0
 40
1.0
 40
1.0
 10
13.2539981309
 20
6.9612457125
 30
0.0
 10
13.2539411093
 20
6.9613917898
 30
0.0
 10
13.2538683793
 20
6.9618157745
 30
0.0
 10
13.2537715466
 20
6.9626132077
 30
0.0
 10
13.2536865178
 20
6.9637480241
 30
0.0
 10
13.2535696439
 20
6.9659004789
 30
0.0
 10
13.2534694152
 20
6.9693639002
 30
0.0
 10
13.2534106133
 20
6.9743834251
 30
0.0
 10
13.2534213301
 20
6.9803938029
 30
0.0
 10
13.2534894147
 20
6.9870893041
 30
0.0
 10
13.2536078613
 20
6.9940668555
 30
0.0
 10
13.2537168139
 20
6.9987652203
 30
0.0
 10
13.2537790324
 20
7.0010908288
 30
0.0
  0
SPLINE
  5
47B
100
AcDbEntity
  8
0
100
AcDbSpline
 62
9
  6
CONTINUOUS
 70
0
 71
3
 72
9
 73
5
 74
0
 42
0.0000001
 43
0.0000001
 44
0.0000000001
 40
0.0
 40
0.0
 40
0.0
 40
0.0
 40
0.249988618
 40
1.0
 40
1.0
 40
1.0
 40
1.0
 10
13.25399814
 20
6.9612457123
 30
0.0
 10
13.4531899545
 20
6.9559204671
 30
0.0
 10
14.2499857694
 20
6.934333309
 30
0.0
 10
15.046771493
 20
6.9123541852
 30
0.0
 10
15.644397274
 20
6.8969123778
 30
0.0
  0
LINE
  5
47C
100
AcDbEntity
  8
0
100
AcDbLine
 62
9
  6
CONTINUOUS
 10
13.2922437918
 20
6.952727669
 11
13.2539981257
 21
6.9612457175
  0
SPLINE
  5
47D
100
AcDbEntity
  8
0
100
AcDbSpline
 62
9
  6
CONTINUOUS
 70
0
 71
3
 72
11
 73
7
 74
0
 42
0.0000001
 43
0.0000001
 44
0.0000000001
 40
0.0
 40
0.0
 40
0.0
 40
0.0
 40
0.2495337982
 40
0.4993511043
 40
0.7494522009
 40
1.0
 40
1.0
 40
1.0
 40
1.0
 10
15.6856053078
 20
6.9365386241
 30
0.0
 10
15.685605308
 20
6.9325439607
 30
0.0
 10
15.6843627677
 20
6.9244998445
 30
0.0
 10
15.6789751938
 20
6.9135714897
 30
0.0
 10
15.6705345173
 20
6.904787083
 30
0.0
 10
15.663422041
 20
6.9007741038
 30
0.0
 10
15.6596484648
 20
6.8994149094
 30
0.0
  0
SPLINE
  5
47E
100
AcDbEntity
  8
0
100
AcDbSpline
 62
9
  6
CONTINUOUS
 70
0
 71
3
 72
9
 73
5
 74
0
 42
0.0000001
 43
0.0000001
 44
0.0000000001
 40
0.0
 40
0.0
 40
0.0
 40
0.0
 40
0.2518463102
 40
1.0
 40
1.0
 40
1.0
 40
1.0
 10
15.6596484648
 20
6.8994149094
 30
0.0
 10
15.6589197358
 20
6.8991524305
 30
0.0
 10
15.6559919681
 20
6.8982046881
 30
0.0
 10
15.6529689246
 20
6.8975772916
 30
0.0
 10
15.6506965169
 20
6.8972159174
 30
0.0
  0
SPLINE
  5
47F
100
AcDbEntity
  8
0
100
AcDbSpline
 62
9
  6
CONTINUOUS
 70
0
 71
3
 72
15
 73
11
 74
0
 42
0.0000001
 43
0.0000001
 44
0.0000000001
 40
0.0
 40
0.0
 40
0.0
 40
0.0
 40
0.0163058934
 40
0.0404212887
 40
0.1114269477
 40
0.2109215924
 40
0.335656438
 40
0.4818361273
 40
0.645068144
 40
1.0
 40
1.0
 40
1.0
 40
1.0
 10
15.6443972526
 20
6.8969122081
 30
0.0
 10
15.6443481962
 20
6.8971220547
 30
0.0
 10
15.6442726388
 20
6.8976521506
 30
0.0
 10
15.6441357553
 20
6.8991180205
 30
0.0
 10
15.6440128365
 20
6.901688564
 30
0.0
 10
15.6439030623
 20
6.9055886268
 30
0.0
 10
15.6438555637
 20
6.9104842776
 30
0.0
 10
15.6438710035
 20
6.9162220969
 30
0.0
 10
15.6439583175
 20
6.9250019069
 30
0.0
 10
15.6440818355
 20
6.9318492752
 30
0.0
 10
15.6442025798
 20
6.9365386241
 30
0.0
  0
SPLINE
  5
480
100
AcDbEntity
  8
0
100
AcDbSpline
 62
9
  6
CONTINUOUS
 70
0
 71
3
 72
11
 73
7
 74
0
 42
0.0000001
 43
0.0000001
 44
0.0000000001
 40
0.0
 40
0.0
 40
0.0
 40
0.0
 40
0.1965530175
 40
0.4283053708
 40
0.6961798207
 40
1.0
 40
1.0
 40
1.0
 40
1.0
 10
9.3330346266
 20
10.2475729744
 30
0.0
 10
9.3296559966
 20
10.2471594646
 30
0.0
 10
9.322389821
 20
10.2454681085
 30
0.0
 10
9.3111188915
 20
10.2411232421
 30
0.0
 10
9.2987102004
 20
10.2347833013
 30
0.0
 10
9.2902882426
 20
10.229558888
 30
0.0
 10
9.2859093336
 20
10.2266420236
 30
0.0
  0
SPLINE
  5
481
100
AcDbEntity
  8
0
100
AcDbSpline
 62
7
  6
CONTINUOUS
 70
0
 71
3
 72
17
 73
13
 74
0
 42
0.0000001
 43
0.0000001
 44
0.0000000001
 40
0.0
 40
0.0
 40
0.0
 40
0.0
 40
0.1274851401
 40
0.2531725191
 40
0.3770929122
 40
0.438626388
 40
0.5000001954
 40
0.5613740513
 40
0.6229075403
 40
0.7468276821
 40
0.8725148599
 40
1.0
 40
1.0
 40
1.0
 40
1.0
 10
7.3330490343
 20
10.7826133877
 30
0.0
 10
7.3180828658
 20
10.7934807032
 30
0.0
 10
7.2873364563
 20
10.8137204803
 30
0.0
 10
7.238167623
 20
10.8380827063
 30
0.0
 10
7.1947908549
 20
10.8515122882
 30
0.0
 10
7.1593533259
 20
10.8570267601
 30
0.0
 10
7.1326052169
 20
10.858419365
 30
0.0
 10
7.105857103
 20
10.8570267655
 30
0.0
 10
7.0704196167
 20
10.8515122012
 30
0.0
 10
7.0270429048
 20
10.8380826773
 30
0.0
 10
6.9778741354
 20
10.813720461
 30
0.0
 10
6.9471277498
 20
10.7934807032
 30
0.0
 10
6.9321615813
 20
10.7826133877
 30
0.0
  0
SPLINE
  5
482
100
AcDbEntity
  8
0
100
AcDbSpline
 62
7
  6
CONTINUOUS
 70
0
 71
3
 72
17
 73
13
 74
0
 42
0.0000001
 43
0.0000001
 44
0.0000000001
 40
0.0
 40
0.0
 40
0.0
 40
0.0
 40
0.1274851401
 40
0.2531725191
 40
0.3770929122
 40
0.438626388
 40
0.5000001954
 40
0.5613740513
 40
0.6229075403
 40
0.7468276821
 40
0.8725148599
 40
1.0
 40
1.0
 40
1.0
 40
1.0
 10
6.7390490343
 20
10.7826133877
 30
0.0
 10
6.7240828658
 20
10.7934807032
 30
0.0
 10
6.6933364563
 20
10.8137204803
 30
0.0
 10
6.644167623
 20
10.8380827063
 30
0.0
 10
6.6007908549
 20
10.8515122882
 30
0.0
 10
6.5653533259
 20
10.8570267601
 30
0.0
 10
6.5386052169
 20
10.858419365
 30
0.0
 10
6.511857103
 20
10.8570267655
 30
0.0
 10
6.4764196167
 20
10.8515122012
 30
0.0
 10
6.4330429048
 20
10.8380826773
 30
0.0
 10
6.3838741354
 20
10.813720461
 30
0.0
 10
6.3531277498
 20
10.7934807032
 30
0.0
 10
6.3381615813
 20
10.7826133877
 30
0.0
  0
SPLINE
  5
483
100
AcDbEntity
  8
0
100
AcDbSpline
 62
9
  6
CONTINUOUS
 70
0
 71
3
 72
13
 73
9
 74
0
 42
0.0000001
 43
0.0000001
 44
0.0000000001
 40
0.0
 40
0.0
 40
0.0
 40
0.0
 40
0.1416711633
 40
0.2754758204
 40
0.4041906379
 40
0.5289918607
 40
0.7693745506
 40
1.0
 40
1.0
 40
1.0
 40
1.0
 10
10.4780209613
 20
8.4007389984
 30
0.0
 10
10.4773814706
 20
8.3865357988
 30
0.0
 10
10.4745758044
 20
8.3589822132
 30
0.0
 10
10.4674401992
 20
8.3190282073
 30
0.0
 10
10.4582435853
 20
8.2812362931
 30
0.0
 10
10.4438043864
 20
8.2337993243
 30
0.0
 10
10.4219589132
 20
8.1780192423
 30
0.0
 10
10.4001823423
 20
8.1359532146
 30
0.0
 10
10.3884558991
 20
8.1159990656
 30
0.0
  0
SPLINE
  5
484
100
AcDbEntity
  8
0
100
AcDbSpline
 62
9
  6
CONTINUOUS
 70
0
 71
3
 72
18
 73
14
 74
0
 42
0.0000001
 43
0.0000001
 44
0.0000000001
 40
0.0
 40
0.0
 40
0.0
 40
0.0
 40
0.0084579591
 40
0.0152491577
 40
0.0240777782
 40
0.0481472402
 40
0.0809406794
 40
0.1717694314
 40
0.2936787236
 40
0.4428502118
 40
0.6143971644
 40
0.8026292844
 40
1.0
 40
1.0
 40
1.0
 40
1.0
 10
7.6722450648
 20
10.3214927268
 30
0.0
 10
7.6720246687
 20
10.321489527
 30
0.0
 10
7.6716875318
 20
10.3211615401
 30
0.0
 10
7.6713927871
 20
10.3206287604
 30
0.0
 10
7.6709898698
 20
10.3196645354
 30
0.0
 10
7.670539428
 20
10.3180144102
 30
0.0
 10
7.6697825476
 20
10.3142364688
 30
0.0
 10
7.6689745017
 20
10.3078850154
 30
0.0
 10
7.668139308
 20
10.298489718
 30
0.0
 10
7.6674347218
 20
10.2869748247
 30
0.0
 10
7.6668772674
 20
10.2737224716
 30
0.0
 10
7.666498446
 20
10.2592072362
 30
0.0
 10
7.6663708526
 20
10.2491586889
 30
0.0
 10
7.666338997
 20
10.2440151931
 30
0.0
  0
SPLINE
  5
485
100
AcDbEntity
  8
0
100
AcDbSpline
 62
7
  6
CONTINUOUS
 70
0
 71
3
 72
9
 73
5
 74
0
 42
0.0000001
 43
0.0000001
 44
0.0000000001
 40
0.0
 40
0.0
 40
0.0
 40
0.0
 40
0.249087972
 40
1.0
 40
1.0
 40
1.0
 40
1.0
 10
6.7026308236
 20
10.4121300069
 30
0.0
 10
6.7057384695
 20
10.4140179426
 30
0.0
 10
6.7181275627
 20
10.4217402232
 30
0.0
 10
6.7301790104
 20
10.4299994968
 30
0.0
 10
6.7390490343
 20
10.4364402467
 30
0.0
  0
SPLINE
  5
486
100
AcDbEntity
  8
0
100
AcDbSpline
 62
7
  6
CONTINUOUS
 70
0
 71
3
 72
17
 73
13
 74
0
 42
0.0000001
 43
0.0000001
 44
0.0000000001
 40
0.0
 40
0.0
 40
0.0
 40
0.0
 40
0.1274851401
 40
0.2531725191
 40
0.3770929122
 40
0.438626388
 40
0.5000001954
 40
0.5613740513
 40
0.6229075402
 40
0.7468276821
 40
0.8725148599
 40
1.0
 40
1.0
 40
1.0
 40
1.0
 10
6.9321615813
 20
10.4364402467
 30
0.0
 10
6.9471277498
 20
10.4255729312
 30
0.0
 10
6.9778741594
 20
10.4053331541
 30
0.0
 10
7.0270429927
 20
10.380970928
 30
0.0
 10
7.0704197608
 20
10.3675413462
 30
0.0
 10
7.1058572898
 20
10.3620268742
 30
0.0
 10
7.1326053987
 20
10.3606342694
 30
0.0
 10
7.1593535127
 20
10.3620268689
 30
0.0
 10
7.194790999
 20
10.3675414332
 30
0.0
 10
7.2381677109
 20
10.3809709571
 30
0.0
 10
7.2873364803
 20
10.4053331734
 30
0.0
 10
7.3180828658
 20
10.4255729312
 30
0.0
 10
7.3330490343
 20
10.4364402467
 30
0.0
  0
SPLINE
  5
487
100
AcDbEntity
  8
0
100
AcDbSpline
 62
9
  6
CONTINUOUS
 70
0
 71
3
 72
16
 73
12
 74
0
 42
0.0000001
 43
0.0000001
 44
0.0000000001
 40
0.0
 40
0.0
 40
0.0
 40
0.0
 40
0.0274681468
 40
0.0510735886
 40
0.0822276849
 40
0.1211431595
 40
0.1678066597
 40
0.2834933896
 40
0.4272549298
 40
0.5967299562
 40
1.0
 40
1.0
 40
1.0
 40
1.0
 10
7.5871269791
 20
10.2171027387
 30
0.0
 10
7.587134593
 20
10.2175428522
 30
0.0
 10
7.5879151201
 20
10.2181722202
 30
0.0
 10
7.5890601181
 20
10.2186975446
 30
0.0
 10
7.5905014775
 20
10.2191931946
 30
0.0
 10
7.592305612
 20
10.2196619499
 30
0.0
 10
7.5954661859
 20
10.2203261962
 30
0.0
 10
7.6003155075
 20
10.221071005
 30
0.0
 10
7.6071468013
 20
10.2218471537
 30
0.0
 10
7.618589223
 20
10.2228107422
 30
0.0
 10
7.6277584967
 20
10.2232775406
 30
0.0
 10
7.6342163323
 20
10.2235213446
 30
0.0
  0
SPLINE
  5
488
100
AcDbEntity
  8
0
100
AcDbSpline
 62
7
  6
CONTINUOUS
 70
0
 71
3
 72
11
 73
7
 74
0
 42
0.0000001
 43
0.0000001
 44
0.0000000001
 40
0.0
 40
0.0
 40
0.0
 40
0.0
 40
0.2042930981
 40
0.4436525498
 40
0.7107229965
 40
1.0
 40
1.0
 40
1.0
 40
1.0
 10
12.3447911961
 20
9.0970383736
 30
0.0
 10
12.3499684145
 20
9.1072797964
 30
0.0
 10
12.3614724058
 20
9.1293886839
 30
0.0
 10
12.3804171056
 20
9.1645311995
 30
0.0
 10
12.4019350606
 20
9.2037076475
 30
0.0
 10
12.4170153864
 20
9.2310797723
 30
0.0
 10
12.4248806484
 20
9.2452987895
 30
0.0
  0
SPLINE
  5
489
100
AcDbEntity
  8
0
100
AcDbSpline
 62
9
  6
CONTINUOUS
 70
0
 71
3
 72
13
 73
9
 74
0
 42
0.0000001
 43
0.0000001
 44
0.0000000001
 40
0.0
 40
0.0
 40
0.0
 40
0.0
 40
0.1416711633
 40
0.2754758204
 40
0.4041906379
 40
0.5289918607
 40
0.7693745506
 40
1.0
 40
1.0
 40
1.0
 40
1.0
 10
9.1931896544
 20
8.4007389984
 30
0.0
 10
9.1938291451
 20
8.3865357988
 30
0.0
 10
9.1966348113
 20
8.3589822132
 30
0.0
 10
9.2037704165
 20
8.3190282073
 30
0.0
 10
9.2129670304
 20
8.2812362931
 30
0.0
 10
9.2274062293
 20
8.2337993243
 30
0.0
 10
9.2492517025
 20
8.1780192423
 30
0.0
 10
9.2710282733
 20
8.1359532146
 30
0.0
 10
9.2827547165
 20
8.1159990656
 30
0.0
  0
SPLINE
  5
48A
100
AcDbEntity
  8
0
100
AcDbSpline
 62
9
  6
CONTINUOUS
 70
0
 71
3
 72
11
 73
7
 74
0
 42
0.0000001
 43
0.0000001
 44
0.0000000001
 40
0.0
 40
0.0
 40
0.0
 40
0.0
 40
0.271891855
 40
0.5256632649
 40
0.7670735843
 40
1.0
 40
1.0
 40
1.0
 40
1.0
 10
10.7300810593
 20
3.9338511849
 30
0.0
 10
10.7300424574
 20
3.9285633242
 30
0.0
 10
10.729521846
 20
3.9183367261
 30
0.0
 10
10.7274751594
 20
3.903543568
 30
0.0
 10
10.724513448
 20
3.8896859025
 30
0.0
 10
10.722054343
 20
3.8807884966
 30
0.0
 10
10.7207241016
 20
3.8764580391
 30
0.0
  0
SPLINE
  5
48B
100
AcDbEntity
  8
0
100
AcDbSpline
 62
9
  6
CONTINUOUS
 70
0
 71
3
 72
21
 73
17
 74
0
 42
0.0000001
 43
0.0000001
 44
0.0000000001
 40
0.0
 40
0.0
 40
0.0
 40
0.0
 40
0.0315506378
 40
0.0618579126
 40
0.0914835141
 40
0.1207482152
 40
0.178801065
 40
0.2078063638
 40
0.236869993
 40
0.2953112333
 40
0.3543527257
 40
0.4746729289
 40
0.598686031
 40
0.7270155321
 40
0.8604101568
 40
1.0
 40
1.0
 40
1.0
 40
1.0
 10
10.7207241016
 20
3.8764580391
 30
0.0
 10
10.7175167646
 20
3.8660168986
 30
0.0
 10
10.7098751555
 20
3.845943577
 30
0.0
 10
10.6954286436
 20
3.8177073327
 30
0.0
 10
10.678947205
 20
3.7915539416
 30
0.0
 10
10.6549848916
 20
3.7588906104
 30
0.0
 10
10.6281126663
 20
3.7287573652
 30
0.0
 10
10.5991716532
 20
3.7008440111
 30
0.0
 10
10.5688896748
 20
3.6741795186
 30
0.0
 10
10.5286783217
 20
3.6431449518
 30
0.0
 10
10.4598876148
 20
3.5978141545
 30
0.0
 10
10.3665163182
 20
3.5490512335
 30
0.0
 10
10.2456425022
 20
3.5032059893
 30
0.0
 10
10.1161224799
 20
3.4696573828
 30
0.0
 10
9.9785147559
 20
3.4488973875
 30
0.0
 10
9.8839305406
 20
3.4443689989
 30
0.0
 10
9.8356053078
 20
3.4443689989
 30
0.0
  0
SPLINE
  5
48C
100
AcDbEntity
  8
0
100
AcDbSpline
 62
9
  6
CONTINUOUS
 70
0
 71
3
 72
25
 73
21
 74
0
 42
0.0000001
 43
0.0000001
 44
0.0000000001
 40
0.0
 40
0.0
 40
0.0
 40
0.0
 40
0.2160484037
 40
0.4114249236
 40
0.5832720436
 40
0.6594605108
 40
0.7286647498
 40
0.7905386652
 40
0.8448455164
 40
0.8913756439
 40
0.9299188331
 40
0.946129498
 40
0.9602643587
 40
0.972296994
 40
0.9822009531
 40
0.9899497557
 40
0.9955168931
 40
0.9974740461
 40
0.9988758293
 40
1.0
 40
1.0
 40
1.0
 40
1.0
 10
10.2850741814
 20
8.9730463549
 30
0.0
 10
10.2925686976
 20
8.9685422946
 30
0.0
 10
10.3067315536
 20
8.9597821927
 30
0.0
 10
10.3265163232
 20
8.9469027161
 30
0.0
 10
10.3413622063
 20
8.9368190799
 30
0.0
 10
10.3518954634
 20
8.9294775996
 30
0.0
 10
10.3587463614
 20
8.9246370133
 30
0.0
 10
10.3648532105
 20
8.920278206
 30
0.0
 10
10.3701954545
 20
8.9164279054
 30
0.0
 10
10.3747568765
 20
8.9131090863
 30
0.0
 10
10.3780608349
 20
8.9106831159
 30
0.0
 10
10.3803027292
 20
8.9090252045
 30
0.0
 10
10.3816791039
 20
8.9080030228
 30
0.0
 10
10.3828506752
 20
8.9071286447
 30
0.0
 10
10.3838082036
 20
8.9064123784
 30
0.0
 10
10.3845694623
 20
8.9058368789
 30
0.0
 10
10.3850412026
 20
8.9054863091
 30
0.0
 10
10.3853581488
 20
8.9052384035
 30
0.0
 10
10.385451487
 20
8.9051810528
 30
0.0
 10
10.3856320074
 20
8.9050176664
 30
0.0
 10
10.3856052978
 20
8.9050544981
 30
0.0
  0
SPLINE
  5
48D
100
AcDbEntity
  8
0
100
AcDbSpline
 62
7
  6
CONTINUOUS
 70
0
 71
3
 72
12
 73
8
 74
0
 42
0.0000001
 43
0.0000001
 44
0.0000000001
 40
0.0
 40
0.0
 40
0.0
 40
0.0
 40
0.0546696866
 40
0.2229568802
 40
0.5207171964
 40
0.7307479186
 40
1.0
 40
1.0
 40
1.0
 40
1.0
 10
12.3252596178
 20
10.2922301364
 30
0.0
 10
12.325600483
 20
10.2919725881
 30
0.0
 10
12.3269846073
 20
10.290914511
 30
0.0
 10
12.3301605671
 20
10.2883707443
 30
0.0
 10
12.334135126
 20
10.2848792973
 30
0.0
 10
12.3383661084
 20
10.280524894
 30
0.0
 10
12.3408126314
 20
10.2776695033
 30
0.0
 10
12.3420086013
 20
10.2759385072
 30
0.0
  0
LINE
  5
48E
100
AcDbEntity
  8
0
100
AcDbLine
 62
7
  6
CONTINUOUS
 10
12.3420086013
 20
10.2759385072
 11
12.3448065307
 21
10.2711596766
  0
SPLINE
  5
48F
100
AcDbEntity
  8
0
100
AcDbSpline
 62
7
  6
CONTINUOUS
 70
0
 71
3
 72
26
 73
22
 74
0
 42
0.0000001
 43
0.0000001
 44
0.0000000001
 40
0.0
 40
0.0
 40
0.0
 40
0.0
 40
0.000815948
 40
0.0032276034
 40
0.0072661376
 40
0.0129249547
 40
0.0201982685
 40
0.029088218
 40
0.0517940656
 40
0.0811999585
 40
0.1174866607
 40
0.1608829985
 40
0.2116675369
 40
0.2702410498
 40
0.3370955536
 40
0.4128736685
 40
0.4986498753
 40
0.5959300961
 40
0.7064024023
 40
0.8367382285
 40
1.0
 40
1.0
 40
1.0
 40
1.0
 10
12.3252726072
 20
9.0758595817
 30
0.0
 10
12.3252770437
 20
9.0758530564
 30
0.0
 10
12.3253136817
 20
9.0758865513
 30
0.0
 10
12.3253564986
 20
9.075917352
 30
0.0
 10
12.3254506184
 20
9.0760030287
 30
0.0
 10
12.3255723412
 20
9.0761063176
 30
0.0
 10
12.3257360602
 20
9.0762422309
 30
0.0
 10
12.3260309678
 20
9.0764740072
 30
0.0
 10
12.3265003249
 20
9.0768322682
 30
0.0
 10
12.3271763091
 20
9.0773552039
 30
0.0
 10
12.3280016319
 20
9.0780124872
 30
0.0
 10
12.3289804894
 20
9.0788085285
 30
0.0
 10
12.3301167585
 20
9.0797525807
 30
0.0
 10
12.3314106133
 20
9.0808616797
 30
0.0
 10
12.3328642706
 20
9.0821552917
 30
0.0
 10
12.3344844682
 20
9.0836568428
 30
0.0
 10
12.3362712388
 20
9.085410753
 30
0.0
 10
12.3382103114
 20
9.0874844432
 30
0.0
 10
12.3403837957
 20
9.089928336
 30
0.0
 10
12.3427217525
 20
9.0930705828
 30
0.0
 10
12.3440947796
 20
9.0955656868
 30
0.0
 10
12.3448023181
 20
9.0969771099
 30
0.0
  0
SPLINE
  5
490
100
AcDbEntity
  8
0
100
AcDbSpline
 62
7
  6
CONTINUOUS
 70
0
 71
3
 72
11
 73
7
 74
0
 42
0.0000001
 43
0.0000001
 44
0.0000000001
 40
0.0
 40
0.0
 40
0.0
 40
0.0
 40
0.2046702509
 40
0.4437807167
 40
0.7108176897
 40
1.0
 40
1.0
 40
1.0
 40
1.0
 10
12.344808294
 20
10.2711568664
 30
0.0
 10
12.3499135844
 20
10.2608489605
 30
0.0
 10
12.3614443333
 20
10.2387286199
 30
0.0
 10
12.3804363229
 20
10.2035827932
 30
0.0
 10
12.401931817
 20
10.1643909429
 30
0.0
 10
12.4170253872
 20
10.1370155178
 30
0.0
 10
12.4248931134
 20
10.1227941211
 30
0.0
  0
SPLINE
  5
491
100
AcDbEntity
  8
0
100
AcDbSpline
 62
9
  6
CONTINUOUS
 70
0
 71
3
 72
9
 73
5
 74
0
 42
0.0000001
 43
0.0000001
 44
0.0000000001
 40
0.0
 40
0.0
 40
0.0
 40
0.0
 40
0.4553206096
 40
1.0
 40
1.0
 40
1.0
 40
1.0
 10
10.2697461462
 20
10.2686777373
 30
0.0
 10
10.2759454528
 20
10.263666913
 30
0.0
 10
10.2887729445
 20
10.2516850161
 30
0.0
 10
10.3003294376
 20
10.2385027912
 30
0.0
 10
10.3063318699
 20
10.2310934859
 30
0.0
  0
SPLINE
  5
492
100
AcDbEntity
  8
0
100
AcDbSpline
 62
9
  6
CONTINUOUS
 70
0
 71
3
 72
10
 73
6
 74
0
 42
0.0000001
 43
0.0000001
 44
0.0000000001
 40
0.0
 40
0.0
 40
0.0
 40
0.0
 40
0.5581567848
 40
0.7936821485
 40
1.0
 40
1.0
 40
1.0
 40
1.0
 10
9.3598268589
 20
10.2247173481
 30
0.0
 10
9.3675609584
 20
10.2347011705
 30
0.0
 10
9.3792484224
 20
10.2484149043
 30
0.0
 10
9.3956505903
 20
10.2640219621
 30
0.0
 10
9.4034234597
 20
10.2703345274
 30
0.0
 10
9.4071953801
 20
10.2730849646
 30
0.0
  0
SPLINE
  5
493
100
AcDbEntity
  8
0
100
AcDbSpline
 62
9
  6
CONTINUOUS
 70
0
 71
3
 72
25
 73
21
 74
0
 42
0.0000001
 43
0.0000001
 44
0.0000000001
 40
0.0
 40
0.0
 40
0.0
 40
0.0
 40
0.0011270129
 40
0.0025298822
 40
0.0044879134
 40
0.0100562314
 40
0.0178055255
 40
0.0277093817
 40
0.039741415
 40
0.0538752697
 40
0.0700846203
 40
0.1086246398
 40
0.1551515182
 40
0.2094558158
 40
0.2713286519
 40
0.3405338056
 40
0.4167247071
 40
0.5885783226
 40
0.783958245
 40
1.0
 40
1.0
 40
1.0
 40
1.0
 10
9.2856081143
 20
8.9050598931
 30
0.0
 10
9.2856345396
 20
8.9050970673
 30
0.0
 10
9.2857314516
 20
8.9051441622
 30
0.0
 10
9.2858680958
 20
8.905261743
 30
0.0
 10
9.2861605552
 20
8.9054757127
 30
0.0
 10
9.286650431
 20
8.9058516361
 30
0.0
 10
9.2874029301
 20
8.906415152
 30
0.0
 10
9.2883636951
 20
8.9071361367
 30
0.0
 10
9.2895338817
 20
8.9080088257
 30
0.0
 10
9.2909104475
 20
8.9090315093
 30
0.0
 10
9.2931518208
 20
8.9106890141
 30
0.0
 10
9.2964554452
 20
8.9131148121
 30
0.0
 10
9.3010163643
 20
8.9164330517
 30
0.0
 10
9.3063582971
 20
8.9202827178
 30
0.0
 10
9.3124650396
 20
8.9246407498
 30
0.0
 10
9.3193161043
 20
8.9294804505
 30
0.0
 10
9.3298498278
 20
8.9368207004
 30
0.0
 10
9.3446960645
 20
8.946902908
 30
0.0
 10
9.3644798909
 20
8.9597816281
 30
0.0
 10
9.3786409879
 20
8.9685425169
 30
0.0
 10
9.3861341565
 20
8.9730473472
 30
0.0
  0
SPLINE
  5
494
100
AcDbEntity
  8
0
100
AcDbSpline
 62
9
  6
CONTINUOUS
 70
0
 71
3
 72
15
 73
11
 74
0
 42
0.0000001
 43
0.0000001
 44
0.0000000001
 40
0.0
 40
0.0
 40
0.0
 40
0.0
 40
0.1056170984
 40
0.2182002238
 40
0.3368849117
 40
0.4611410969
 40
0.5905946834
 40
0.7243144595
 40
0.8613343295
 40
1.0
 40
1.0
 40
1.0
 40
1.0
 10
9.3861308416
 20
8.9730590695
 30
0.0
 10
9.3983008208
 20
8.9600493335
 30
0.0
 10
9.4245782805
 20
8.9342110766
 30
0.0
 10
9.4683341263
 20
8.8978528645
 30
0.0
 10
9.5177520839
 20
8.8637320653
 30
0.0
 10
9.5727128134
 20
8.8331079924
 30
0.0
 10
9.6328776511
 20
8.8072924263
 30
0.0
 10
9.6975748147
 20
8.7875250461
 30
0.0
 10
9.7656730997
 20
8.7751890103
 30
0.0
 10
9.8122163427
 20
8.7722988348
 30
0.0
 10
9.835605357
 20
8.7722945299
 30
0.0
  0
SPLINE
  5
495
100
AcDbEntity
  8
0
100
AcDbSpline
 62
9
  6
CONTINUOUS
 70
0
 71
3
 72
15
 73
11
 74
0
 42
0.0000001
 43
0.0000001
 44
0.0000000001
 40
0.0
 40
0.0
 40
0.0
 40
0.0
 40
0.1386696997
 40
0.2756942332
 40
0.4094148784
 40
0.5388671117
 40
0.6631219846
 40
0.781805296
 40
0.8943863234
 40
1.0
 40
1.0
 40
1.0
 40
1.0
 10
9.8356053563
 20
8.7722945431
 30
0.0
 10
9.8589946152
 20
8.7722989868
 30
0.0
 10
9.9055384277
 20
8.7751894524
 30
0.0
 10
9.9736370759
 20
8.7875252771
 30
0.0
 10
10.038333746
 20
8.8072924422
 30
0.0
 10
10.0984970744
 20
8.8331076684
 30
0.0
 10
10.1534561755
 20
8.8637308286
 30
0.0
 10
10.2028727455
 20
8.8978502307
 30
0.0
 10
10.2466272772
 20
8.9342065354
 30
0.0
 10
10.2729039439
 20
8.96004329
 30
0.0
 10
10.2850734732
 20
8.9730522028
 30
0.0
  0
SPLINE
  5
496
100
AcDbEntity
  8
0
100
AcDbSpline
 62
9
  6
CONTINUOUS
 70
0
 71
3
 72
11
 73
7
 74
0
 42
0.0000001
 43
0.0000001
 44
0.0000000001
 40
0.0
 40
0.0
 40
0.0
 40
0.0
 40
0.2730405253
 40
0.5269471895
 40
0.7678912109
 40
1.0
 40
1.0
 40
1.0
 40
1.0
 10
8.9201355426
 20
3.5618053718
 30
0.0
 10
8.9201771138
 20
3.5564939123
 30
0.0
 10
8.9207251388
 20
3.5462394723
 30
0.0
 10
8.9228840705
 20
3.5314406706
 30
0.0
 10
8.9260039298
 20
3.5176359535
 30
0.0
 10
8.9285924546
 20
3.5087983197
 30
0.0
 10
8.9299916304
 20
3.5045052189
 30
0.0
  0
SPLINE
  5
497
100
AcDbEntity
  8
0
100
AcDbSpline
 62
9
  6
CONTINUOUS
 70
0
 71
3
 72
23
 73
19
 74
0
 42
0.0000001
 43
0.0000001
 44
0.0000000001
 40
0.0
 40
0.0
 40
0.0
 40
0.0
 40
0.0157785595
 40
0.0311461182
 40
0.0610352173
 40
0.075710577
 40
0.0902740228
 40
0.1191780172
 40
0.1766172986
 40
0.2053702349
 40
0.234215443
 40
0.2923201672
 40
0.3511503818
 40
0.4713926045
 40
0.595736032
 40
0.7247551291
 40
0.8591472182
 40
1.0
 40
1.0
 40
1.0
 40
1.0
 10
8.9299916304
 20
3.5045052189
 30
0.0
 10
8.931695895
 20
3.4992760123
 30
0.0
 10
8.9354371585
 20
3.489073585
 30
0.0
 10
8.9439897225
 20
3.4695827108
 30
0.0
 10
8.954026884
 20
3.4512079123
 30
0.0
 10
8.9651779868
 20
3.4338707427
 30
0.0
 10
8.9768177122
 20
3.4172732251
 30
0.0
 10
8.9986142218
 20
3.3896323364
 30
0.0
 10
9.0264998781
 20
3.3606402224
 30
0.0
 10
9.0564310738
 20
3.3339443957
 30
0.0
 10
9.0877345663
 20
3.3084940108
 30
0.0
 10
9.1292039837
 20
3.2790229252
 30
0.0
 10
9.1999783764
 20
3.2361865711
 30
0.0
 10
9.2956655925
 20
3.1904622244
 30
0.0
 10
9.4189453683
 20
3.1477830029
 30
0.0
 10
9.5507040675
 20
3.1166851065
 30
0.0
 10
9.6904995252
 20
3.0974627145
 30
0.0
 10
9.7865083652
 20
3.0932825019
 30
0.0
 10
9.8356053076
 20
3.0932825019
 30
0.0
  0
SPLINE
  5
498
100
AcDbEntity
  8
0
100
AcDbSpline
 62
9
  6
CONTINUOUS
 70
0
 71
3
 72
42
 73
38
 74
0
 42
0.0000001
 43
0.0000001
 44
0.0000000001
 40
0.0
 40
0.0
 40
0.0
 40
0.0
 40
0.0098991507
 40
0.0151771637
 40
0.0209185131
 40
0.0273107567
 40
0.0344380497
 40
0.050985746
 40
0.070544382
 40
0.0928690941
 40
0.1176225566
 40
0.1444215241
 40
0.2025086429
 40
0.2637358584
 40
0.3246248638
 40
0.3538561469
 40
0.3817068724
 40
0.4320407133
 40
0.4755771126
 40
0.5133611815
 40
0.5464404954
 40
0.5758366171
 40
0.6025058424
 40
0.6272963059
 40
0.6509206609
 40
0.6739627278
 40
0.6969209605
 40
0.7200873084
 40
0.7433842265
 40
0.7898658962
 40
0.8353852238
 40
0.8575238876
 40
0.8791469072
 40
0.90021914
 40
0.9207559814
 40
0.9607003644
 40
1.0
 40
1.0
 40
1.0
 40
1.0
 10
6.2295443174
 20
12.7712287673
 30
0.0
 10
6.2317318669
 20
12.771228763
 30
0.0
 10
6.2351221455
 20
12.7707829959
 30
0.0
 10
6.2394278292
 20
12.7690479601
 30
0.0
 10
6.2427158144
 20
12.7670146216
 30
0.0
 10
6.2459630204
 20
12.7642437926
 30
0.0
 10
6.2505066408
 20
12.7593817963
 30
0.0
 10
6.2560645604
 20
12.7515676953
 30
0.0
 10
6.2624509154
 20
12.7403342478
 30
0.0
 10
6.2688557845
 20
12.7270648584
 30
0.0
 10
6.2752770282
 20
12.7120514204
 30
0.0
 10
6.284091735
 20
12.6894800545
 30
0.0
 10
6.2948415384
 20
12.659027176
 30
0.0
 10
6.3074722325
 20
12.6212625098
 30
0.0
 10
6.3181287418
 20
12.5895591668
 30
0.0
 10
6.3268415361
 20
12.5649874633
 30
0.0
 10
6.3351544709
 20
12.5427526206
 30
0.0
 10
6.3455420708
 20
12.5179221222
 30
0.0
 10
6.3585588605
 20
12.4918747872
 30
0.0
 10
6.3716065192
 20
12.4701870558
 30
0.0
 10
6.3846960223
 20
12.4522711025
 30
0.0
 10
6.3978245506
 20
12.4375412248
 30
0.0
 10
6.4109781357
 20
12.4254087906
 30
0.0
 10
6.4241359444
 20
12.415271876
 30
0.0
 10
6.4372807894
 20
12.4065079031
 30
0.0
 10
6.4504157157
 20
12.3984939629
 30
0.0
 10
6.4634963506
 20
12.3905865617
 30
0.0
 10
6.4764564655
 20
12.3823763148
 30
0.0
 10
6.4937198179
 20
12.3712480884
 30
0.0
 10
6.515124128
 20
12.3574278945
 30
0.0
 10
6.536769415
 20
12.3444515192
 30
0.0
 10
6.5542233152
 20
12.3352400142
 30
0.0
 10
6.5672045302
 20
12.3291620047
 30
0.0
 10
6.5802002227
 20
12.3239968372
 30
0.0
 10
6.5974195456
 20
12.3186208558
 30
0.0
 10
6.6191673553
 20
12.3145164974
 30
0.0
 10
6.6366855856
 20
12.313477308
 30
0.0
 10
6.6453694333
 20
12.3133650505
 30
0.0
  0
SPLINE
  5
499
100
AcDbEntity
  8
0
100
AcDbSpline
 62
9
  6
CONTINUOUS
 70
0
 71
3
 72
9
 73
5
 74
0
 42
0.0000001
 43
0.0000001
 44
0.0000000001
 40
0.0
 40
0.0
 40
0.0
 40
0.0
 40
0.4778598592
 40
1.0
 40
1.0
 40
1.0
 40
1.0
 10
6.2295485174
 20
10.8138249834
 30
0.0
 10
6.231587044
 20
10.8138249825
 30
0.0
 10
6.2358853979
 20
10.8143400971
 30
0.0
 10
6.2398177827
 20
10.8162043342
 30
0.0
 10
6.2416744623
 20
10.817434846
 30
0.0
  0
SPLINE
  5
49A
100
AcDbEntity
  8
0
100
AcDbSpline
 62
9
  6
CONTINUOUS
 70
0
 71
3
 72
9
 73
5
 74
0
 42
0.0000001
 43
0.0000001
 44
0.0000000001
 40
0.0
 40
0.0
 40
0.0
 40
0.0
 40
0.2418120747
 40
1.0
 40
1.0
 40
1.0
 40
1.0
 10
6.2835609407
 20
10.8945978803
 30
0.0
 10
6.2848707767
 20
10.8981295823
 30
0.0
 10
6.2901997707
 20
10.9127673406
 30
0.0
 10
6.2952588228
 20
10.9275016192
 30
0.0
 10
6.2990460938
 20
10.9386884249
 30
0.0
  0
SPLINE
  5
49B
100
AcDbEntity
  8
0
100
AcDbSpline
 62
9
  6
CONTINUOUS
 70
0
 71
3
 72
9
 73
5
 74
0
 42
0.0000001
 43
0.0000001
 44
0.0000000001
 40
0.0
 40
0.0
 40
0.0
 40
0.0
 40
0.5068004625
 40
1.0
 40
1.0
 40
1.0
 40
1.0
 10
6.2990460938
 20
10.9386884249
 30
0.0
 10
6.3034874624
 20
10.9518072977
 30
0.0
 10
6.3121133723
 20
10.9777386253
 30
0.0
 10
6.3209608246
 20
11.0035983037
 30
0.0
 10
6.3255292085
 20
11.0162790905
 30
0.0
  0
SPLINE
  5
49C
100
AcDbEntity
  8
0
100
AcDbSpline
 62
9
  6
CONTINUOUS
 70
0
 71
3
 72
11
 73
7
 74
0
 42
0.0000001
 43
0.0000001
 44
0.0000000001
 40
0.0
 40
0.0
 40
0.0
 40
0.0
 40
0.2740763394
 40
0.5284480413
 40
0.768987466
 40
1.0
 40
1.0
 40
1.0
 40
1.0
 10
10.7745479928
 20
3.1458295799
 30
0.0
 10
10.7745219842
 20
3.1408777445
 30
0.0
 10
10.7740477714
 20
3.1313256871
 30
0.0
 10
10.7721069724
 20
3.1175515226
 30
0.0
 10
10.7692437269
 20
3.1047410439
 30
0.0
 10
10.7668528087
 20
3.0965571673
 30
0.0
 10
10.7655583625
 20
3.0925891224
 30
0.0
  0
SPLINE
  5
49D
100
AcDbEntity
  8
0
100
AcDbSpline
 62
9
  6
CONTINUOUS
 70
0
 71
3
 72
22
 73
18
 74
0
 42
0.0000001
 43
0.0000001
 44
0.0000000001
 40
0.0
 40
0.0
 40
0.0
 40
0.0
 40
0.0308735855
 40
0.0602991872
 40
0.0889663377
 40
0.1172614706
 40
0.145392854
 40
0.1734971111
 40
0.2016655909
 40
0.2299594471
 40
0.2870945501
 40
0.3451701662
 40
0.4646420118
 40
0.5892735523
 40
0.7196149033
 40
0.8562306503
 40
1.0
 40
1.0
 40
1.0
 40
1.0
 10
10.7655583625
 20
3.0925891224
 30
0.0
 10
10.76221584
 20
3.0823428261
 30
0.0
 10
10.7541016292
 20
3.062823453
 30
0.0
 10
10.7385513239
 20
3.0358647729
 30
0.0
 10
10.7207420294
 20
3.0114713208
 30
0.0
 10
10.7012932075
 20
2.9889801492
 30
0.0
 10
10.680366799
 20
2.9681408802
 30
0.0
 10
10.6581975128
 20
2.9487060781
 30
0.0
 10
10.6349180989
 20
2.9305285523
 30
0.0
 10
10.6024805737
 20
2.9076931685
 30
0.0
 10
10.5595523715
 20
2.8817388049
 30
0.0
 10
10.486340901
 20
2.8448391121
 30
0.0
 10
10.3876392324
 20
2.8068393301
 30
0.0
 10
10.2612360191
 20
2.7728380752
 30
0.0
 10
10.1264897873
 20
2.748927138
 30
0.0
 10
9.9837126811
 20
2.7345544407
 30
0.0
 10
9.8857939859
 20
2.7315429249
 30
0.0
 10
9.835605308
 20
2.7315429249
 30
0.0
  0
SPLINE
  5
49E
100
AcDbEntity
  8
0
100
AcDbSpline
 62
7
  6
CONTINUOUS
 70
0
 71
3
 72
17
 73
13
 74
0
 42
0.0000001
 43
0.0000001
 44
0.0000000001
 40
0.0
 40
0.0
 40
0.0
 40
0.0
 40
0.1274851401
 40
0.2531725191
 40
0.3770929122
 40
0.438626388
 40
0.5000001954
 40
0.5613740513
 40
0.6229075403
 40
0.7468276821
 40
0.8725148599
 40
1.0
 40
1.0
 40
1.0
 40
1.0
 10
13.3330490343
 20
10.7826133877
 30
0.0
 10
13.3180828658
 20
10.7934807032
 30
0.0
 10
13.2873364563
 20
10.8137204803
 30
0.0
 10
13.238167623
 20
10.8380827063
 30
0.0
 10
13.1947908549
 20
10.8515122882
 30
0.0
 10
13.1593533259
 20
10.8570267601
 30
0.0
 10
13.1326052169
 20
10.858419365
 30
0.0
 10
13.105857103
 20
10.8570267655
 30
0.0
 10
13.0704196167
 20
10.8515122012
 30
0.0
 10
13.0270429048
 20
10.8380826773
 30
0.0
 10
12.9778741354
 20
10.813720461
 30
0.0
 10
12.9471277498
 20
10.7934807032
 30
0.0
 10
12.9321615813
 20
10.7826133877
 30
0.0
  0
SPLINE
  5
49F
100
AcDbEntity
  8
0
100
AcDbSpline
 62
7
  6
CONTINUOUS
 70
0
 71
3
 72
17
 73
13
 74
0
 42
0.0000001
 43
0.0000001
 44
0.0000000001
 40
0.0
 40
0.0
 40
0.0
 40
0.0
 40
0.1274851401
 40
0.2531725191
 40
0.3770929122
 40
0.438626388
 40
0.5000001954
 40
0.5613740513
 40
0.6229075403
 40
0.7468276821
 40
0.8725148599
 40
1.0
 40
1.0
 40
1.0
 40
1.0
 10
12.7390490343
 20
10.7826133877
 30
0.0
 10
12.7240828658
 20
10.7934807032
 30
0.0
 10
12.6933364563
 20
10.8137204803
 30
0.0
 10
12.644167623
 20
10.8380827063
 30
0.0
 10
12.6007908549
 20
10.8515122882
 30
0.0
 10
12.5653533259
 20
10.8570267601
 30
0.0
 10
12.5386052169
 20
10.858419365
 30
0.0
 10
12.511857103
 20
10.8570267655
 30
0.0
 10
12.4764196167
 20
10.8515122012
 30
0.0
 10
12.4330429048
 20
10.8380826773
 30
0.0
 10
12.3838741354
 20
10.813720461
 30
0.0
 10
12.3531277498
 20
10.7934807032
 30
0.0
 10
12.3381615813
 20
10.7826133877
 30
0.0
  0
SPLINE
  5
4A0
100
AcDbEntity
  8
0
100
AcDbSpline
 62
9
  6
CONTINUOUS
 70
0
 71
3
 72
11
 73
7
 74
0
 42
0.0000001
 43
0.0000001
 44
0.0000000001
 40
0.0
 40
0.0
 40
0.0
 40
0.0
 40
0.2730405253
 40
0.5269471895
 40
0.7678912109
 40
1.0
 40
1.0
 40
1.0
 40
1.0
 10
10.7510750731
 20
3.5618053718
 30
0.0
 10
10.7510335018
 20
3.5564939123
 30
0.0
 10
10.7504854768
 20
3.5462394723
 30
0.0
 10
10.7483265452
 20
3.5314406706
 30
0.0
 10
10.7452066859
 20
3.5176359535
 30
0.0
 10
10.7426181611
 20
3.5087983197
 30
0.0
 10
10.7412189853
 20
3.5045052189
 30
0.0
  0
SPLINE
  5
4A1
100
AcDbEntity
  8
0
100
AcDbSpline
 62
9
  6
CONTINUOUS
 70
0
 71
3
 72
23
 73
19
 74
0
 42
0.0000001
 43
0.0000001
 44
0.0000000001
 40
0.0
 40
0.0
 40
0.0
 40
0.0
 40
0.0157785595
 40
0.0311461182
 40
0.0610352173
 40
0.075710577
 40
0.0902740228
 40
0.1191780172
 40
0.1766172986
 40
0.2053702349
 40
0.234215443
 40
0.2923201672
 40
0.3511503818
 40
0.4713926044
 40
0.595736032
 40
0.7247551291
 40
0.8591472182
 40
1.0
 40
1.0
 40
1.0
 40
1.0
 10
10.7412189853
 20
3.5045052189
 30
0.0
 10
10.7395147207
 20
3.4992760123
 30
0.0
 10
10.7357734571
 20
3.489073585
 30
0.0
 10
10.7272208931
 20
3.4695827108
 30
0.0
 10
10.7171837316
 20
3.4512079123
 30
0.0
 10
10.7060326289
 20
3.4338707426
 30
0.0
 10
10.6943929034
 20
3.4172732251
 30
0.0
 10
10.6725963939
 20
3.3896323364
 30
0.0
 10
10.6447107375
 20
3.3606402224
 30
0.0
 10
10.6147795418
 20
3.3339443957
 30
0.0
 10
10.5834760493
 20
3.3084940108
 30
0.0
 10
10.5420066319
 20
3.2790229252
 30
0.0
 10
10.4712322392
 20
3.236186571
 30
0.0
 10
10.3755450231
 20
3.1904622244
 30
0.0
 10
10.2522652472
 20
3.1477830028
 30
0.0
 10
10.1205065479
 20
3.1166851064
 30
0.0
 10
9.9807110903
 20
3.0974627145
 30
0.0
 10
9.8847022502
 20
3.0932825019
 30
0.0
 10
9.8356053078
 20
3.0932825019
 30
0.0
  0
SPLINE
  5
4A2
100
AcDbEntity
  8
0
100
AcDbSpline
 62
9
  6
CONTINUOUS
 70
0
 71
3
 72
11
 73
7
 74
0
 42
0.0000001
 43
0.0000001
 44
0.0000000001
 40
0.0
 40
0.0
 40
0.0
 40
0.0
 40
0.271891855
 40
0.5256632649
 40
0.7670735843
 40
1.0
 40
1.0
 40
1.0
 40
1.0
 10
8.9411295563
 20
3.9338511849
 30
0.0
 10
8.9411681582
 20
3.9285633242
 30
0.0
 10
8.9416887696
 20
3.9183367261
 30
0.0
 10
8.9437354563
 20
3.903543568
 30
0.0
 10
8.9466971676
 20
3.8896859025
 30
0.0
 10
8.9491562727
 20
3.8807884966
 30
0.0
 10
8.950486514
 20
3.8764580391
 30
0.0
  0
SPLINE
  5
4A3
100
AcDbEntity
  8
0
100
AcDbSpline
 62
9
  6
CONTINUOUS
 70
0
 71
3
 72
21
 73
17
 74
0
 42
0.0000001
 43
0.0000001
 44
0.0000000001
 40
0.0
 40
0.0
 40
0.0
 40
0.0
 40
0.0315506378
 40
0.0618579126
 40
0.0914835141
 40
0.1207482152
 40
0.178801065
 40
0.2078063638
 40
0.236869993
 40
0.2953112333
 40
0.3543527257
 40
0.4746729289
 40
0.598686031
 40
0.7270155321
 40
0.8604101568
 40
1.0
 40
1.0
 40
1.0
 40
1.0
 10
8.950486514
 20
3.8764580391
 30
0.0
 10
8.953693851
 20
3.8660168986
 30
0.0
 10
8.9613354602
 20
3.845943577
 30
0.0
 10
8.975781972
 20
3.8177073327
 30
0.0
 10
8.9922634106
 20
3.7915539416
 30
0.0
 10
9.016225724
 20
3.7588906104
 30
0.0
 10
9.0430979494
 20
3.7287573652
 30
0.0
 10
9.0720389625
 20
3.7008440111
 30
0.0
 10
9.1023209408
 20
3.6741795185
 30
0.0
 10
9.142532294
 20
3.6431449518
 30
0.0
 10
9.2113230009
 20
3.5978141545
 30
0.0
 10
9.3046942975
 20
3.5490512335
 30
0.0
 10
9.4255681135
 20
3.5032059893
 30
0.0
 10
9.5550881358
 20
3.4696573828
 30
0.0
 10
9.6926958598
 20
3.4488973875
 30
0.0
 10
9.7872800751
 20
3.4443689989
 30
0.0
 10
9.8356053079
 20
3.4443689989
 30
0.0
  0
SPLINE
  5
4A4
100
AcDbEntity
  8
0
100
AcDbSpline
 62
9
  6
CONTINUOUS
 70
0
 71
3
 72
25
 73
21
 74
0
 42
0.0000001
 43
0.0000001
 44
0.0000000001
 40
0.0
 40
0.0
 40
0.0
 40
0.0
 40
0.0311417925
 40
0.062338597
 40
0.0779684192
 40
0.0936042954
 40
0.1248741719
 40
0.1561424482
 40
0.1873979404
 40
0.2186516961
 40
0.2499077508
 40
0.3124116531
 40
0.3749220419
 40
0.4374305301
 40
0.4999369849
 40
0.5624452814
 40
0.6249546014
 40
0.7499635956
 40
0.8749793182
 40
1.0
 40
1.0
 40
1.0
 40
1.0
 10
10.7986579965
 20
2.6628444117
 30
0.0
 10
10.7966683741
 20
2.6519938189
 30
0.0
 10
10.7896065655
 20
2.630792221
 30
0.0
 10
10.7755298281
 20
2.6068566744
 30
0.0
 10
10.761978881
 20
2.5893423928
 30
0.0
 10
10.7472179818
 20
2.5728040134
 30
0.0
 10
10.7269274732
 20
2.5538720523
 30
0.0
 10
10.7006125948
 20
2.5335319594
 30
0.0
 10
10.6728702464
 20
2.5152137625
 30
0.0
 10
10.6440893313
 20
2.4986016986
 30
0.0
 10
10.6046678349
 20
2.4783939318
 30
0.0
 10
10.5538069504
 20
2.4563913004
 30
0.0
 10
10.491230898
 20
2.4340044143
 30
0.0
 10
10.4275725228
 20
2.414931642
 30
0.0
 10
10.3631409785
 20
2.398696722
 30
0.0
 10
10.2981353846
 20
2.3849536357
 30
0.0
 10
10.2108920448
 20
2.369614142
 30
0.0
 10
10.1010218817
 20
2.3554648848
 30
0.0
 10
9.9684815234
 20
2.3455749173
 30
0.0
 10
9.8798919551
 20
2.3434929245
 30
0.0
 10
9.8356053112
 20
2.3434940724
 30
0.0
  0
SPLINE
  5
4A5
100
AcDbEntity
  8
0
100
AcDbSpline
 62
7
  6
CONTINUOUS
 70
0
 71
3
 72
17
 73
13
 74
0
 42
0.0000001
 43
0.0000001
 44
0.0000000001
 40
0.0
 40
0.0
 40
0.0
 40
0.0
 40
0.1274851401
 40
0.2531725191
 40
0.3770929122
 40
0.438626388
 40
0.5000001954
 40
0.5613740513
 40
0.6229075402
 40
0.7468276821
 40
0.8725148599
 40
1.0
 40
1.0
 40
1.0
 40
1.0
 10
12.3381615813
 20
10.4364402467
 30
0.0
 10
12.3531277498
 20
10.4255729312
 30
0.0
 10
12.3838741594
 20
10.4053331541
 30
0.0
 10
12.4330429927
 20
10.380970928
 30
0.0
 10
12.4764197608
 20
10.3675413462
 30
0.0
 10
12.5118572898
 20
10.3620268742
 30
0.0
 10
12.5386053987
 20
10.3606342694
 30
0.0
 10
12.5653535127
 20
10.3620268689
 30
0.0
 10
12.600790999
 20
10.3675414332
 30
0.0
 10
12.6441677109
 20
10.3809709571
 30
0.0
 10
12.6933364803
 20
10.4053331734
 30
0.0
 10
12.7240828658
 20
10.4255729312
 30
0.0
 10
12.7390490343
 20
10.4364402467
 30
0.0
  0
SPLINE
  5
4A6
100
AcDbEntity
  8
0
100
AcDbSpline
 62
7
  6
CONTINUOUS
 70
0
 71
3
 72
17
 73
13
 74
0
 42
0.0000001
 43
0.0000001
 44
0.0000000001
 40
0.0
 40
0.0
 40
0.0
 40
0.0
 40
0.1274851401
 40
0.2531725191
 40
0.3770929122
 40
0.438626388
 40
0.5000001954
 40
0.5613740513
 40
0.6229075402
 40
0.7468276821
 40
0.8725148599
 40
1.0
 40
1.0
 40
1.0
 40
1.0
 10
12.9321615813
 20
10.4364402467
 30
0.0
 10
12.9471277498
 20
10.4255729312
 30
0.0
 10
12.9778741594
 20
10.4053331541
 30
0.0
 10
13.0270429927
 20
10.380970928
 30
0.0
 10
13.0704197608
 20
10.3675413462
 30
0.0
 10
13.1058572898
 20
10.3620268742
 30
0.0
 10
13.1326053987
 20
10.3606342694
 30
0.0
 10
13.1593535127
 20
10.3620268689
 30
0.0
 10
13.194790999
 20
10.3675414332
 30
0.0
 10
13.2381677109
 20
10.3809709571
 30
0.0
 10
13.2873364803
 20
10.4053331734
 30
0.0
 10
13.3180828658
 20
10.4255729312
 30
0.0
 10
13.3330490343
 20
10.4364402467
 30
0.0
  0
SPLINE
  5
4A7
100
AcDbEntity
  8
0
100
AcDbSpline
 62
7
  6
CONTINUOUS
 70
0
 71
3
 72
13
 73
9
 74
0
 42
0.0000001
 43
0.0000001
 44
0.0000000001
 40
0.0
 40
0.0
 40
0.0
 40
0.0
 40
0.2521824977
 40
0.377430402
 40
0.5022004122
 40
0.6266116218
 40
0.7508957255
 40
1.0
 40
1.0
 40
1.0
 40
1.0
 10
12.7438993295
 20
8.9785425652
 30
0.0
 10
12.7179380637
 20
8.9898652166
 30
0.0
 10
12.6780613625
 20
9.0046956449
 30
0.0
 10
12.6233242921
 20
9.0184967837
 30
0.0
 10
12.5818015454
 20
9.0254542336
 30
0.0
 10
12.539938798
 20
9.0288675902
 30
0.0
 10
12.4839741711
 20
9.0283586254
 30
0.0
 10
12.4422048852
 20
9.0223448037
 30
0.0
 10
12.4149153963
 20
9.0161796208
 30
0.0
  0
SPLINE
  5
4A8
100
AcDbEntity
  8
0
100
AcDbSpline
 62
7
  6
CONTINUOUS
 70
0
 71
3
 72
9
 73
5
 74
0
 42
0.0000001
 43
0.0000001
 44
0.0000000001
 40
0.0
 40
0.0
 40
0.0
 40
0.0
 40
0.24886159
 40
1.0
 40
1.0
 40
1.0
 40
1.0
 10
12.4149153963
 20
9.0161796208
 30
0.0
 10
12.4053000774
 20
9.0140073485
 30
0.0
 10
12.3669078408
 20
9.0041973385
 30
0.0
 10
12.3295836317
 20
8.9904370261
 30
0.0
 10
12.3023112862
 20
8.9785425652
 30
0.0
  0
SPLINE
  5
4A9
100
AcDbEntity
  8
0
100
AcDbSpline
 62
9
  6
CONTINUOUS
 70
0
 71
3
 72
25
 73
21
 74
0
 42
0.0000001
 43
0.0000001
 44
0.0000000001
 40
0.0
 40
0.0
 40
0.0
 40
0.0
 40
0.1249526633
 40
0.2499290082
 40
0.374876394
 40
0.4373503971
 40
0.4998269171
 40
0.5622990122
 40
0.6247699582
 40
0.68723883
 40
0.749698328
 40
0.7809334575
 40
0.8121670757
 40
0.843396535
 40
0.8746246714
 40
0.8902857672
 40
0.9059707321
 40
0.9372836411
 40
0.9687359749
 40
1.0
 40
1.0
 40
1.0
 40
1.0
 10
9.8356053078
 20
2.3413690816
 30
0.0
 10
9.8808286582
 20
2.3413695192
 30
0.0
 10
9.9713024192
 20
2.3435790372
 30
0.0
 10
10.1066437789
 20
2.3538934516
 30
0.0
 10
10.2188130214
 20
2.3686696321
 30
0.0
 10
10.3078256634
 20
2.3847797088
 30
0.0
 10
10.3741266367
 20
2.3991899524
 30
0.0
 10
10.4397947761
 20
2.4162679957
 30
0.0
 10
10.5046013383
 20
2.4363875664
 30
0.0
 10
10.5682063857
 20
2.4600492375
 30
0.0
 10
10.6197051239
 20
2.4835143114
 30
0.0
 10
10.659429198
 20
2.5051474793
 30
0.0
 10
10.6882708894
 20
2.523026739
 30
0.0
 10
10.7158109058
 20
2.5428643781
 30
0.0
 10
10.7372604579
 20
2.5613613951
 30
0.0
 10
10.7531438981
 20
2.5775242179
 30
0.0
 10
10.767991649
 20
2.5946780324
 30
0.0
 10
10.7840918825
 20
2.6182699525
 30
0.0
 10
10.7971757931
 20
2.6499672214
 30
0.0
 10
10.8006085928
 20
2.6727391798
 30
0.0
 10
10.8006060551
 20
2.6840543762
 30
0.0
  0
SPLINE
  5
4AA
100
AcDbEntity
  8
0
100
AcDbSpline
 62
9
  6
CONTINUOUS
 70
0
 71
3
 72
27
 73
23
 74
0
 42
0.0000001
 43
0.0000001
 44
0.0000000001
 40
0.0
 40
0.0
 40
0.0
 40
0.0
 40
0.0255616797
 40
0.0485285335
 40
0.0689695867
 40
0.0876384613
 40
0.1052637974
 40
0.1221095721
 40
0.1539439049
 40
0.1838981842
 40
0.2127273956
 40
0.2410540221
 40
0.2691208018
 40
0.3249332396
 40
0.3809129988
 40
0.4375251965
 40
0.4950124566
 40
0.5535299212
 40
0.6131694856
 40
0.7361206205
 40
0.8647194924
 40
1.0
 40
1.0
 40
1.0
 40
1.0
 10
10.8786728882
 20
2.6840543762
 30
0.0
 10
10.8786728882
 20
2.6737585427
 30
0.0
 10
10.8771327329
 20
2.6541770807
 30
0.0
 10
10.8709852972
 20
2.6270126356
 30
0.0
 10
10.8625966803
 20
2.6033978757
 30
0.0
 10
10.8525726344
 20
2.5828215405
 30
0.0
 10
10.8416184948
 20
2.5644084948
 30
0.0
 10
10.8262292065
 20
2.5425525073
 30
0.0
 10
10.8053526218
 20
2.5186228175
 30
0.0
 10
10.7786914362
 20
2.4936265549
 30
0.0
 10
10.7510765312
 20
2.471924668
 30
0.0
 10
10.7227236958
 20
2.4525385317
 30
0.0
 10
10.6840060879
 20
2.4291891396
 30
0.0
 10
10.6337449375
 20
2.4035747729
 30
0.0
 10
10.5710584
 20
2.3775401814
 30
0.0
 10
10.5063461632
 20
2.3549629959
 30
0.0
 10
10.4395997293
 20
2.3354056239
 30
0.0
 10
10.3708902704
 20
2.3184664396
 30
0.0
 10
10.2757418272
 20
2.2989244255
 30
0.0
 10
10.15169772
 20
2.2802552976
 30
0.0
 10
9.9964129125
 20
2.2664913787
 30
0.0
 10
9.890094121
 20
2.2634867959
 30
0.0
 10
9.8356053078
 20
2.2634867959
 30
0.0
  0
SPLINE
  5
4AB
100
AcDbEntity
  8
0
100
AcDbSpline
 62
9
  6
CONTINUOUS
 70
0
 71
3
 72
18
 73
14
 74
0
 42
0.0000001
 43
0.0000001
 44
0.0000000001
 40
0.0
 40
0.0
 40
0.0
 40
0.0
 40
0.0084579591
 40
0.0152491577
 40
0.0240777782
 40
0.0481472402
 40
0.0809406794
 40
0.1717694314
 40
0.2936787236
 40
0.4428502118
 40
0.6143971644
 40
0.8026292844
 40
1.0
 40
1.0
 40
1.0
 40
1.0
 10
11.9291360674
 20
10.3214927268
 30
0.0
 10
11.9293564634
 20
10.321489527
 30
0.0
 10
11.9296936003
 20
10.3211615401
 30
0.0
 10
11.9299883451
 20
10.3206287604
 30
0.0
 10
11.9303912624
 20
10.3196645354
 30
0.0
 10
11.9308417042
 20
10.3180144102
 30
0.0
 10
11.9315985846
 20
10.3142364688
 30
0.0
 10
11.9324066305
 20
10.3078850154
 30
0.0
 10
11.9332418241
 20
10.298489718
 30
0.0
 10
11.9339464103
 20
10.2869748247
 30
0.0
 10
11.9345038647
 20
10.2737224716
 30
0.0
 10
11.9348826861
 20
10.2592072362
 30
0.0
 10
11.9350102795
 20
10.2491586889
 30
0.0
 10
11.9350421351
 20
10.2440151931
 30
0.0
  0
SPLINE
  5
4AC
100
AcDbEntity
  8
0
100
AcDbSpline
 62
9
  6
CONTINUOUS
 70
0
 71
3
 72
18
 73
14
 74
0
 42
0.0000001
 43
0.0000001
 44
0.0000000001
 40
0.0
 40
0.0
 40
0.0
 40
0.0
 40
0.0084579591
 40
0.0152491577
 40
0.0240777782
 40
0.0481472402
 40
0.0809406794
 40
0.1717694314
 40
0.2936787236
 40
0.4428502118
 40
0.6143971644
 40
0.8026292844
 40
1.0
 40
1.0
 40
1.0
 40
1.0
 10
11.9989655509
 20
9.0466160257
 30
0.0
 10
11.9991859469
 20
9.0466192255
 30
0.0
 10
11.9995230838
 20
9.0469472124
 30
0.0
 10
11.9998178286
 20
9.0474799921
 30
0.0
 10
12.0002207459
 20
9.0484442171
 30
0.0
 10
12.0006711877
 20
9.0500943423
 30
0.0
 10
12.0014280681
 20
9.0538722837
 30
0.0
 10
12.002236114
 20
9.0602237371
 30
0.0
 10
12.0030713076
 20
9.0696190345
 30
0.0
 10
12.0037758938
 20
9.0811339278
 30
0.0
 10
12.0043333482
 20
9.0943862809
 30
0.0
 10
12.0047121696
 20
9.1089015163
 30
0.0
 10
12.004839763
 20
9.1189500636
 30
0.0
 10
12.0048716187
 20
9.1240935594
 30
0.0
  0
SPLINE
  5
4AD
100
AcDbEntity
  8
0
100
AcDbSpline
 62
9
  6
CONTINUOUS
 70
0
 71
3
 72
10
 73
6
 74
0
 42
0.0000001
 43
0.0000001
 44
0.0000000001
 40
0.0
 40
0.0
 40
0.0
 40
0.0
 40
0.4667036327
 40
0.7218629904
 40
1.0
 40
1.0
 40
1.0
 40
1.0
 10
10.7924943642
 20
2.8613441462
 30
0.0
 10
10.8068140143
 20
2.8477921748
 30
0.0
 10
10.827541232
 20
2.8251202637
 30
0.0
 10
10.8506329542
 20
2.7896576302
 30
0.0
 10
10.8604891944
 20
2.7692830046
 30
0.0
 10
10.8646845548
 20
2.7583077534
 30
0.0
  0
SPLINE
  5
4AE
100
AcDbEntity
  8
0
100
AcDbSpline
 62
9
  6
CONTINUOUS
 70
0
 71
3
 72
11
 73
7
 74
0
 42
0.0000001
 43
0.0000001
 44
0.0000000001
 40
0.0
 40
0.0
 40
0.0
 40
0.0
 40
0.2220278628
 40
0.462653907
 40
0.7219526188
 40
1.0
 40
1.0
 40
1.0
 40
1.0
 10
10.8646845548
 20
2.7583077534
 30
0.0
 10
10.8666916322
 20
2.7530571487
 30
0.0
 10
10.8704384648
 20
2.74194523
 30
0.0
 10
10.874894307
 20
2.7241970724
 30
0.0
 10
10.8779448254
 20
2.7047091698
 30
0.0
 10
10.8786731576
 20
2.6910937771
 30
0.0
 10
10.8786731576
 20
2.6840543762
 30
0.0
  0
SPLINE
  5
4AF
100
AcDbEntity
  8
0
100
AcDbSpline
 62
9
  6
CONTINUOUS
 70
0
 71
3
 72
27
 73
23
 74
0
 42
0.0000001
 43
0.0000001
 44
0.0000000001
 40
0.0
 40
0.0
 40
0.0
 40
0.0
 40
0.0029794919
 40
0.0060723227
 40
0.0129628289
 40
0.0212761602
 40
0.0313340648
 40
0.043307373
 40
0.0572874342
 40
0.0733231937
 40
0.0914397949
 40
0.1116377374
 40
0.1338814315
 40
0.1843137251
 40
0.242327014
 40
0.3074720082
 40
0.3792244044
 40
0.4568522474
 40
0.539573524
 40
0.6266015719
 40
0.8101650773
 40
1.0
 40
1.0
 40
1.0
 40
1.0
 10
6.7592722303
 20
12.3223103634
 30
0.0
 10
6.7604451117
 20
12.3223103806
 30
0.0
 10
6.7628417879
 20
12.3220659833
 30
0.0
 10
6.7677486156
 20
12.3205680417
 30
0.0
 10
6.7739352892
 20
12.3166518695
 30
0.0
 10
6.780866827
 20
12.3094478976
 30
0.0
 10
6.7877066947
 20
12.299611358
 30
0.0
 10
6.79446704
 20
12.2871288505
 30
0.0
 10
6.8011515151
 20
12.2719972253
 30
0.0
 10
6.8077440256
 20
12.2542242625
 30
0.0
 10
6.814226037
 20
12.2338280777
 30
0.0
 10
6.820578197
 20
12.2108463131
 30
0.0
 10
6.8292251383
 20
12.1753189243
 30
0.0
 10
6.8394129257
 20
12.1248723426
 30
0.0
 10
6.8504727978
 20
12.0574286688
 30
0.0
 10
6.8606761936
 20
11.9813738226
 30
0.0
 10
6.8698930444
 20
11.8974235707
 30
0.0
 10
6.8780512657
 20
11.8064162106
 30
0.0
 10
6.8850637192
 20
11.7092841976
 30
0.0
 10
6.8929034665
 20
11.570418348
 30
0.0
 10
6.8991445813
 20
11.3892548698
 30
0.0
 10
6.9005153587
 20
11.2422551641
 30
0.0
 10
6.9002648279
 20
11.1675267854
 30
0.0
  0
SPLINE
  5
4B0
100
AcDbEntity
  8
0
100
AcDbSpline
 62
7
  6
CONTINUOUS
 70
0
 71
3
 72
9
 73
5
 74
0
 42
0.0000001
 43
0.0000001
 44
0.0000000001
 40
0.0
 40
0.0
 40
0.0
 40
0.0
 40
0.2513868857
 40
1.0
 40
1.0
 40
1.0
 40
1.0
 10
13.3688993295
 20
8.9785425652
 30
0.0
 10
13.3597728667
 20
8.9825229473
 30
0.0
 10
13.3231702331
 20
8.9976459605
 30
0.0
 10
13.285216716
 20
9.0096457373
 30
0.0
 10
13.2562952301
 20
9.0161796181
 30
0.0
  0
SPLINE
  5
4B1
100
AcDbEntity
  8
0
100
AcDbSpline
 62
7
  6
CONTINUOUS
 70
0
 71
3
 72
13
 73
9
 74
0
 42
0.0000001
 43
0.0000001
 44
0.0000000001
 40
0.0
 40
0.0
 40
0.0
 40
0.0
 40
0.2491042748
 40
0.3733883785
 40
0.4977995879
 40
0.6225695981
 40
0.7478175023
 40
1.0
 40
1.0
 40
1.0
 40
1.0
 10
13.2562952301
 20
9.0161796181
 30
0.0
 10
13.2290057403
 20
9.0223448017
 30
0.0
 10
13.1872364531
 20
9.0283586246
 30
0.0
 10
13.1312718244
 20
9.0288675906
 30
0.0
 10
13.0894090756
 20
9.0254542346
 30
0.0
 10
13.0478863276
 20
9.0184967849
 30
0.0
 10
12.9931492553
 20
9.0046956458
 30
0.0
 10
12.9532725528
 20
8.989865217
 30
0.0
 10
12.9273112862
 20
8.9785425652
 30
0.0
  0
SPLINE
  5
4B2
100
AcDbEntity
  8
0
100
AcDbSpline
 62
9
  6
CONTINUOUS
 70
0
 71
3
 72
16
 73
12
 74
0
 42
0.0000001
 43
0.0000001
 44
0.0000000001
 40
0.0
 40
0.0
 40
0.0
 40
0.0
 40
0.0274681468
 40
0.0510735886
 40
0.0822276849
 40
0.1211431595
 40
0.1678066597
 40
0.2834933896
 40
0.4272549298
 40
0.5967299562
 40
1.0
 40
1.0
 40
1.0
 40
1.0
 10
12.0839602542
 20
10.2370243725
 30
0.0
 10
12.0839526402
 20
10.237464486
 30
0.0
 10
12.0831721131
 20
10.238093854
 30
0.0
 10
12.0820271151
 20
10.2386191784
 30
0.0
 10
12.0805857558
 20
10.2391148284
 30
0.0
 10
12.0787816212
 20
10.2395835837
 30
0.0
 10
12.0756210474
 20
10.24024783
 30
0.0
 10
12.0707717258
 20
10.2409926388
 30
0.0
 10
12.0639404319
 20
10.2417687874
 30
0.0
 10
12.0524980102
 20
10.242732376
 30
0.0
 10
12.0433287366
 20
10.2431991743
 30
0.0
 10
12.036870901
 20
10.2434429784
 30
0.0
  0
SPLINE
  5
4B3
100
AcDbEntity
  8
0
100
AcDbSpline
 62
7
  6
CONTINUOUS
 70
0
 71
3
 72
12
 73
8
 74
0
 42
0.0000001
 43
0.0000001
 44
0.0000000001
 40
0.0
 40
0.0
 40
0.0
 40
0.0
 40
0.0535674513
 40
0.1270371921
 40
0.335363393
 40
0.6263623165
 40
1.0
 40
1.0
 40
1.0
 40
1.0
 10
12.0491634554
 20
10.0900547178
 30
0.0
 10
12.0492913924
 20
10.0898290495
 30
0.0
 10
12.049526168
 20
10.0892566285
 30
0.0
 10
12.0499868839
 20
10.0876990955
 30
0.0
 10
12.0505161541
 20
10.0849709053
 30
0.0
 10
12.0511214525
 20
10.0807877408
 30
0.0
 10
12.0514824294
 20
10.0775885142
 30
0.0
 10
12.0516702877
 20
10.0757888777
 30
0.0
  0
SPLINE
  5
4B4
100
AcDbEntity
  8
0
100
AcDbSpline
 62
7
  6
CONTINUOUS
 70
0
 71
3
 72
9
 73
5
 74
0
 42
0.0000001
 43
0.0000001
 44
0.0000000001
 40
0.0
 40
0.0
 40
0.0
 40
0.0
 40
0.4217056757
 40
1.0
 40
1.0
 40
1.0
 40
1.0
 10
12.0516702877
 20
10.0757888777
 30
0.0
 10
12.0523026025
 20
10.0697314572
 30
0.0
 10
12.0534287488
 20
10.0553299776
 30
0.0
 10
12.0542897527
 20
10.0409137761
 30
0.0
 10
12.0547432852
 20
10.0325742899
 30
0.0
  0
SPLINE
  5
4B5
100
AcDbEntity
  8
0
100
AcDbSpline
 62
7
  6
CONTINUOUS
 70
0
 71
3
 72
10
 73
6
 74
0
 42
0.0000001
 43
0.0000001
 44
0.0000000001
 40
0.0
 40
0.0
 40
0.0
 40
0.0
 40
0.216735891
 40
0.4615353625
 40
1.0
 40
1.0
 40
1.0
 40
1.0
 10
12.0578158394
 20
9.9640604912
 30
0.0
 10
12.0585959137
 20
9.943835577
 30
0.0
 10
12.0601032975
 20
9.9007610625
 30
0.0
 10
12.0630122252
 20
9.8074209731
 30
0.0
 10
12.0650489802
 20
9.734303835
 30
0.0
 10
12.0664547307
 20
9.6840387914
 30
0.0
  0
SPLINE
  5
4B6
100
AcDbEntity
  8
0
100
AcDbSpline
 62
7
  6
CONTINUOUS
 70
0
 71
3
 72
13
 73
9
 74
0
 42
0.0000001
 43
0.0000001
 44
0.0000000001
 40
0.0
 40
0.0
 40
0.0
 40
0.0
 40
0.2512257716
 40
0.3758449971
 40
0.5
 40
0.6241550029
 40
0.7487742285
 40
1.0
 40
1.0
 40
1.0
 40
1.0
 10
12.3023112862
 20
8.753926545
 30
0.0
 10
12.3372833369
 20
8.7386739628
 30
0.0
 10
12.3915538637
 20
8.7196577772
 30
0.0
 10
12.466435987
 20
8.7062676205
 30
0.0
 10
12.5231053078
 20
8.7027582007
 30
0.0
 10
12.5797746285
 20
8.7062676208
 30
0.0
 10
12.6546567518
 20
8.7196577776
 30
0.0
 10
12.7089272787
 20
8.7386739628
 30
0.0
 10
12.7438993295
 20
8.753926545
 30
0.0
  0
SPLINE
  5
4B7
100
AcDbEntity
  8
0
100
AcDbSpline
 62
7
  6
CONTINUOUS
 70
0
 71
3
 72
18
 73
14
 74
0
 42
0.0000001
 43
0.0000001
 44
0.0000000001
 40
0.0
 40
0.0
 40
0.0
 40
0.0
 40
0.1250154439
 40
0.250030239
 40
0.3750422442
 40
0.5000489879
 40
0.6250414092
 40
0.6875591897
 40
0.7500779652
 40
0.812599396
 40
0.8751167066
 40
0.9376226668
 40
1.0
 40
1.0
 40
1.0
 40
1.0
 10
13.2490318028
 20
9.7935734678
 30
0.0
 10
13.2490318028
 20
9.7962646547
 30
0.0
 10
13.2489467599
 20
9.8016476145
 30
0.0
 10
13.2485057153
 20
9.8097113827
 30
0.0
 10
13.24767522
 20
9.817746034
 30
0.0
 10
13.2463490437
 20
9.8257149929
 30
0.0
 10
13.2446986527
 20
9.8322502317
 30
0.0
 10
13.2429142923
 20
9.8373323166
 30
0.0
 10
13.2412856388
 20
9.841032276
 30
0.0
 10
13.2392904988
 20
9.8445531479
 30
0.0
 10
13.2368063956
 20
9.8477600637
 30
0.0
 10
13.2336862199
 20
9.8503874641
 30
0.0
 10
13.2310494307
 20
9.8513092034
 30
0.0
 10
13.2297112492
 20
9.8514203162
 30
0.0
  0
SPLINE
  5
4B8
100
AcDbEntity
  8
0
100
AcDbSpline
 62
9
  6
CONTINUOUS
 70
0
 71
3
 72
11
 73
7
 74
0
 42
0.0000001
 43
0.0000001
 44
0.0000000001
 40
0.0
 40
0.0
 40
0.0
 40
0.0
 40
0.2533144167
 40
0.5072238308
 40
0.7569937089
 40
1.0
 40
1.0
 40
1.0
 40
1.0
 10
10.2850744922
 20
8.9730424514
 30
0.0
 10
10.2823810686
 20
8.9840734156
 30
0.0
 10
10.2783685813
 20
9.0065253264
 30
0.0
 10
10.2767718634
 20
9.0405227588
 30
0.0
 10
10.280126579
 20
9.0739658232
 30
0.0
 10
10.2861593338
 20
9.0953619753
 30
0.0
 10
10.290057885
 20
9.1055333993
 30
0.0
  0
SPLINE
  5
4B9
100
AcDbEntity
  8
0
100
AcDbSpline
 62
9
  6
CONTINUOUS
 70
0
 71
3
 72
9
 73
5
 74
0
 42
0.0000001
 43
0.0000001
 44
0.0000000001
 40
0.0
 40
0.0
 40
0.0
 40
0.0
 40
0.2555212839
 40
1.0
 40
1.0
 40
1.0
 40
1.0
 10
10.290057885
 20
9.1055333993
 30
0.0
 10
10.2914501263
 20
9.109165794
 30
0.0
 10
10.2973604237
 20
9.1231972074
 30
0.0
 10
10.305154396
 20
9.1364582857
 30
0.0
 10
10.3119785958
 20
9.1455075595
 30
0.0
  0
SPLINE
  5
4BA
100
AcDbEntity
  8
0
100
AcDbSpline
 62
7
  6
CONTINUOUS
 70
0
 71
3
 72
18
 73
14
 74
0
 42
0.0000001
 43
0.0000001
 44
0.0000000001
 40
0.0
 40
0.0
 40
0.0
 40
0.0
 40
0.0623808039
 40
0.1248853171
 40
0.1874026911
 40
0.2499238922
 40
0.3124425172
 40
0.3749602091
 40
0.4999522613
 40
0.6249586903
 40
0.749970383
 40
0.874984865
 40
1.0
 40
1.0
 40
1.0
 40
1.0
 10
13.2296967243
 20
9.5166842524
 30
0.0
 10
13.2310352969
 20
9.5167953977
 30
0.0
 10
13.2336733985
 20
9.5177139073
 30
0.0
 10
13.2367975174
 20
9.5203387736
 30
0.0
 10
13.2392837341
 20
9.5235452827
 30
0.0
 10
13.2412806331
 20
9.5270662663
 30
0.0
 10
13.2429105211
 20
9.5307667315
 30
0.0
 10
13.2446961389
 20
9.5358497161
 30
0.0
 10
13.2463475778
 20
9.5423863355
 30
0.0
 10
13.2476745154
 20
9.5503570877
 30
0.0
 10
13.2485054546
 20
9.5583935971
 30
0.0
 10
13.2489467202
 20
9.5664592477
 30
0.0
 10
13.2490318028
 20
9.5718434678
 30
0.0
 10
13.2490318028
 20
9.5745352847
 30
0.0
  0
SPLINE
  5
4BB
100
AcDbEntity
  8
0
100
AcDbSpline
 62
9
  6
CONTINUOUS
 70
0
 71
3
 72
9
 73
5
 74
0
 42
0.0000001
 43
0.0000001
 44
0.0000000001
 40
0.0
 40
0.0
 40
0.0
 40
0.0
 40
0.527992694
 40
1.0
 40
1.0
 40
1.0
 40
1.0
 10
10.0638706006
 20
9.0435397408
 30
0.0
 10
10.0943990754
 20
9.0510547256
 30
0.0
 10
10.1515264872
 20
9.0683264007
 30
0.0
 10
10.2064585562
 20
9.0916185795
 30
0.0
 10
10.231710588
 20
9.1039591275
 30
0.0
  0
SPLINE
  5
4BC
100
AcDbEntity
  8
0
100
AcDbSpline
 62
9
  6
CONTINUOUS
 70
0
 71
3
 72
9
 73
5
 74
0
 42
0.0000001
 43
0.0000001
 44
0.0000000001
 40
0.0
 40
0.0
 40
0.0
 40
0.0
 40
0.2624076612
 40
1.0
 40
1.0
 40
1.0
 40
1.0
 10
10.231710588
 20
9.1039591275
 30
0.0
 10
10.2374398898
 20
9.10675901
 30
0.0
 10
10.259141378
 20
9.1176954579
 30
0.0
 10
10.2802973252
 20
9.1297275777
 30
0.0
 10
10.2954677025
 20
9.139274626
 30
0.0
  0
SPLINE
  5
4BD
100
AcDbEntity
  8
0
100
AcDbSpline
 62
9
  6
CONTINUOUS
 70
0
 71
3
 72
9
 73
5
 74
0
 42
0.0000001
 43
0.0000001
 44
0.0000000001
 40
0.0
 40
0.0
 40
0.0
 40
0.0
 40
0.257757369
 40
1.0
 40
1.0
 40
1.0
 40
1.0
 10
12.0049950011
 20
10.2240935594
 30
0.0
 10
12.0077448774
 20
10.2240935594
 30
0.0
 10
12.0184132198
 20
10.2240457939
 30
0.0
 10
12.0290813285
 20
10.2238200842
 30
0.0
 10
12.0369942834
 20
10.2235213446
 30
0.0
  0
SPLINE
  5
4BE
100
AcDbEntity
  8
0
100
AcDbSpline
 62
9
  6
CONTINUOUS
 70
0
 71
3
 72
12
 73
8
 74
0
 42
0.0000001
 43
0.0000001
 44
0.0000000001
 40
0.0
 40
0.0
 40
0.0
 40
0.0
 40
0.3292223441
 40
0.6120781584
 40
0.8382308927
 40
0.9275832418
 40
1.0
 40
1.0
 40
1.0
 40
1.0
 10
12.0369942834
 20
10.2235213446
 30
0.0
 10
12.0417030178
 20
10.2233435748
 30
0.0
 10
12.0504547305
 20
10.2229249751
 30
0.0
 10
12.0624199188
 20
10.2220336322
 30
0.0
 10
12.0709363871
 20
10.2210870243
 30
0.0
 10
12.0764169844
 20
10.2201923714
 30
0.0
 10
12.078683876
 20
10.2197117674
 30
0.0
 10
12.0796875535
 20
10.2194530516
 30
0.0
  0
SPLINE
  5
4BF
100
AcDbEntity
  8
0
100
AcDbSpline
 62
9
  6
CONTINUOUS
 70
0
 71
3
 72
12
 73
8
 74
0
 42
0.0000001
 43
0.0000001
 44
0.0000000001
 40
0.0
 40
0.0
 40
0.0
 40
0.0
 40
0.3849315481
 40
0.6732215353
 40
0.7828494013
 40
0.8714204012
 40
1.0
 40
1.0
 40
1.0
 40
1.0
 10
12.0796875535
 20
10.2194530516
 30
0.0
 10
12.0803303091
 20
10.2192873698
 30
0.0
 10
12.0814462876
 20
10.2189644462
 30
0.0
 10
12.0827054604
 20
10.2184658114
 30
0.0
 10
12.08342929
 20
10.2180320917
 30
0.0
 10
12.0838639804
 20
10.2176814247
 30
0.0
 10
12.0840798014
 20
10.2173244249
 30
0.0
 10
12.0840836366
 20
10.2171027387
 30
0.0
  0
SPLINE
  5
4C0
100
AcDbEntity
  8
0
100
AcDbSpline
 62
9
  6
CONTINUOUS
 70
0
 71
3
 72
14
 73
10
 74
0
 42
0.0000001
 43
0.0000001
 44
0.0000000001
 40
0.0
 40
0.0
 40
0.0
 40
0.0
 40
0.0419677479
 40
0.108549845
 40
0.199958527
 40
0.3157581214
 40
0.455180343
 40
0.6167852223
 40
1.0
 40
1.0
 40
1.0
 40
1.0
 10
11.9996133088
 20
10.1319093905
 30
0.0
 10
11.9998769654
 20
10.1322449718
 30
0.0
 10
12.0003048957
 20
10.1332876072
 30
0.0
 10
12.0008406135
 20
10.1352402301
 30
0.0
 10
12.0013686268
 20
10.1379804822
 30
0.0
 10
12.0018851093
 20
10.1414660234
 30
0.0
 10
12.0023763613
 20
10.145677329
 30
0.0
 10
12.0030313386
 20
10.1526044774
 30
0.0
 10
12.0034088309
 20
10.1581329899
 30
0.0
 10
12.0036359432
 20
10.1620232451
 30
0.0
  0
SPLINE
  5
4C1
100
AcDbEntity
  8
0
100
AcDbSpline
 62
9
  6
CONTINUOUS
 70
0
 71
3
 72
9
 73
5
 74
0
 42
0.0000001
 43
0.0000001
 44
0.0000000001
 40
0.0
 40
0.0
 40
0.0
 40
0.0
 40
0.4689562967
 40
1.0
 40
1.0
 40
1.0
 40
1.0
 10
12.0036359432
 20
10.1620232451
 30
0.0
 10
12.0042016266
 20
10.171712958
 30
0.0
 10
12.0049144188
 20
10.1924034371
 30
0.0
 10
12.0050630729
 20
10.2131025066
 30
0.0
 10
12.0049950011
 20
10.2240935594
 30
0.0
  0
SPLINE
  5
4C2
100
AcDbEntity
  8
0
100
AcDbSpline
 62
9
  6
CONTINUOUS
 70
0
 71
3
 72
9
 73
5
 74
0
 42
0.0000001
 43
0.0000001
 44
0.0000000001
 40
0.0
 40
0.0
 40
0.0
 40
0.0
 40
0.5310437033
 40
1.0
 40
1.0
 40
1.0
 40
1.0
 10
12.0049950011
 20
9.1440151931
 30
0.0
 10
12.0050630729
 20
9.1550062459
 30
0.0
 10
12.0049144188
 20
9.1757053154
 30
0.0
 10
12.0042016266
 20
9.1963957945
 30
0.0
 10
12.0036359432
 20
9.2060855074
 30
0.0
  0
SPLINE
  5
4C3
100
AcDbEntity
  8
0
100
AcDbSpline
 62
9
  6
CONTINUOUS
 70
0
 71
3
 72
14
 73
10
 74
0
 42
0.0000001
 43
0.0000001
 44
0.0000000001
 40
0.0
 40
0.0
 40
0.0
 40
0.0
 40
0.3832147777
 40
0.544819657
 40
0.6842418786
 40
0.800041473
 40
0.891450155
 40
0.9580322521
 40
1.0
 40
1.0
 40
1.0
 40
1.0
 10
12.0036359432
 20
9.2060855074
 30
0.0
 10
12.0034088309
 20
9.2099757626
 30
0.0
 10
12.0030313386
 20
9.215504275
 30
0.0
 10
12.0023763613
 20
9.2224314235
 30
0.0
 10
12.0018851093
 20
9.2266427291
 30
0.0
 10
12.0013686268
 20
9.2301282703
 30
0.0
 10
12.0008406135
 20
9.2328685224
 30
0.0
 10
12.0003048957
 20
9.2348211453
 30
0.0
 10
11.9998769654
 20
9.2358637806
 30
0.0
 10
11.9996133088
 20
9.236199362
 30
0.0
  0
SPLINE
  5
4C4
100
AcDbEntity
  8
0
100
AcDbSpline
 62
9
  6
CONTINUOUS
 70
0
 71
3
 72
9
 73
5
 74
0
 42
0.0000001
 43
0.0000001
 44
0.0000000001
 40
0.0
 40
0.0
 40
0.0
 40
0.0
 40
0.257757369
 40
1.0
 40
1.0
 40
1.0
 40
1.0
 10
12.0048716187
 20
9.1240935594
 30
0.0
 10
12.007621495
 20
9.1240935594
 30
0.0
 10
12.0182898374
 20
9.1241413248
 30
0.0
 10
12.0289579461
 20
9.1243670346
 30
0.0
 10
12.036870901
 20
9.1246657741
 30
0.0
  0
SPLINE
  5
4C5
100
AcDbEntity
  8
0
100
AcDbSpline
 62
9
  6
CONTINUOUS
 70
0
 71
3
 72
16
 73
12
 74
0
 42
0.0000001
 43
0.0000001
 44
0.0000000001
 40
0.0
 40
0.0
 40
0.0
 40
0.0
 40
0.4032700438
 40
0.5727450702
 40
0.7165066104
 40
0.8321933403
 40
0.8788568405
 40
0.9177723151
 40
0.9489264114
 40
0.9725318532
 40
1.0
 40
1.0
 40
1.0
 40
1.0
 10
12.036870901
 20
9.1246657741
 30
0.0
 10
12.0433287366
 20
9.1249095781
 30
0.0
 10
12.0524980102
 20
9.1253763765
 30
0.0
 10
12.0639404319
 20
9.1263399651
 30
0.0
 10
12.0707717258
 20
9.1271161137
 30
0.0
 10
12.0756210474
 20
9.1278609225
 30
0.0
 10
12.0787816212
 20
9.1285251688
 30
0.0
 10
12.0805857558
 20
9.1289939241
 30
0.0
 10
12.0820271151
 20
9.1294895741
 30
0.0
 10
12.0831721131
 20
9.1300148985
 30
0.0
 10
12.0839526402
 20
9.1306442665
 30
0.0
 10
12.0839602542
 20
9.13108438
 30
0.0
  0
SPLINE
  5
4C6
100
AcDbEntity
  8
0
100
AcDbSpline
 62
9
  6
CONTINUOUS
 70
0
 71
3
 72
18
 73
14
 74
0
 42
0.0000001
 43
0.0000001
 44
0.0000000001
 40
0.0
 40
0.0
 40
0.0
 40
0.0
 40
0.1973707156
 40
0.3856028356
 40
0.5571497882
 40
0.7063212764
 40
0.8282305686
 40
0.9190593206
 40
0.9518527598
 40
0.9759222218
 40
0.9847508423
 40
0.9915420409
 40
1.0
 40
1.0
 40
1.0
 40
1.0
 10
11.9350421351
 20
9.1240935594
 30
0.0
 10
11.9350102795
 20
9.1189500636
 30
0.0
 10
11.9348826861
 20
9.1089015163
 30
0.0
 10
11.9345038647
 20
9.0943862809
 30
0.0
 10
11.9339464103
 20
9.0811339278
 30
0.0
 10
11.9332418241
 20
9.0696190345
 30
0.0
 10
11.9324066305
 20
9.0602237371
 30
0.0
 10
11.9315985846
 20
9.0538722837
 30
0.0
 10
11.9308417042
 20
9.0500943423
 30
0.0
 10
11.9303912624
 20
9.0484442171
 30
0.0
 10
11.9299883451
 20
9.0474799921
 30
0.0
 10
11.9296936003
 20
9.0469472124
 30
0.0
 10
11.9293564634
 20
9.0466192255
 30
0.0
 10
11.9291360674
 20
9.0466160257
 30
0.0
  0
SPLINE
  5
4C7
100
AcDbEntity
  8
0
100
AcDbSpline
 62
9
  6
CONTINUOUS
 70
0
 71
3
 72
14
 73
10
 74
0
 42
0.0000001
 43
0.0000001
 44
0.0000000001
 40
0.0
 40
0.0
 40
0.0
 40
0.0
 40
0.0414055373
 40
0.106644558
 40
0.1968450734
 40
0.3119015597
 40
0.4512065084
 40
0.6133944202
 40
1.0
 40
1.0
 40
1.0
 40
1.0
 10
11.8443431235
 20
9.1316107847
 30
0.0
 10
11.8445965273
 20
9.1312882531
 30
0.0
 10
11.8455334026
 20
9.1307203079
 30
0.0
 10
11.8473460049
 20
9.1300351215
 30
0.0
 10
11.8499451057
 20
9.1293432078
 30
0.0
 10
11.8532888337
 20
9.1286656894
 30
0.0
 10
11.857365056
 20
9.1280122795
 30
0.0
 10
11.8641243102
 20
9.1271299775
 30
0.0
 10
11.8695379227
 20
9.1266116356
 30
0.0
 10
11.8733546222
 20
9.1262953037
 30
0.0
  0
SPLINE
  5
4C8
100
AcDbEntity
  8
0
100
AcDbSpline
 62
9
  6
CONTINUOUS
 70
0
 71
3
 72
9
 73
5
 74
0
 42
0.0000001
 43
0.0000001
 44
0.0000000001
 40
0.0
 40
0.0
 40
0.0
 40
0.0
 40
0.4670527075
 40
1.0
 40
1.0
 40
1.0
 40
1.0
 10
11.8733546222
 20
9.1262953037
 30
0.0
 10
11.8829335006
 20
9.1255013966
 30
0.0
 10
11.9034944148
 20
9.124439748
 30
0.0
 10
11.924074334
 20
9.1240935594
 30
0.0
 10
11.9350421351
 20
9.1240935594
 30
0.0
  0
LINE
  5
4C9
100
AcDbEntity
  8
0
100
AcDbLine
 62
7
  6
CONTINUOUS
 10
12.0575324292
 20
9.6837857169
 11
12.0572820928
 21
9.6927346048
  0
SPLINE
  5
4CA
100
AcDbEntity
  8
0
100
AcDbSpline
 62
7
  6
CONTINUOUS
 70
0
 71
3
 72
10
 73
6
 74
0
 42
0.0000001
 43
0.0000001
 44
0.0000000001
 40
0.0
 40
0.0
 40
0.0
 40
0.0
 40
0.551179292
 40
0.7938351994
 40
1.0
 40
1.0
 40
1.0
 40
1.0
 10
12.0572820928
 20
9.6927346048
 30
0.0
 10
12.0557316961
 20
9.748149527
 30
0.0
 10
12.0535068688
 20
9.8279613047
 30
0.0
 10
12.0502486337
 20
9.928486788
 30
0.0
 10
12.0485500999
 20
9.9735969714
 30
0.0
 10
12.0476535735
 20
9.9943132603
 30
0.0
  0
LINE
  5
4CB
100
AcDbEntity
  8
0
100
AcDbLine
 62
7
  6
CONTINUOUS
 10
12.0476535735
 20
9.9943132603
 11
12.0475315489
 21
9.9971147267
  0
SPLINE
  5
4CC
100
AcDbEntity
  8
0
100
AcDbSpline
 62
7
  6
CONTINUOUS
 70
0
 71
3
 72
12
 73
8
 74
0
 42
0.0000001
 43
0.0000001
 44
0.0000000001
 40
0.0
 40
0.0
 40
0.0
 40
0.0
 40
0.0546697614
 40
0.2229571581
 40
0.5207176819
 40
0.7307485275
 40
1.0
 40
1.0
 40
1.0
 40
1.0
 10
7.3459509978
 20
9.0758786161
 30
0.0
 10
7.3456101346
 20
9.0761361628
 30
0.0
 10
7.3442260184
 20
9.0771942337
 30
0.0
 10
7.3410500789
 20
9.0797379851
 30
0.0
 10
7.3370755353
 20
9.0832294009
 30
0.0
 10
7.3328446029
 20
9.0875837857
 30
0.0
 10
7.3303980496
 20
9.0904391156
 30
0.0
 10
7.3292021116
 20
9.0921701098
 30
0.0
  0
LINE
  5
4CD
100
AcDbEntity
  8
0
100
AcDbLine
 62
7
  6
CONTINUOUS
 10
7.3292021116
 20
9.0921701098
 11
7.3264042186
 21
9.0969490112
  0
SPLINE
  5
4CE
100
AcDbEntity
  8
0
100
AcDbSpline
 62
7
  6
CONTINUOUS
 70
0
 71
3
 72
9
 73
5
 74
0
 42
0.0000001
 43
0.0000001
 44
0.0000000001
 40
0.0
 40
0.0
 40
0.0
 40
0.0
 40
0.553713682
 40
1.0
 40
1.0
 40
1.0
 40
1.0
 10
12.0450316111
 20
9.4042454226
 30
0.0
 10
12.0455068676
 20
9.3942555859
 30
0.0
 10
12.0464256808
 20
9.376216916
 30
0.0
 10
12.0475502488
 20
9.3581890589
 30
0.0
 10
12.0481433302
 20
9.3501501166
 30
0.0
  0
SPLINE
  5
4CF
100
AcDbEntity
  8
0
100
AcDbSpline
 62
7
  6
CONTINUOUS
 70
0
 71
3
 72
12
 73
8
 74
0
 42
0.0000001
 43
0.0000001
 44
0.0000000001
 40
0.0
 40
0.0
 40
0.0
 40
0.0
 40
0.3656081828
 40
0.6555885674
 40
0.8675959312
 40
0.9437557985
 40
1.0
 40
1.0
 40
1.0
 40
1.0
 10
12.0481433302
 20
9.3501501166
 30
0.0
 10
12.0484357742
 20
9.3461861752
 30
0.0
 10
12.0489997809
 20
9.3390805248
 30
0.0
 10
12.0499359437
 20
9.3296955203
 30
0.0
 10
12.0507512362
 20
9.3234588299
 30
0.0
 10
12.0514552003
 20
9.3197810367
 30
0.0
 10
12.0518128989
 20
9.3183838217
 30
0.0
 10
12.0520077704
 20
9.3178042461
 30
0.0
  0
LINE
  5
4D0
100
AcDbEntity
  8
0
100
AcDbLine
 62
7
  6
CONTINUOUS
 10
12.0520077704
 20
9.3178042461
 11
12.0524451573
 21
9.3167757903
  0
SPLINE
  5
4D1
100
AcDbEntity
  8
0
100
AcDbSpline
 62
7
  6
CONTINUOUS
 70
0
 71
3
 72
13
 73
9
 74
0
 42
0.0000001
 43
0.0000001
 44
0.0000000001
 40
0.0
 40
0.0
 40
0.0
 40
0.0
 40
0.2512257716
 40
0.3758449971
 40
0.5
 40
0.6241550029
 40
0.7487742285
 40
1.0
 40
1.0
 40
1.0
 40
1.0
 10
12.9273112862
 20
8.753926545
 30
0.0
 10
12.9622833369
 20
8.7386739628
 30
0.0
 10
13.0165538637
 20
8.7196577772
 30
0.0
 10
13.091435987
 20
8.7062676205
 30
0.0
 10
13.1481053078
 20
8.7027582007
 30
0.0
 10
13.2047746285
 20
8.7062676208
 30
0.0
 10
13.2796567518
 20
8.7196577776
 30
0.0
 10
13.3339272787
 20
8.7386739628
 30
0.0
 10
13.3688993295
 20
8.753926545
 30
0.0
  0
SPLINE
  5
4D2
100
AcDbEntity
  8
0
100
AcDbSpline
 62
9
  6
CONTINUOUS
 70
0
 71
3
 72
11
 73
7
 74
0
 42
0.0000001
 43
0.0000001
 44
0.0000000001
 40
0.0
 40
0.0
 40
0.0
 40
0.0
 40
0.2740846634
 40
0.5284574176
 40
0.7689933239
 40
1.0
 40
1.0
 40
1.0
 40
1.0
 10
8.8966625576
 20
3.145842093
 30
0.0
 10
8.8966882051
 20
3.1408889631
 30
0.0
 10
8.8971619047
 20
3.1313344943
 30
0.0
 10
8.899102564
 20
3.1175569535
 30
0.0
 10
8.9019661687
 20
3.1047436007
 30
0.0
 10
8.9043575412
 20
3.096557982
 30
0.0
 10
8.9056522531
 20
3.0925891224
 30
0.0
  0
SPLINE
  5
4D3
100
AcDbEntity
  8
0
100
AcDbSpline
 62
9
  6
CONTINUOUS
 70
0
 71
3
 72
22
 73
18
 74
0
 42
0.0000001
 43
0.0000001
 44
0.0000000001
 40
0.0
 40
0.0
 40
0.0
 40
0.0
 40
0.0308735855
 40
0.0602991871
 40
0.0889663376
 40
0.1172614706
 40
0.1453928539
 40
0.173497111
 40
0.2016655909
 40
0.229959447
 40
0.28709455
 40
0.3451701661
 40
0.4646420117
 40
0.5892735522
 40
0.7196149032
 40
0.8562306503
 40
1.0
 40
1.0
 40
1.0
 40
1.0
 10
8.9056522531
 20
3.0925891224
 30
0.0
 10
8.9089947756
 20
3.082342826
 30
0.0
 10
8.9171089865
 20
3.0628234529
 30
0.0
 10
8.9326592918
 20
3.0358647728
 30
0.0
 10
8.9504685863
 20
3.0114713206
 30
0.0
 10
8.9699174083
 20
2.9889801491
 30
0.0
 10
8.9908438168
 20
2.96814088
 30
0.0
 10
9.0130131031
 20
2.9487060779
 30
0.0
 10
9.0362925171
 20
2.930528552
 30
0.0
 10
9.0687300423
 20
2.9076931682
 30
0.0
 10
9.1116582447
 20
2.8817388046
 30
0.0
 10
9.1848697153
 20
2.8448391118
 30
0.0
 10
9.2835713843
 20
2.8068393298
 30
0.0
 10
9.4099745978
 20
2.7728380749
 30
0.0
 10
9.54472083
 20
2.7489271378
 30
0.0
 10
9.6874979366
 20
2.7345544406
 30
0.0
 10
9.7854166321
 20
2.7315429248
 30
0.0
 10
9.8356053101
 20
2.7315429249
 30
0.0
  0
SPLINE
  5
4D4
100
AcDbEntity
  8
0
100
AcDbSpline
 62
7
  6
CONTINUOUS
 70
0
 71
3
 72
9
 73
5
 74
0
 42
0.0000001
 43
0.0000001
 44
0.0000000001
 40
0.0
 40
0.0
 40
0.0
 40
0.0
 40
0.2650310227
 40
1.0
 40
1.0
 40
1.0
 40
1.0
 10
11.9103293449
 20
9.2609609678
 30
0.0
 10
11.9080778739
 20
9.2609721726
 30
0.0
 10
11.8995822876
 20
9.2607438558
 30
0.0
 10
11.8911230267
 20
9.259521489
 30
0.0
 10
11.8850318028
 20
9.2581499424
 30
0.0
  0
SPLINE
  5
4D5
100
AcDbEntity
  8
0
100
AcDbSpline
 62
7
  6
CONTINUOUS
 70
0
 71
3
 72
9
 73
5
 74
0
 42
0.0000001
 43
0.0000001
 44
0.0000000001
 40
0.0
 40
0.0
 40
0.0
 40
0.0
 40
0.2313646466
 40
1.0
 40
1.0
 40
1.0
 40
1.0
 10
11.8850318028
 20
10.1099588101
 30
0.0
 10
11.8869489827
 20
10.1095271232
 30
0.0
 10
11.8952786702
 20
10.1078645403
 30
0.0
 10
11.9038007414
 20
10.1071152941
 30
0.0
 10
11.9103293449
 20
10.1071477847
 30
0.0
  0
SPLINE
  5
4D6
100
AcDbEntity
  8
0
100
AcDbSpline
 62
7
  6
CONTINUOUS
 70
0
 71
3
 72
12
 73
8
 74
0
 42
0.0000001
 43
0.0000001
 44
0.0000000001
 40
0.0
 40
0.0
 40
0.0
 40
0.0
 40
0.1488146463
 40
0.2456479497
 40
0.3596840735
 40
0.6426355147
 40
1.0
 40
1.0
 40
1.0
 40
1.0
 10
11.8497042835
 20
10.1093665574
 30
0.0
 10
11.8512011804
 20
10.1103053485
 30
0.0
 10
11.8541517382
 20
10.1110105481
 30
0.0
 10
11.8583943072
 20
10.1112873188
 30
0.0
 10
11.8642695922
 20
10.1111915812
 30
0.0
 10
11.873196171
 20
10.1105121399
 30
0.0
 10
11.8807900807
 20
10.1100672885
 30
0.0
 10
11.8850318028
 20
10.1099588101
 30
0.0
  0
SPLINE
  5
4D7
100
AcDbEntity
  8
0
100
AcDbSpline
 62
7
  6
CONTINUOUS
 70
0
 71
3
 72
12
 73
8
 74
0
 42
0.0000001
 43
0.0000001
 44
0.0000000001
 40
0.0
 40
0.0
 40
0.0
 40
0.0
 40
0.3573628997
 40
0.6403211275
 40
0.7543525287
 40
0.8511816428
 40
1.0
 40
1.0
 40
1.0
 40
1.0
 10
11.8850318028
 20
9.2581499424
 30
0.0
 10
11.8807900956
 20
9.2580414643
 30
0.0
 10
11.8731961189
 20
9.2575966818
 30
0.0
 10
11.8642695088
 20
9.2569172622
 30
0.0
 10
11.8583942653
 20
9.2568215763
 30
0.0
 10
11.8541516982
 20
9.2570978358
 30
0.0
 10
11.8512012191
 20
9.2578033797
 30
0.0
 10
11.8497042835
 20
9.2587421951
 30
0.0
  0
SPLINE
  5
4D8
100
AcDbEntity
  8
0
100
AcDbSpline
 62
9
  6
CONTINUOUS
 70
0
 71
3
 72
9
 73
5
 74
0
 42
0.0000001
 43
0.0000001
 44
0.0000000001
 40
0.0
 40
0.0
 40
0.0
 40
0.0
 40
0.5001249186
 40
1.0
 40
1.0
 40
1.0
 40
1.0
 10
11.9925737878
 20
10.0921932114
 30
0.0
 10
11.9987596486
 20
10.0943622674
 30
0.0
 10
12.010665569
 20
10.1001496928
 30
0.0
 10
12.020922764
 20
10.1085275826
 30
0.0
 10
12.025468604
 20
10.1132458552
 30
0.0
  0
SPLINE
  5
4D9
100
AcDbEntity
  8
0
100
AcDbSpline
 62
9
  6
CONTINUOUS
 70
0
 71
3
 72
27
 73
23
 74
0
 42
0.0000001
 43
0.0000001
 44
0.0000000001
 40
0.0
 40
0.0
 40
0.0
 40
0.0
 40
0.0312029425
 40
0.0469043371
 40
0.0625588222
 40
0.0938399098
 40
0.1094761743
 40
0.125109387
 40
0.1563636741
 40
0.1876221775
 40
0.2188779978
 40
0.2501397339
 40
0.3126240757
 40
0.3751109204
 40
0.4376013232
 40
0.5000929233
 40
0.5625835815
 40
0.6250709446
 40
0.6875591666
 40
0.7500489861
 40
0.8750221972
 40
1.0
 40
1.0
 40
1.0
 40
1.0
 10
8.8706127773
 20
2.6841639285
 30
0.0
 10
8.8706275587
 20
2.6728881508
 30
0.0
 10
8.8732842024
 20
2.6558604184
 30
0.0
 10
8.8808594871
 20
2.6345317469
 30
0.0
 10
8.8908756425
 20
2.6141795572
 30
0.0
 10
8.9038885239
 20
2.5955233461
 30
0.0
 10
8.9187843869
 20
2.5785112714
 30
0.0
 10
8.9347489878
 20
2.5625021816
 30
0.0
 10
8.9562814057
 20
2.5441577329
 30
0.0
 10
8.9838631172
 20
2.5244229112
 30
0.0
 10
9.0127142077
 20
2.5066038467
 30
0.0
 10
9.052461151
 20
2.4851015538
 30
0.0
 10
9.1039358948
 20
2.4617400206
 30
0.0
 10
9.1674754969
 20
2.4381360397
 30
0.0
 10
9.2322187581
 20
2.4180930106
 30
0.0
 10
9.2978150947
 20
2.4010771543
 30
0.0
 10
9.3640352572
 20
2.3867055881
 30
0.0
 10
9.4307182401
 20
2.37468885
 30
0.0
 10
9.4977479965
 20
2.3648019749
 30
0.0
 10
9.5874630629
 20
2.3542362945
 30
0.0
 10
9.7001007208
 20
2.345658774
 30
0.0
 10
9.7904422119
 20
2.3434920398
 30
0.0
 10
9.8356053606
 20
2.3434940767
 30
0.0
  0
SPLINE
  5
4DA
100
AcDbEntity
  8
0
100
AcDbSpline
 62
9
  6
CONTINUOUS
 70
0
 71
3
 72
11
 73
7
 74
0
 42
0.0000001
 43
0.0000001
 44
0.0000000001
 40
0.0
 40
0.0
 40
0.0
 40
0.0
 40
0.249960314
 40
0.500238856
 40
0.7503776445
 40
1.0
 40
1.0
 40
1.0
 40
1.0
 10
11.9297838252
 20
10.1319093905
 30
0.0
 10
11.9187432094
 20
10.1319093905
 30
0.0
 10
11.8964106165
 20
10.1363261304
 30
0.0
 10
11.8681390344
 20
10.1551529875
 30
0.0
 10
11.8491006494
 20
10.1832665239
 30
0.0
 10
11.8445347909
 20
10.205550857
 30
0.0
 10
11.8444665058
 20
10.216576334
 30
0.0
  0
SPLINE
  5
4DB
100
AcDbEntity
  8
0
100
AcDbSpline
 62
9
  6
CONTINUOUS
 70
0
 71
3
 72
14
 73
10
 74
0
 42
0.0000001
 43
0.0000001
 44
0.0000000001
 40
0.0
 40
0.0
 40
0.0
 40
0.0
 40
0.0414055373
 40
0.106644558
 40
0.1968450734
 40
0.3119015597
 40
0.4512065084
 40
0.6133944202
 40
1.0
 40
1.0
 40
1.0
 40
1.0
 10
11.8444665058
 20
10.216576334
 30
0.0
 10
11.8447199096
 20
10.2168988656
 30
0.0
 10
11.845656785
 20
10.2174668108
 30
0.0
 10
11.8474693873
 20
10.2181519973
 30
0.0
 10
11.8500684881
 20
10.2188439109
 30
0.0
 10
11.8534122161
 20
10.2195214293
 30
0.0
 10
11.8574884384
 20
10.2201748392
 30
0.0
 10
11.8642476926
 20
10.2210571412
 30
0.0
 10
11.8696613051
 20
10.2215754831
 30
0.0
 10
11.8734780045
 20
10.221891815
 30
0.0
  0
SPLINE
  5
4DC
100
AcDbEntity
  8
0
100
AcDbSpline
 62
9
  6
CONTINUOUS
 70
0
 71
3
 72
9
 73
5
 74
0
 42
0.0000001
 43
0.0000001
 44
0.0000000001
 40
0.0
 40
0.0
 40
0.0
 40
0.0
 40
0.4670527075
 40
1.0
 40
1.0
 40
1.0
 40
1.0
 10
11.8734780045
 20
10.221891815
 30
0.0
 10
11.883056883
 20
10.2226857221
 30
0.0
 10
11.9036177971
 20
10.2237473707
 30
0.0
 10
11.9241977163
 20
10.2240935594
 30
0.0
 10
11.9351655175
 20
10.2240935594
 30
0.0
  0
SPLINE
  5
4DD
100
AcDbEntity
  8
0
100
AcDbSpline
 62
9
  6
CONTINUOUS
 70
0
 71
3
 72
18
 73
14
 74
0
 42
0.0000001
 43
0.0000001
 44
0.0000000001
 40
0.0
 40
0.0
 40
0.0
 40
0.0
 40
0.1795705517
 40
0.3560926495
 40
0.5218105521
 40
0.6705574357
 40
0.7968046947
 40
0.8500442206
 40
0.8959758348
 40
0.9341251501
 40
0.9642390607
 40
0.9861740375
 40
1.0
 40
1.0
 40
1.0
 40
1.0
 10
11.9351655175
 20
10.2240935594
 30
0.0
 10
11.9351998456
 20
10.2185508546
 30
0.0
 10
11.935191223
 20
10.2075589326
 30
0.0
 10
11.9349632669
 20
10.1914533217
 30
0.0
 10
11.9345226494
 20
10.1763036973
 30
0.0
 10
11.9338931497
 20
10.1627142107
 30
0.0
 10
11.9332017628
 20
10.1526045205
 30
0.0
 10
11.932546891
 20
10.1456773228
 30
0.0
 10
11.9320556231
 20
10.1414660246
 30
0.0
 10
11.9315391438
 20
10.1379804819
 30
0.0
 10
11.9310111298
 20
10.1352402302
 30
0.0
 10
11.9304754122
 20
10.1332876072
 30
0.0
 10
11.9300474819
 20
10.1322449718
 30
0.0
 10
11.9297838252
 20
10.1319093905
 30
0.0
  0
SPLINE
  5
4DE
100
AcDbEntity
  8
0
100
AcDbSpline
 62
9
  6
CONTINUOUS
 70
0
 71
3
 72
15
 73
11
 74
0
 42
0.0000001
 43
0.0000001
 44
0.0000000001
 40
0.0
 40
0.0
 40
0.0
 40
0.0
 40
0.0222162665
 40
0.0495653739
 40
0.1203993117
 40
0.2132411249
 40
0.3281373355
 40
0.4648688983
 40
0.622880423
 40
1.0
 40
1.0
 40
1.0
 40
1.0
 10
11.8095497614
 20
10.1721344035
 30
0.0
 10
11.8091224261
 20
10.1715904925
 30
0.0
 10
11.8082905252
 20
10.17028239
 30
0.0
 10
11.8066520812
 20
10.1669064825
 30
0.0
 10
11.8047155818
 20
10.1612649848
 30
0.0
 10
11.8025457492
 20
10.1528654468
 30
0.0
 10
11.8004063208
 20
10.1423513125
 30
0.0
 10
11.7983111174
 20
10.129768961
 30
0.0
 10
11.7954208323
 20
10.1090492717
 30
0.0
 10
11.7936370647
 20
10.0924794523
 30
0.0
 10
11.7925125229
 20
10.0807917983
 30
0.0
  0
SPLINE
  5
4DF
100
AcDbEntity
  8
0
100
AcDbSpline
 62
9
  6
CONTINUOUS
 70
0
 71
3
 72
15
 73
11
 74
0
 42
0.0000001
 43
0.0000001
 44
0.0000000001
 40
0.0
 40
0.0
 40
0.0
 40
0.0
 40
0.377119577
 40
0.5351311017
 40
0.6718626645
 40
0.7867588751
 40
0.8796006883
 40
0.9504346261
 40
0.9777837335
 40
1.0
 40
1.0
 40
1.0
 40
1.0
 10
11.7925125229
 20
9.2873169542
 30
0.0
 10
11.7936370647
 20
9.2756293002
 30
0.0
 10
11.7954208323
 20
9.2590594808
 30
0.0
 10
11.7983111174
 20
9.2383397915
 30
0.0
 10
11.8004063208
 20
9.22575744
 30
0.0
 10
11.8025457492
 20
9.2152433057
 30
0.0
 10
11.8047155818
 20
9.2068437677
 30
0.0
 10
11.8066520812
 20
9.20120227
 30
0.0
 10
11.8082905252
 20
9.1978263625
 30
0.0
 10
11.8091224261
 20
9.19651826
 30
0.0
 10
11.8095497614
 20
9.195974349
 30
0.0
  0
SPLINE
  5
4E0
100
AcDbEntity
  8
0
100
AcDbSpline
 62
9
  6
CONTINUOUS
 70
0
 71
3
 72
15
 73
11
 74
0
 42
0.0000001
 43
0.0000001
 44
0.0000000001
 40
0.0
 40
0.0
 40
0.0
 40
0.0
 40
0.0211546564
 40
0.0476199005
 40
0.1172320977
 40
0.2095360235
 40
0.3245122039
 40
0.4617847561
 40
0.6206487364
 40
1.0
 40
1.0
 40
1.0
 40
1.0
 10
11.809426379
 20
9.1760527152
 30
0.0
 10
11.8089355097
 20
9.1766774922
 30
0.0
 10
11.8079848497
 20
9.1782034688
 30
0.0
 10
11.8061166812
 20
9.1821955181
 30
0.0
 10
11.803923111
 20
9.1889441945
 30
0.0
 10
11.8014711677
 20
9.1990523726
 30
0.0
 10
11.7990627341
 20
9.2117727612
 30
0.0
 10
11.7967122908
 20
9.2270352408
 30
0.0
 10
11.7934856826
 20
9.2522018531
 30
0.0
 10
11.7915191676
 20
9.2723254183
 30
0.0
 10
11.7902876059
 20
9.2865200644
 30
0.0
  0
SPLINE
  5
4E1
100
AcDbEntity
  8
0
100
AcDbSpline
 62
9
  6
CONTINUOUS
 70
0
 71
3
 72
15
 73
11
 74
0
 42
0.0000001
 43
0.0000001
 44
0.0000000001
 40
0.0
 40
0.0
 40
0.0
 40
0.0
 40
0.3793512159
 40
0.5382151387
 40
0.6754876526
 40
0.7904638336
 40
0.8827677732
 40
0.9523800123
 40
0.9788452935
 40
1.0
 40
1.0
 40
1.0
 40
1.0
 10
11.7902876721
 20
10.0815894506
 30
0.0
 10
11.7915192313
 20
10.095783998
 30
0.0
 10
11.793485741
 20
10.1159074219
 30
0.0
 10
11.7967123396
 20
10.1410738563
 30
0.0
 10
11.799062775
 20
10.1563362274
 30
0.0
 10
11.8014711989
 20
10.1690565275
 30
0.0
 10
11.8039231327
 20
10.1791646374
 30
0.0
 10
11.8061166947
 20
10.1859132695
 30
0.0
 10
11.8079848558
 20
10.1899052946
 30
0.0
 10
11.8089355119
 20
10.1914312631
 30
0.0
 10
11.809426379
 20
10.1920560373
 30
0.0
  0
SPLINE
  5
4E2
100
AcDbEntity
  8
0
100
AcDbSpline
 62
9
  6
CONTINUOUS
 70
0
 71
3
 72
11
 73
7
 74
0
 42
0.0000001
 43
0.0000001
 44
0.0000000001
 40
0.0
 40
0.0
 40
0.0
 40
0.0
 40
0.2493729617
 40
0.4993793193
 40
0.7495490411
 40
1.0
 40
1.0
 40
1.0
 40
1.0
 10
11.8095497614
 20
10.1721344035
 30
0.0
 10
11.809589322
 20
10.1657468335
 30
0.0
 10
11.8111409523
 20
10.1529199503
 30
0.0
 10
11.8176979018
 20
10.1347063492
 30
0.0
 10
11.8281991384
 20
10.1184092454
 30
0.0
 10
11.8374724614
 20
10.1093693899
 30
0.0
 10
11.8425363997
 20
10.105430777
 30
0.0
  0
SPLINE
  5
4E3
100
AcDbEntity
  8
0
100
AcDbSpline
 62
9
  6
CONTINUOUS
 70
0
 71
3
 72
11
 73
7
 74
0
 42
0.0000001
 43
0.0000001
 44
0.0000000001
 40
0.0
 40
0.0
 40
0.0
 40
0.0
 40
0.2496223555
 40
0.499761144
 40
0.750039686
 40
1.0
 40
1.0
 40
1.0
 40
1.0
 10
11.8444665058
 20
9.1515324185
 30
0.0
 10
11.8445347909
 20
9.1625578955
 30
0.0
 10
11.8491006494
 20
9.1848422286
 30
0.0
 10
11.8681390344
 20
9.212955765
 30
0.0
 10
11.8964106165
 20
9.2317826221
 30
0.0
 10
11.9187432094
 20
9.236199362
 30
0.0
 10
11.9297838252
 20
9.236199362
 30
0.0
  0
SPLINE
  5
4E4
100
AcDbEntity
  8
0
100
AcDbSpline
 62
9
  6
CONTINUOUS
 70
0
 71
3
 72
18
 73
14
 74
0
 42
0.0000001
 43
0.0000001
 44
0.0000000001
 40
0.0
 40
0.0
 40
0.0
 40
0.0
 40
0.0138259625
 40
0.0357609393
 40
0.0658748499
 40
0.1040241652
 40
0.1499557794
 40
0.2031953053
 40
0.3294425643
 40
0.4781894479
 40
0.6439073505
 40
0.8204294483
 40
1.0
 40
1.0
 40
1.0
 40
1.0
 10
11.9297838252
 20
9.236199362
 30
0.0
 10
11.9300474819
 20
9.2358637806
 30
0.0
 10
11.9304754122
 20
9.2348211453
 30
0.0
 10
11.9310111298
 20
9.2328685223
 30
0.0
 10
11.9315391438
 20
9.2301282705
 30
0.0
 10
11.9320556231
 20
9.2266427279
 30
0.0
 10
11.932546891
 20
9.2224314297
 30
0.0
 10
11.9332017628
 20
9.215504232
 30
0.0
 10
11.9338931497
 20
9.2053945418
 30
0.0
 10
11.9345226494
 20
9.1918050552
 30
0.0
 10
11.9349632669
 20
9.1766554308
 30
0.0
 10
11.935191223
 20
9.1605498198
 30
0.0
 10
11.9351998456
 20
9.1495578979
 30
0.0
 10
11.9351655175
 20
9.1440151931
 30
0.0
  0
SPLINE
  5
4E5
100
AcDbEntity
  8
0
100
AcDbSpline
 62
9
  6
CONTINUOUS
 70
0
 71
3
 72
9
 73
5
 74
0
 42
0.0000001
 43
0.0000001
 44
0.0000000001
 40
0.0
 40
0.0
 40
0.0
 40
0.0
 40
0.5329472925
 40
1.0
 40
1.0
 40
1.0
 40
1.0
 10
11.9351655175
 20
9.1440151931
 30
0.0
 10
11.9241977163
 20
9.1440151931
 30
0.0
 10
11.9036177971
 20
9.1443613818
 30
0.0
 10
11.883056883
 20
9.1454230304
 30
0.0
 10
11.8734780045
 20
9.1462169375
 30
0.0
  0
SPLINE
  5
4E6
100
AcDbEntity
  8
0
100
AcDbSpline
 62
9
  6
CONTINUOUS
 70
0
 71
3
 72
14
 73
10
 74
0
 42
0.0000001
 43
0.0000001
 44
0.0000000001
 40
0.0
 40
0.0
 40
0.0
 40
0.0
 40
0.3866055798
 40
0.5487934916
 40
0.6880984403
 40
0.8031549266
 40
0.893355442
 40
0.9585944627
 40
1.0
 40
1.0
 40
1.0
 40
1.0
 10
11.8734780045
 20
9.1462169375
 30
0.0
 10
11.8696613051
 20
9.1465332694
 30
0.0
 10
11.8642476926
 20
9.1470516112
 30
0.0
 10
11.8574884384
 20
9.1479339133
 30
0.0
 10
11.8534122161
 20
9.1485873232
 30
0.0
 10
11.8500684881
 20
9.1492648416
 30
0.0
 10
11.8474693873
 20
9.1499567552
 30
0.0
 10
11.845656785
 20
9.1506419417
 30
0.0
 10
11.8447199096
 20
9.1512098869
 30
0.0
 10
11.8444665058
 20
9.1515324185
 30
0.0
  0
SPLINE
  5
4E7
100
AcDbEntity
  8
0
100
AcDbSpline
 62
9
  6
CONTINUOUS
 70
0
 71
3
 72
9
 73
5
 74
0
 42
0.0000001
 43
0.0000001
 44
0.0000000001
 40
0.0
 40
0.0
 40
0.0
 40
0.0
 40
0.4900639213
 40
1.0
 40
1.0
 40
1.0
 40
1.0
 10
8.8706045563
 20
2.6840543723
 30
0.0
 10
8.8706033587
 20
2.6800301656
 30
0.0
 10
8.87094004
 20
2.671810002
 30
0.0
 10
8.8722067224
 20
2.6636774039
 30
0.0
 10
8.8730482048
 20
2.6595754367
 30
0.0
  0
SPLINE
  5
4E8
100
AcDbEntity
  8
0
100
AcDbSpline
 62
9
  6
CONTINUOUS
 70
0
 71
3
 72
29
 73
25
 74
0
 42
0.0000001
 43
0.0000001
 44
0.0000000001
 40
0.0
 40
0.0
 40
0.0
 40
0.0
 40
0.0185579455
 40
0.0365322754
 40
0.0540655365
 40
0.0713522405
 40
0.0884565447
 40
0.1053822643
 40
0.1220868339
 40
0.138534712
 40
0.17085405
 40
0.2027181404
 40
0.2343066611
 40
0.2656739772
 40
0.2968596937
 40
0.3279085018
 40
0.3897016316
 40
0.4512002091
 40
0.5125010773
 40
0.5736636536
 40
0.6347204821
 40
0.7565989763
 40
0.878347626
 40
1.0
 40
1.0
 40
1.0
 40
1.0
 10
8.8730482048
 20
2.6595754367
 30
0.0
 10
8.8743676162
 20
2.6531437133
 30
0.0
 10
8.8778622408
 20
2.6406465674
 30
0.0
 10
8.885517219
 20
2.6230621324
 30
0.0
 10
8.8949464248
 20
2.6068988657
 30
0.0
 10
8.9056650572
 20
2.5919511525
 30
0.0
 10
8.917449263
 20
2.5781157693
 30
0.0
 10
8.9300342687
 20
2.5652999394
 30
0.0
 10
8.9431736293
 20
2.5534024197
 30
0.0
 10
8.9610780502
 20
2.5386943956
 30
0.0
 10
8.9843174668
 20
2.522091586
 30
0.0
 10
9.013199497
 20
2.5043376649
 30
0.0
 10
9.0427080113
 20
2.4883507791
 30
0.0
 10
9.0727061278
 20
2.4738559798
 30
0.0
 10
9.1030760982
 20
2.4606335667
 30
0.0
 10
9.1439208593
 20
2.4445758112
 30
0.0
 10
9.1956478194
 20
2.4269895254
 30
0.0
 10
9.2584248517
 20
2.4089154337
 30
0.0
 10
9.321692869
 20
2.3935732083
 30
0.0
 10
9.3853211441
 20
2.3805813988
 30
0.0
 10
9.4704699665
 20
2.3660961645
 30
0.0
 10
9.5774906175
 20
2.3526996013
 30
0.0
 10
9.7064363498
 20
2.3433614556
 30
0.0
 10
9.7925656124
 20
2.3413691325
 30
0.0
 10
9.8356053078
 20
2.3413690899
 30
0.0
  0
LINE
  5
4E9
100
AcDbEntity
  8
0
100
AcDbLine
 62
9
  6
CONTINUOUS
 10
6.3804170781
 20
7.3164187221
 11
6.384605383
 21
7.3155643678
  0
SPLINE
  5
4EA
100
AcDbEntity
  8
0
100
AcDbSpline
 62
7
  6
CONTINUOUS
 70
0
 71
3
 72
9
 73
5
 74
0
 42
0.0000001
 43
0.0000001
 44
0.0000000001
 40
0.0
 40
0.0
 40
0.0
 40
0.0
 40
0.2513868857
 40
1.0
 40
1.0
 40
1.0
 40
1.0
 10
7.3688993295
 20
8.9785425652
 30
0.0
 10
7.3597728667
 20
8.9825229473
 30
0.0
 10
7.3231702331
 20
8.9976459605
 30
0.0
 10
7.285216716
 20
9.0096457373
 30
0.0
 10
7.2562952301
 20
9.0161796181
 30
0.0
  0
SPLINE
  5
4EB
100
AcDbEntity
  8
0
100
AcDbSpline
 62
7
  6
CONTINUOUS
 70
0
 71
3
 72
13
 73
9
 74
0
 42
0.0000001
 43
0.0000001
 44
0.0000000001
 40
0.0
 40
0.0
 40
0.0
 40
0.0
 40
0.2491042748
 40
0.3733883785
 40
0.4977995879
 40
0.6225695981
 40
0.7478175023
 40
1.0
 40
1.0
 40
1.0
 40
1.0
 10
7.2562952301
 20
9.0161796181
 30
0.0
 10
7.2290057403
 20
9.0223448017
 30
0.0
 10
7.1872364531
 20
9.0283586246
 30
0.0
 10
7.1312718244
 20
9.0288675906
 30
0.0
 10
7.0894090756
 20
9.0254542346
 30
0.0
 10
7.0478863276
 20
9.0184967849
 30
0.0
 10
6.9931492553
 20
9.0046956458
 30
0.0
 10
6.9532725528
 20
8.989865217
 30
0.0
 10
6.9273112862
 20
8.9785425652
 30
0.0
  0
SPLINE
  5
4EC
100
AcDbEntity
  8
0
100
AcDbSpline
 62
9
  6
CONTINUOUS
 70
0
 71
3
 72
18
 73
14
 74
0
 42
0.0000001
 43
0.0000001
 44
0.0000000001
 40
0.0
 40
0.0
 40
0.0
 40
0.0
 40
0.1973707156
 40
0.3856028356
 40
0.5571497882
 40
0.7063212764
 40
0.8282305686
 40
0.9190593206
 40
0.9518527598
 40
0.9759222218
 40
0.9847508423
 40
0.9915420409
 40
1.0
 40
1.0
 40
1.0
 40
1.0
 10
12.0048716187
 20
10.2440151931
 30
0.0
 10
12.004839763
 20
10.2491586889
 30
0.0
 10
12.0047121696
 20
10.2592072362
 30
0.0
 10
12.0043333482
 20
10.2737224716
 30
0.0
 10
12.0037758938
 20
10.2869748247
 30
0.0
 10
12.0030713076
 20
10.298489718
 30
0.0
 10
12.002236114
 20
10.3078850154
 30
0.0
 10
12.0014280681
 20
10.3142364688
 30
0.0
 10
12.0006711877
 20
10.3180144102
 30
0.0
 10
12.0002207459
 20
10.3196645354
 30
0.0
 10
11.9998178286
 20
10.3206287604
 30
0.0
 10
11.9995230838
 20
10.3211615401
 30
0.0
 10
11.9991859469
 20
10.321489527
 30
0.0
 10
11.9989655509
 20
10.3214927268
 30
0.0
  0
SPLINE
  5
4ED
100
AcDbEntity
  8
0
100
AcDbSpline
 62
9
  6
CONTINUOUS
 70
0
 71
3
 72
9
 73
5
 74
0
 42
0.0000001
 43
0.0000001
 44
0.0000000001
 40
0.0
 40
0.0
 40
0.0
 40
0.0
 40
0.5329472925
 40
1.0
 40
1.0
 40
1.0
 40
1.0
 10
11.9350421351
 20
10.2440151931
 30
0.0
 10
11.924074334
 20
10.2440151931
 30
0.0
 10
11.9034944148
 20
10.2436690045
 30
0.0
 10
11.8829335006
 20
10.2426073559
 30
0.0
 10
11.8733546222
 20
10.2418134488
 30
0.0
  0
SPLINE
  5
4EE
100
AcDbEntity
  8
0
100
AcDbSpline
 62
9
  6
CONTINUOUS
 70
0
 71
3
 72
14
 73
10
 74
0
 42
0.0000001
 43
0.0000001
 44
0.0000000001
 40
0.0
 40
0.0
 40
0.0
 40
0.0
 40
0.3866055798
 40
0.5487934916
 40
0.6880984403
 40
0.8031549266
 40
0.893355442
 40
0.9585944627
 40
1.0
 40
1.0
 40
1.0
 40
1.0
 10
11.8733546222
 20
10.2418134488
 30
0.0
 10
11.8695379227
 20
10.2414971169
 30
0.0
 10
11.8641243102
 20
10.240978775
 30
0.0
 10
11.857365056
 20
10.240096473
 30
0.0
 10
11.8532888337
 20
10.2394430631
 30
0.0
 10
11.8499451057
 20
10.2387655446
 30
0.0
 10
11.8473460049
 20
10.238073631
 30
0.0
 10
11.8455334026
 20
10.2373884445
 30
0.0
 10
11.8445965273
 20
10.2368204994
 30
0.0
 10
11.8443431235
 20
10.2364979677
 30
0.0
  0
SPLINE
  5
4EF
100
AcDbEntity
  8
0
100
AcDbSpline
 62
9
  6
CONTINUOUS
 70
0
 71
3
 72
27
 73
23
 74
0
 42
0.0000001
 43
0.0000001
 44
0.0000000001
 40
0.0
 40
0.0
 40
0.0
 40
0.0
 40
0.1353018308
 40
0.2638785486
 40
0.386829301
 40
0.4464695217
 40
0.5049859628
 40
0.562472621
 40
0.6190850617
 40
0.6750655317
 40
0.7308768683
 40
0.7589409729
 40
0.787260156
 40
0.8160768842
 40
0.8460281151
 40
0.8778778819
 40
0.8947283877
 40
0.9123484539
 40
0.9310010104
 40
0.9514356046
 40
0.9744223184
 40
1.0
 40
1.0
 40
1.0
 40
1.0
 10
9.8356053078
 20
2.2634870179
 30
0.0
 10
9.7811077418
 20
2.2634870179
 30
0.0
 10
9.6747889712
 20
2.2664926125
 30
0.0
 10
9.5195042362
 20
2.2802566549
 30
0.0
 10
9.395468515
 20
2.298924815
 30
0.0
 10
9.3003200234
 20
2.3184665532
 30
0.0
 10
9.2316108021
 20
2.3354059645
 30
0.0
 10
9.1648646518
 20
2.354963044
 30
0.0
 10
9.1001520671
 20
2.3775403347
 30
0.0
 10
9.037465672
 20
2.403575647
 30
0.0
 10
8.9872053935
 20
2.4291892999
 30
0.0
 10
8.9484910271
 20
2.4525355382
 30
0.0
 10
8.9201438824
 20
2.4719138915
 30
0.0
 10
8.8925323224
 20
2.4936052597
 30
0.0
 10
8.8658715157
 20
2.5186025473
 30
0.0
 10
8.8449949466
 20
2.5425412776
 30
0.0
 10
8.8295991029
 20
2.5643998708
 30
0.0
 10
8.8186418328
 20
2.5828030695
 30
0.0
 10
8.808613242
 20
2.6033648387
 30
0.0
 10
8.8002250066
 20
2.6269790598
 30
0.0
 10
8.7940811367
 20
2.6541564276
 30
0.0
 10
8.7925379495
 20
2.6737520663
 30
0.0
 10
8.7925379495
 20
2.6840543762
 30
0.0
  0
SPLINE
  5
4F0
100
AcDbEntity
  8
0
100
AcDbSpline
 62
7
  6
CONTINUOUS
 70
0
 71
3
 72
15
 73
11
 74
0
 42
0.0000001
 43
0.0000001
 44
0.0000000001
 40
0.0
 40
0.0
 40
0.0
 40
0.0
 40
0.1252744489
 40
0.2499870791
 40
0.3742976604
 40
0.4985150834
 40
0.6230175585
 40
0.7480128464
 40
0.873662476
 40
1.0
 40
1.0
 40
1.0
 40
1.0
 10
6.3717522812
 20
8.7278989979
 30
0.0
 10
6.3869729142
 20
8.7231644465
 30
0.0
 10
6.4177412439
 20
8.7149182231
 30
0.0
 10
6.4647386989
 20
8.7068049486
 30
0.0
 10
6.5121766145
 20
8.7032388667
 30
0.0
 10
6.5597056515
 20
8.7045807578
 30
0.0
 10
6.6069440707
 20
8.7106389475
 30
0.0
 10
6.653580053
 20
8.7211188442
 30
0.0
 10
6.6993597276
 20
8.7356031975
 30
0.0
 10
6.729164486
 20
8.7475001443
 30
0.0
 10
6.7438993295
 20
8.753926545
 30
0.0
  0
SPLINE
  5
4F1
100
AcDbEntity
  8
0
100
AcDbSpline
 62
7
  6
CONTINUOUS
 70
0
 71
3
 72
13
 73
9
 74
0
 42
0.0000001
 43
0.0000001
 44
0.0000000001
 40
0.0
 40
0.0
 40
0.0
 40
0.0
 40
0.2512257716
 40
0.3758449971
 40
0.5
 40
0.6241550029
 40
0.7487742285
 40
1.0
 40
1.0
 40
1.0
 40
1.0
 10
6.9273112862
 20
8.753926545
 30
0.0
 10
6.9622833369
 20
8.7386739628
 30
0.0
 10
7.0165538637
 20
8.7196577772
 30
0.0
 10
7.091435987
 20
8.7062676205
 30
0.0
 10
7.1481053078
 20
8.7027582007
 30
0.0
 10
7.2047746285
 20
8.7062676208
 30
0.0
 10
7.2796567518
 20
8.7196577776
 30
0.0
 10
7.3339272787
 20
8.7386739628
 30
0.0
 10
7.3688993295
 20
8.753926545
 30
0.0
  0
SPLINE
  5
4F2
100
AcDbEntity
  8
0
100
AcDbSpline
 62
9
  6
CONTINUOUS
 70
0
 71
3
 72
11
 73
7
 74
0
 42
0.0000001
 43
0.0000001
 44
0.0000000001
 40
0.0
 40
0.0
 40
0.0
 40
0.0
 40
0.2437656902
 40
0.4858288787
 40
0.7347736039
 40
1.0
 40
1.0
 40
1.0
 40
1.0
 10
6.5512016383
 20
10.075232877
 30
0.0
 10
6.5614983787
 20
10.0752268824
 30
0.0
 10
6.5820865754
 20
10.0732829706
 30
0.0
 10
6.6119376086
 20
10.0639943496
 30
0.0
 10
6.639947855
 20
10.0481728281
 30
0.0
 10
6.656460694
 20
10.0338340141
 30
0.0
 10
6.6642694901
 20
10.0258006151
 30
0.0
  0
SPLINE
  5
4F3
100
AcDbEntity
  8
0
100
AcDbSpline
 62
9
  6
CONTINUOUS
 70
0
 71
3
 72
11
 73
7
 74
0
 42
0.0000001
 43
0.0000001
 44
0.0000000001
 40
0.0
 40
0.0
 40
0.0
 40
0.0
 40
0.2652362358
 40
0.5141836523
 40
0.7562580996
 40
1.0
 40
1.0
 40
1.0
 40
1.0
 10
6.6642942172
 20
9.3423329854
 30
0.0
 10
6.6564846811
 20
9.3342953172
 30
0.0
 10
6.6399687958
 20
9.3199494555
 30
0.0
 10
6.6119514764
 20
9.3041203442
 30
0.0
 10
6.5820945547
 20
9.2948225103
 30
0.0
 10
6.5615002808
 20
9.2928783421
 30
0.0
 10
6.5512016383
 20
9.2928758755
 30
0.0
  0
SPLINE
  5
4F4
100
AcDbEntity
  8
0
100
AcDbSpline
 62
9
  6
CONTINUOUS
 70
0
 71
3
 72
51
 73
47
 74
0
 42
0.0000001
 43
0.0000001
 44
0.0000000001
 40
0.0
 40
0.0
 40
0.0
 40
0.0
 40
0.0216479103
 40
0.0444289371
 40
0.0685134456
 40
0.0940570707
 40
0.1211291145
 40
0.1497292596
 40
0.179814266
 40
0.211308453
 40
0.2441138532
 40
0.278117806
 40
0.3131950838
 40
0.3492050741
 40
0.3675211096
 40
0.3860288791
 40
0.4047047937
 40
0.423535359
 40
0.4425005626
 40
0.4520245006
 40
0.4615793652
 40
0.4711582526
 40
0.480772296
 40
0.4904184923
 40
0.5000636581
 40
0.5096937928
 40
0.5193206156
 40
0.5385056482
 40
0.557566639
 40
0.5765250259
 40
0.5953486847
 40
0.6140225041
 40
0.6325240924
 40
0.6508374946
 40
0.6868467779
 40
0.7219206237
 40
0.755920078
 40
0.7887212643
 40
0.8202123674
 40
0.850293577
 40
0.8788896209
 40
0.9059578348
 40
0.931497927
 40
0.9555754286
 40
0.9783464768
 40
1.0
 40
1.0
 40
1.0
 40
1.0
 10
6.5512016383
 20
10.075232877
 30
0.0
 10
6.5422988812
 20
10.0751807729
 30
0.0
 10
6.5240162464
 20
10.0737602953
 30
0.0
 10
6.4963740778
 20
10.0679514016
 30
0.0
 10
6.468106489
 20
10.0583960401
 30
0.0
 10
6.4393081227
 20
10.0454301626
 30
0.0
 10
6.4100075962
 20
10.0293347424
 30
0.0
 10
6.3802910774
 20
10.010298136
 30
0.0
 10
6.3502477971
 20
9.9885235974
 30
0.0
 10
6.3199587649
 20
9.9642266785
 30
0.0
 10
6.2895313387
 20
9.93758986
 30
0.0
 10
6.2591004919
 20
9.9087701451
 30
0.0
 10
6.2288448687
 20
9.8778932942
 30
0.0
 10
6.2041663542
 20
9.8506203777
 30
0.0
 10
6.1848748524
 20
9.8277026858
 30
0.0
 10
6.1706468087
 20
9.8098507172
 30
0.0
 10
6.1569466972
 20
9.791322175
 30
0.0
 10
6.1440258037
 20
9.7720133163
 30
0.0
 10
6.1341906387
 20
9.7551954974
 30
0.0
 10
6.1272561105
 20
9.7411631578
 30
0.0
 10
6.1226101146
 20
9.730324111
 30
0.0
 10
6.1187012883
 20
9.7191538799
 30
0.0
 10
6.1157427877
 20
9.7076513646
 30
0.0
 10
6.1138850001
 20
9.6958909927
 30
0.0
 10
6.1132052373
 20
9.6839941756
 30
0.0
 10
6.1138428496
 20
9.6720996737
 30
0.0
 10
6.116390427
 20
9.6564710918
 30
0.0
 10
6.1222602566
 20
9.6375759067
 30
0.0
 10
6.1322602786
 20
9.6162326796
 30
0.0
 10
6.1440628997
 20
9.5960293271
 30
0.0
 10
6.1569870629
 20
9.5767281438
 30
0.0
 10
6.1707019802
 20
9.5582192224
 30
0.0
 10
6.1849085548
 20
9.5403559967
 30
0.0
 10
6.2042022889
 20
9.5174448974
 30
0.0
 10
6.2288867949
 20
9.490181597
 30
0.0
 10
6.2591324371
 20
9.4592999027
 30
0.0
 10
6.2895671192
 20
9.430491255
 30
0.0
 10
6.3199930547
 20
9.403860402
 30
0.0
 10
6.3502762888
 20
9.3795634739
 30
0.0
 10
6.3803176916
 20
9.3577940058
 30
0.0
 10
6.410028924
 20
9.3387582861
 30
0.0
 10
6.4393273191
 20
9.3226678641
 30
0.0
 10
6.4681268427
 20
9.3097194539
 30
0.0
 10
6.4963804401
 20
9.3001536397
 30
0.0
 10
6.5240118648
 20
9.2943134673
 30
0.0
 10
6.542296482
 20
9.292909003
 30
0.0
 10
6.5512016383
 20
9.2928758755
 30
0.0
  0
SPLINE
  5
4F5
100
AcDbEntity
  8
0
100
AcDbSpline
 62
9
  6
CONTINUOUS
 70
0
 71
3
 72
41
 73
37
 74
0
 42
0.0000001
 43
0.0000001
 44
0.0000000001
 40
0.0
 40
0.0
 40
0.0
 40
0.0
 40
0.0490068644
 40
0.0751481468
 40
0.1024665214
 40
0.1606429277
 40
0.2233427417
 40
0.2562107609
 40
0.2899535641
 40
0.3244507488
 40
0.3595441567
 40
0.3950537824
 40
0.4128824609
 40
0.4306938189
 40
0.4484171564
 40
0.4659368961
 40
0.4746321706
 40
0.483226663
 40
0.5000004208
 40
0.5167741282
 40
0.5253685771
 40
0.5340638151
 40
0.5515835374
 40
0.5693068622
 40
0.5871181014
 40
0.6049466668
 40
0.6404564536
 40
0.6755499166
 40
0.7100469548
 40
0.7437895865
 40
0.7766575642
 40
0.8393577954
 40
0.8975345813
 40
0.9248532192
 40
0.9509946134
 40
1.0
 40
1.0
 40
1.0
 40
1.0
 10
6.6239848929
 20
9.3440545804
 30
0.0
 10
6.6034772824
 20
9.3440553191
 30
0.0
 10
6.5719704094
 20
9.34795553
 30
0.0
 10
6.5304761219
 20
9.358820992
 30
0.0
 10
6.4862985161
 20
9.3741586645
 30
0.0
 10
6.4299625493
 20
9.4004469896
 30
0.0
 10
6.3745626854
 20
9.4333103067
 30
0.0
 10
6.3296834737
 20
9.4635590302
 30
0.0
 10
6.2954813031
 20
9.4884814529
 30
0.0
 10
6.2614244714
 20
9.5151420831
 30
0.0
 10
6.227869726
 20
9.5435899823
 30
0.0
 10
6.2007055547
 20
9.5687507423
 30
0.0
 10
6.1799171368
 20
9.5900761199
 30
0.0
 10
6.1650663833
 20
9.6067642199
 30
0.0
 10
6.1512604736
 20
9.6241751149
 30
0.0
 10
6.1414114475
 20
9.6397749018
 30
0.0
 10
6.1351740789
 20
9.6529633431
 30
0.0
 10
6.130351171
 20
9.6663869307
 30
0.0
 10
6.1273527824
 20
9.6840549264
 30
0.0
 10
6.1303511994
 20
9.7017229079
 30
0.0
 10
6.1351742059
 20
9.7151464048
 30
0.0
 10
6.1414117401
 20
9.7283347259
 30
0.0
 10
6.1512611085
 20
9.7439342678
 30
0.0
 10
6.1650672251
 20
9.7613449027
 30
0.0
 10
6.1799177375
 20
9.7780330719
 30
0.0
 10
6.2007058777
 20
9.7993586881
 30
0.0
 10
6.2278704601
 20
9.8245190819
 30
0.0
 10
6.2614251927
 20
9.8529670213
 30
0.0
 10
6.2954817932
 20
9.8796277727
 30
0.0
 10
6.3296838497
 20
9.9045501008
 30
0.0
 10
6.3745632205
 20
9.934798741
 30
0.0
 10
6.4299633574
 20
9.9676622059
 30
0.0
 10
6.4862997595
 20
9.9939506785
 30
0.0
 10
6.5304777636
 20
10.0092881817
 30
0.0
 10
6.5719716508
 20
10.0201533089
 30
0.0
 10
6.603477934
 20
10.0240535845
 30
0.0
 10
6.6239849261
 20
10.0240542486
 30
0.0
  0
SPLINE
  5
4F6
100
AcDbEntity
  8
0
100
AcDbSpline
 62
7
  6
CONTINUOUS
 70
0
 71
3
 72
10
 73
6
 74
0
 42
0.0000001
 43
0.0000001
 44
0.0000000001
 40
0.0
 40
0.0
 40
0.0
 40
0.0
 40
0.2970762418
 40
0.6275802637
 40
1.0
 40
1.0
 40
1.0
 40
1.0
 10
7.7980318028
 20
9.2548513552
 30
0.0
 10
7.7946578923
 20
9.2559697401
 30
0.0
 10
7.7874935485
 20
9.2582239557
 30
0.0
 10
7.775932732
 20
9.261324681
 30
0.0
 10
7.7677176486
 20
9.2631315111
 30
0.0
 10
7.7633767026
 20
9.2641371461
 30
0.0
  0
SPLINE
  5
4F7
100
AcDbEntity
  8
0
100
AcDbSpline
 62
7
  6
CONTINUOUS
 70
0
 71
3
 72
10
 73
6
 74
0
 42
0.0000001
 43
0.0000001
 44
0.0000000001
 40
0.0
 40
0.0
 40
0.0
 40
0.0
 40
0.3723649996
 40
0.7028990944
 40
1.0
 40
1.0
 40
1.0
 40
1.0
 10
7.7633767445
 20
10.103971553
 30
0.0
 10
7.7677170489
 20
10.1049770395
 30
0.0
 10
7.7759318247
 20
10.1067838586
 30
0.0
 10
7.7874926421
 20
10.1098845402
 30
0.0
 10
7.7946576149
 20
10.1121389204
 30
0.0
 10
7.7980318028
 20
10.1132573973
 30
0.0
  0
SPLINE
  5
4F8
100
AcDbEntity
  8
0
100
AcDbSpline
 62
7
  6
CONTINUOUS
 70
0
 71
3
 72
12
 73
8
 74
0
 42
0.0000001
 43
0.0000001
 44
0.0000000001
 40
0.0
 40
0.0
 40
0.0
 40
0.0
 40
0.3111981533
 40
0.5901087945
 40
0.823918468
 40
0.9198062273
 40
1.0
 40
1.0
 40
1.0
 40
1.0
 10
7.7633810308
 20
9.2641426551
 30
0.0
 10
7.7601338741
 20
9.2648945507
 30
0.0
 10
7.7539873218
 20
9.2663713761
 30
0.0
 10
7.7454742271
 20
9.268695373
 30
0.0
 10
7.7392744968
 20
9.2707407293
 30
0.0
 10
7.7352426658
 20
9.2724839449
 30
0.0
 10
7.7335790852
 20
9.2733835676
 30
0.0
 10
7.7328582245
 20
9.2738505672
 30
0.0
  0
SPLINE
  5
4F9
100
AcDbEntity
  8
0
100
AcDbSpline
 62
7
  6
CONTINUOUS
 70
0
 71
3
 72
12
 73
8
 74
0
 42
0.0000001
 43
0.0000001
 44
0.0000000001
 40
0.0
 40
0.0
 40
0.0
 40
0.0
 40
0.0757662961
 40
0.1686209518
 40
0.4007247719
 40
0.6826955013
 40
1.0
 40
1.0
 40
1.0
 40
1.0
 10
7.7321267928
 20
10.0937507367
 30
0.0
 10
7.7327946549
 20
10.0942501245
 30
0.0
 10
7.7343950019
 20
10.0952066298
 30
0.0
 10
7.7384034338
 20
10.0970539363
 30
0.0
 10
7.7447438377
 20
10.0992012278
 30
0.0
 10
7.7535641081
 20
10.1016352068
 30
0.0
 10
7.759978632
 20
10.103178273
 30
0.0
 10
7.7633810308
 20
10.1039660974
 30
0.0
  0
SPLINE
  5
4FA
100
AcDbEntity
  8
0
100
AcDbSpline
 62
9
  6
CONTINUOUS
 70
0
 71
3
 72
9
 73
5
 74
0
 42
0.0000001
 43
0.0000001
 44
0.0000000001
 40
0.0
 40
0.0
 40
0.0
 40
0.0
 40
0.5310437033
 40
1.0
 40
1.0
 40
1.0
 40
1.0
 10
7.6662156146
 20
10.2240935594
 30
0.0
 10
7.6661475428
 20
10.2131025066
 30
0.0
 10
7.6662961968
 20
10.1924034371
 30
0.0
 10
7.6670089891
 20
10.171712958
 30
0.0
 10
7.6675746725
 20
10.1620232451
 30
0.0
  0
SPLINE
  5
4FB
100
AcDbEntity
  8
0
100
AcDbSpline
 62
9
  6
CONTINUOUS
 70
0
 71
3
 72
14
 73
10
 74
0
 42
0.0000001
 43
0.0000001
 44
0.0000000001
 40
0.0
 40
0.0
 40
0.0
 40
0.0
 40
0.3832147777
 40
0.544819657
 40
0.6842418786
 40
0.800041473
 40
0.891450155
 40
0.9580322521
 40
1.0
 40
1.0
 40
1.0
 40
1.0
 10
7.6675746725
 20
10.1620232451
 30
0.0
 10
7.6678017848
 20
10.1581329899
 30
0.0
 10
7.6681792771
 20
10.1526044774
 30
0.0
 10
7.6688342544
 20
10.145677329
 30
0.0
 10
7.6693255063
 20
10.1414660234
 30
0.0
 10
7.6698419888
 20
10.1379804822
 30
0.0
 10
7.6703700022
 20
10.1352402301
 30
0.0
 10
7.6709057199
 20
10.1332876072
 30
0.0
 10
7.6713336503
 20
10.1322449718
 30
0.0
 10
7.6715973069
 20
10.1319093905
 30
0.0
  0
SPLINE
  5
4FC
100
AcDbEntity
  8
0
100
AcDbSpline
 62
9
  6
CONTINUOUS
 70
0
 71
3
 72
9
 73
5
 74
0
 42
0.0000001
 43
0.0000001
 44
0.0000000001
 40
0.0
 40
0.0
 40
0.0
 40
0.0
 40
0.257757369
 40
1.0
 40
1.0
 40
1.0
 40
1.0
 10
7.666338997
 20
10.2440151931
 30
0.0
 10
7.6635891206
 20
10.2440151931
 30
0.0
 10
7.6529207783
 20
10.2439674277
 30
0.0
 10
7.6422526695
 20
10.2437417179
 30
0.0
 10
7.6343397146
 20
10.2434429784
 30
0.0
  0
SPLINE
  5
4FD
100
AcDbEntity
  8
0
100
AcDbSpline
 62
9
  6
CONTINUOUS
 70
0
 71
3
 72
16
 73
12
 74
0
 42
0.0000001
 43
0.0000001
 44
0.0000000001
 40
0.0
 40
0.0
 40
0.0
 40
0.0
 40
0.4032700438
 40
0.5727450702
 40
0.7165066104
 40
0.8321933403
 40
0.8788568405
 40
0.9177723151
 40
0.9489264114
 40
0.9725318532
 40
1.0
 40
1.0
 40
1.0
 40
1.0
 10
7.6343397146
 20
10.2434429784
 30
0.0
 10
7.6278818791
 20
10.2431991743
 30
0.0
 10
7.6187126054
 20
10.242732376
 30
0.0
 10
7.6072701837
 20
10.2417687874
 30
0.0
 10
7.6004388899
 20
10.2409926388
 30
0.0
 10
7.5955895683
 20
10.24024783
 30
0.0
 10
7.5924289944
 20
10.2395835837
 30
0.0
 10
7.5906248598
 20
10.2391148284
 30
0.0
 10
7.5891835005
 20
10.2386191784
 30
0.0
 10
7.5880385025
 20
10.238093854
 30
0.0
 10
7.5872579754
 20
10.237464486
 30
0.0
 10
7.5872503614
 20
10.2370243725
 30
0.0
  0
SPLINE
  5
4FE
100
AcDbEntity
  8
0
100
AcDbSpline
 62
9
  6
CONTINUOUS
 70
0
 71
3
 72
14
 73
10
 74
0
 42
0.0000001
 43
0.0000001
 44
0.0000000001
 40
0.0
 40
0.0
 40
0.0
 40
0.0
 40
0.0414055373
 40
0.106644558
 40
0.1968450734
 40
0.3119015597
 40
0.4512065084
 40
0.6133944202
 40
1.0
 40
1.0
 40
1.0
 40
1.0
 10
7.8268674922
 20
10.2364979677
 30
0.0
 10
7.8266140884
 20
10.2368204994
 30
0.0
 10
7.825677213
 20
10.2373884445
 30
0.0
 10
7.8238646108
 20
10.238073631
 30
0.0
 10
7.82126551
 20
10.2387655446
 30
0.0
 10
7.8179217819
 20
10.2394430631
 30
0.0
 10
7.8138455596
 20
10.240096473
 30
0.0
 10
7.8070863054
 20
10.240978775
 30
0.0
 10
7.8016726929
 20
10.2414971169
 30
0.0
 10
7.7978559935
 20
10.2418134488
 30
0.0
  0
SPLINE
  5
4FF
100
AcDbEntity
  8
0
100
AcDbSpline
 62
9
  6
CONTINUOUS
 70
0
 71
3
 72
9
 73
5
 74
0
 42
0.0000001
 43
0.0000001
 44
0.0000000001
 40
0.0
 40
0.0
 40
0.0
 40
0.0
 40
0.4670527075
 40
1.0
 40
1.0
 40
1.0
 40
1.0
 10
7.7978559935
 20
10.2418134488
 30
0.0
 10
7.7882771151
 20
10.2426073559
 30
0.0
 10
7.7677162009
 20
10.2436690045
 30
0.0
 10
7.7471362817
 20
10.2440151931
 30
0.0
 10
7.7361684805
 20
10.2440151931
 30
0.0
  0
SPLINE
  5
500
100
AcDbEntity
  8
0
100
AcDbSpline
 62
9
  6
CONTINUOUS
 70
0
 71
3
 72
18
 73
14
 74
0
 42
0.0000001
 43
0.0000001
 44
0.0000000001
 40
0.0
 40
0.0
 40
0.0
 40
0.0
 40
0.1973707156
 40
0.3856028356
 40
0.5571497882
 40
0.7063212764
 40
0.8282305686
 40
0.9190593206
 40
0.9518527598
 40
0.9759222218
 40
0.9847508423
 40
0.9915420409
 40
1.0
 40
1.0
 40
1.0
 40
1.0
 10
7.7361684805
 20
10.2440151931
 30
0.0
 10
7.7362003362
 20
10.2491586889
 30
0.0
 10
7.7363279295
 20
10.2592072362
 30
0.0
 10
7.736706751
 20
10.2737224716
 30
0.0
 10
7.7372642053
 20
10.2869748247
 30
0.0
 10
7.7379687916
 20
10.298489718
 30
0.0
 10
7.7388039852
 20
10.3078850154
 30
0.0
 10
7.7396120311
 20
10.3142364688
 30
0.0
 10
7.7403689115
 20
10.3180144102
 30
0.0
 10
7.7408193533
 20
10.3196645354
 30
0.0
 10
7.7412222706
 20
10.3206287604
 30
0.0
 10
7.7415170153
 20
10.3211615401
 30
0.0
 10
7.7418541522
 20
10.321489527
 30
0.0
 10
7.7420745483
 20
10.3214927268
 30
0.0
  0
SPLINE
  5
501
100
AcDbEntity
  8
0
100
AcDbSpline
 62
9
  6
CONTINUOUS
 70
0
 71
3
 72
9
 73
5
 74
0
 42
0.0000001
 43
0.0000001
 44
0.0000000001
 40
0.0
 40
0.0
 40
0.0
 40
0.0
 40
0.4401367119
 40
1.0
 40
1.0
 40
1.0
 40
1.0
 10
7.7065140514
 20
10.08746746
 30
0.0
 10
7.7069425881
 20
10.0869220198
 30
0.0
 10
7.7077672581
 20
10.085568063
 30
0.0
 10
7.7084167526
 20
10.0841304799
 30
0.0
 10
7.708750906
 20
10.0833138658
 30
0.0
  0
SPLINE
  5
502
100
AcDbEntity
  8
0
100
AcDbSpline
 62
9
  6
CONTINUOUS
 70
0
 71
3
 72
9
 73
5
 74
0
 42
0.0000001
 43
0.0000001
 44
0.0000000001
 40
0.0
 40
0.0
 40
0.0
 40
0.0
 40
0.5598632881
 40
1.0
 40
1.0
 40
1.0
 40
1.0
 10
7.708750906
 20
9.2847948867
 30
0.0
 10
7.7084167526
 20
9.2839782726
 30
0.0
 10
7.7077672581
 20
9.2825406895
 30
0.0
 10
7.7069425881
 20
9.2811867327
 30
0.0
 10
7.7065140514
 20
9.2806412925
 30
0.0
  0
SPLINE
  5
503
100
AcDbEntity
  8
0
100
AcDbSpline
 62
9
  6
CONTINUOUS
 70
0
 71
3
 72
13
 73
9
 74
0
 42
0.0000001
 43
0.0000001
 44
0.0000000001
 40
0.0
 40
0.0
 40
0.0
 40
0.0
 40
0.0589685357
 40
0.1361516395
 40
0.2322797118
 40
0.3476037171
 40
0.6358670659
 40
1.0
 40
1.0
 40
1.0
 40
1.0
 10
7.8617842367
 20
10.1920560373
 30
0.0
 10
7.8624174157
 20
10.1912501288
 30
0.0
 10
7.8636213816
 20
10.1891927968
 30
0.0
 10
7.8651977714
 20
10.1854731633
 30
0.0
 10
7.866773178
 20
10.1807051002
 30
0.0
 10
7.8690321531
 20
10.1723162389
 30
0.0
 10
7.8716892178
 20
10.1592292418
 30
0.0
 10
7.8734411621
 20
10.1480249602
 30
0.0
 10
7.8743303225
 20
10.1417589848
 30
0.0
  0
SPLINE
  5
504
100
AcDbEntity
  8
0
100
AcDbSpline
 62
9
  6
CONTINUOUS
 70
0
 71
3
 72
9
 73
5
 74
0
 42
0.0000001
 43
0.0000001
 44
0.0000000001
 40
0.0
 40
0.0
 40
0.0
 40
0.0
 40
0.4649719172
 40
1.0
 40
1.0
 40
1.0
 40
1.0
 10
7.8743303225
 20
10.1417589848
 30
0.0
 10
7.8753246641
 20
10.1347517896
 30
0.0
 10
7.8772236027
 20
10.1196475656
 30
0.0
 10
7.8787962328
 20
10.1045070308
 30
0.0
 10
7.8795729961
 20
10.0964004331
 30
0.0
  0
SPLINE
  5
505
100
AcDbEntity
  8
0
100
AcDbSpline
 62
9
  6
CONTINUOUS
 70
0
 71
3
 72
10
 73
6
 74
0
 42
0.0000001
 43
0.0000001
 44
0.0000000001
 40
0.0
 40
0.0
 40
0.0
 40
0.0
 40
0.5612223528
 40
0.7964259498
 40
1.0
 40
1.0
 40
1.0
 40
1.0
 10
7.8795722698
 20
9.2717007386
 30
0.0
 10
7.8784006106
 20
9.2594735063
 30
0.0
 10
7.8765417313
 20
9.2421372016
 30
0.0
 10
7.8735286631
 20
9.2204576077
 30
0.0
 10
7.8719576279
 20
9.2109816687
 30
0.0
 10
7.871143283
 20
9.2066011796
 30
0.0
  0
SPLINE
  5
506
100
AcDbEntity
  8
0
100
AcDbSpline
 62
9
  6
CONTINUOUS
 70
0
 71
3
 72
12
 73
8
 74
0
 42
0.0000001
 43
0.0000001
 44
0.0000000001
 40
0.0
 40
0.0
 40
0.0
 40
0.0
 40
0.3503816308
 40
0.6333973273
 40
0.8491851601
 40
0.9324325241
 40
1.0
 40
1.0
 40
1.0
 40
1.0
 10
7.871143283
 20
9.2066011796
 30
0.0
 10
7.8704572569
 20
9.2029109377
 30
0.0
 10
7.8691092288
 20
9.1962573545
 30
0.0
 10
7.8668405086
 20
9.1874460378
 30
0.0
 10
7.8648155928
 20
9.1815298176
 30
0.0
 10
7.863101715
 20
9.1779917973
 30
0.0
 10
7.8622314115
 20
9.176621878
 30
0.0
 10
7.8617842367
 20
9.1760527152
 30
0.0
  0
SPLINE
  5
507
100
AcDbEntity
  8
0
100
AcDbSpline
 62
9
  6
CONTINUOUS
 70
0
 71
3
 72
12
 73
8
 74
0
 42
0.0000001
 43
0.0000001
 44
0.0000000001
 40
0.0
 40
0.0
 40
0.0
 40
0.0
 40
0.0673721286
 40
0.1504816196
 40
0.3661685553
 40
0.6493024477
 40
1.0
 40
1.0
 40
1.0
 40
1.0
 10
7.8616608543
 20
9.195974349
 30
0.0
 10
7.8620937428
 20
9.1965253282
 30
0.0
 10
7.8629359227
 20
9.19785305
 30
0.0
 10
7.8645941429
 20
9.2012857088
 30
0.0
 10
7.8665523565
 20
9.207030863
 30
0.0
 10
7.8687459839
 20
9.2155912426
 30
0.0
 10
7.8700488531
 20
9.2220567276
 30
0.0
 10
7.8707119041
 20
9.2256433267
 30
0.0
  0
SPLINE
  5
508
100
AcDbEntity
  8
0
100
AcDbSpline
 62
9
  6
CONTINUOUS
 70
0
 71
3
 72
9
 73
5
 74
0
 42
0.0000001
 43
0.0000001
 44
0.0000000001
 40
0.0
 40
0.0
 40
0.0
 40
0.0
 40
0.4563074206
 40
1.0
 40
1.0
 40
1.0
 40
1.0
 10
7.8713818742
 20
9.2293839933
 30
0.0
 10
7.8724611537
 20
9.2355992823
 30
0.0
 10
7.8745023936
 20
9.2492761852
 30
0.0
 10
7.8761480394
 20
9.2630037495
 30
0.0
 10
7.876968373
 20
9.2704752222
 30
0.0
  0
SPLINE
  5
509
100
AcDbEntity
  8
0
100
AcDbSpline
 62
9
  6
CONTINUOUS
 70
0
 71
3
 72
9
 73
5
 74
0
 42
0.0000001
 43
0.0000001
 44
0.0000000001
 40
0.0
 40
0.0
 40
0.0
 40
0.0
 40
0.5499489002
 40
1.0
 40
1.0
 40
1.0
 40
1.0
 10
7.876968373
 20
10.0976335303
 30
0.0
 10
7.8760625854
 20
10.1058833052
 30
0.0
 10
7.874251401
 20
10.1208667875
 30
0.0
 10
7.8719465727
 20
10.1357868122
 30
0.0
 10
7.8707119041
 20
10.1424654257
 30
0.0
  0
SPLINE
  5
50A
100
AcDbEntity
  8
0
100
AcDbSpline
 62
9
  6
CONTINUOUS
 70
0
 71
3
 72
12
 73
8
 74
0
 42
0.0000001
 43
0.0000001
 44
0.0000000001
 40
0.0
 40
0.0
 40
0.0
 40
0.0
 40
0.3506975523
 40
0.6338314447
 40
0.8495183804
 40
0.9326278714
 40
1.0
 40
1.0
 40
1.0
 40
1.0
 10
7.8707119041
 20
10.1424654257
 30
0.0
 10
7.8700488531
 20
10.1460520249
 30
0.0
 10
7.8687459839
 20
10.1525175099
 30
0.0
 10
7.8665523565
 20
10.1610778895
 30
0.0
 10
7.8645941429
 20
10.1668230437
 30
0.0
 10
7.8629359227
 20
10.1702557025
 30
0.0
 10
7.8620937428
 20
10.1715834243
 30
0.0
 10
7.8616608543
 20
10.1721344035
 30
0.0
  0
SPLINE
  5
50B
100
AcDbEntity
  8
0
100
AcDbSpline
 62
9
  6
CONTINUOUS
 70
0
 71
3
 72
11
 73
7
 74
0
 42
0.0000001
 43
0.0000001
 44
0.0000000001
 40
0.0
 40
0.0
 40
0.0
 40
0.0
 40
0.2496223555
 40
0.499761144
 40
0.750039686
 40
1.0
 40
1.0
 40
1.0
 40
1.0
 10
7.8267441098
 20
10.216576334
 30
0.0
 10
7.8266758248
 20
10.205550857
 30
0.0
 10
7.8221099662
 20
10.1832665239
 30
0.0
 10
7.8030715812
 20
10.1551529875
 30
0.0
 10
7.7747999992
 20
10.1363261304
 30
0.0
 10
7.7524674063
 20
10.1319093905
 30
0.0
 10
7.7414267904
 20
10.1319093905
 30
0.0
  0
SPLINE
  5
50C
100
AcDbEntity
  8
0
100
AcDbSpline
 62
9
  6
CONTINUOUS
 70
0
 71
3
 72
18
 73
14
 74
0
 42
0.0000001
 43
0.0000001
 44
0.0000000001
 40
0.0
 40
0.0
 40
0.0
 40
0.0
 40
0.0138259625
 40
0.0357609393
 40
0.0658748499
 40
0.1040241652
 40
0.1499557794
 40
0.2031953053
 40
0.3294425643
 40
0.4781894479
 40
0.6439073505
 40
0.8204294483
 40
1.0
 40
1.0
 40
1.0
 40
1.0
 10
7.7414267904
 20
10.1319093905
 30
0.0
 10
7.7411631338
 20
10.1322449718
 30
0.0
 10
7.7407352034
 20
10.1332876072
 30
0.0
 10
7.7401994858
 20
10.1352402302
 30
0.0
 10
7.7396714718
 20
10.1379804819
 30
0.0
 10
7.7391549926
 20
10.1414660246
 30
0.0
 10
7.7386637246
 20
10.1456773228
 30
0.0
 10
7.7380088529
 20
10.1526045205
 30
0.0
 10
7.737317466
 20
10.1627142107
 30
0.0
 10
7.7366879663
 20
10.1763036973
 30
0.0
 10
7.7362473488
 20
10.1914533217
 30
0.0
 10
7.7360193926
 20
10.2075589326
 30
0.0
 10
7.73601077
 20
10.2185508546
 30
0.0
 10
7.7360450981
 20
10.2240935594
 30
0.0
  0
SPLINE
  5
50D
100
AcDbEntity
  8
0
100
AcDbSpline
 62
9
  6
CONTINUOUS
 70
0
 71
3
 72
9
 73
5
 74
0
 42
0.0000001
 43
0.0000001
 44
0.0000000001
 40
0.0
 40
0.0
 40
0.0
 40
0.0
 40
0.5329472925
 40
1.0
 40
1.0
 40
1.0
 40
1.0
 10
7.7360450981
 20
10.2240935594
 30
0.0
 10
7.7470128993
 20
10.2240935594
 30
0.0
 10
7.7675928185
 20
10.2237473707
 30
0.0
 10
7.7881537327
 20
10.2226857221
 30
0.0
 10
7.7977326111
 20
10.221891815
 30
0.0
  0
SPLINE
  5
50E
100
AcDbEntity
  8
0
100
AcDbSpline
 62
9
  6
CONTINUOUS
 70
0
 71
3
 72
14
 73
10
 74
0
 42
0.0000001
 43
0.0000001
 44
0.0000000001
 40
0.0
 40
0.0
 40
0.0
 40
0.0
 40
0.3866055798
 40
0.5487934916
 40
0.6880984403
 40
0.8031549266
 40
0.893355442
 40
0.9585944627
 40
1.0
 40
1.0
 40
1.0
 40
1.0
 10
7.7977326111
 20
10.221891815
 30
0.0
 10
7.8015493106
 20
10.2215754831
 30
0.0
 10
7.8069629231
 20
10.2210571412
 30
0.0
 10
7.8137221773
 20
10.2201748392
 30
0.0
 10
7.8177983995
 20
10.2195214293
 30
0.0
 10
7.8211421276
 20
10.2188439109
 30
0.0
 10
7.8237412284
 20
10.2181519973
 30
0.0
 10
7.8255538306
 20
10.2174668108
 30
0.0
 10
7.826490706
 20
10.2168988656
 30
0.0
 10
7.8267441098
 20
10.216576334
 30
0.0
  0
SPLINE
  5
50F
100
AcDbEntity
  8
0
100
AcDbSpline
 62
7
  6
CONTINUOUS
 70
0
 71
3
 72
11
 73
7
 74
0
 42
0.0000001
 43
0.0000001
 44
0.0000000001
 40
0.0
 40
0.0
 40
0.0
 40
0.0
 40
0.1395132277
 40
0.3407036455
 40
0.6209826388
 40
1.0
 40
1.0
 40
1.0
 40
1.0
 10
7.8444036493
 20
10.1340540665
 30
0.0
 10
7.8430850082
 20
10.1340540665
 30
0.0
 10
7.8399019022
 20
10.1332075138
 30
0.0
 10
7.8346267424
 20
10.1306581384
 30
0.0
 10
7.827523014
 20
10.1266818312
 30
0.0
 10
7.8220546012
 20
10.1236956184
 30
0.0
 10
7.8188624049
 20
10.1220698104
 30
0.0
  0
SPLINE
  5
510
100
AcDbEntity
  8
0
100
AcDbSpline
 62
7
  6
CONTINUOUS
 70
0
 71
3
 72
9
 73
5
 74
0
 42
0.0000001
 43
0.0000001
 44
0.0000000001
 40
0.0
 40
0.0
 40
0.0
 40
0.0
 40
0.2113909622
 40
1.0
 40
1.0
 40
1.0
 40
1.0
 10
7.8188624049
 20
10.1220698104
 30
0.0
 10
7.8174416007
 20
10.1213461849
 30
0.0
 10
7.8106812203
 20
10.1180027173
 30
0.0
 10
7.8036779532
 20
10.1151289851
 30
0.0
 10
7.7980318028
 20
10.1132573973
 30
0.0
  0
SPLINE
  5
511
100
AcDbEntity
  8
0
100
AcDbSpline
 62
9
  6
CONTINUOUS
 70
0
 71
3
 72
9
 73
5
 74
0
 42
0.0000001
 43
0.0000001
 44
0.0000000001
 40
0.0
 40
0.0
 40
0.0
 40
0.0
 40
0.257757369
 40
1.0
 40
1.0
 40
1.0
 40
1.0
 10
7.6662156146
 20
9.1440151931
 30
0.0
 10
7.6634657382
 20
9.1440151931
 30
0.0
 10
7.6527973959
 20
9.1440629586
 30
0.0
 10
7.6421292871
 20
9.1442886683
 30
0.0
 10
7.6342163323
 20
9.1445874078
 30
0.0
  0
SPLINE
  5
512
100
AcDbEntity
  8
0
100
AcDbSpline
 62
9
  6
CONTINUOUS
 70
0
 71
3
 72
12
 73
8
 74
0
 42
0.0000001
 43
0.0000001
 44
0.0000000001
 40
0.0
 40
0.0
 40
0.0
 40
0.0
 40
0.3292223441
 40
0.6120781584
 40
0.8382308927
 40
0.9275832418
 40
1.0
 40
1.0
 40
1.0
 40
1.0
 10
7.6342163323
 20
9.1445874078
 30
0.0
 10
7.6295075978
 20
9.1447651777
 30
0.0
 10
7.6207558851
 20
9.1451837774
 30
0.0
 10
7.6087906968
 20
9.1460751203
 30
0.0
 10
7.6002742286
 20
9.1470217282
 30
0.0
 10
7.5947936312
 20
9.1479163811
 30
0.0
 10
7.5925267396
 20
9.1483969851
 30
0.0
 10
7.5915230622
 20
9.1486557009
 30
0.0
  0
SPLINE
  5
513
100
AcDbEntity
  8
0
100
AcDbSpline
 62
9
  6
CONTINUOUS
 70
0
 71
3
 72
12
 73
8
 74
0
 42
0.0000001
 43
0.0000001
 44
0.0000000001
 40
0.0
 40
0.0
 40
0.0
 40
0.0
 40
0.3849315481
 40
0.6732215353
 40
0.7828494013
 40
0.8714204012
 40
1.0
 40
1.0
 40
1.0
 40
1.0
 10
7.5915230622
 20
9.1486557009
 30
0.0
 10
7.5908803066
 20
9.1488213827
 30
0.0
 10
7.5897643281
 20
9.1491443062
 30
0.0
 10
7.5885051552
 20
9.149642941
 30
0.0
 10
7.5877813257
 20
9.1500766608
 30
0.0
 10
7.5873466352
 20
9.1504273278
 30
0.0
 10
7.5871308142
 20
9.1507843276
 30
0.0
 10
7.5871269791
 20
9.1510060137
 30
0.0
  0
SPLINE
  5
514
100
AcDbEntity
  8
0
100
AcDbSpline
 62
9
  6
CONTINUOUS
 70
0
 71
3
 72
14
 73
10
 74
0
 42
0.0000001
 43
0.0000001
 44
0.0000000001
 40
0.0
 40
0.0
 40
0.0
 40
0.0
 40
0.0419677479
 40
0.1085498449
 40
0.199958527
 40
0.3157581214
 40
0.455180343
 40
0.6167852223
 40
1.0
 40
1.0
 40
1.0
 40
1.0
 10
7.6715973069
 20
9.236199362
 30
0.0
 10
7.6713336503
 20
9.2358637806
 30
0.0
 10
7.6709057199
 20
9.2348211453
 30
0.0
 10
7.6703700022
 20
9.2328685224
 30
0.0
 10
7.6698419888
 20
9.2301282703
 30
0.0
 10
7.6693255063
 20
9.2266427291
 30
0.0
 10
7.6688342544
 20
9.2224314235
 30
0.0
 10
7.6681792771
 20
9.215504275
 30
0.0
 10
7.6678017848
 20
9.2099757626
 30
0.0
 10
7.6675746725
 20
9.2060855074
 30
0.0
  0
SPLINE
  5
515
100
AcDbEntity
  8
0
100
AcDbSpline
 62
9
  6
CONTINUOUS
 70
0
 71
3
 72
9
 73
5
 74
0
 42
0.0000001
 43
0.0000001
 44
0.0000000001
 40
0.0
 40
0.0
 40
0.0
 40
0.0
 40
0.4689562967
 40
1.0
 40
1.0
 40
1.0
 40
1.0
 10
7.6675746725
 20
9.2060855074
 30
0.0
 10
7.6670089891
 20
9.1963957945
 30
0.0
 10
7.6662961968
 20
9.1757053154
 30
0.0
 10
7.6661475428
 20
9.1550062459
 30
0.0
 10
7.6662156146
 20
9.1440151931
 30
0.0
  0
SPLINE
  5
516
100
AcDbEntity
  8
0
100
AcDbSpline
 62
9
  6
CONTINUOUS
 70
0
 71
3
 72
18
 73
14
 74
0
 42
0.0000001
 43
0.0000001
 44
0.0000000001
 40
0.0
 40
0.0
 40
0.0
 40
0.0
 40
0.1973707156
 40
0.3856028356
 40
0.5571497882
 40
0.7063212764
 40
0.8282305686
 40
0.9190593206
 40
0.9518527598
 40
0.9759222218
 40
0.9847508423
 40
0.9915420409
 40
1.0
 40
1.0
 40
1.0
 40
1.0
 10
7.666338997
 20
9.1240935594
 30
0.0
 10
7.6663708526
 20
9.1189500636
 30
0.0
 10
7.666498446
 20
9.1089015163
 30
0.0
 10
7.6668772674
 20
9.0943862809
 30
0.0
 10
7.6674347218
 20
9.0811339278
 30
0.0
 10
7.668139308
 20
9.0696190345
 30
0.0
 10
7.6689745017
 20
9.0602237371
 30
0.0
 10
7.6697825476
 20
9.0538722837
 30
0.0
 10
7.670539428
 20
9.0500943423
 30
0.0
 10
7.6709898698
 20
9.0484442171
 30
0.0
 10
7.6713927871
 20
9.0474799921
 30
0.0
 10
7.6716875318
 20
9.0469472124
 30
0.0
 10
7.6720246687
 20
9.0466192255
 30
0.0
 10
7.6722450648
 20
9.0466160257
 30
0.0
  0
SPLINE
  5
517
100
AcDbEntity
  8
0
100
AcDbSpline
 62
9
  6
CONTINUOUS
 70
0
 71
3
 72
9
 73
5
 74
0
 42
0.0000001
 43
0.0000001
 44
0.0000000001
 40
0.0
 40
0.0
 40
0.0
 40
0.0
 40
0.5329472925
 40
1.0
 40
1.0
 40
1.0
 40
1.0
 10
7.7361684805
 20
9.1240935594
 30
0.0
 10
7.7471362817
 20
9.1240935594
 30
0.0
 10
7.7677162009
 20
9.124439748
 30
0.0
 10
7.7882771151
 20
9.1255013966
 30
0.0
 10
7.7978559935
 20
9.1262953037
 30
0.0
  0
SPLINE
  5
518
100
AcDbEntity
  8
0
100
AcDbSpline
 62
9
  6
CONTINUOUS
 70
0
 71
3
 72
14
 73
10
 74
0
 42
0.0000001
 43
0.0000001
 44
0.0000000001
 40
0.0
 40
0.0
 40
0.0
 40
0.0
 40
0.3866055798
 40
0.5487934916
 40
0.6880984403
 40
0.8031549266
 40
0.893355442
 40
0.9585944627
 40
1.0
 40
1.0
 40
1.0
 40
1.0
 10
7.7978559935
 20
9.1262953037
 30
0.0
 10
7.8016726929
 20
9.1266116356
 30
0.0
 10
7.8070863054
 20
9.1271299775
 30
0.0
 10
7.8138455596
 20
9.1280122795
 30
0.0
 10
7.8179217819
 20
9.1286656894
 30
0.0
 10
7.82126551
 20
9.1293432078
 30
0.0
 10
7.8238646108
 20
9.1300351215
 30
0.0
 10
7.825677213
 20
9.1307203079
 30
0.0
 10
7.8266140884
 20
9.1312882531
 30
0.0
 10
7.8268674922
 20
9.1316107847
 30
0.0
  0
SPLINE
  5
519
100
AcDbEntity
  8
0
100
AcDbSpline
 62
7
  6
CONTINUOUS
 70
0
 71
3
 72
11
 73
7
 74
0
 42
0.0000001
 43
0.0000001
 44
0.0000000001
 40
0.0
 40
0.0
 40
0.0
 40
0.0
 40
0.3794759874
 40
0.6565646972
 40
0.8578941242
 40
1.0
 40
1.0
 40
1.0
 40
1.0
 10
7.7980318028
 20
9.2548513552
 30
0.0
 10
7.8035878158
 20
9.2530096461
 30
0.0
 10
7.8129918998
 20
9.2491651921
 30
0.0
 10
7.8247179843
 20
9.2430151228
 30
0.0
 10
7.8330424922
 20
9.2383071346
 30
0.0
 10
7.8377733809
 20
9.2358868065
 30
0.0
 10
7.8398193337
 20
9.2351002428
 30
0.0
  0
SPLINE
  5
51A
100
AcDbEntity
  8
0
100
AcDbSpline
 62
7
  6
CONTINUOUS
 70
0
 71
3
 72
9
 73
5
 74
0
 42
0.0000001
 43
0.0000001
 44
0.0000000001
 40
0.0
 40
0.0
 40
0.0
 40
0.0
 40
0.553164364
 40
1.0
 40
1.0
 40
1.0
 40
1.0
 10
7.8398193337
 20
9.2351002428
 30
0.0
 10
7.8406318311
 20
9.2347878793
 30
0.0
 10
7.8421283129
 20
9.2342896383
 30
0.0
 10
7.8437004979
 20
9.234054686
 30
0.0
 10
7.8444036493
 20
9.234054686
 30
0.0
  0
SPLINE
  5
51B
100
AcDbEntity
  8
0
100
AcDbSpline
 62
9
  6
CONTINUOUS
 70
0
 71
3
 72
11
 73
7
 74
0
 42
0.0000001
 43
0.0000001
 44
0.0000000001
 40
0.0
 40
0.0
 40
0.0
 40
0.0
 40
0.249960314
 40
0.500238856
 40
0.7503776445
 40
1.0
 40
1.0
 40
1.0
 40
1.0
 10
7.7414267904
 20
9.236199362
 30
0.0
 10
7.7524674063
 20
9.236199362
 30
0.0
 10
7.7747999992
 20
9.2317826221
 30
0.0
 10
7.8030715812
 20
9.212955765
 30
0.0
 10
7.8221099662
 20
9.1848422286
 30
0.0
 10
7.8266758248
 20
9.1625578955
 30
0.0
 10
7.8267441098
 20
9.1515324185
 30
0.0
  0
SPLINE
  5
51C
100
AcDbEntity
  8
0
100
AcDbSpline
 62
9
  6
CONTINUOUS
 70
0
 71
3
 72
14
 73
10
 74
0
 42
0.0000001
 43
0.0000001
 44
0.0000000001
 40
0.0
 40
0.0
 40
0.0
 40
0.0
 40
0.0414055373
 40
0.106644558
 40
0.1968450734
 40
0.3119015597
 40
0.4512065084
 40
0.6133944202
 40
1.0
 40
1.0
 40
1.0
 40
1.0
 10
7.8267441098
 20
9.1515324185
 30
0.0
 10
7.826490706
 20
9.1512098869
 30
0.0
 10
7.8255538306
 20
9.1506419417
 30
0.0
 10
7.8237412284
 20
9.1499567552
 30
0.0
 10
7.8211421276
 20
9.1492648416
 30
0.0
 10
7.8177983995
 20
9.1485873232
 30
0.0
 10
7.8137221773
 20
9.1479339133
 30
0.0
 10
7.8069629231
 20
9.1470516112
 30
0.0
 10
7.8015493106
 20
9.1465332694
 30
0.0
 10
7.7977326111
 20
9.1462169375
 30
0.0
  0
SPLINE
  5
51D
100
AcDbEntity
  8
0
100
AcDbSpline
 62
9
  6
CONTINUOUS
 70
0
 71
3
 72
9
 73
5
 74
0
 42
0.0000001
 43
0.0000001
 44
0.0000000001
 40
0.0
 40
0.0
 40
0.0
 40
0.0
 40
0.4670527075
 40
1.0
 40
1.0
 40
1.0
 40
1.0
 10
7.7977326111
 20
9.1462169375
 30
0.0
 10
7.7881537327
 20
9.1454230304
 30
0.0
 10
7.7675928185
 20
9.1443613818
 30
0.0
 10
7.7470128993
 20
9.1440151931
 30
0.0
 10
7.7360450981
 20
9.1440151931
 30
0.0
  0
SPLINE
  5
51E
100
AcDbEntity
  8
0
100
AcDbSpline
 62
9
  6
CONTINUOUS
 70
0
 71
3
 72
18
 73
14
 74
0
 42
0.0000001
 43
0.0000001
 44
0.0000000001
 40
0.0
 40
0.0
 40
0.0
 40
0.0
 40
0.1795705517
 40
0.3560926495
 40
0.5218105521
 40
0.6705574357
 40
0.7968046947
 40
0.8500442206
 40
0.8959758348
 40
0.9341251501
 40
0.9642390607
 40
0.9861740375
 40
1.0
 40
1.0
 40
1.0
 40
1.0
 10
7.7360450981
 20
9.1440151931
 30
0.0
 10
7.73601077
 20
9.1495578979
 30
0.0
 10
7.7360193926
 20
9.1605498198
 30
0.0
 10
7.7362473488
 20
9.1766554308
 30
0.0
 10
7.7366879663
 20
9.1918050552
 30
0.0
 10
7.737317466
 20
9.2053945418
 30
0.0
 10
7.7380088529
 20
9.215504232
 30
0.0
 10
7.7386637246
 20
9.2224314297
 30
0.0
 10
7.7391549926
 20
9.2266427279
 30
0.0
 10
7.7396714718
 20
9.2301282705
 30
0.0
 10
7.7401994858
 20
9.2328685223
 30
0.0
 10
7.7407352034
 20
9.2348211453
 30
0.0
 10
7.7411631338
 20
9.2358637806
 30
0.0
 10
7.7414267904
 20
9.236199362
 30
0.0
  0
ENDSEC
  0
SECTION
  2
OBJECTS
  0
DICTIONARY
  5
C
100
AcDbDictionary
280
0
281
1
  3
ACAD_GROUP
350
D
  3
ACAD_MLINESTYLE
350
17
  3
ACAD_LAYOUT
350
1A
  3
ACAD_PLOTSETTINGS
350
19
  3
ACAD_PLOTSTYLENAME
350
E
  0
DICTIONARY
  5
D
102
{ACAD_REACTORS
330
C
102
}
100
AcDbDictionary
280
0
281
1
  0
ACDBDICTIONARYWDFLT
  5
E
102
{ACAD_REACTORS
330
C
102
}
100
AcDbDictionary
281
1
  3
Normal
350
F
100
AcDbDictionaryWithDefault
340
F
  0
DICTIONARY
  5
17
102
{ACAD_REACTORS
330
C
102
}
100
AcDbDictionary
280
0
281
1
  3
Standard
350
18
  0
DICTIONARY
  5
19
102
{ACAD_REACTORS
330
C
102
}
100
AcDbDictionary
281
1
  0
DICTIONARY
  5
1A
102
{ACAD_REACTORS
330
C
102
}
100
AcDbDictionary
281
1
  3
Model
350
51F
  3
Layout1
350
520
  0
ACDBPLACEHOLDER
  5
F
102
{ACAD_REACTORS
330
E
102
}
  0
MLINESTYLE
  5
18
102
{ACAD_REACTORS
330
17
102
}
100
AcDbMlineStyle
  2
STANDARD
 70
0
  3

 62
256
 51
90.0
 52
90.0
 71
2
 49
0.5
 62
256
  6
BYLAYER
 49
-0.5
 62
256
  6
BYLAYER
  0
LAYOUT
  5
51F
102
{ACAD_REACTORS
330
1A
102
}
100
AcDbPlotSettings
  1

  2
none_device
  4
ANSI_C_(22.00_x_17.00_Inches)
  6

 40
0.0
 41
0.0
 42
0.0
 43
0.0
 44
558.8
 45
431.8
 46
0.0
 47
0.0
 48
0.0
 49
0.0
140
0.0
141
0.0
142
1.0
143
1.0
 70
1024
 72
0
 73
0
 74
0
  7

 75
0
147
1.0
148
0.0
149
0.0
100
AcDbLayout
  1
Model
 70
0
 71
0
 10
0.0
 20
0.0
 11
22.0
 21
17.0
 12
0.0
 22
0.0
 32
0.0
 14
0.0
 24
0.0
 34
0.0
 15
0.0
 25
0.0
 35
0.0
146
0.0
 13
0.0
 23
0.0
 33
0.0
 16
1.0
 26
0.0
 36
0.0
 17
0.0
 27
1.0
 37
0.0
 76
0
330
202
345
0
346
0
  0
LAYOUT
  5
520
102
{ACAD_REACTORS
330
1A
102
}
100
AcDbPlotSettings
  1

  2
none_device
  4
ANSI_C_(22.00_x_17.00_Inches)
  6

 40
0.0
 41
0.0
 42
0.0
 43
0.0
 44
558.8
 45
431.8
 46
0.0
 47
0.0
 48
0.0
 49
0.0
140
0.0
141
0.0
142
1.0
143
1.0
 70
0
 72
0
 73
0
 74
0
  7

 75
0
147
1.0
148
0.0
149
0.0
100
AcDbLayout
  1
Layout1
 70
0
 71
1
 10
0.0
 20
0.0
 11
22.0
 21
17.0
 12
0.0
 22
0.0
 32
0.0
 14
0.0
 24
0.0
 34
0.0
 15
0.0
 25
0.0
 35
0.0
146
0.0
 13
0.0
 23
0.0
 33
0.0
 16
1.0
 26
0.0
 36
0.0
 17
0.0
 27
1.0
 37
0.0
 76
0
330
203
345
0
346
0
  0
ENDSEC
  0
EOF
