999
DXF file: E:\BT Custom\CADOUTPUT\_TOP.dxf
999
Pro/ENGINEER 2018400 by Parametric Technology Corporation
  0
SECTION
  2
HEADER
  9
$ACADVER
  1
AC1018
  9
$DWGCODEPAGE
  3
ANSI_1252
  9
$EXTMAX
 10
22.0
 20
17.0
 30
0.0
  9
$EXTMIN
 10
0.0
 20
0.0
 30
0.0
  9
$LIMMIN
 10
0.0
 20
0.0
  9
$LIMMAX
 10
22.0
 20
17.0
  9
$VIEWCTR
 10
11.0
 20
8.5
  9
$VIEWSIZE
 40
17.0
  9
$CLAYER
  8
0
  9
$LTSCALE
 40
1.21
  9
$CELTYPE
  6
BYLAYER
  9
$DIMSCALE
 40
1.0
  9
$DIMASZ
 40
0.1
  9
$DIMEXO
 40
0.0625
  9
$DIMDLI
 40
0.836
  9
$DIMEXE
 40
0.125
  9
$DIMCEN
 40
0.198
  9
$DIMLFAC
 40
1.0
  9
$DIMBLK
  1
_FILLED
  9
$DIMALT
 70
1
  9
$DIMALTD
 70
2
  9
$DIMALTTD
 70
2
  9
$DIMALTF
 40
25.4
  9
$DIMTXT
 40
0.08
  9
$DIMTOL
 70
1
  9
$DIMLIM
 70
0
  9
$DIMTFAC
 40
1.0
  9
$DIMTP
 40
0.001
  9
$DIMTM
 40
0.001
  9
$DIMGAP
 40
0.09
  9
$DIMDSEP
 70
46
  9
$AUNITS
 70
0
  9
$PDMODE
 70
3
  9
$PDSIZE
 40
0.06
  9
$HANDSEED
  5
55A
  9
$TILEMODE
 70
1
  9
$MEASUREMENT
 70
0
  9
$INSUNITS
 70
1
  0
ENDSEC
  0
SECTION
  2
CLASSES
  0
CLASS
  1
ACDBDICTIONARYWDFLT
  2
AcDbDictionaryWithDefault
  3
AutoCAD 2000
 90
0
 91
1
280
0
281
0
  0
CLASS
  1
ACDBPLACEHOLDER
  2
AcDbPlaceHolder
  3
AutoCAD 2000
 90
0
 91
1
280
0
281
0
  0
CLASS
  1
LAYOUT
  2
AcDbLayout
  3
AutoCAD 2000
 90
0
 91
0
280
0
281
0
  0
ENDSEC
  0
SECTION
  2
TABLES
  0
TABLE
  2
VPORT
  5
8
100
AcDbSymbolTable
 70
2
  0
VPORT
  5
1F4
100
AcDbSymbolTableRecord
100
AcDbViewportTableRecord
  2
*ACTIVE
 70
0
 10
0.0
 20
0.0
 11
1.0
 21
1.0
 12
11.0
 22
8.5
 13
0.0
 23
0.0
 14
1.0
 24
1.0
 15
0.0
 25
0.0
 16
0.0
 26
0.0
 36
1.0
 17
0.0
 27
0.0
 37
0.0
 40
17.0
 41
1.2941176471
 42
50.0
 43
0.0
 44
0.0
 50
0.0
 51
0.0
 71
0
 72
100
 73
1
 74
1
 75
0
 76
0
 77
0
 78
0
  0
ENDTAB
  0
TABLE
  2
LTYPE
  5
5
100
AcDbSymbolTable
 70
6
  0
LTYPE
  5
14
100
AcDbSymbolTableRecord
100
AcDbLinetypeTableRecord
  2
BYBLOCK
 70
0
  3

 72
65
 73
0
 40
0.0
  0
LTYPE
  5
15
100
AcDbSymbolTableRecord
100
AcDbLinetypeTableRecord
  2
BYLAYER
 70
0
  3

 72
65
 73
0
 40
0.0
  0
LTYPE
  5
16
100
AcDbSymbolTableRecord
100
AcDbLinetypeTableRecord
  2
CONTINUOUS
 70
64
  3
Solid line
 72
65
 73
0
 40
0.0
  0
LTYPE
  5
1F5
100
AcDbSymbolTableRecord
100
AcDbLinetypeTableRecord
  2
CENTER
 70
64
  3
____ _ ____ _ ____ _ ____ _ ____ _ ____ _ ____
 72
65
 73
4
 40
0.6
 49
0.375
 74
0
 49
-0.075
 74
0
 49
0.075
 74
0
 49
-0.075
 74
0
  0
LTYPE
  5
1F6
100
AcDbSymbolTableRecord
100
AcDbLinetypeTableRecord
  2
HIDDEN
 70
64
  3
- - - - - - - - - - - - - - - - - - - -
 72
65
 73
2
 40
0.2
 49
0.1
 74
0
 49
-0.1
 74
0
  0
LTYPE
  5
1F7
100
AcDbSymbolTableRecord
100
AcDbLinetypeTableRecord
  2
PHANTOM
 70
64
  3
_____ _ _ _____ _ _ _____ _ _ _____
 72
65
 73
6
 40
0.8
 49
0.45
 74
0
 49
-0.05
 74
0
 49
0.1
 74
0
 49
-0.05
 74
0
 49
0.1
 74
0
 49
-0.05
 74
0
  0
LTYPE
  5
1F8
100
AcDbSymbolTableRecord
100
AcDbLinetypeTableRecord
  2
DOT
 70
64
  3
. . . . . . . . . . . . . . . . . . . .
 72
65
 73
2
 40
0.2
 49
0.1
 74
0
 49
-0.1
 74
0
  0
LTYPE
  5
1F9
100
AcDbSymbolTableRecord
100
AcDbLinetypeTableRecord
  2
DASHED
 70
64
  3
- - - - - - - - - - - - - - - - - - - -
 72
65
 73
2
 40
0.2
 49
0.1
 74
0
 49
-0.1
 74
0
  0
ENDTAB
  0
TABLE
  2
LAYER
  5
2
100
AcDbSymbolTable
 70
36
  0
LAYER
  5
10
100
AcDbSymbolTableRecord
100
AcDbLayerTableRecord
  2
0
 70
0
 62
7
  6
CONTINUOUS
370
-3
390
F
  0
LAYER
  5
1FA
100
AcDbSymbolTableRecord
100
AcDbLayerTableRecord
  2
DEFAULT_1
 70
0
 62
7
  6
CENTER
370
-3
390
F
  0
LAYER
  5
1FB
100
AcDbSymbolTableRecord
100
AcDbLayerTableRecord
  2
DEFAULT_2
 70
0
 62
8
  6
HIDDEN
370
-3
390
F
  0
LAYER
  5
1FC
100
AcDbSymbolTableRecord
100
AcDbLayerTableRecord
  2
DEFAULT_3
 70
0
 62
7
  6
PHANTOM
370
-3
390
F
  0
LAYER
  5
1FD
100
AcDbSymbolTableRecord
100
AcDbLayerTableRecord
  2
ALL_FEATURES
 70
0
 62
7
  6
CONTINUOUS
370
-3
390
F
  0
LAYER
  5
1FE
100
AcDbSymbolTableRecord
100
AcDbLayerTableRecord
  2
AXES_FEATURES
 70
0
 62
7
  6
CONTINUOUS
370
-3
390
F
  0
LAYER
  5
1FF
100
AcDbSymbolTableRecord
100
AcDbLayerTableRecord
  2
DIMENSIONS
 70
0
 62
7
  6
CONTINUOUS
370
-3
390
F
  0
ENDTAB
  0
TABLE
  2
STYLE
  5
3
100
AcDbSymbolTable
 70
1
  0
STYLE
  5
11
100
AcDbSymbolTableRecord
100
AcDbTextStyleTableRecord
  2
STANDARD
 70
0
 40
0.0
 41
0.8
 50
0.0
 71
0
 42
0.2
  3
txt
  4

  0
STYLE
  5
200
100
AcDbSymbolTableRecord
100
AcDbTextStyleTableRecord
  2
TEXTSTYLE_1
 70
0
 40
0.0
 41
0.8
 50
0.0
 71
0
 42
0.2
  3
gdt
  4

  0
ENDTAB
  0
TABLE
  2
VIEW
  5
6
100
AcDbSymbolTable
 70
0
  0
ENDTAB
  0
TABLE
  2
UCS
  5
7
100
AcDbSymbolTable
 70
0
  0
ENDTAB
  0
TABLE
  2
APPID
  5
9
100
AcDbSymbolTable
 70
1
  0
APPID
  5
201
100
AcDbSymbolTableRecord
100
AcDbRegAppTableRecord
  2
ACAD
 70
0
  0
ENDTAB
  0
TABLE
  2
BLOCK_RECORD
  5
1
100
AcDbSymbolTable
 70
0
  0
BLOCK_RECORD
  5
202
100
AcDbSymbolTableRecord
100
AcDbBlockTableRecord
  2
*Model_Space
  0
BLOCK_RECORD
  5
203
100
AcDbSymbolTableRecord
100
AcDbBlockTableRecord
  2
*Paper_Space
  0
BLOCK_RECORD
  5
204
100
AcDbSymbolTableRecord
100
AcDbBlockTableRecord
  2
_FILLED
  0
ENDTAB
  0
TABLE
  2
DIMSTYLE
  5
A
100
AcDbSymbolTable
 70
1
100
AcDbDimStyleTable
 71
0
  0
DIMSTYLE
105
205
100
AcDbSymbolTableRecord
100
AcDbDimStyleTableRecord
  2
STANDARD
 70
0
  3

  4

 40
1.0
 41
0.1
 42
0.0625
 43
0.38
 44
0.125
 45
0.0
 46
0.0
 47
0.001
 48
0.001
140
0.08
141
0.09
142
0.0
143
25.4
144
1.0
145
0.0
146
1.0
147
0.09
 71
1.0
 72
0.0
 73
1
 74
1
 75
0
 76
0
 77
0
 78
4
 79
1
170
1
171
2
172
0
173
0
174
0
175
0
176
0
177
0
178
0
270
2
179
3
271
3
272
3
273
2
274
2
275
0
280
0
281
0
282
0
283
1
284
4
285
0
286
0
287
3
288
0
340
11
278
46
341
204
342
204
343
204
344
204
  0
ENDTAB
  0
ENDSEC
  0
SECTION
  2
BLOCKS
  0
BLOCK
  5
20
100
AcDbEntity
  8
0
100
AcDbBlockBegin
  2
*Model_Space
 70
0
 10
0.0
 20
0.0
 30
0.0
  3
*Model_Space
  1

  0
ENDBLK
  5
21
100
AcDbEntity
  8
0
100
AcDbBlockEnd
  0
BLOCK
  5
1C
100
AcDbEntity
  8
0
100
AcDbBlockBegin
  2
*Paper_Space
 70
0
 10
0.0
 20
0.0
 30
0.0
  3
*Paper_Space
  1

  0
ENDBLK
  5
1D
100
AcDbEntity
  8
0
100
AcDbBlockEnd
  0
BLOCK
  5
206
100
AcDbEntity
  8
0
100
AcDbBlockBegin
  2
_FILLED
 70
64
 10
0.0
 20
0.0
  3
_FILLED
  1

  0
SOLID
  5
207
100
AcDbEntity
  8
0
  6
BYBLOCK
 62
0
100
AcDbTrace
 10
0.0
 20
0.0
 11
-1.0
 21
0.2
 12
-1.0
 22
-0.2
 13
-1.0
 23
-0.2
  0
ENDBLK
  5
208
100
AcDbEntity
  8
0
  6
BYBLOCK
 62
0
100
AcDbBlockEnd
  0
ENDSEC
  0
SECTION
  2
ENTITIES
  0
LINE
  5
209
100
AcDbEntity
  8
0
100
AcDbLine
 62
7
  6
CONTINUOUS
 10
5.7703918433
 20
10.8579575978
 11
5.7943918433
 21
10.8995268172
  0
LINE
  5
20A
100
AcDbEntity
  8
0
100
AcDbLine
 62
9
  6
CONTINUOUS
 10
5.3396253633
 20
7.2148093774
 11
5.3396253633
 21
6.764275753
  0
LINE
  5
20B
100
AcDbEntity
  8
0
100
AcDbLine
 62
9
  6
CONTINUOUS
 10
5.4217146203
 20
6.8217552696
 11
5.4217146203
 21
7.1573298608
  0
LINE
  5
20C
100
AcDbEntity
  8
0
100
AcDbLine
 62
7
  6
CONTINUOUS
 10
5.4468918433
 20
7.1785619526
 11
5.4468918433
 21
6.8005231779
  0
LINE
  5
20D
100
AcDbEntity
  8
0
100
AcDbLine
 62
9
  6
CONTINUOUS
 10
5.4717550019
 20
6.798625272
 11
5.4717550019
 21
7.1804598585
  0
LINE
  5
20E
100
AcDbEntity
  8
0
100
AcDbLine
 62
7
  6
CONTINUOUS
 10
5.7703918433
 20
10.6799075899
 11
5.7703918433
 21
10.8579575978
  0
LINE
  5
20F
100
AcDbEntity
  8
0
100
AcDbLine
 62
9
  6
CONTINUOUS
 10
5.8332258334
 20
6.8357340775
 11
5.8332258334
 21
7.1435323276
  0
LINE
  5
210
100
AcDbEntity
  8
0
100
AcDbLine
 62
7
  6
CONTINUOUS
 10
5.8368918433
 20
6.6022584681
 11
5.8368918433
 21
6.6735425652
  0
LINE
  5
211
100
AcDbEntity
  8
0
100
AcDbLine
 62
7
  6
CONTINUOUS
 10
5.8402446257
 20
11.0725268206
 11
5.8402446257
 21
11.1675268025
  0
LINE
  5
212
100
AcDbEntity
  8
0
100
AcDbLine
 62
7
  6
CONTINUOUS
 10
5.8543918433
 20
11.0725268172
 11
5.8543918433
 21
10.8995268172
  0
LINE
  5
213
100
AcDbEntity
  8
0
100
AcDbLine
 62
9
  6
CONTINUOUS
 10
5.8553858671
 20
7.0826395634
 11
5.8553858671
 21
6.8966746192
  0
LINE
  5
214
100
AcDbEntity
  8
0
100
AcDbLine
 62
7
  6
CONTINUOUS
 10
5.8669481168
 20
10.7826133877
 11
5.8669481168
 21
10.6558924154
  0
LINE
  5
215
100
AcDbEntity
  8
0
100
AcDbLine
 62
7
  6
CONTINUOUS
 10
6.0208918433
 20
7.3245425652
 11
6.0208918433
 21
7.6835425652
  0
LINE
  5
216
100
AcDbEntity
  8
0
100
AcDbLine
 62
7
  6
CONTINUOUS
 10
6.1643918433
 20
7.7035425652
 11
6.1643918433
 21
7.6835425652
  0
LINE
  5
217
100
AcDbEntity
  8
0
100
AcDbLine
 62
7
  6
CONTINUOUS
 10
6.2678355698
 20
10.4364402467
 11
6.2678355698
 21
10.7826133877
  0
LINE
  5
218
100
AcDbEntity
  8
0
100
AcDbLine
 62
7
  6
CONTINUOUS
 10
6.2726858649
 20
8.753926545
 11
6.2726858649
 21
8.9785425652
  0
LINE
  5
219
100
AcDbEntity
  8
0
100
AcDbLine
 62
7
  6
CONTINUOUS
 10
6.4560978216
 20
8.9785425652
 11
6.4560978216
 21
8.753926545
  0
LINE
  5
21A
100
AcDbEntity
  8
0
100
AcDbLine
 62
7
  6
CONTINUOUS
 10
6.4609481168
 20
10.7826133877
 11
6.4609481168
 21
10.4364402467
  0
LINE
  5
21B
100
AcDbEntity
  8
0
100
AcDbLine
 62
7
  6
CONTINUOUS
 10
6.5643918433
 20
7.7035425652
 11
6.5643918433
 21
7.6835425652
  0
LINE
  5
21C
100
AcDbEntity
  8
0
100
AcDbLine
 62
7
  6
CONTINUOUS
 10
6.9343918433
 20
10.3195268172
 11
6.9583918433
 21
10.3610960366
  0
LINE
  5
21D
100
AcDbEntity
  8
0
100
AcDbLine
 62
9
  6
CONTINUOUS
 10
10.4743918433
 20
2.6840543762
 11
10.3293918536
 21
2.6840543762
  0
LINE
  5
21E
100
AcDbEntity
  8
0
100
AcDbLine
 62
9
  6
CONTINUOUS
 10
8.2543918433
 20
2.6840543762
 11
8.3993918343
 21
2.6840543762
  0
LINE
  5
21F
100
AcDbEntity
  8
0
100
AcDbLine
 62
7
  6
CONTINUOUS
 10
5.851157691
 20
6.5826232132
 11
5.8368918433
 21
6.6022584681
  0
LINE
  5
220
100
AcDbEntity
  8
0
100
AcDbLine
 62
7
  6
CONTINUOUS
 10
7.1159098476
 20
9.1510059907
 11
7.11603323
 21
9.1310843569
  0
LINE
  5
221
100
AcDbEntity
  8
0
100
AcDbLine
 62
7
  6
CONTINUOUS
 10
6.7078918433
 20
7.3245425652
 11
6.7078918433
 21
7.6835425652
  0
LINE
  5
222
100
AcDbEntity
  8
0
100
AcDbLine
 62
7
  6
CONTINUOUS
 10
6.7743918433
 20
10.3145661873
 11
6.7743918433
 21
10.3195268172
  0
LINE
  5
223
100
AcDbEntity
  8
0
100
AcDbLine
 62
7
  6
CONTINUOUS
 10
6.8618355698
 20
10.4364402467
 11
6.8618355698
 21
10.7826133877
  0
LINE
  5
224
100
AcDbEntity
  8
0
100
AcDbLine
 62
9
  6
CONTINUOUS
 10
6.8733978194
 20
6.8964455838
 11
6.8733978194
 21
7.0824105224
  0
LINE
  5
225
100
AcDbEntity
  8
0
100
AcDbLine
 62
7
  6
CONTINUOUS
 10
6.8743918433
 20
11.0725268172
 11
6.8743918433
 21
10.8995268172
  0
LINE
  5
226
100
AcDbEntity
  8
0
100
AcDbLine
 62
7
  6
CONTINUOUS
 10
6.8878037735
 20
11.0725268206
 11
6.8878037735
 21
11.1675268025
  0
LINE
  5
227
100
AcDbEntity
  8
0
100
AcDbLine
 62
7
  6
CONTINUOUS
 10
6.8918918433
 20
6.6022584681
 11
6.8918918433
 21
6.6735425652
  0
LINE
  5
228
100
AcDbEntity
  8
0
100
AcDbLine
 62
9
  6
CONTINUOUS
 10
6.8955578531
 20
7.1433510441
 11
6.8955578531
 21
6.8355528117
  0
LINE
  5
229
100
AcDbEntity
  8
0
100
AcDbLine
 62
7
  6
CONTINUOUS
 10
6.8976858649
 20
8.753926545
 11
6.8976858649
 21
8.9785425652
  0
LINE
  5
22A
100
AcDbEntity
  8
0
100
AcDbLine
 62
7
  6
CONTINUOUS
 10
6.9583918433
 20
10.3610960366
 11
6.9583918433
 21
10.8579575978
  0
LINE
  5
22B
100
AcDbEntity
  8
0
100
AcDbLine
 62
7
  6
CONTINUOUS
 10
6.9893918433
 20
9.028546507
 11
6.9893918433
 21
8.7039226033
  0
LINE
  5
22C
100
AcDbEntity
  8
0
100
AcDbLine
 62
9
  6
CONTINUOUS
 10
7.051318792
 20
9.3440543762
 11
7.051318792
 21
10.0240543762
  0
LINE
  5
22D
100
AcDbEntity
  8
0
100
AcDbLine
 62
7
  6
CONTINUOUS
 10
7.11603323
 20
10.2370243955
 11
7.1159098476
 21
10.2171027618
  0
LINE
  5
22E
100
AcDbEntity
  8
0
100
AcDbLine
 62
9
  6
CONTINUOUS
 10
7.1951255324
 20
10.2440151931
 11
7.19500215
 21
10.2240935594
  0
LWPOLYLINE
  5
22F
100
AcDbEntity
  8
0
100
AcDbPolyline
 62
7
  6
CONTINUOUS
 90
12
 70
0
 10
6.8890239547
 20
11.1675267772
 10
6.8905076949
 20
11.3008377354
 10
6.8862593712
 20
11.4699905213
 10
6.8761009771
 20
11.6171885233
 10
6.860719742
 20
11.7417174399
 10
6.8394644683
 20
11.8486928408
 10
6.8077219302
 20
11.9506362573
 10
6.7561893391
 20
12.0555686868
 10
6.6788731406
 20
12.1555657529
 10
6.5710377775
 20
12.2421573569
 10
6.431894312
 20
12.3027481232
 10
6.2879647177
 20
12.3223079777
  0
LINE
  5
230
100
AcDbEntity
  8
0
100
AcDbLine
 62
7
  6
CONTINUOUS
 10
7.1689865039
 20
9.2484874
 11
7.1340697594
 21
9.2040454695
  0
LINE
  5
231
100
AcDbEntity
  8
0
100
AcDbLine
 62
9
  6
CONTINUOUS
 10
7.2353005868
 20
9.2806412925
 11
7.2003838423
 21
9.236199362
  0
LINE
  5
232
100
AcDbEntity
  8
0
100
AcDbLine
 62
9
  6
CONTINUOUS
 10
7.3555306453
 20
9.1515324185
 11
7.3904473897
 21
9.195974349
  0
LINE
  5
233
100
AcDbEntity
  8
0
100
AcDbLine
 62
9
  6
CONTINUOUS
 10
7.3905707721
 20
9.1760527152
 11
7.3556540276
 21
9.1316107847
  0
LINE
  5
234
100
AcDbEntity
  8
0
100
AcDbLine
 62
7
  6
CONTINUOUS
 10
7.3726162859
 20
9.1235396642
 11
7.3376995414
 21
9.0790977337
  0
LINE
  5
235
100
AcDbEntity
  8
0
100
AcDbLine
 62
9
  6
CONTINUOUS
 10
7.2702133259
 20
9.236199362
 11
7.2922735418
 21
9.2641165488
  0
LWPOLYLINE
  5
236
100
AcDbEntity
  8
0
100
AcDbPolyline
 62
7
  6
CONTINUOUS
 90
10
 70
0
 10
5.8057104015
 20
11.5985104854
 10
5.8047406242
 20
11.6020788088
 10
5.8066825094
 20
11.5926289097
 10
5.8113636911
 20
11.5640999684
 10
5.8171695451
 20
11.5187241607
 10
5.8231971576
 20
11.4583920713
 10
5.8288289101
 20
11.3861250208
 10
5.83368793
 20
11.3045783616
 10
5.8374938875
 20
11.2165198671
 10
5.8390244423
 20
11.1675268064
  0
LINE
  5
237
100
AcDbEntity
  8
0
100
AcDbLine
 62
9
  6
CONTINUOUS
 10
7.19500215
 20
9.1440151931
 11
7.1951255324
 21
9.1240935594
  0
LINE
  5
238
100
AcDbEntity
  8
0
100
AcDbLine
 62
9
  6
CONTINUOUS
 10
7.2649550159
 20
9.1240935594
 11
7.2648316336
 21
9.1440151931
  0
LINE
  5
239
100
AcDbEntity
  8
0
100
AcDbLine
 62
9
  6
CONTINUOUS
 10
7.3555306453
 20
9.1515324185
 11
7.3556540276
 21
9.1316107847
  0
LINE
  5
23A
100
AcDbEntity
  8
0
100
AcDbLine
 62
9
  6
CONTINUOUS
 10
7.2570286847
 20
6.798625272
 11
7.2570286847
 21
7.1804598585
  0
LINE
  5
23B
100
AcDbEntity
  8
0
100
AcDbLine
 62
7
  6
CONTINUOUS
 10
7.2818918433
 20
6.8005231779
 11
7.2818918433
 21
7.1785619526
  0
LINE
  5
23C
100
AcDbEntity
  8
0
100
AcDbLine
 62
9
  6
CONTINUOUS
 10
7.292380895
 20
9.2640902761
 11
7.292380895
 21
10.104018478
  0
LINE
  5
23D
100
AcDbEntity
  8
0
100
AcDbLine
 62
9
  6
CONTINUOUS
 10
7.3070690663
 20
7.1573298608
 11
7.3070690663
 21
6.8217552696
  0
LINE
  5
23E
100
AcDbEntity
  8
0
100
AcDbLine
 62
9
  6
CONTINUOUS
 10
7.3268183383
 20
10.1132573973
 11
7.3268183383
 21
9.2548513552
  0
LINE
  5
23F
100
AcDbEntity
  8
0
100
AcDbLine
 62
7
  6
CONTINUOUS
 10
7.3768183383
 20
9.2340543762
 11
7.3768183383
 21
10.1340543762
  0
LINE
  5
240
100
AcDbEntity
  8
0
100
AcDbLine
 62
9
  6
CONTINUOUS
 10
7.3891583233
 20
6.764275753
 11
7.3891583233
 21
7.2148093774
  0
LINE
  5
241
100
AcDbEntity
  8
0
100
AcDbLine
 62
9
  6
CONTINUOUS
 10
7.2648316336
 20
10.2240935594
 11
7.2649550159
 21
10.2440151931
  0
LINE
  5
242
100
AcDbEntity
  8
0
100
AcDbLine
 62
9
  6
CONTINUOUS
 10
7.3556540276
 20
10.2364979677
 11
7.3555306453
 21
10.216576334
  0
LINE
  5
243
100
AcDbEntity
  8
0
100
AcDbLine
 62
7
  6
CONTINUOUS
 10
6.9643918433
 20
8.678926545
 11
6.9893918433
 21
8.703926545
  0
LINE
  5
244
100
AcDbEntity
  8
0
100
AcDbLine
 62
7
  6
CONTINUOUS
 10
8.935508338
 20
10.2727371784
 11
8.935596845
 21
10.2728016993
  0
LWPOLYLINE
  5
245
100
AcDbEntity
  8
0
100
AcDbPolyline
 62
7
  6
CONTINUOUS
 90
4
 70
0
 10
8.936097333
 20
10.2731672473
 10
8.9267121417
 20
10.2673731876
 10
8.8893831558
 20
10.252854933
 10
8.8622438286
 20
10.2476250494
  0
LINE
  5
246
100
AcDbEntity
  8
0
100
AcDbLine
 62
7
  6
CONTINUOUS
 10
5.4217146203
 20
7.1573298608
 11
5.3396253633
 21
7.2148093774
  0
LINE
  5
247
100
AcDbEntity
  8
0
100
AcDbLine
 62
9
  6
CONTINUOUS
 10
8.0072788635
 20
10.2240543762
 11
8.0072788635
 21
9.1440543762
  0
LINE
  5
248
100
AcDbEntity
  8
0
100
AcDbLine
 62
7
  6
CONTINUOUS
 10
6.8776259955
 20
6.5826232132
 11
6.8918918433
 21
6.6022584681
  0
LINE
  5
249
100
AcDbEntity
  8
0
100
AcDbLine
 62
7
  6
CONTINUOUS
 10
5.8637386308
 20
6.6890425652
 11
5.8368918433
 21
6.7045425652
  0
LINE
  5
24A
100
AcDbEntity
  8
0
100
AcDbLine
 62
7
  6
CONTINUOUS
 10
6.8650450558
 20
6.6890425652
 11
6.8918918433
 21
6.6735425652
  0
LINE
  5
24B
100
AcDbEntity
  8
0
100
AcDbLine
 62
7
  6
CONTINUOUS
 10
8.8143918433
 20
8.905057267
 11
8.8143918433
 21
8.4690937463
  0
LINE
  5
24C
100
AcDbEntity
  8
0
100
AcDbLine
 62
7
  6
CONTINUOUS
 10
8.8143918433
 20
7.6605110692
 11
8.8143918433
 21
8.4305110692
  0
LINE
  5
24D
100
AcDbEntity
  8
0
100
AcDbLine
 62
9
  6
CONTINUOUS
 10
8.7224534092
 20
8.4522903761
 11
8.7219761898
 21
8.4007389984
  0
LINE
  5
24E
100
AcDbEntity
  8
0
100
AcDbLine
 62
9
  6
CONTINUOUS
 10
8.4491926322
 20
3.5730352325
 11
8.448922078
 21
3.5618053718
  0
LINE
  5
24F
100
AcDbEntity
  8
0
100
AcDbLine
 62
9
  6
CONTINUOUS
 10
8.470196634
 20
3.9454223035
 11
8.4699160918
 21
3.9338511849
  0
LINE
  5
250
100
AcDbEntity
  8
0
100
AcDbLine
 62
9
  6
CONTINUOUS
 10
8.4257061749
 20
3.1560293097
 11
8.4254490931
 21
3.1458420919
  0
LINE
  5
251
100
AcDbEntity
  8
0
100
AcDbLine
 62
9
  6
CONTINUOUS
 10
8.3993924768
 20
2.6840829803
 11
8.7590768163
 21
9.0582184554
  0
LINE
  5
252
100
AcDbEntity
  8
0
100
AcDbLine
 62
7
  6
CONTINUOUS
 10
8.7574137098
 20
9.0601393224
 11
8.3995918649
 21
2.6912292562
  0
LINE
  5
253
100
AcDbEntity
  8
0
100
AcDbLine
 62
7
  6
CONTINUOUS
 10
5.4217146203
 20
6.8217552696
 11
5.3396253633
 21
6.764275753
  0
LINE
  5
254
100
AcDbEntity
  8
0
100
AcDbLine
 62
7
  6
CONTINUOUS
 10
5.9098818872
 20
6.5635425652
 11
5.851157691
 21
6.5826232132
  0
LINE
  5
255
100
AcDbEntity
  8
0
100
AcDbLine
 62
7
  6
CONTINUOUS
 10
7.3070690663
 20
6.8217552696
 11
7.3891583233
 21
6.764275753
  0
LINE
  5
256
100
AcDbEntity
  8
0
100
AcDbLine
 62
7
  6
CONTINUOUS
 10
8.8821418433
 20
8.4690937463
 11
8.8821418433
 21
8.4305110692
  0
LINE
  5
257
100
AcDbEntity
  8
0
100
AcDbLine
 62
7
  6
CONTINUOUS
 10
9.0493918433
 20
7.5308260298
 11
9.0493918433
 21
7.5005110692
  0
LINE
  5
258
100
AcDbEntity
  8
0
100
AcDbLine
 62
9
  6
CONTINUOUS
 10
9.3643920963
 20
8.7722939103
 11
9.3643928347
 21
9.0089732199
  0
LINE
  5
259
100
AcDbEntity
  8
0
100
AcDbLine
 62
9
  6
CONTINUOUS
 10
9.3643918433
 20
7.5005110692
 11
9.3643918433
 21
2.1965543762
  0
LINE
  5
25A
100
AcDbEntity
  8
0
100
AcDbLine
 62
7
  6
CONTINUOUS
 10
7.3070690663
 20
7.1573298608
 11
7.3891583233
 21
7.2148093774
  0
LINE
  5
25B
100
AcDbEntity
  8
0
100
AcDbLine
 62
7
  6
CONTINUOUS
 10
5.8637386308
 20
6.6890425652
 11
5.8368918433
 21
6.6735425652
  0
LINE
  5
25C
100
AcDbEntity
  8
0
100
AcDbLine
 62
7
  6
CONTINUOUS
 10
6.9643918433
 20
9.0535425652
 11
6.9893918433
 21
9.0285425652
  0
LINE
  5
25D
100
AcDbEntity
  8
0
100
AcDbLine
 62
7
  6
CONTINUOUS
 10
6.9583918433
 20
10.8579575978
 11
6.9343918433
 21
10.8995268172
  0
LINE
  5
25E
100
AcDbEntity
  8
0
100
AcDbLine
 62
7
  6
CONTINUOUS
 10
9.6793918433
 20
7.5308260298
 11
9.6793918433
 21
7.5005110692
  0
LINE
  5
25F
100
AcDbEntity
  8
0
100
AcDbLine
 62
7
  6
CONTINUOUS
 10
9.8466418433
 20
8.4690937463
 11
9.8466418433
 21
8.4305110692
  0
LINE
  5
260
100
AcDbEntity
  8
0
100
AcDbLine
 62
7
  6
CONTINUOUS
 10
9.9143918433
 20
7.6605110692
 11
9.9143918433
 21
8.4305110692
  0
LINE
  5
261
100
AcDbEntity
  8
0
100
AcDbLine
 62
7
  6
CONTINUOUS
 10
9.9143918433
 20
8.4690937463
 11
9.9143918433
 21
8.9050572725
  0
LINE
  5
262
100
AcDbEntity
  8
0
100
AcDbLine
 62
7
  6
CONTINUOUS
 10
11.7703918433
 20
10.8579575978
 11
11.7943918433
 21
10.8995268172
  0
LINE
  5
263
100
AcDbEntity
  8
0
100
AcDbLine
 62
7
  6
CONTINUOUS
 10
11.3561674006
 20
10.2445690883
 11
11.3910841451
 21
10.2890110188
  0
LINE
  5
264
100
AcDbEntity
  8
0
100
AcDbLine
 62
9
  6
CONTINUOUS
 10
11.3731296589
 20
10.2364979677
 11
11.3382129144
 21
10.1920560373
  0
LINE
  5
265
100
AcDbEntity
  8
0
100
AcDbLine
 62
9
  6
CONTINUOUS
 10
11.3383362968
 20
10.1721344035
 11
11.3732530413
 21
10.216576334
  0
LINE
  5
266
100
AcDbEntity
  8
0
100
AcDbLine
 62
9
  6
CONTINUOUS
 10
11.4585703607
 20
10.1319093905
 11
11.4391158803
 21
10.1071477847
  0
LINE
  5
267
100
AcDbEntity
  8
0
100
AcDbLine
 62
9
  6
CONTINUOUS
 10
11.5092192764
 20
10.1074964197
 11
11.5283998442
 21
10.1319093905
  0
LINE
  5
268
100
AcDbEntity
  8
0
100
AcDbLine
 62
7
  6
CONTINUOUS
 10
11.5597971826
 20
10.1196213525
 11
11.5947139271
 21
10.164063283
  0
LINE
  5
269
100
AcDbEntity
  8
0
100
AcDbLine
 62
7
  6
CONTINUOUS
 10
6.8650450558
 20
6.6890425652
 11
6.8918918433
 21
6.7045425652
  0
LINE
  5
26A
100
AcDbEntity
  8
0
100
AcDbLine
 62
7
  6
CONTINUOUS
 10
5.9938918433
 20
7.3245425652
 11
5.8368918433
 21
7.2735425652
  0
LINE
  5
26B
100
AcDbEntity
  8
0
100
AcDbLine
 62
7
  6
CONTINUOUS
 10
12.6008318302
 20
6.5066742844
 11
12.6852249498
 21
6.522095705
  0
LINE
  5
26C
100
AcDbEntity
  8
0
100
AcDbLine
 62
7
  6
CONTINUOUS
 10
12.5643918433
 20
6.5025027327
 11
12.6006793513
 21
6.5076625912
  0
LINE
  5
26D
100
AcDbEntity
  8
0
100
AcDbLine
 62
7
  6
CONTINUOUS
 10
6.7348918433
 20
7.3245425652
 11
6.8918918433
 21
7.2735425652
  0
LINE
  5
26E
100
AcDbEntity
  8
0
100
AcDbLine
 62
9
  6
CONTINUOUS
 10
7.2922735423
 20
10.1039922034
 11
7.2702133259
 21
10.1319093905
  0
LINE
  5
26F
100
AcDbEntity
  8
0
100
AcDbLine
 62
7
  6
CONTINUOUS
 10
7.1340697594
 20
10.164063283
 11
7.1689865039
 21
10.1196213525
  0
LINE
  5
270
100
AcDbEntity
  8
0
100
AcDbLine
 62
9
  6
CONTINUOUS
 10
7.2003838423
 20
10.1319093905
 11
7.2353005868
 21
10.08746746
  0
LINE
  5
271
100
AcDbEntity
  8
0
100
AcDbLine
 62
9
  6
CONTINUOUS
 10
7.3555306453
 20
10.216576334
 11
7.3904473897
 21
10.1721344035
  0
LINE
  5
272
100
AcDbEntity
  8
0
100
AcDbLine
 62
9
  6
CONTINUOUS
 10
7.3905707721
 20
10.1920560373
 11
7.3556540276
 21
10.2364979677
  0
LINE
  5
273
100
AcDbEntity
  8
0
100
AcDbLine
 62
7
  6
CONTINUOUS
 10
7.3376995414
 20
10.2890110188
 11
7.3726162859
 21
10.2445690883
  0
LINE
  5
274
100
AcDbEntity
  8
0
100
AcDbLine
 62
9
  6
CONTINUOUS
 10
10.3293912179
 20
2.6840829469
 11
9.9697070722
 21
9.0582148769
  0
LINE
  5
275
100
AcDbEntity
  8
0
100
AcDbLine
 62
7
  6
CONTINUOUS
 10
10.3291920967
 20
2.6912243729
 11
10.0807392116
 21
7.1089215626
  0
LINE
  5
276
100
AcDbEntity
  8
0
100
AcDbLine
 62
7
  6
CONTINUOUS
 10
10.0807392116
 20
7.1089215626
 11
10.0091784437
 21
8.4008703247
  0
LINE
  5
277
100
AcDbEntity
  8
0
100
AcDbLine
 62
7
  6
CONTINUOUS
 10
10.0091784437
 20
8.4008703247
 11
9.9713701887
 21
9.0601357721
  0
LINE
  5
278
100
AcDbEntity
  8
0
100
AcDbLine
 62
7
  6
CONTINUOUS
 10
10.0063277289
 20
8.4523367578
 11
10.0063302774
 21
8.4522903761
  0
LINE
  5
279
100
AcDbEntity
  8
0
100
AcDbLine
 62
9
  6
CONTINUOUS
 10
10.3030780111
 20
3.1560203972
 11
10.3033345282
 21
3.1458295799
  0
LINE
  5
27A
100
AcDbEntity
  8
0
100
AcDbLine
 62
9
  6
CONTINUOUS
 10
10.2585870526
 20
3.9454223035
 11
10.2588675948
 21
3.9338511849
  0
LINE
  5
27B
100
AcDbEntity
  8
0
100
AcDbLine
 62
9
  6
CONTINUOUS
 10
10.2795910543
 20
3.5730352325
 11
10.2798616085
 21
3.5618053718
  0
LINE
  5
27C
100
AcDbEntity
  8
0
100
AcDbLine
 62
9
  6
CONTINUOUS
 10
10.0063302774
 20
8.4522903761
 11
10.0068074967
 21
8.4007389984
  0
LINE
  5
27D
100
AcDbEntity
  8
0
100
AcDbLine
 62
9
  6
CONTINUOUS
 10
10.1923578131
 20
9.1440543762
 11
10.1923578131
 21
10.2240543762
  0
LINE
  5
27E
100
AcDbEntity
  8
0
100
AcDbLine
 62
7
  6
CONTINUOUS
 10
11.7643918433
 20
9.0535425652
 11
11.7393918433
 21
9.0285425652
  0
LINE
  5
27F
100
AcDbEntity
  8
0
100
AcDbLine
 62
7
  6
CONTINUOUS
 10
12.3958918435
 20
6.4898627471
 11
12.4318918433
 21
6.4910133342
  0
LINE
  5
280
100
AcDbEntity
  8
0
100
AcDbLine
 62
9
  6
CONTINUOUS
 10
11.9851827014
 20
6.5396747811
 11
12.0004928052
 21
6.5397474428
  0
LINE
  5
281
100
AcDbEntity
  8
0
100
AcDbLine
 62
9
  6
CONTINUOUS
 10
5.9692472037
 20
6.5397331522
 11
6.7595364829
 21
6.5397331522
  0
LINE
  5
282
100
AcDbEntity
  8
0
100
AcDbLine
 62
7
  6
CONTINUOUS
 10
5.9099426217
 20
6.5635425652
 11
6.8188410649
 21
6.5635425652
  0
LINE
  5
283
100
AcDbEntity
  8
0
100
AcDbLine
 62
7
  6
CONTINUOUS
 10
11.9099426217
 20
6.5635425652
 11
12.8188410649
 21
6.5635425652
  0
LINE
  5
284
100
AcDbEntity
  8
0
100
AcDbLine
 62
7
  6
CONTINUOUS
 10
5.851157691
 20
6.5826232132
 11
6.8776259955
 21
6.5826232132
  0
LINE
  5
285
100
AcDbEntity
  8
0
100
AcDbLine
 62
7
  6
CONTINUOUS
 10
11.851157691
 20
6.5826232132
 11
12.8776259955
 21
6.5826232132
  0
LINE
  5
286
100
AcDbEntity
  8
0
100
AcDbLine
 62
7
  6
CONTINUOUS
 10
5.8368918433
 20
6.6022584681
 11
6.8918918433
 21
6.6022584681
  0
LINE
  5
287
100
AcDbEntity
  8
0
100
AcDbLine
 62
7
  6
CONTINUOUS
 10
11.8368918433
 20
6.6022584681
 11
12.8918918433
 21
6.6022584681
  0
LINE
  5
288
100
AcDbEntity
  8
0
100
AcDbLine
 62
7
  6
CONTINUOUS
 10
12.8918918433
 20
6.6735425652
 11
11.8368918433
 21
6.6735425652
  0
LINE
  5
289
100
AcDbEntity
  8
0
100
AcDbLine
 62
7
  6
CONTINUOUS
 10
6.8918918433
 20
6.6735425652
 11
5.8368918433
 21
6.6735425652
  0
LINE
  5
28A
100
AcDbEntity
  8
0
100
AcDbLine
 62
7
  6
CONTINUOUS
 10
5.8637386308
 20
6.6890425652
 11
6.8650450558
 21
6.6890425652
  0
LINE
  5
28B
100
AcDbEntity
  8
0
100
AcDbLine
 62
7
  6
CONTINUOUS
 10
11.8637386308
 20
6.6890425652
 11
12.8650450558
 21
6.6890425652
  0
LINE
  5
28C
100
AcDbEntity
  8
0
100
AcDbLine
 62
7
  6
CONTINUOUS
 10
12.8918918433
 20
6.7045425652
 11
11.8368918433
 21
6.7045425652
  0
LINE
  5
28D
100
AcDbEntity
  8
0
100
AcDbLine
 62
7
  6
CONTINUOUS
 10
6.8918918433
 20
6.7045425652
 11
5.8368918433
 21
6.7045425652
  0
LINE
  5
28E
100
AcDbEntity
  8
0
100
AcDbLine
 62
7
  6
CONTINUOUS
 10
5.8068918433
 20
6.7845425652
 11
6.1852712254
 21
6.7845425652
  0
LINE
  5
28F
100
AcDbEntity
  8
0
100
AcDbLine
 62
7
  6
CONTINUOUS
 10
6.5435124611
 20
6.7845425652
 11
6.9218918433
 21
6.7845425652
  0
LINE
  5
290
100
AcDbEntity
  8
0
100
AcDbLine
 62
7
  6
CONTINUOUS
 10
11.8068918433
 20
6.7845425652
 11
12.1852712254
 21
6.7845425652
  0
LINE
  5
291
100
AcDbEntity
  8
0
100
AcDbLine
 62
7
  6
CONTINUOUS
 10
12.5435124611
 20
6.7845425652
 11
12.9218918433
 21
6.7845425652
  0
LINE
  5
292
100
AcDbEntity
  8
0
100
AcDbLine
 62
9
  6
CONTINUOUS
 10
12.0004928052
 20
6.5397474428
 11
12.7595364998
 21
6.539733272
  0
LINE
  5
293
100
AcDbEntity
  8
0
100
AcDbLine
 62
7
  6
CONTINUOUS
 10
12.3643918433
 20
6.4885425652
 11
12.3613899074
 21
6.4885454709
  0
LINE
  5
294
100
AcDbEntity
  8
0
100
AcDbLine
 62
9
  6
CONTINUOUS
 10
11.9692471867
 20
6.539733272
 11
11.9851827014
 21
6.5396747811
  0
LINE
  5
295
100
AcDbEntity
  8
0
100
AcDbLine
 62
7
  6
CONTINUOUS
 10
12.3613918433
 20
6.4895454691
 11
12.3256918433
 21
6.4900258693
  0
LINE
  5
296
100
AcDbEntity
  8
0
100
AcDbLine
 62
7
  6
CONTINUOUS
 10
12.3256668702
 20
6.4890261811
 11
12.2406120198
 21
6.493490726
  0
LINE
  5
297
100
AcDbEntity
  8
0
100
AcDbLine
 62
7
  6
CONTINUOUS
 10
12.2406918433
 20
6.494487535
 11
12.2043918422
 21
6.4978245191
  0
LINE
  5
298
100
AcDbEntity
  8
0
100
AcDbLine
 62
7
  6
CONTINUOUS
 10
11.9098818872
 20
6.5635425652
 11
11.851157691
 21
6.5826232132
  0
LINE
  5
299
100
AcDbEntity
  8
0
100
AcDbLine
 62
7
  6
CONTINUOUS
 10
10.8448183383
 20
10.0940543762
 11
10.8448183383
 21
9.2740543762
  0
LINE
  5
29A
100
AcDbEntity
  8
0
100
AcDbLine
 62
7
  6
CONTINUOUS
 10
10.9448183383
 20
9.2740543762
 11
10.9448183383
 21
10.0940543762
  0
LINE
  5
29B
100
AcDbEntity
  8
0
100
AcDbLine
 62
7
  6
CONTINUOUS
 10
6.8189017994
 20
6.5635425652
 11
6.8776259955
 21
6.5826232132
  0
LINE
  5
29C
100
AcDbEntity
  8
0
100
AcDbLine
 62
7
  6
CONTINUOUS
 10
6.5208918434
 20
6.4974652083
 11
6.5568918432
 21
6.5015451954
  0
LINE
  5
29D
100
AcDbEntity
  8
0
100
AcDbLine
 62
7
  6
CONTINUOUS
 10
12.9218918433
 20
7.1945425652
 11
12.5435124611
 21
7.1945425652
  0
LINE
  5
29E
100
AcDbEntity
  8
0
100
AcDbLine
 62
7
  6
CONTINUOUS
 10
12.1852712254
 20
7.1945425652
 11
11.8068918433
 21
7.1945425652
  0
LINE
  5
29F
100
AcDbEntity
  8
0
100
AcDbLine
 62
7
  6
CONTINUOUS
 10
6.9218918433
 20
7.1945425652
 11
6.5435124611
 21
7.1945425652
  0
LINE
  5
2A0
100
AcDbEntity
  8
0
100
AcDbLine
 62
7
  6
CONTINUOUS
 10
6.1852712254
 20
7.1945425652
 11
5.8068918433
 21
7.1945425652
  0
LINE
  5
2A1
100
AcDbEntity
  8
0
100
AcDbLine
 62
7
  6
CONTINUOUS
 10
5.8368918433
 20
7.2735425652
 11
6.8918918433
 21
7.2735425652
  0
LINE
  5
2A2
100
AcDbEntity
  8
0
100
AcDbLine
 62
7
  6
CONTINUOUS
 10
11.8368918433
 20
7.2735425652
 11
12.8918918433
 21
7.2735425652
  0
LINE
  5
2A3
100
AcDbEntity
  8
0
100
AcDbLine
 62
7
  6
CONTINUOUS
 10
12.7348874154
 20
7.3245425652
 11
11.9938962711
 21
7.3245425652
  0
LINE
  5
2A4
100
AcDbEntity
  8
0
100
AcDbLine
 62
7
  6
CONTINUOUS
 10
6.7348874154
 20
7.3245425652
 11
5.9938962711
 21
7.3245425652
  0
LINE
  5
2A5
100
AcDbEntity
  8
0
100
AcDbLine
 62
7
  6
CONTINUOUS
 10
9.0493956078
 20
7.5005110692
 11
9.6793880787
 21
7.5005110692
  0
LINE
  5
2A6
100
AcDbEntity
  8
0
100
AcDbLine
 62
9
  6
CONTINUOUS
 10
9.6793918433
 20
7.5308260298
 11
9.0493918433
 21
7.5308260298
  0
LINE
  5
2A7
100
AcDbEntity
  8
0
100
AcDbLine
 62
7
  6
CONTINUOUS
 10
8.9993962127
 20
7.5505110692
 11
9.7293874738
 21
7.5505110692
  0
LINE
  5
2A8
100
AcDbEntity
  8
0
100
AcDbLine
 62
7
  6
CONTINUOUS
 10
11.8637386308
 20
6.6890425652
 11
11.8368918433
 21
6.7045425652
  0
LINE
  5
2A9
100
AcDbEntity
  8
0
100
AcDbLine
 62
7
  6
CONTINUOUS
 10
11.4217146203
 20
7.1573298608
 11
11.3396253633
 21
7.2148093774
  0
LINE
  5
2AA
100
AcDbEntity
  8
0
100
AcDbLine
 62
9
  6
CONTINUOUS
 10
11.3732530413
 20
10.216576334
 11
11.3731296589
 21
10.2364979677
  0
LINE
  5
2AB
100
AcDbEntity
  8
0
100
AcDbLine
 62
9
  6
CONTINUOUS
 10
11.4638286706
 20
10.2440151931
 11
11.463952053
 21
10.2240935594
  0
LINE
  5
2AC
100
AcDbEntity
  8
0
100
AcDbLine
 62
9
  6
CONTINUOUS
 10
11.5337815365
 20
10.2240935594
 11
11.5336581541
 21
10.2440151931
  0
LINE
  5
2AD
100
AcDbEntity
  8
0
100
AcDbLine
 62
7
  6
CONTINUOUS
 10
11.6128738389
 20
10.2171027618
 11
11.6127504565
 21
10.2370243955
  0
LINE
  5
2AE
100
AcDbEntity
  8
0
100
AcDbLine
 62
9
  6
CONTINUOUS
 10
11.3396253633
 20
7.2148093774
 11
11.3396253633
 21
6.764275753
  0
LINE
  5
2AF
100
AcDbEntity
  8
0
100
AcDbLine
 62
7
  6
CONTINUOUS
 10
11.4138183383
 20
10.1099588101
 11
11.4138183383
 21
9.2581499424
  0
LINE
  5
2B0
100
AcDbEntity
  8
0
100
AcDbLine
 62
9
  6
CONTINUOUS
 10
11.4217146203
 20
6.8217552696
 11
11.4217146203
 21
7.1573298608
  0
LINE
  5
2B1
100
AcDbEntity
  8
0
100
AcDbLine
 62
7
  6
CONTINUOUS
 10
11.4468918433
 20
7.1785619526
 11
11.4468918433
 21
6.8005231779
  0
LINE
  5
2B2
100
AcDbEntity
  8
0
100
AcDbLine
 62
9
  6
CONTINUOUS
 10
11.4717550019
 20
6.798625272
 11
11.4717550019
 21
7.1804598585
  0
LINE
  5
2B3
100
AcDbEntity
  8
0
100
AcDbLine
 62
7
  6
CONTINUOUS
 10
11.5138183383
 20
9.260488646
 11
11.5138183383
 21
10.1076201065
  0
LINE
  5
2B4
100
AcDbEntity
  8
0
100
AcDbLine
 62
7
  6
CONTINUOUS
 10
11.5738183383
 20
9.316604671
 11
11.5738183383
 21
10.0905332557
  0
LINE
  5
2B5
100
AcDbEntity
  8
0
100
AcDbLine
 62
7
  6
CONTINUOUS
 10
11.5958183383
 20
10.1339942444
 11
11.5958183383
 21
9.2341145081
  0
LINE
  5
2B6
100
AcDbEntity
  8
0
100
AcDbLine
 62
9
  6
CONTINUOUS
 10
11.3731296589
 20
9.1316107847
 11
11.3732530413
 21
9.1515324185
  0
LINE
  5
2B7
100
AcDbEntity
  8
0
100
AcDbLine
 62
9
  6
CONTINUOUS
 10
11.463952053
 20
9.1440151931
 11
11.4638286706
 21
9.1240935594
  0
LINE
  5
2B8
100
AcDbEntity
  8
0
100
AcDbLine
 62
9
  6
CONTINUOUS
 10
11.5336581541
 20
9.1240935594
 11
11.5337815365
 21
9.1440151931
  0
LINE
  5
2B9
100
AcDbEntity
  8
0
100
AcDbLine
 62
7
  6
CONTINUOUS
 10
11.6127504565
 20
9.1310843569
 11
11.6128738389
 21
9.1510059907
  0
LINE
  5
2BA
100
AcDbEntity
  8
0
100
AcDbLine
 62
7
  6
CONTINUOUS
 10
12.9343918433
 20
10.3195268172
 11
12.9583918433
 21
10.3610960366
  0
LINE
  5
2BB
100
AcDbEntity
  8
0
100
AcDbLine
 62
7
  6
CONTINUOUS
 10
12.9643918433
 20
8.678926545
 11
12.9893918433
 21
8.703926545
  0
LINE
  5
2BC
100
AcDbEntity
  8
0
100
AcDbLine
 62
7
  6
CONTINUOUS
 10
11.9938918433
 20
7.3245425652
 11
11.8368918433
 21
7.2735425652
  0
LINE
  5
2BD
100
AcDbEntity
  8
0
100
AcDbLine
 62
7
  6
CONTINUOUS
 10
8.8444723065
 20
7.6305110692
 11
9.8843113801
 21
7.6305110692
  0
LINE
  5
2BE
100
AcDbEntity
  8
0
100
AcDbLine
 62
9
  6
CONTINUOUS
 10
8.8143918433
 20
7.6605110692
 11
9.9143918433
 21
7.6605110692
  0
LINE
  5
2BF
100
AcDbEntity
  8
0
100
AcDbLine
 62
7
  6
CONTINUOUS
 10
12.7078852618
 20
7.6835425652
 11
12.0208984247
 21
7.6835425652
  0
LINE
  5
2C0
100
AcDbEntity
  8
0
100
AcDbLine
 62
7
  6
CONTINUOUS
 10
6.7078852618
 20
7.6835425652
 11
6.0208984247
 21
7.6835425652
  0
LINE
  5
2C1
100
AcDbEntity
  8
0
100
AcDbLine
 62
7
  6
CONTINUOUS
 10
5.9924856986
 20
7.7035425652
 11
6.7363026994
 21
7.7035425652
  0
LINE
  5
2C2
100
AcDbEntity
  8
0
100
AcDbLine
 62
7
  6
CONTINUOUS
 10
11.9924856986
 20
7.7035425652
 11
12.7363026994
 21
7.7035425652
  0
LINE
  5
2C3
100
AcDbEntity
  8
0
100
AcDbLine
 62
9
  6
CONTINUOUS
 10
5.9625694273
 20
7.731240699
 11
6.7662142592
 21
7.731240699
  0
LINE
  5
2C4
100
AcDbEntity
  8
0
100
AcDbLine
 62
9
  6
CONTINUOUS
 10
11.9625694273
 20
7.731240699
 11
12.7662142592
 21
7.731240699
  0
LINE
  5
2C5
100
AcDbEntity
  8
0
100
AcDbLine
 62
7
  6
CONTINUOUS
 10
12.7348918433
 20
7.3245425652
 11
12.8918918433
 21
7.2735425652
  0
LINE
  5
2C6
100
AcDbEntity
  8
0
100
AcDbLine
 62
7
  6
CONTINUOUS
 10
12.8650450558
 20
6.6890425652
 11
12.8918918433
 21
6.6735425652
  0
LINE
  5
2C7
100
AcDbEntity
  8
0
100
AcDbLine
 62
7
  6
CONTINUOUS
 10
11.851157691
 20
6.5826232132
 11
11.8368918433
 21
6.6022584681
  0
LINE
  5
2C8
100
AcDbEntity
  8
0
100
AcDbLine
 62
7
  6
CONTINUOUS
 10
11.7393918433
 20
8.7039226033
 11
11.7393918433
 21
9.028546507
  0
LINE
  5
2C9
100
AcDbEntity
  8
0
100
AcDbLine
 62
7
  6
CONTINUOUS
 10
11.7703918433
 20
10.3610960366
 11
11.7703918433
 21
10.8579575978
  0
LINE
  5
2CA
100
AcDbEntity
  8
0
100
AcDbLine
 62
7
  6
CONTINUOUS
 10
11.8310978216
 20
8.9785425652
 11
11.8310978216
 21
8.753926545
  0
LINE
  5
2CB
100
AcDbEntity
  8
0
100
AcDbLine
 62
9
  6
CONTINUOUS
 10
11.8332258334
 20
6.8357340775
 11
11.8332258334
 21
7.1435323276
  0
LINE
  5
2CC
100
AcDbEntity
  8
0
100
AcDbLine
 62
7
  6
CONTINUOUS
 10
11.8368918433
 20
6.6022584681
 11
11.8368918433
 21
6.6735425652
  0
LINE
  5
2CD
100
AcDbEntity
  8
0
100
AcDbLine
 62
7
  6
CONTINUOUS
 10
11.840979913
 20
11.0725268206
 11
11.840979913
 21
11.1675268025
  0
LINE
  5
2CE
100
AcDbEntity
  8
0
100
AcDbLine
 62
7
  6
CONTINUOUS
 10
11.8543918433
 20
11.0725268172
 11
11.8543918433
 21
10.8995268172
  0
LINE
  5
2CF
100
AcDbEntity
  8
0
100
AcDbLine
 62
9
  6
CONTINUOUS
 10
11.8553858671
 20
7.0826395634
 11
11.8553858671
 21
6.8966746192
  0
LINE
  5
2D0
100
AcDbEntity
  8
0
100
AcDbLine
 62
7
  6
CONTINUOUS
 10
11.8669481168
 20
10.7826133877
 11
11.8669481168
 21
10.4364402467
  0
LINE
  5
2D1
100
AcDbEntity
  8
0
100
AcDbLine
 62
7
  6
CONTINUOUS
 10
11.9543918433
 20
10.3145661873
 11
11.9543918433
 21
10.3195268172
  0
LINE
  5
2D2
100
AcDbEntity
  8
0
100
AcDbLine
 62
7
  6
CONTINUOUS
 10
12.0208918433
 20
7.3245425652
 11
12.0208918433
 21
7.6835425652
  0
LINE
  5
2D3
100
AcDbEntity
  8
0
100
AcDbLine
 62
7
  6
CONTINUOUS
 10
12.1643918433
 20
7.7035425652
 11
12.1643918433
 21
7.6835425652
  0
LINE
  5
2D4
100
AcDbEntity
  8
0
100
AcDbLine
 62
7
  6
CONTINUOUS
 10
12.2158183383
 20
9.2550930919
 11
12.2158183383
 21
10.1130156606
  0
LINE
  5
2D5
100
AcDbEntity
  8
0
100
AcDbLine
 62
7
  6
CONTINUOUS
 10
12.2278183383
 20
9.3065543762
 11
12.2278183383
 21
10.0615543762
  0
LINE
  5
2D6
100
AcDbEntity
  8
0
100
AcDbLine
 62
7
  6
CONTINUOUS
 10
11.4217146203
 20
6.8217552696
 11
11.3396253633
 21
6.764275753
  0
LINE
  5
2D7
100
AcDbEntity
  8
0
100
AcDbLine
 62
7
  6
CONTINUOUS
 10
11.8637386308
 20
6.6890425652
 11
11.8368918433
 21
6.6735425652
  0
LINE
  5
2D8
100
AcDbEntity
  8
0
100
AcDbLine
 62
9
  6
CONTINUOUS
 10
5.7922349592
 20
8.2715417647
 11
6.9365487273
 21
8.2715417647
  0
LINE
  5
2D9
100
AcDbEntity
  8
0
100
AcDbLine
 62
9
  6
CONTINUOUS
 10
11.7922349592
 20
8.2715417647
 11
12.9365487273
 21
8.2715417647
  0
LINE
  5
2DA
100
AcDbEntity
  8
0
100
AcDbLine
 62
7
  6
CONTINUOUS
 10
9.9143183488
 20
8.4305110692
 11
8.8144653378
 21
8.4305110692
  0
LINE
  5
2DB
100
AcDbEntity
  8
0
100
AcDbLine
 62
7
  6
CONTINUOUS
 10
8.8144653378
 20
8.4690937463
 11
9.9143183488
 21
8.4690937463
  0
LINE
  5
2DC
100
AcDbEntity
  8
0
100
AcDbLine
 62
9
  6
CONTINUOUS
 10
5.7913063553
 20
8.4735425652
 11
6.9374773313
 21
8.4735425652
  0
LINE
  5
2DD
100
AcDbEntity
  8
0
100
AcDbLine
 62
9
  6
CONTINUOUS
 10
11.7913063553
 20
8.4735425652
 11
12.9374773313
 21
8.4735425652
  0
LINE
  5
2DE
100
AcDbEntity
  8
0
100
AcDbLine
 62
9
  6
CONTINUOUS
 10
5.7643918433
 20
8.678926545
 11
6.9643918433
 21
8.678926545
  0
LINE
  5
2DF
100
AcDbEntity
  8
0
100
AcDbLine
 62
9
  6
CONTINUOUS
 10
11.7643918433
 20
8.678926545
 11
12.9643918433
 21
8.678926545
  0
LINE
  5
2E0
100
AcDbEntity
  8
0
100
AcDbLine
 62
7
  6
CONTINUOUS
 10
13.3070690663
 20
6.8217552696
 11
13.3891583233
 21
6.764275753
  0
LINE
  5
2E1
100
AcDbEntity
  8
0
100
AcDbLine
 62
7
  6
CONTINUOUS
 10
12.2603183383
 20
10.1006592992
 11
12.2603183383
 21
9.2674494533
  0
LINE
  5
2E2
100
AcDbEntity
  8
0
100
AcDbLine
 62
7
  6
CONTINUOUS
 10
12.2653183383
 20
9.2674494527
 11
12.2653183383
 21
10.1006592998
  0
LINE
  5
2E3
100
AcDbEntity
  8
0
100
AcDbLine
 62
7
  6
CONTINUOUS
 10
12.2678355698
 20
10.4364402467
 11
12.2678355698
 21
10.7826133877
  0
LINE
  5
2E4
100
AcDbEntity
  8
0
100
AcDbLine
 62
7
  6
CONTINUOUS
 10
12.2726858649
 20
8.753926545
 11
12.2726858649
 21
8.9785425652
  0
LINE
  5
2E5
100
AcDbEntity
  8
0
100
AcDbLine
 62
7
  6
CONTINUOUS
 10
12.2978183383
 20
10.1102410737
 11
12.2978183383
 21
9.2578676788
  0
LINE
  5
2E6
100
AcDbEntity
  8
0
100
AcDbLine
 62
7
  6
CONTINUOUS
 10
12.4560978216
 20
8.9785425652
 11
12.4560978216
 21
8.753926545
  0
LINE
  5
2E7
100
AcDbEntity
  8
0
100
AcDbLine
 62
7
  6
CONTINUOUS
 10
12.4609481168
 20
10.7826133877
 11
12.4609481168
 21
10.4364402467
  0
LINE
  5
2E8
100
AcDbEntity
  8
0
100
AcDbLine
 62
7
  6
CONTINUOUS
 10
12.5278183383
 20
9.4983557767
 11
12.5278183383
 21
9.8697529757
  0
LINE
  5
2E9
100
AcDbEntity
  8
0
100
AcDbLine
 62
7
  6
CONTINUOUS
 10
12.5643918433
 20
7.7035425652
 11
12.5643918433
 21
7.6835425652
  0
LINE
  5
2EA
100
AcDbEntity
  8
0
100
AcDbLine
 62
7
  6
CONTINUOUS
 10
12.7078918433
 20
7.3245425652
 11
12.7078918433
 21
7.6835425652
  0
LINE
  5
2EB
100
AcDbEntity
  8
0
100
AcDbLine
 62
9
  6
CONTINUOUS
 10
12.75849477
 20
9.2734004484
 11
12.75849477
 21
9.5166855849
  0
LINE
  5
2EC
100
AcDbEntity
  8
0
100
AcDbLine
 62
9
  6
CONTINUOUS
 10
12.75849477
 20
9.8514206821
 11
12.75849477
 21
10.0947083041
  0
LINE
  5
2ED
100
AcDbEntity
  8
0
100
AcDbLine
 62
7
  6
CONTINUOUS
 10
12.7743918433
 20
10.3145661873
 11
12.7743918433
 21
10.3195268172
  0
LINE
  5
2EE
100
AcDbEntity
  8
0
100
AcDbLine
 62
7
  6
CONTINUOUS
 10
12.7778183383
 20
10.0747197464
 11
12.7778183383
 21
9.2933890061
  0
LWPOLYLINE
  5
2EF
100
AcDbEntity
  8
0
100
AcDbPolyline
 62
7
  6
CONTINUOUS
 90
9
 70
0
 10
12.8897592442
 20
11.1675268064
 10
12.8912897888
 20
11.216519579
 10
12.8950957319
 20
11.3045778804
 10
12.8999547362
 20
11.3861244323
 10
12.9055864736
 20
11.4583914462
 10
12.9116140739
 20
11.5187235643
 10
12.9174199224
 20
11.5640994684
 10
12.9221011164
 20
11.5926285876
 10
12.9236873952
 20
11.6005095255
  0
LINE
  5
2F0
100
AcDbEntity
  8
0
100
AcDbLine
 62
7
  6
CONTINUOUS
 10
13.3070690663
 20
7.1573298608
 11
13.3891583233
 21
7.2148093774
  0
LINE
  5
2F1
100
AcDbEntity
  8
0
100
AcDbLine
 62
7
  6
CONTINUOUS
 10
12.8650450558
 20
6.6890425652
 11
12.8918918433
 21
6.7045425652
  0
LINE
  5
2F2
100
AcDbEntity
  8
0
100
AcDbLine
 62
7
  6
CONTINUOUS
 10
12.8189017994
 20
6.5635425652
 11
12.8776259955
 21
6.5826232132
  0
LINE
  5
2F3
100
AcDbEntity
  8
0
100
AcDbLine
 62
7
  6
CONTINUOUS
 10
12.75849477
 20
9.2734004484
 11
12.2978183383
 21
9.2578107214
  0
LINE
  5
2F4
100
AcDbEntity
  8
0
100
AcDbLine
 62
7
  6
CONTINUOUS
 10
12.2158183383
 20
9.2550357637
 11
11.5958183383
 21
9.2340543762
  0
LINE
  5
2F5
100
AcDbEntity
  8
0
100
AcDbLine
 62
7
  6
CONTINUOUS
 10
6.2726858649
 20
8.753926545
 11
6.4560978216
 21
8.753926545
  0
LINE
  5
2F6
100
AcDbEntity
  8
0
100
AcDbLine
 62
7
  6
CONTINUOUS
 10
6.8976858649
 20
8.753926545
 11
6.9893918433
 21
8.753926545
  0
LINE
  5
2F7
100
AcDbEntity
  8
0
100
AcDbLine
 62
7
  6
CONTINUOUS
 10
11.7393918433
 20
8.753926545
 11
11.8310978216
 21
8.753926545
  0
LINE
  5
2F8
100
AcDbEntity
  8
0
100
AcDbLine
 62
7
  6
CONTINUOUS
 10
12.2726858649
 20
8.753926545
 11
12.4560978216
 21
8.753926545
  0
LINE
  5
2F9
100
AcDbEntity
  8
0
100
AcDbLine
 62
7
  6
CONTINUOUS
 10
12.8976858649
 20
8.753926545
 11
12.9893918433
 21
8.753926545
  0
LINE
  5
2FA
100
AcDbEntity
  8
0
100
AcDbLine
 62
7
  6
CONTINUOUS
 10
12.9893918433
 20
8.9785425652
 11
12.8976858649
 21
8.9785425652
  0
LINE
  5
2FB
100
AcDbEntity
  8
0
100
AcDbLine
 62
7
  6
CONTINUOUS
 10
12.4560978216
 20
8.9785425652
 11
12.2726858649
 21
8.9785425652
  0
LINE
  5
2FC
100
AcDbEntity
  8
0
100
AcDbLine
 62
7
  6
CONTINUOUS
 10
11.8310978216
 20
8.9785425652
 11
11.7393918433
 21
8.9785425652
  0
LINE
  5
2FD
100
AcDbEntity
  8
0
100
AcDbLine
 62
7
  6
CONTINUOUS
 10
6.9893918433
 20
8.9785425652
 11
6.8976858649
 21
8.9785425652
  0
LINE
  5
2FE
100
AcDbEntity
  8
0
100
AcDbLine
 62
7
  6
CONTINUOUS
 10
6.4560978216
 20
8.9785425652
 11
6.2726858649
 21
8.9785425652
  0
LINE
  5
2FF
100
AcDbEntity
  8
0
100
AcDbLine
 62
7
  6
CONTINUOUS
 10
7.2010315999
 20
9.0466107847
 11
7.2708610834
 21
9.0466107847
  0
LINE
  5
300
100
AcDbEntity
  8
0
100
AcDbLine
 62
7
  6
CONTINUOUS
 10
11.4579226032
 20
9.0466107847
 11
11.5277520867
 21
9.0466107847
  0
LINE
  5
301
100
AcDbEntity
  8
0
100
AcDbLine
 62
7
  6
CONTINUOUS
 10
12.9643884049
 20
9.0535425652
 11
11.7643952817
 21
9.0535425652
  0
LINE
  5
302
100
AcDbEntity
  8
0
100
AcDbLine
 62
7
  6
CONTINUOUS
 10
6.9643884049
 20
9.0535425652
 11
6.3208752763
 21
9.0535425652
  0
LINE
  5
303
100
AcDbEntity
  8
0
100
AcDbLine
 62
9
  6
CONTINUOUS
 10
12.8830598782
 20
9.0970383758
 11
11.8735777316
 21
9.0970383736
  0
LINE
  5
304
100
AcDbEntity
  8
0
100
AcDbLine
 62
9
  6
CONTINUOUS
 10
7.1951255324
 20
9.1240935594
 11
7.2649550159
 21
9.1240935594
  0
LINE
  5
305
100
AcDbEntity
  8
0
100
AcDbLine
 62
9
  6
CONTINUOUS
 10
11.4638286706
 20
9.1240935594
 11
11.5336581541
 21
9.1240935594
  0
LINE
  5
306
100
AcDbEntity
  8
0
100
AcDbLine
 62
9
  6
CONTINUOUS
 10
11.5337815365
 20
9.1440151931
 11
11.463952053
 21
9.1440151931
  0
LINE
  5
307
100
AcDbEntity
  8
0
100
AcDbLine
 62
9
  6
CONTINUOUS
 10
7.2648316336
 20
9.1440151931
 11
7.19500215
 21
9.1440151931
  0
LINE
  5
308
100
AcDbEntity
  8
0
100
AcDbLine
 62
7
  6
CONTINUOUS
 10
8.0072788635
 20
9.1440543762
 11
10.1923578131
 21
9.1440543762
  0
LINE
  5
309
100
AcDbEntity
  8
0
100
AcDbLine
 62
7
  6
CONTINUOUS
 10
10.8401573411
 20
9.2340543762
 11
10.6940817213
 21
9.2340543762
  0
LINE
  5
30A
100
AcDbEntity
  8
0
100
AcDbLine
 62
7
  6
CONTINUOUS
 10
7.3731903761
 20
9.2340543762
 11
7.3768183383
 21
9.2340543762
  0
LINE
  5
30B
100
AcDbEntity
  8
0
100
AcDbLine
 62
9
  6
CONTINUOUS
 10
7.2003838423
 20
9.236199362
 11
7.2702133259
 21
9.236199362
  0
LINE
  5
30C
100
AcDbEntity
  8
0
100
AcDbLine
 62
9
  6
CONTINUOUS
 10
11.4585703607
 20
9.236199362
 11
11.5283998442
 21
9.236199362
  0
LINE
  5
30D
100
AcDbEntity
  8
0
100
AcDbLine
 62
9
  6
CONTINUOUS
 10
6.8551889904
 20
9.0969518221
 11
6.3483996167
 21
9.0970371736
  0
LINE
  5
30E
100
AcDbEntity
  8
0
100
AcDbLine
 62
7
  6
CONTINUOUS
 10
9.7929580157
 20
10.2729720632
 11
9.7926857894
 21
10.2731676569
  0
LINE
  5
30F
100
AcDbEntity
  8
0
100
AcDbLine
 62
7
  6
CONTINUOUS
 10
9.7931793104
 20
10.2728071843
 11
9.7932767189
 21
10.2727361696
  0
LINE
  5
310
100
AcDbEntity
  8
0
100
AcDbLine
 62
7
  6
CONTINUOUS
 10
11.8540585178
 20
9.0758625077
 11
11.8540546182
 21
9.0758662128
  0
LINE
  5
311
100
AcDbEntity
  8
0
100
AcDbLine
 62
7
  6
CONTINUOUS
 10
11.7643918433
 20
8.678926545
 11
11.7393918433
 21
8.703926545
  0
LINE
  5
312
100
AcDbEntity
  8
0
100
AcDbLine
 62
7
  6
CONTINUOUS
 10
11.3910841451
 20
9.0790977337
 11
11.3561674006
 21
9.1235396642
  0
LINE
  5
313
100
AcDbEntity
  8
0
100
AcDbLine
 62
9
  6
CONTINUOUS
 10
11.3731296589
 20
9.1316107847
 11
11.3382129144
 21
9.1760527152
  0
LINE
  5
314
100
AcDbEntity
  8
0
100
AcDbLine
 62
9
  6
CONTINUOUS
 10
11.3383362968
 20
9.195974349
 11
11.3732530413
 21
9.1515324185
  0
LINE
  5
315
100
AcDbEntity
  8
0
100
AcDbLine
 62
9
  6
CONTINUOUS
 10
11.4391158803
 20
9.2609609678
 11
11.4585703607
 21
9.236199362
  0
LINE
  5
316
100
AcDbEntity
  8
0
100
AcDbLine
 62
9
  6
CONTINUOUS
 10
11.5283998442
 20
9.236199362
 11
11.5092192764
 21
9.2606123328
  0
LINE
  5
317
100
AcDbEntity
  8
0
100
AcDbLine
 62
7
  6
CONTINUOUS
 10
11.5947139271
 20
9.2040454695
 11
11.5597971826
 21
9.2484874
  0
LINE
  5
318
100
AcDbEntity
  8
0
100
AcDbLine
 62
7
  6
CONTINUOUS
 10
11.581758456
 20
9.3166554525
 11
11.5958183383
 21
9.292383847
  0
LINE
  5
319
100
AcDbEntity
  8
0
100
AcDbLine
 62
7
  6
CONTINUOUS
 10
12.8618355698
 20
10.4364402467
 11
12.8618355698
 21
10.7826133877
  0
LINE
  5
31A
100
AcDbEntity
  8
0
100
AcDbLine
 62
9
  6
CONTINUOUS
 10
12.8733978194
 20
6.8964455838
 11
12.8733978194
 21
7.0824105224
  0
LINE
  5
31B
100
AcDbEntity
  8
0
100
AcDbLine
 62
7
  6
CONTINUOUS
 10
12.8743918433
 20
11.0725268172
 11
12.8743918433
 21
10.8995268172
  0
LINE
  5
31C
100
AcDbEntity
  8
0
100
AcDbLine
 62
7
  6
CONTINUOUS
 10
12.8885390608
 20
11.0725268206
 11
12.8885390608
 21
11.1675268025
  0
LINE
  5
31D
100
AcDbEntity
  8
0
100
AcDbLine
 62
7
  6
CONTINUOUS
 10
12.8918918433
 20
6.6022584681
 11
12.8918918433
 21
6.6735425652
  0
LINE
  5
31E
100
AcDbEntity
  8
0
100
AcDbLine
 62
9
  6
CONTINUOUS
 10
12.8955578531
 20
7.1433510441
 11
12.8955578531
 21
6.8355528117
  0
LINE
  5
31F
100
AcDbEntity
  8
0
100
AcDbLine
 62
7
  6
CONTINUOUS
 10
12.8976858649
 20
8.753926545
 11
12.8976858649
 21
8.9785425652
  0
LINE
  5
320
100
AcDbEntity
  8
0
100
AcDbLine
 62
7
  6
CONTINUOUS
 10
12.9583918433
 20
10.3610960366
 11
12.9583918433
 21
10.8579575978
  0
LINE
  5
321
100
AcDbEntity
  8
0
100
AcDbLine
 62
7
  6
CONTINUOUS
 10
12.9893918433
 20
9.028546507
 11
12.9893918433
 21
8.7039226033
  0
LINE
  5
322
100
AcDbEntity
  8
0
100
AcDbLine
 62
9
  6
CONTINUOUS
 10
13.2570286847
 20
6.798625272
 11
13.2570286847
 21
7.1804598585
  0
LINE
  5
323
100
AcDbEntity
  8
0
100
AcDbLine
 62
7
  6
CONTINUOUS
 10
13.2818918433
 20
6.8005231779
 11
13.2818918433
 21
7.1785619526
  0
LINE
  5
324
100
AcDbEntity
  8
0
100
AcDbLine
 62
9
  6
CONTINUOUS
 10
13.3070690663
 20
7.1573298608
 11
13.3070690663
 21
6.8217552696
  0
LINE
  5
325
100
AcDbEntity
  8
0
100
AcDbLine
 62
7
  6
CONTINUOUS
 10
12.8776259955
 20
6.5826232132
 11
12.8918918433
 21
6.6022584681
  0
LINE
  5
326
100
AcDbEntity
  8
0
100
AcDbLine
 62
7
  6
CONTINUOUS
 10
10.648649956
 20
9.2161708303
 11
10.7948397539
 21
9.2340543762
  0
LINE
  5
327
100
AcDbEntity
  8
0
100
AcDbLine
 62
7
  6
CONTINUOUS
 10
10.8512329622
 20
9.2409530145
 11
11.3025899106
 21
9.2961679668
  0
LINE
  5
328
100
AcDbEntity
  8
0
100
AcDbLine
 62
7
  6
CONTINUOUS
 10
11.5578326637
 20
9.3273920711
 11
11.5737556045
 21
9.3293399406
  0
LINE
  5
329
100
AcDbEntity
  8
0
100
AcDbLine
 62
9
  6
CONTINUOUS
 10
6.1527713697
 20
9.3440545804
 11
6.1522831691
 21
9.3440528677
  0
LINE
  5
32A
100
AcDbEntity
  8
0
100
AcDbLine
 62
7
  6
CONTINUOUS
 10
12.2653183383
 20
9.2673937761
 11
12.2603183383
 21
9.2673937761
  0
LINE
  5
32B
100
AcDbEntity
  8
0
100
AcDbLine
 62
7
  6
CONTINUOUS
 10
10.8448183383
 20
9.2740543762
 11
10.9448183383
 21
9.2740543762
  0
LINE
  5
32C
100
AcDbEntity
  8
0
100
AcDbLine
 62
9
  6
CONTINUOUS
 10
7.2503124688
 20
9.2806412925
 11
7.2353005868
 21
9.2806412925
  0
LINE
  5
32D
100
AcDbEntity
  8
0
100
AcDbLine
 62
7
  6
CONTINUOUS
 10
12.2158183383
 20
9.3065543762
 11
12.2278406668
 21
9.3065543762
  0
LINE
  5
32E
100
AcDbEntity
  8
0
100
AcDbLine
 62
7
  6
CONTINUOUS
 10
11.5822601502
 20
9.316214377
 11
11.5738183383
 21
9.316214377
  0
LINE
  5
32F
100
AcDbEntity
  8
0
100
AcDbLine
 62
7
  6
CONTINUOUS
 10
6.1527713805
 20
9.3440543762
 11
7.051318792
 21
9.3440543762
  0
LINE
  5
330
100
AcDbEntity
  8
0
100
AcDbLine
 62
7
  6
CONTINUOUS
 10
11.5138183383
 20
9.3540543762
 11
11.5738183383
 21
9.3540543762
  0
LINE
  5
331
100
AcDbEntity
  8
0
100
AcDbLine
 62
7
  6
CONTINUOUS
 10
12.7778183383
 20
9.4140543762
 11
17.3678183383
 21
9.4140543762
  0
LINE
  5
332
100
AcDbEntity
  8
0
100
AcDbLine
 62
7
  6
CONTINUOUS
 10
11.5092192764
 20
9.2606123328
 11
11.4391158803
 21
9.2609609678
  0
LINE
  5
333
100
AcDbEntity
  8
0
100
AcDbLine
 62
7
  6
CONTINUOUS
 10
11.5777200575
 20
10.0901972053
 11
11.5773833383
 21
10.0905543762
  0
LINE
  5
334
100
AcDbEntity
  8
0
100
AcDbLine
 62
7
  6
CONTINUOUS
 10
11.7943918433
 20
10.3195268172
 11
11.7703918433
 21
10.3610960366
  0
LINE
  5
335
100
AcDbEntity
  8
0
100
AcDbLine
 62
9
  6
CONTINUOUS
 10
13.3891583233
 20
6.764275753
 11
13.3891583233
 21
7.2148093774
  0
LINE
  5
336
100
AcDbEntity
  8
0
100
AcDbLine
 62
7
  6
CONTINUOUS
 10
11.4391158803
 20
10.1071477847
 11
11.5092192764
 21
10.1074964197
  0
LINE
  5
337
100
AcDbEntity
  8
0
100
AcDbLine
 62
7
  6
CONTINUOUS
 10
12.7778183383
 20
9.9540543762
 11
17.3678183383
 21
9.9540543762
  0
LINE
  5
338
100
AcDbEntity
  8
0
100
AcDbLine
 62
7
  6
CONTINUOUS
 10
11.5138183383
 20
10.0140543762
 11
11.5738183383
 21
10.0140543762
  0
LINE
  5
339
100
AcDbEntity
  8
0
100
AcDbLine
 62
7
  6
CONTINUOUS
 10
6.1527713805
 20
10.0240543762
 11
7.051318792
 21
10.0240543762
  0
LINE
  5
33A
100
AcDbEntity
  8
0
100
AcDbLine
 62
7
  6
CONTINUOUS
 10
12.2158183383
 20
10.0615543762
 11
12.2278406668
 21
10.0615543762
  0
LINE
  5
33B
100
AcDbEntity
  8
0
100
AcDbLine
 62
9
  6
CONTINUOUS
 10
7.2353005868
 20
10.08746746
 11
7.2503124688
 21
10.08746746
  0
LINE
  5
33C
100
AcDbEntity
  8
0
100
AcDbLine
 62
7
  6
CONTINUOUS
 10
11.5738183383
 20
10.0905543762
 11
11.5768130635
 21
10.0905543762
  0
LINE
  5
33D
100
AcDbEntity
  8
0
100
AcDbLine
 62
7
  6
CONTINUOUS
 10
10.8448183383
 20
10.0940543762
 11
10.9448183383
 21
10.0940543762
  0
LINE
  5
33E
100
AcDbEntity
  8
0
100
AcDbLine
 62
7
  6
CONTINUOUS
 10
12.2653183383
 20
10.1007149764
 11
12.2603183383
 21
10.1007149764
  0
LINE
  5
33F
100
AcDbEntity
  8
0
100
AcDbLine
 62
9
  6
CONTINUOUS
 10
11.5283998442
 20
10.1319093905
 11
11.4585703607
 21
10.1319093905
  0
LINE
  5
340
100
AcDbEntity
  8
0
100
AcDbLine
 62
9
  6
CONTINUOUS
 10
7.2702133259
 20
10.1319093905
 11
7.2003838423
 21
10.1319093905
  0
LINE
  5
341
100
AcDbEntity
  8
0
100
AcDbLine
 62
7
  6
CONTINUOUS
 10
7.3731903761
 20
10.1340543762
 11
7.3768183383
 21
10.1340543762
  0
LINE
  5
342
100
AcDbEntity
  8
0
100
AcDbLine
 62
7
  6
CONTINUOUS
 10
10.6940817213
 20
10.1340543762
 11
10.8401573411
 21
10.1340543762
  0
LINE
  5
343
100
AcDbEntity
  8
0
100
AcDbLine
 62
7
  6
CONTINUOUS
 10
8.0072788635
 20
10.2240543762
 11
10.1923578131
 21
10.2240543762
  0
LINE
  5
344
100
AcDbEntity
  8
0
100
AcDbLine
 62
9
  6
CONTINUOUS
 10
7.19500215
 20
10.2240935594
 11
7.2648316336
 21
10.2240935594
  0
LINE
  5
345
100
AcDbEntity
  8
0
100
AcDbLine
 62
9
  6
CONTINUOUS
 10
11.463952053
 20
10.2240935594
 11
11.5337815365
 21
10.2240935594
  0
LINE
  5
346
100
AcDbEntity
  8
0
100
AcDbLine
 62
9
  6
CONTINUOUS
 10
11.5336581541
 20
10.2440151931
 11
11.4638286706
 21
10.2440151931
  0
LINE
  5
347
100
AcDbEntity
  8
0
100
AcDbLine
 62
9
  6
CONTINUOUS
 10
7.2649550159
 20
10.2440151931
 11
7.1951255324
 21
10.2440151931
  0
LINE
  5
348
100
AcDbEntity
  8
0
100
AcDbLine
 62
9
  6
CONTINUOUS
 10
6.3461410733
 20
10.2710709619
 11
6.8552008135
 21
10.2710703789
  0
LINE
  5
349
100
AcDbEntity
  8
0
100
AcDbLine
 62
7
  6
CONTINUOUS
 10
12.8324322284
 20
10.3145661873
 11
11.8963513223
 21
10.3145661873
  0
LINE
  5
34A
100
AcDbEntity
  8
0
100
AcDbLine
 62
7
  6
CONTINUOUS
 10
6.8324584051
 20
10.3145661873
 11
6.316180028
 21
10.3145661873
  0
LINE
  5
34B
100
AcDbEntity
  8
0
100
AcDbLine
 62
7
  6
CONTINUOUS
 10
6.3127629711
 20
10.3195268172
 11
6.9343918433
 21
10.3195268172
  0
LINE
  5
34C
100
AcDbEntity
  8
0
100
AcDbLine
 62
7
  6
CONTINUOUS
 10
11.7943918433
 20
10.3195268172
 11
12.9343918433
 21
10.3195268172
  0
LINE
  5
34D
100
AcDbEntity
  8
0
100
AcDbLine
 62
7
  6
CONTINUOUS
 10
11.5277520867
 20
10.3214979677
 11
11.4579226032
 21
10.3214979677
  0
LINE
  5
34E
100
AcDbEntity
  8
0
100
AcDbLine
 62
7
  6
CONTINUOUS
 10
7.2708610834
 20
10.3214979677
 11
7.2010315999
 21
10.3214979677
  0
LINE
  5
34F
100
AcDbEntity
  8
0
100
AcDbLine
 62
9
  6
CONTINUOUS
 10
11.8735948295
 20
10.2711568664
 11
12.8830595521
 21
10.2710703775
  0
LINE
  5
350
100
AcDbEntity
  8
0
100
AcDbLine
 62
9
  6
CONTINUOUS
 10
6.1527713714
 20
10.0240542228
 11
6.1522968805
 21
10.0240558408
  0
LINE
  5
351
100
AcDbEntity
  8
0
100
AcDbLine
 62
7
  6
CONTINUOUS
 10
12.75849477
 20
10.0947083041
 11
12.2978183383
 21
10.1102980311
  0
LINE
  5
352
100
AcDbEntity
  8
0
100
AcDbLine
 62
7
  6
CONTINUOUS
 10
12.2158183383
 20
10.1130729888
 11
11.5958183383
 21
10.1340543762
  0
LINE
  5
353
100
AcDbEntity
  8
0
100
AcDbLine
 62
7
  6
CONTINUOUS
 10
5.7418108293
 20
10.8169444612
 11
5.531720396
 21
10.8402572339
  0
LINE
  5
354
100
AcDbEntity
  8
0
100
AcDbLine
 62
7
  6
CONTINUOUS
 10
9.8669585763
 20
10.2475737125
 11
10.0592147312
 21
10.2240543762
  0
LINE
  5
355
100
AcDbEntity
  8
0
100
AcDbLine
 62
7
  6
CONTINUOUS
 10
10.6486172314
 20
10.1519508037
 11
10.7949095542
 21
10.1340543762
  0
LINE
  5
356
100
AcDbEntity
  8
0
100
AcDbLine
 62
7
  6
CONTINUOUS
 10
10.8512340956
 20
10.1271640073
 11
11.3026078639
 21
10.0719459497
  0
LINE
  5
357
100
AcDbEntity
  8
0
100
AcDbLine
 62
7
  6
CONTINUOUS
 10
11.557843094
 20
10.0407221732
 11
11.5737564158
 21
10.0387754435
  0
LWPOLYLINE
  5
358
100
AcDbEntity
  8
0
100
AcDbPolyline
 62
7
  6
CONTINUOUS
 90
4
 70
0
 10
9.8665383189
 20
10.2476252594
 10
9.8394772081
 20
10.2528346626
 10
9.802130535
 20
10.2673410059
 10
9.7929580157
 20
10.2729720632
  0
LINE
  5
359
100
AcDbEntity
  8
0
100
AcDbLine
 62
7
  6
CONTINUOUS
 10
12.9643918433
 20
9.0535425652
 11
12.9893918433
 21
9.0285425652
  0
LINE
  5
35A
100
AcDbEntity
  8
0
100
AcDbLine
 62
9
  6
CONTINUOUS
 10
14.0778183383
 20
9.4140543762
 11
14.0778183383
 21
9.9540543762
  0
LINE
  5
35B
100
AcDbEntity
  8
0
100
AcDbLine
 62
7
  6
CONTINUOUS
 10
8.8622438717
 20
10.2476248403
 11
8.6695689545
 21
10.2240543762
  0
LINE
  5
35C
100
AcDbEntity
  8
0
100
AcDbLine
 62
7
  6
CONTINUOUS
 10
12.9869728614
 20
10.8169442886
 11
13.1970593114
 21
10.8402563719
  0
LINE
  5
35D
100
AcDbEntity
  8
0
100
AcDbLine
 62
7
  6
CONTINUOUS
 10
12.9705020194
 20
10.8138249197
 11
12.9704507589
 21
10.8138248699
  0
LINE
  5
35E
100
AcDbEntity
  8
0
100
AcDbLine
 62
7
  6
CONTINUOUS
 10
6.2678355698
 20
10.4364402467
 11
6.4609481168
 21
10.4364402467
  0
LINE
  5
35F
100
AcDbEntity
  8
0
100
AcDbLine
 62
7
  6
CONTINUOUS
 10
6.8618355698
 20
10.4364402467
 11
6.9583918433
 21
10.4364402467
  0
LINE
  5
360
100
AcDbEntity
  8
0
100
AcDbLine
 62
7
  6
CONTINUOUS
 10
11.7703918433
 20
10.4364402467
 11
11.8669481168
 21
10.4364402467
  0
LINE
  5
361
100
AcDbEntity
  8
0
100
AcDbLine
 62
7
  6
CONTINUOUS
 10
12.2678355698
 20
10.4364402467
 11
12.4609481168
 21
10.4364402467
  0
LINE
  5
362
100
AcDbEntity
  8
0
100
AcDbLine
 62
7
  6
CONTINUOUS
 10
12.8618355698
 20
10.4364402467
 11
12.9583918433
 21
10.4364402467
  0
LINE
  5
363
100
AcDbEntity
  8
0
100
AcDbLine
 62
7
  6
CONTINUOUS
 10
12.9583918433
 20
10.7826133877
 11
12.8618355698
 21
10.7826133877
  0
LINE
  5
364
100
AcDbEntity
  8
0
100
AcDbLine
 62
7
  6
CONTINUOUS
 10
12.4609481168
 20
10.7826133877
 11
12.2678355698
 21
10.7826133877
  0
LINE
  5
365
100
AcDbEntity
  8
0
100
AcDbLine
 62
7
  6
CONTINUOUS
 10
11.8669481168
 20
10.7826133877
 11
11.7703918433
 21
10.7826133877
  0
LINE
  5
366
100
AcDbEntity
  8
0
100
AcDbLine
 62
7
  6
CONTINUOUS
 10
6.9583918433
 20
10.7826133877
 11
6.8618355698
 21
10.7826133877
  0
LINE
  5
367
100
AcDbEntity
  8
0
100
AcDbLine
 62
7
  6
CONTINUOUS
 10
6.4609481168
 20
10.7826133877
 11
6.2678355698
 21
10.7826133877
  0
LINE
  5
368
100
AcDbEntity
  8
0
100
AcDbLine
 62
7
  6
CONTINUOUS
 10
5.8669481168
 20
10.7826133877
 11
5.7703918433
 21
10.7826133877
  0
LINE
  5
369
100
AcDbEntity
  8
0
100
AcDbLine
 62
7
  6
CONTINUOUS
 10
12.9343918433
 20
10.8995268172
 11
11.7943918433
 21
10.8995268172
  0
LINE
  5
36A
100
AcDbEntity
  8
0
100
AcDbLine
 62
7
  6
CONTINUOUS
 10
6.9343918433
 20
10.8995268172
 11
5.7943918433
 21
10.8995268172
  0
LINE
  5
36B
100
AcDbEntity
  8
0
100
AcDbLine
 62
7
  6
CONTINUOUS
 10
5.7582853959
 20
10.8138250262
 11
5.7583328642
 21
10.8138249834
  0
LINE
  5
36C
100
AcDbEntity
  8
0
100
AcDbLine
 62
7
  6
CONTINUOUS
 10
12.9583918433
 20
10.8579575978
 11
12.9343918433
 21
10.8995268172
  0
LINE
  5
36D
100
AcDbEntity
  8
0
100
AcDbLine
 62
7
  6
CONTINUOUS
 10
5.8414721711
 20
11.0725268172
 11
6.8865762281
 21
11.0725268172
  0
LINE
  5
36E
100
AcDbEntity
  8
0
100
AcDbLine
 62
7
  6
CONTINUOUS
 10
11.842205823
 20
11.0725268172
 11
12.8873131509
 21
11.0725268172
  0
LINE
  5
36F
100
AcDbEntity
  8
0
100
AcDbLine
 62
7
  6
CONTINUOUS
 10
6.8878037719
 20
11.1675268025
 11
5.8402446257
 21
11.1675268025
  0
LINE
  5
370
100
AcDbEntity
  8
0
100
AcDbLine
 62
7
  6
CONTINUOUS
 10
11.8409799146
 20
11.1675268025
 11
12.8885390608
 21
11.1675268025
  0
LWPOLYLINE
  5
371
100
AcDbEntity
  8
0
100
AcDbPolyline
 62
7
  6
CONTINUOUS
 90
12
 70
0
 10
12.4408189689
 20
12.3223079777
 10
12.2968893745
 20
12.3027481231
 10
12.1577459089
 20
12.2421573569
 10
12.0499105459
 20
12.1555657529
 10
11.9725943475
 20
12.0555686867
 10
11.9210617563
 20
11.9506362573
 10
11.8893192182
 20
11.8486928408
 10
11.8680639445
 20
11.7417174399
 10
11.8526827094
 20
11.6171885233
 10
11.8425243153
 20
11.4699905212
 10
11.8382759917
 20
11.3008377353
 10
11.8397597319
 20
11.1675267772
  0
LINE
  5
372
100
AcDbEntity
  8
0
100
AcDbLine
 62
7
  6
CONTINUOUS
 10
6.2880026665
 20
12.3223080209
 11
6.2433836725
 21
12.3204552902
  0
LINE
  5
373
100
AcDbEntity
  8
0
100
AcDbLine
 62
7
  6
CONTINUOUS
 10
6.2879647174
 20
12.3223079777
 11
6.2880026665
 21
12.3223080209
  0
LINE
  5
374
100
AcDbEntity
  8
0
100
AcDbLine
 62
7
  6
CONTINUOUS
 10
12.4408189689
 20
12.3223079777
 11
12.4407810203
 21
12.3223080209
  0
LINE
  5
375
100
AcDbEntity
  8
0
100
AcDbLine
 62
7
  6
CONTINUOUS
 10
12.4854000037
 20
12.320455291
 11
12.44078102
 21
12.3223080209
  0
LINE
  5
376
100
AcDbEntity
  8
0
100
AcDbLine
 62
7
  6
CONTINUOUS
 10
12.4854000037
 20
12.320455291
 11
12.4859824465
 21
12.3204065571
  0
LINE
  5
377
100
AcDbEntity
  8
0
100
AcDbLine
 62
7
  6
CONTINUOUS
 10
6.2434629109
 20
12.3204593039
 11
6.2429047539
 21
12.3204126702
  0
LINE
  5
378
100
AcDbEntity
  8
0
100
AcDbLine
 62
7
  6
CONTINUOUS
 10
5.7582816673
 20
12.7712287175
 11
5.7583329267
 21
12.7712287673
  0
LINE
  5
379
100
AcDbEntity
  8
0
100
AcDbLine
 62
7
  6
CONTINUOUS
 10
12.9704982909
 20
12.7712286127
 11
12.9704508216
 21
12.7712286554
  0
LINE
  5
37A
100
AcDbEntity
  8
0
100
AcDbLine
 62
7
  6
CONTINUOUS
 10
13.1970591395
 20
12.7447972994
 11
12.986972871
 21
12.7681093446
  0
LINE
  5
37B
100
AcDbEntity
  8
0
100
AcDbLine
 62
7
  6
CONTINUOUS
 10
5.5317230394
 20
12.7447969839
 11
5.7418108293
 21
12.7681091732
  0
ARC
  5
37C
100
AcDbEntity
  8
0
100
AcDbCircle
 62
7
  6
CONTINUOUS
 10
5.6341125522
 20
7.2218347994
 40
1.3600000002
100
AcDbArc
 50
337.6438963447
 51
341.2440132161
  0
ARC
  5
37D
100
AcDbEntity
  8
0
100
AcDbCircle
 62
7
  6
CONTINUOUS
 10
5.6360930626
 20
6.7514607498
 40
1.3599999998
100
AcDbArc
 50
19.0137741999
 51
22.5744557111
  0
ARC
  5
37E
100
AcDbEntity
  8
0
100
AcDbCircle
 62
7
  6
CONTINUOUS
 10
4.716254434
 20
7.6353296072
 40
1.25
100
AcDbArc
 50
4.4005657616
 51
30.5952280492
  0
ARC
  5
37F
100
AcDbEntity
  8
0
100
AcDbCircle
 62
7
  6
CONTINUOUS
 10
5.306287886
 20
6.8975779205
 40
0.5820422228
100
AcDbArc
 50
27.9037025869
 51
29.5461222846
  0
ARC
  5
380
100
AcDbEntity
  8
0
100
AcDbCircle
 62
7
  6
CONTINUOUS
 10
5.3394772969
 20
6.9152106174
 40
0.5444596966
100
AcDbArc
 50
26.4166158016
 51
27.8983958357
  0
ARC
  5
381
100
AcDbEntity
  8
0
100
AcDbCircle
 62
7
  6
CONTINUOUS
 10
5.3463387108
 20
6.9186328341
 40
0.5367922058
100
AcDbArc
 50
26.0123693237
 51
26.4153061216
  0
ARC
  5
382
100
AcDbEntity
  8
0
100
AcDbCircle
 62
7
  6
CONTINUOUS
 10
5.1818918433
 20
6.9895425652
 40
0.275
100
AcDbArc
 50
55.0
 51
305.0
  0
ARC
  5
383
100
AcDbEntity
  8
0
100
AcDbCircle
 62
7
  6
CONTINUOUS
 10
5.6545158843
 20
7.3510425652
 40
0.25
100
AcDbArc
 50
223.0260516848
 51
312.3015881805
  0
ARC
  5
384
100
AcDbEntity
  8
0
100
AcDbCircle
 62
7
  6
CONTINUOUS
 10
5.6545158843
 20
6.6280425652
 40
0.25
100
AcDbArc
 50
47.6857751901
 51
136.9739483152
  0
ARC
  5
385
100
AcDbEntity
  8
0
100
AcDbCircle
 62
7
  6
CONTINUOUS
 10
5.9924809871
 20
7.7335425652
 40
0.03
100
AcDbArc
 50
184.4005657615
 51
270.0
  0
ARC
  5
386
100
AcDbEntity
  8
0
100
AcDbCircle
 62
7
  6
CONTINUOUS
 10
5.9768918433
 20
6.5687427969
 40
0.03
100
AcDbArc
 50
190.2553348464
 51
255.2370022578
  0
ARC
  5
387
100
AcDbEntity
  8
0
100
AcDbCircle
 62
7
  6
CONTINUOUS
 10
5.4308918433
 20
7.1704362935
 40
0.016
100
AcDbArc
 50
235.0
 51
360.0
  0
ARC
  5
388
100
AcDbEntity
  8
0
100
AcDbCircle
 62
7
  6
CONTINUOUS
 10
5.4308918433
 20
6.8086488369
 40
0.016
100
AcDbArc
 50
0.0
 51
125.0
  0
ARC
  5
389
100
AcDbEntity
  8
0
100
AcDbCircle
 62
7
  6
CONTINUOUS
 10
5.4600583054
 20
6.8095425652
 40
0.016
100
AcDbArc
 50
214.6234511018
 51
316.9739483152
  0
ARC
  5
38A
100
AcDbEntity
  8
0
100
AcDbCircle
 62
7
  6
CONTINUOUS
 10
5.4600583054
 20
7.1695425652
 40
0.016
100
AcDbArc
 50
43.0260516848
 51
145.3765488982
  0
ARC
  5
38B
100
AcDbEntity
  8
0
100
AcDbCircle
 62
7
  6
CONTINUOUS
 10
5.9515209301
 20
9.4035936856
 40
1.4633704397
100
AcDbArc
 50
353.5056737865
 51
354.8327715506
  0
ARC
  5
38C
100
AcDbEntity
  8
0
100
AcDbCircle
 62
7
  6
CONTINUOUS
 10
5.9643918433
 20
8.3733357099
 40
0.2
100
AcDbArc
 50
149.9315492034
 51
210.5952280491
  0
ARC
  5
38D
100
AcDbEntity
  8
0
100
AcDbCircle
 62
7
  6
CONTINUOUS
 10
5.6441836905
 20
8.5587183922
 40
0.17
100
AcDbArc
 50
329.9315492035
 51
45.0
  0
ARC
  5
38E
100
AcDbEntity
  8
0
100
AcDbCircle
 62
7
  6
CONTINUOUS
 10
7.0946711343
 20
7.2218347994
 40
1.3600000002
100
AcDbArc
 50
198.7559867839
 51
202.3561036553
  0
ARC
  5
38F
100
AcDbEntity
  8
0
100
AcDbCircle
 62
7
  6
CONTINUOUS
 10
7.092690624
 20
6.7514607498
 40
1.3599999998
100
AcDbArc
 50
157.4255442889
 51
160.9862258001
  0
ARC
  5
390
100
AcDbEntity
  8
0
100
AcDbCircle
 62
7
  6
CONTINUOUS
 10
7.4224975941
 20
7.0815081158
 40
0.5820442324
100
AcDbArc
 50
207.9036987284
 51
209.546122871
  0
ARC
  5
391
100
AcDbEntity
  8
0
100
AcDbCircle
 62
7
  6
CONTINUOUS
 10
7.3893073486
 20
7.0638749771
 40
0.5444607619
100
AcDbArc
 50
206.41661116
 51
207.8983917421
  0
ARC
  5
392
100
AcDbEntity
  8
0
100
AcDbCircle
 62
7
  6
CONTINUOUS
 10
7.3824459124
 20
7.0604527495
 40
0.5367932462
100
AcDbArc
 50
206.0123822851
 51
206.4153014311
  0
ARC
  5
393
100
AcDbEntity
  8
0
100
AcDbCircle
 62
7
  6
CONTINUOUS
 10
7.5468918433
 20
6.9895425652
 40
0.275
100
AcDbArc
 50
235.0
 51
125.0
  0
CIRCLE
  5
394
100
AcDbEntity
  8
0
100
AcDbCircle
 62
7
  6
CONTINUOUS
 10
6.3643918433
 20
6.9895425652
 40
0.275
  0
ARC
  5
395
100
AcDbEntity
  8
0
100
AcDbCircle
 62
7
  6
CONTINUOUS
 10
7.0742678022
 20
7.3510425652
 40
0.25
100
AcDbArc
 50
227.6857745053
 51
316.9739483152
  0
ARC
  5
396
100
AcDbEntity
  8
0
100
AcDbCircle
 62
7
  6
CONTINUOUS
 10
7.0742678022
 20
6.6280425652
 40
0.25
100
AcDbArc
 50
43.0260516848
 51
132.3015886019
  0
ARC
  5
397
100
AcDbEntity
  8
0
100
AcDbCircle
 62
7
  6
CONTINUOUS
 10
6.7363026994
 20
7.7335425652
 40
0.03
100
AcDbArc
 50
270.0
 51
355.5994342385
  0
ARC
  5
398
100
AcDbEntity
  8
0
100
AcDbCircle
 62
7
  6
CONTINUOUS
 10
6.7518918433
 20
6.5687427969
 40
0.03
100
AcDbArc
 50
284.7629977422
 51
349.7446651536
  0
ARC
  5
399
100
AcDbEntity
  8
0
100
AcDbCircle
 62
7
  6
CONTINUOUS
 10
7.2978918433
 20
7.1704362935
 40
0.016
100
AcDbArc
 50
180.0
 51
305.0
  0
ARC
  5
39A
100
AcDbEntity
  8
0
100
AcDbCircle
 62
7
  6
CONTINUOUS
 10
7.2978918433
 20
6.8086488369
 40
0.016
100
AcDbArc
 50
55.0
 51
180.0
  0
ARC
  5
39B
100
AcDbEntity
  8
0
100
AcDbCircle
 62
7
  6
CONTINUOUS
 10
7.2687253812
 20
6.8095425652
 40
0.016
100
AcDbArc
 50
223.0260516848
 51
325.3765488982
  0
ARC
  5
39C
100
AcDbEntity
  8
0
100
AcDbCircle
 62
7
  6
CONTINUOUS
 10
7.2687253812
 20
7.1695425652
 40
0.016
100
AcDbArc
 50
34.6234511018
 51
136.9739483152
  0
ARC
  5
39D
100
AcDbEntity
  8
0
100
AcDbCircle
 62
7
  6
CONTINUOUS
 10
6.3643918433
 20
8.0392159572
 40
1.550673392
100
AcDbArc
 50
277.1356980328
 51
284.7629977426
  0
ARC
  5
39E
100
AcDbEntity
  8
0
100
AcDbCircle
 62
7
  6
CONTINUOUS
 10
6.3643918433
 20
8.0392159572
 40
1.550673392
100
AcDbArc
 50
272.848079103
 51
275.7961255823
  0
ARC
  5
39F
100
AcDbEntity
  8
0
100
AcDbCircle
 62
7
  6
CONTINUOUS
 10
6.3643918433
 20
8.0392159572
 40
1.550673392
100
AcDbArc
 50
265.6144410285
 51
267.0408598669
  0
ARC
  5
3A0
100
AcDbEntity
  8
0
100
AcDbCircle
 62
7
  6
CONTINUOUS
 10
6.3643918433
 20
8.0392159572
 40
1.550673392
100
AcDbArc
 50
255.2370022574
 51
260.7724181776
  0
ARC
  5
3A1
100
AcDbEntity
  8
0
100
AcDbCircle
 62
7
  6
CONTINUOUS
 10
6.3643918433
 20
8.0392159572
 40
1.550673392
100
AcDbArc
 50
268.3840739981
 51
271.5271578604
  0
ARC
  5
3A2
100
AcDbEntity
  8
0
100
AcDbCircle
 62
7
  6
CONTINUOUS
 10
6.3643918433
 20
8.0392159572
 40
1.549673392
100
AcDbArc
 50
267.0408598669
 51
268.3840739981
  0
ARC
  5
3A3
100
AcDbEntity
  8
0
100
AcDbCircle
 62
7
  6
CONTINUOUS
 10
6.3643918433
 20
8.0392159572
 40
1.549673392
100
AcDbArc
 50
271.5271578603
 51
272.848079103
  0
ARC
  5
3A4
100
AcDbEntity
  8
0
100
AcDbCircle
 62
9
  6
CONTINUOUS
 10
7.1939747279
 20
9.3865338606
 40
0.837560329
100
AcDbArc
 50
89.9297161493
 51
92.1192044212
  0
ARC
  5
3A5
100
AcDbEntity
  8
0
100
AcDbCircle
 62
7
  6
CONTINUOUS
 10
7.051318792
 20
8.9940543762
 40
0.35
100
AcDbArc
 50
53.2130265183
 51
90.0
  0
ARC
  5
3A6
100
AcDbEntity
  8
0
100
AcDbCircle
 62
7
  6
CONTINUOUS
 10
7.1248072007
 20
9.0797100763
 40
0.2514531525
100
AcDbArc
 50
84.8923656229
 51
102.5300047106
  0
ARC
  5
3A7
100
AcDbEntity
  8
0
100
AcDbCircle
 62
7
  6
CONTINUOUS
 10
7.1246652144
 20
9.0811928771
 40
0.2499753754
100
AcDbArc
 50
102.5719701555
 51
181.1698379667
  0
ARC
  5
3A8
100
AcDbEntity
  8
0
100
AcDbCircle
 62
7
  6
CONTINUOUS
 10
6.7643918433
 20
8.3733357099
 40
0.2
100
AcDbArc
 50
329.4047719509
 51
30.0684507966
  0
ARC
  5
3A9
100
AcDbEntity
  8
0
100
AcDbCircle
 62
7
  6
CONTINUOUS
 10
7.0845999961
 20
8.5587183922
 40
0.17
100
AcDbArc
 50
135.0
 51
210.0684507965
  0
ARC
  5
3AA
100
AcDbEntity
  8
0
100
AcDbCircle
 62
9
  6
CONTINUOUS
 10
7.200489412
 20
9.1509129218
 40
0.0852865055
100
AcDbArc
 50
90.0709220938
 51
109.3227816602
  0
ARC
  5
3AB
100
AcDbEntity
  8
0
100
AcDbCircle
 62
9
  6
CONTINUOUS
 10
7.2353969026
 20
9.195448267
 40
0.08519308
100
AcDbArc
 50
90.0647762352
 51
112.4296065328
  0
ARC
  5
3AC
100
AcDbEntity
  8
0
100
AcDbCircle
 62
7
  6
CONTINUOUS
 10
7.2708566651
 20
9.1316198748
 40
0.085008548
100
AcDbArc
 50
270.0029778886
 51
321.8413221787
  0
ARC
  5
3AD
100
AcDbEntity
  8
0
100
AcDbCircle
 62
7
  6
CONTINUOUS
 10
7.2010316001
 20
9.131610785
 40
0.0850000002
100
AcDbArc
 50
180.3548505519
 51
269.9999998384
  0
ARC
  5
3AE
100
AcDbEntity
  8
0
100
AcDbCircle
 62
7
  6
CONTINUOUS
 10
7.2009078637
 20
9.1515325967
 40
0.0849996118
100
AcDbArc
 50
141.8442472112
 51
180.3521570666
  0
ARC
  5
3AF
100
AcDbEntity
  8
0
100
AcDbCircle
 62
9
  6
CONTINUOUS
 10
7.305515664
 20
9.1954171432
 40
0.0849335535
100
AcDbArc
 50
0.3758911297
 51
29.5439210979
  0
ARC
  5
3B0
100
AcDbEntity
  8
0
100
AcDbCircle
 62
9
  6
CONTINUOUS
 10
7.306432027
 20
9.1754951107
 40
0.0841401677
100
AcDbArc
 50
321.8676563632
 51
0.379705172
  0
ARC
  5
3B1
100
AcDbEntity
  8
0
100
AcDbCircle
 62
9
  6
CONTINUOUS
 10
7.2715152826
 20
9.1310531802
 40
0.0841401677
100
AcDbArc
 50
321.867656358
 51
0.3797051839
  0
ARC
  5
3B2
100
AcDbEntity
  8
0
100
AcDbCircle
 62
9
  6
CONTINUOUS
 10
7.2350933227
 20
9.1965242349
 40
0.0840827801
100
AcDbArc
 50
112.5181366094
 51
141.8309352414
  0
ARC
  5
3B3
100
AcDbEntity
  8
0
100
AcDbCircle
 62
9
  6
CONTINUOUS
 10
7.2001557672
 20
9.1521013813
 40
0.0840546296
100
AcDbArc
 50
109.3762219939
 51
141.8323920834
  0
ARC
  5
3B4
100
AcDbEntity
  8
0
100
AcDbCircle
 62
7
  6
CONTINUOUS
 10
6.8324590725
 20
9.1047236676
 40
0.0511811024
100
AcDbArc
 50
270.0
 51
325.6957080068
  0
ARC
  5
3B5
100
AcDbEntity
  8
0
100
AcDbCircle
 62
7
  6
CONTINUOUS
 10
9.9198912789
 20
-24.4107146196
 40
34.3795226628
100
AcDbArc
 50
85.2638804268
 51
85.6495355826
  0
ARC
  5
3B6
100
AcDbEntity
  8
0
100
AcDbCircle
 62
7
  6
CONTINUOUS
 10
10.1923578131
 20
8.7240543762
 40
1.5
100
AcDbArc
 50
64.2163806705
 51
90.0
  0
ARC
  5
3B7
100
AcDbEntity
  8
0
100
AcDbCircle
 62
7
  6
CONTINUOUS
 10
8.0072788635
 20
8.7240543762
 40
1.5
100
AcDbArc
 50
90.0
 51
114.8539722589
  0
ARC
  5
3B8
100
AcDbEntity
  8
0
100
AcDbCircle
 62
7
  6
CONTINUOUS
 10
8.0125292525
 20
7.6353296072
 40
1.25
100
AcDbArc
 50
149.4047719508
 51
175.5994342384
  0
ARC
  5
3B9
100
AcDbEntity
  8
0
100
AcDbCircle
 62
7
  6
CONTINUOUS
 10
10.716254434
 20
7.6353296072
 40
1.25
100
AcDbArc
 50
4.4005657616
 51
30.5952280492
  0
ARC
  5
3BA
100
AcDbEntity
  8
0
100
AcDbCircle
 62
9
  6
CONTINUOUS
 10
9.4451064908
 20
9.171004479
 40
0.6830395758
100
AcDbArc
 50
191.2906632584
 51
202.3268455274
  0
ARC
  5
3BB
100
AcDbEntity
  8
0
100
AcDbCircle
 62
9
  6
CONTINUOUS
 10
9.2836773119
 20
9.1710044568
 40
0.6830394599
100
AcDbArc
 50
337.673152491
 51
348.7084081034
  0
ARC
  5
3BC
100
AcDbEntity
  8
0
100
AcDbCircle
 62
9
  6
CONTINUOUS
 10
9.3057568754
 20
9.1625682296
 40
0.6594105844
100
AcDbArc
 50
337.0862240865
 51
337.6224074256
  0
ARC
  5
3BD
100
AcDbEntity
  8
0
100
AcDbCircle
 62
9
  6
CONTINUOUS
 10
9.4230265383
 20
9.1625681163
 40
0.659410289
100
AcDbArc
 50
202.377592495
 51
202.913891756
  0
ARC
  5
3BE
100
AcDbEntity
  8
0
100
AcDbCircle
 62
9
  6
CONTINUOUS
 10
9.5046380822
 20
9.6468721353
 40
0.599846859
100
AcDbArc
 50
302.196286773
 51
302.9704650046
  0
ARC
  5
3BF
100
AcDbEntity
  8
0
100
AcDbCircle
 62
7
  6
CONTINUOUS
 10
10.6808183383
 20
9.6280543762
 40
0.425
100
AcDbArc
 50
292.0191155054
 51
301.9657187508
  0
ARC
  5
3C0
100
AcDbEntity
  8
0
100
AcDbCircle
 62
9
  6
CONTINUOUS
 10
10.1061754164
 20
8.9411562483
 40
0.2918517232
100
AcDbArc
 50
135.396309759
 51
143.5335317257
  0
ARC
  5
3C1
100
AcDbEntity
  8
0
100
AcDbCircle
 62
7
  6
CONTINUOUS
 10
10.1644927522
 20
8.904969944
 40
0.2501046536
100
AcDbArc
 50
104.8499963723
 51
179.9799854078
  0
ARC
  5
3C2
100
AcDbEntity
  8
0
100
AcDbCircle
 62
7
  6
CONTINUOUS
 10
8.5642988535
 20
8.904972261
 40
0.2500996743
100
AcDbArc
 50
0.0194841596
 51
75.1521620889
  0
ARC
  5
3C3
100
AcDbEntity
  8
0
100
AcDbCircle
 62
7
  6
CONTINUOUS
 10
8.5269555171
 20
2.6840898332
 40
0.1275636892
100
AcDbArc
 50
176.7637315846
 51
180.0159256453
  0
ARC
  5
3C4
100
AcDbEntity
  8
0
100
AcDbCircle
 62
7
  6
CONTINUOUS
 10
10.2021744396
 20
2.6841093156
 40
0.1272167811
100
AcDbArc
 50
359.9881240901
 51
3.2054622203
  0
ARC
  5
3C5
100
AcDbEntity
  8
0
100
AcDbCircle
 62
9
  6
CONTINUOUS
 10
8.5244286108
 20
2.6840520369
 40
0.1250367765
100
AcDbArc
 50
179.9989280377
 51
191.0013314965
  0
ARC
  5
3C6
100
AcDbEntity
  8
0
100
AcDbCircle
 62
7
  6
CONTINUOUS
 10
8.9193918433
 20
7.5505110692
 40
0.08
100
AcDbArc
 50
0.0
 51
90.0
  0
ARC
  5
3C7
100
AcDbEntity
  8
0
100
AcDbCircle
 62
7
  6
CONTINUOUS
 10
9.8093918433
 20
7.5505110692
 40
0.08
100
AcDbArc
 50
90.0
 51
180.0
  0
ARC
  5
3C8
100
AcDbEntity
  8
0
100
AcDbCircle
 62
7
  6
CONTINUOUS
 10
8.8443918433
 20
7.6605110692
 40
0.03
100
AcDbArc
 50
180.0
 51
270.0
  0
ARC
  5
3C9
100
AcDbEntity
  8
0
100
AcDbCircle
 62
7
  6
CONTINUOUS
 10
9.8843918433
 20
7.6605110692
 40
0.03
100
AcDbArc
 50
270.0
 51
360.0
  0
ARC
  5
3CA
100
AcDbEntity
  8
0
100
AcDbCircle
 62
7
  6
CONTINUOUS
 10
9.6990768826
 20
7.5308260298
 40
0.0196850394
100
AcDbArc
 50
90.0
 51
180.0
  0
ARC
  5
3CB
100
AcDbEntity
  8
0
100
AcDbCircle
 62
7
  6
CONTINUOUS
 10
9.0297068039
 20
7.5308260298
 40
0.0196850394
100
AcDbArc
 50
0.0
 51
90.0
  0
ARC
  5
3CC
100
AcDbEntity
  8
0
100
AcDbCircle
 62
7
  6
CONTINUOUS
 10
5.7222300594
 20
9.9328538104
 40
1.4527652663
100
AcDbArc
 50
4.5062606789
 51
5.8745171964
  0
ARC
  5
3CD
100
AcDbEntity
  8
0
100
AcDbCircle
 62
7
  6
CONTINUOUS
 10
5.4968183383
 20
9.6840543762
 40
1.04
100
AcDbArc
 50
19.2273138642
 51
340.7922279637
  0
ARC
  5
3CE
100
AcDbEntity
  8
0
100
AcDbCircle
 62
9
  6
CONTINUOUS
 10
5.4968183383
 20
9.6840543762
 40
1.0277893215
100
AcDbArc
 50
19.4427643499
 51
340.5556411479
  0
ARC
  5
3CF
100
AcDbEntity
  8
0
100
AcDbCircle
 62
9
  6
CONTINUOUS
 10
5.4968183383
 20
9.6840543762
 40
0.840293406
100
AcDbArc
 50
23.9306738939
 51
336.0657848045
  0
ARC
  5
3D0
100
AcDbEntity
  8
0
100
AcDbCircle
 62
9
  6
CONTINUOUS
 10
5.4968183383
 20
9.6840543762
 40
0.7923149729
100
AcDbArc
 50
25.656152528
 51
334.4730139868
  0
CIRCLE
  5
3D1
100
AcDbEntity
  8
0
100
AcDbCircle
 62
9
  6
CONTINUOUS
 10
5.4968183383
 20
9.6840543762
 40
0.0291338583
  0
ARC
  5
3D2
100
AcDbEntity
  8
0
100
AcDbCircle
 62
7
  6
CONTINUOUS
 10
5.7607311677
 20
11.8241424261
 40
1.0104847777
100
AcDbArc
 50
258.5520115694
 51
260.6956716571
  0
ARC
  5
3D3
100
AcDbEntity
  8
0
100
AcDbCircle
 62
7
  6
CONTINUOUS
 10
5.759060865
 20
11.8139997784
 40
1.0002055199
100
AcDbArc
 50
260.6961574621
 51
265.3390498774
  0
ARC
  5
3D4
100
AcDbEntity
  8
0
100
AcDbCircle
 62
7
  6
CONTINUOUS
 10
5.7588059118
 20
11.7730001824
 40
0.9982446673
100
AcDbArc
 50
93.9285829511
 51
99.7793195777
  0
ARC
  5
3D5
100
AcDbEntity
  8
0
100
AcDbCircle
 62
7
  6
CONTINUOUS
 10
5.7583832102
 20
11.8066051159
 40
0.9927802486
100
AcDbArc
 50
265.3433511426
 51
269.9970946152
  0
ARC
  5
3D6
100
AcDbEntity
  8
0
100
AcDbCircle
 62
7
  6
CONTINUOUS
 10
5.7583433005
 20
11.7796424201
 40
0.9915863426
100
AcDbArc
 50
90.0005987133
 51
93.9282105688
  0
ARC
  5
3D7
100
AcDbEntity
  8
0
100
AcDbCircle
 62
7
  6
CONTINUOUS
 10
5.7581116751
 20
11.8025307633
 40
0.9887007191
100
AcDbArc
 50
270.0100322349
 51
270.7112989286
  0
ARC
  5
3D8
100
AcDbEntity
  8
0
100
AcDbCircle
 62
7
  6
CONTINUOUS
 10
5.744461417
 20
11.7796105705
 40
0.9883473537
100
AcDbArc
 50
102.429913806
 51
104.7562686077
  0
ARC
  5
3D9
100
AcDbEntity
  8
0
100
AcDbCircle
 62
7
  6
CONTINUOUS
 10
5.7444595075
 20
11.8054157886
 40
0.9883205464
100
AcDbArc
 50
255.214947701
 51
257.5696969421
  0
ARC
  5
3DA
100
AcDbEntity
  8
0
100
AcDbCircle
 62
7
  6
CONTINUOUS
 10
6.293610991
 20
11.7924201642
 40
0.5326609086
100
AcDbArc
 50
201.6289910521
 51
204.7919504044
  0
ARC
  5
3DB
100
AcDbEntity
  8
0
100
AcDbCircle
 62
7
  6
CONTINUOUS
 10
7.149337228
 20
9.8104007171
 40
4.4398133558
100
AcDbArc
 50
1.9743558853
 51
2.4102927235
  0
ARC
  5
3DC
100
AcDbEntity
  8
0
100
AcDbCircle
 62
7
  6
CONTINUOUS
 10
8.0072788635
 20
10.6440543762
 40
1.5
100
AcDbArc
 50
245.146027741
 51
270.0
  0
ARC
  5
3DD
100
AcDbEntity
  8
0
100
AcDbCircle
 62
9
  6
CONTINUOUS
 10
7.1940981103
 20
9.9616532582
 40
0.837560329
100
AcDbArc
 50
267.8807955788
 51
270.0702838507
  0
ARC
  5
3DE
100
AcDbEntity
  8
0
100
AcDbCircle
 62
9
  6
CONTINUOUS
 10
7.0428086314
 20
10.0766145377
 40
0.3627163468
100
AcDbArc
 50
9.7372993818
 51
10.3917088664
  0
ARC
  5
3DF
100
AcDbEntity
  8
0
100
AcDbCircle
 62
7
  6
CONTINUOUS
 10
7.051318792
 20
10.3740543762
 40
0.35
100
AcDbArc
 50
270.0
 51
306.7869734806
  0
ARC
  5
3E0
100
AcDbEntity
  8
0
100
AcDbCircle
 62
9
  6
CONTINUOUS
 10
7.0856822073
 20
10.0844068978
 40
0.3191404474
100
AcDbArc
 50
10.4040700505
 51
10.66642813
  0
ARC
  5
3E1
100
AcDbEntity
  8
0
100
AcDbCircle
 62
7
  6
CONTINUOUS
 10
7.1248038933
 20
10.2883656625
 40
0.2514202011
100
AcDbArc
 50
257.5593560015
 51
275.1051625386
  0
ARC
  5
3E2
100
AcDbEntity
  8
0
100
AcDbCircle
 62
7
  6
CONTINUOUS
 10
7.1243897691
 20
10.2871455672
 40
0.24970411
100
AcDbArc
 50
178.8392016638
 51
257.51879588
  0
ARC
  5
3E3
100
AcDbEntity
  8
0
100
AcDbCircle
 62
9
  6
CONTINUOUS
 10
7.2353969026
 20
10.1726604855
 40
0.08519308
100
AcDbArc
 50
247.5703934671
 51
269.9352237648
  0
ARC
  5
3E4
100
AcDbEntity
  8
0
100
AcDbCircle
 62
7
  6
CONTINUOUS
 10
7.270856662
 20
10.2364888712
 40
0.0850085556
100
AcDbArc
 50
38.1586799389
 51
89.9970200019
  0
ARC
  5
3E5
100
AcDbEntity
  8
0
100
AcDbCircle
 62
7
  6
CONTINUOUS
 10
7.2009082304
 20
10.2165763401
 40
0.0850000139
100
AcDbArc
 50
179.662054736
 51
218.1556977803
  0
ARC
  5
3E6
100
AcDbEntity
  8
0
100
AcDbCircle
 62
7
  6
CONTINUOUS
 10
7.2010316002
 20
10.2364979674
 40
0.0850000003
100
AcDbArc
 50
90.0000002052
 51
179.6451494044
  0
ARC
  5
3E7
100
AcDbEntity
  8
0
100
AcDbCircle
 62
9
  6
CONTINUOUS
 10
7.3055121152
 20
10.1726880388
 40
0.0849370789
100
AcDbArc
 50
327.1152012403
 51
359.6265330703
  0
ARC
  5
3E8
100
AcDbEntity
  8
0
100
AcDbCircle
 62
9
  6
CONTINUOUS
 10
7.3064320271
 20
10.1926136418
 40
0.0841401676
100
AcDbArc
 50
359.6202948099
 51
38.1323436562
  0
ARC
  5
3E9
100
AcDbEntity
  8
0
100
AcDbCircle
 62
9
  6
CONTINUOUS
 10
7.2350933227
 20
10.1715845176
 40
0.0840827801
100
AcDbArc
 50
218.1690647585
 51
247.4818633905
  0
ARC
  5
3EA
100
AcDbEntity
  8
0
100
AcDbCircle
 62
9
  6
CONTINUOUS
 10
7.2000225367
 20
10.2158512443
 40
0.0838534118
100
AcDbArc
 50
218.1399920939
 51
270.0512370531
  0
ARC
  5
3EB
100
AcDbEntity
  8
0
100
AcDbCircle
 62
9
  6
CONTINUOUS
 10
7.2724832025
 20
10.2370062607
 40
0.0831723784
100
AcDbArc
 50
359.6498450237
 51
38.1419812103
  0
ARC
  5
3EC
100
AcDbEntity
  8
0
100
AcDbCircle
 62
7
  6
CONTINUOUS
 10
6.8324590725
 20
10.2633850849
 40
0.0511811024
100
AcDbArc
 50
34.304291993
 51
90.0
  0
ARC
  5
3ED
100
AcDbEntity
  8
0
100
AcDbCircle
 62
7
  6
CONTINUOUS
 10
9.0180831667
 20
9.6840543762
 40
3.9093008025
100
AcDbArc
 50
351.3638693749
 51
356.0277811809
  0
ARC
  5
3EE
100
AcDbEntity
  8
0
100
AcDbCircle
 62
7
  6
CONTINUOUS
 10
9.0180831667
 20
9.6840543762
 40
3.9093008025
100
AcDbArc
 50
3.9722162833
 51
8.636130625
  0
ARC
  5
3EF
100
AcDbEntity
  8
0
100
AcDbCircle
 62
7
  6
CONTINUOUS
 10
10.1923578131
 20
10.6440543762
 40
1.5
100
AcDbArc
 50
270.0
 51
295.7836193295
  0
ARC
  5
3F0
100
AcDbEntity
  8
0
100
AcDbCircle
 62
7
  6
CONTINUOUS
 10
9.3643918433
 20
9.6840543762
 40
0.7283464567
100
AcDbArc
 50
53.9342253469
 51
126.0665075638
  0
ARC
  5
3F1
100
AcDbEntity
  8
0
100
AcDbCircle
 62
7
  6
CONTINUOUS
 10
9.3643948397
 20
9.6840664848
 40
0.6799839324
100
AcDbArc
 50
52.7526878395
 51
126.7175947732
  0
ARC
  5
3F2
100
AcDbEntity
  8
0
100
AcDbCircle
 62
7
  6
CONTINUOUS
 10
9.364396536
 20
9.6840397334
 40
0.679982307
100
AcDbArc
 50
233.2760297455
 51
307.2709830091
  0
ARC
  5
3F3
100
AcDbEntity
  8
0
100
AcDbCircle
 62
7
  6
CONTINUOUS
 10
10.6808183383
 20
9.7400543762
 40
0.425
100
AcDbArc
 50
58.0342812492
 51
67.9808844946
  0
ARC
  5
3F4
100
AcDbEntity
  8
0
100
AcDbCircle
 62
9
  6
CONTINUOUS
 10
9.5448741997
 20
9.9959514865
 40
0.373516525
100
AcDbArc
 50
38.0242919404
 51
38.9585583023
  0
ARC
  5
3F5
100
AcDbEntity
  8
0
100
AcDbCircle
 62
7
  6
CONTINUOUS
 10
9.9199597019
 20
43.7779462633
 40
34.3786458568
100
AcDbArc
 50
274.3504612232
 51
274.7361020299
  0
ARC
  5
3F6
100
AcDbEntity
  8
0
100
AcDbCircle
 62
7
  6
CONTINUOUS
 10
11.6341125522
 20
7.2218347994
 40
1.3600000002
100
AcDbArc
 50
337.6438963447
 51
341.2440132161
  0
ARC
  5
3F7
100
AcDbEntity
  8
0
100
AcDbCircle
 62
7
  6
CONTINUOUS
 10
11.6360930626
 20
6.7514607498
 40
1.3599999998
100
AcDbArc
 50
19.0137741999
 51
22.5744557111
  0
ARC
  5
3F8
100
AcDbEntity
  8
0
100
AcDbCircle
 62
7
  6
CONTINUOUS
 10
11.306287886
 20
6.8975779205
 40
0.5820422228
100
AcDbArc
 50
27.9037025869
 51
29.5461222846
  0
ARC
  5
3F9
100
AcDbEntity
  8
0
100
AcDbCircle
 62
7
  6
CONTINUOUS
 10
11.3394772969
 20
6.9152106175
 40
0.5444596966
100
AcDbArc
 50
26.4166158016
 51
27.8983958357
  0
ARC
  5
3FA
100
AcDbEntity
  8
0
100
AcDbCircle
 62
7
  6
CONTINUOUS
 10
11.3463387107
 20
6.9186328341
 40
0.5367922059
100
AcDbArc
 50
26.0123693238
 51
26.4153061215
  0
ARC
  5
3FB
100
AcDbEntity
  8
0
100
AcDbCircle
 62
7
  6
CONTINUOUS
 10
11.1818918433
 20
6.9895425652
 40
0.275
100
AcDbArc
 50
55.0
 51
305.0
  0
CIRCLE
  5
3FC
100
AcDbEntity
  8
0
100
AcDbCircle
 62
7
  6
CONTINUOUS
 10
12.3643918433
 20
6.9895425652
 40
0.275
  0
ARC
  5
3FD
100
AcDbEntity
  8
0
100
AcDbCircle
 62
7
  6
CONTINUOUS
 10
11.6545158843
 20
7.3510425652
 40
0.25
100
AcDbArc
 50
223.0260516848
 51
312.3015881805
  0
ARC
  5
3FE
100
AcDbEntity
  8
0
100
AcDbCircle
 62
7
  6
CONTINUOUS
 10
11.6545158843
 20
6.6280425652
 40
0.25
100
AcDbArc
 50
47.6857751901
 51
136.9739483152
  0
ARC
  5
3FF
100
AcDbEntity
  8
0
100
AcDbCircle
 62
7
  6
CONTINUOUS
 10
11.9768918433
 20
6.5687429122
 40
0.03
100
AcDbArc
 50
190.2555656196
 51
255.2369687322
  0
ARC
  5
400
100
AcDbEntity
  8
0
100
AcDbCircle
 62
7
  6
CONTINUOUS
 10
11.9924809871
 20
7.7335425652
 40
0.03
100
AcDbArc
 50
184.4005657615
 51
270.0
  0
ARC
  5
401
100
AcDbEntity
  8
0
100
AcDbCircle
 62
7
  6
CONTINUOUS
 10
11.4308918433
 20
7.1704362935
 40
0.016
100
AcDbArc
 50
235.0
 51
360.0
  0
ARC
  5
402
100
AcDbEntity
  8
0
100
AcDbCircle
 62
7
  6
CONTINUOUS
 10
11.4308918433
 20
6.8086488369
 40
0.016
100
AcDbArc
 50
0.0
 51
125.0
  0
ARC
  5
403
100
AcDbEntity
  8
0
100
AcDbCircle
 62
7
  6
CONTINUOUS
 10
11.4600583054
 20
6.8095425652
 40
0.016
100
AcDbArc
 50
214.6234511018
 51
316.9739483152
  0
ARC
  5
404
100
AcDbEntity
  8
0
100
AcDbCircle
 62
7
  6
CONTINUOUS
 10
11.4600583054
 20
7.1695425652
 40
0.016
100
AcDbArc
 50
43.0260516848
 51
145.3765488982
  0
ARC
  5
405
100
AcDbEntity
  8
0
100
AcDbCircle
 62
7
  6
CONTINUOUS
 10
12.3643918433
 20
8.0392125807
 40
1.5506700155
100
AcDbArc
 50
270.0
 51
271.1647262524
  0
ARC
  5
406
100
AcDbEntity
  8
0
100
AcDbCircle
 62
7
  6
CONTINUOUS
 10
12.3643918433
 20
8.0392125807
 40
1.5506700155
100
AcDbArc
 50
272.4964599301
 51
277.4152613281
  0
ARC
  5
407
100
AcDbEntity
  8
0
100
AcDbCircle
 62
7
  6
CONTINUOUS
 10
12.3643918433
 20
8.0392125807
 40
1.5506700155
100
AcDbArc
 50
283.3948973201
 51
284.7630312681
  0
ARC
  5
408
100
AcDbEntity
  8
0
100
AcDbCircle
 62
7
  6
CONTINUOUS
 10
12.3643918433
 20
8.0392125807
 40
1.5506700155
100
AcDbArc
 50
255.2369687319
 51
256.9468670826
  0
ARC
  5
409
100
AcDbEntity
  8
0
100
AcDbCircle
 62
7
  6
CONTINUOUS
 10
12.3643918433
 20
8.0392125807
 40
1.5506700155
100
AcDbArc
 50
258.536096909
 51
264.0737759665
  0
ARC
  5
40A
100
AcDbEntity
  8
0
100
AcDbCircle
 62
9
  6
CONTINUOUS
 10
11.5346855762
 20
9.4064554943
 40
0.837560329
100
AcDbArc
 50
87.8807955788
 51
90.0702838507
  0
ARC
  5
40B
100
AcDbEntity
  8
0
100
AcDbCircle
 62
7
  6
CONTINUOUS
 10
11.1484322657
 20
8.8919151758
 40
0.433
100
AcDbArc
 50
57.9057842818
 51
118.0498776996
  0
ARC
  5
40C
100
AcDbEntity
  8
0
100
AcDbCircle
 62
7
  6
CONTINUOUS
 10
11.6032023736
 20
9.081000806
 40
0.2508960713
100
AcDbArc
 50
358.8300330019
 51
2.9284925764
  0
ARC
  5
40D
100
AcDbEntity
  8
0
100
AcDbCircle
 62
7
  6
CONTINUOUS
 10
11.6042188421
 20
9.0812324086
 40
0.2498703276
100
AcDbArc
 50
2.8873626515
 51
39.9443168581
  0
ARC
  5
40E
100
AcDbEntity
  8
0
100
AcDbCircle
 62
7
  6
CONTINUOUS
 10
11.9643918433
 20
8.3733357099
 40
0.2
100
AcDbArc
 50
149.9315492034
 51
210.5952280491
  0
ARC
  5
40F
100
AcDbEntity
  8
0
100
AcDbCircle
 62
7
  6
CONTINUOUS
 10
11.6441836905
 20
8.5587183922
 40
0.17
100
AcDbArc
 50
329.9315492035
 51
45.0
  0
ARC
  5
410
100
AcDbEntity
  8
0
100
AcDbCircle
 62
7
  6
CONTINUOUS
 10
11.5087090818
 20
9.1560760764
 40
0.1045375013
100
AcDbArc
 50
87.1985603071
 51
89.7203672169
  0
ARC
  5
411
100
AcDbEntity
  8
0
100
AcDbCircle
 62
9
  6
CONTINUOUS
 10
11.4233802691
 20
9.1953943459
 40
0.0850459501
100
AcDbArc
 50
127.8752920407
 51
179.609246715
  0
ARC
  5
412
100
AcDbEntity
  8
0
100
AcDbCircle
 62
9
  6
CONTINUOUS
 10
11.4932520437
 20
9.19567955
 40
0.0850169962
100
AcDbArc
 50
50.767487748
 51
70.6936171293
  0
ARC
  5
413
100
AcDbEntity
  8
0
100
AcDbCircle
 62
7
  6
CONTINUOUS
 10
11.4579270246
 20
9.1316198813
 40
0.0850085555
100
AcDbArc
 50
218.1586799237
 51
269.9970200091
  0
ARC
  5
414
100
AcDbEntity
  8
0
100
AcDbCircle
 62
7
  6
CONTINUOUS
 10
11.5278752444
 20
9.1515323416
 40
0.0850002242
100
AcDbArc
 50
359.645202392
 51
38.1556471456
  0
ARC
  5
415
100
AcDbEntity
  8
0
100
AcDbCircle
 62
7
  6
CONTINUOUS
 10
11.5278679926
 20
9.1314908957
 40
0.0848331834
100
AcDbArc
 50
270.0156464035
 51
359.6329573209
  0
ARC
  5
416
100
AcDbEntity
  8
0
100
AcDbCircle
 62
9
  6
CONTINUOUS
 10
11.4223516595
 20
9.1754951107
 40
0.0841401699
100
AcDbArc
 50
179.6202947979
 51
218.132343632
  0
ARC
  5
417
100
AcDbEntity
  8
0
100
AcDbCircle
 62
9
  6
CONTINUOUS
 10
11.457268404
 20
9.1310531802
 40
0.0841401677
100
AcDbArc
 50
179.6202948203
 51
218.132343647
  0
ARC
  5
418
100
AcDbEntity
  8
0
100
AcDbCircle
 62
9
  6
CONTINUOUS
 10
11.5287611499
 20
9.1522575082
 40
0.0838534118
100
AcDbArc
 50
38.1399921063
 51
90.0512370531
  0
ARC
  5
419
100
AcDbEntity
  8
0
100
AcDbCircle
 62
9
  6
CONTINUOUS
 10
11.4942216916
 20
9.1970084567
 40
0.0833744199
100
AcDbArc
 50
38.1330954448
 51
50.7060395435
  0
ARC
  5
41A
100
AcDbEntity
  8
0
100
AcDbCircle
 62
9
  6
CONTINUOUS
 10
11.4938659428
 20
9.1975599322
 40
0.0830394027
100
AcDbArc
 50
70.6644203664
 51
76.0971551446
  0
ARC
  5
41B
100
AcDbEntity
  8
0
100
AcDbCircle
 62
7
  6
CONTINUOUS
 10
11.896324614
 20
9.1047236676
 40
0.0511811024
100
AcDbArc
 50
214.3042919927
 51
270.0
  0
ARC
  5
41C
100
AcDbEntity
  8
0
100
AcDbCircle
 62
7
  6
CONTINUOUS
 10
12.2628183383
 20
9.3053043762
 40
0.035
100
AcDbArc
 50
177.9532869023
 51
265.9039562418
  0
ARC
  5
41D
100
AcDbEntity
  8
0
100
AcDbCircle
 62
7
  6
CONTINUOUS
 10
12.2628183383
 20
9.3053043762
 40
0.035
100
AcDbArc
 50
274.0960437582
 51
332.7298233178
  0
ARC
  5
41E
100
AcDbEntity
  8
0
100
AcDbCircle
 62
7
  6
CONTINUOUS
 10
13.0946711343
 20
7.2218347994
 40
1.3600000002
100
AcDbArc
 50
198.7559867839
 51
202.3561036553
  0
ARC
  5
41F
100
AcDbEntity
  8
0
100
AcDbCircle
 62
7
  6
CONTINUOUS
 10
13.092690624
 20
6.7514607498
 40
1.3599999998
100
AcDbArc
 50
157.4255442889
 51
160.9862258001
  0
ARC
  5
420
100
AcDbEntity
  8
0
100
AcDbCircle
 62
7
  6
CONTINUOUS
 10
14.0125292525
 20
7.6353296072
 40
1.25
100
AcDbArc
 50
149.4047719508
 51
175.5994342384
  0
ARC
  5
421
100
AcDbEntity
  8
0
100
AcDbCircle
 62
7
  6
CONTINUOUS
 10
13.4224975941
 20
7.0815081159
 40
0.5820442324
100
AcDbArc
 50
207.9036987284
 51
209.546122871
  0
ARC
  5
422
100
AcDbEntity
  8
0
100
AcDbCircle
 62
7
  6
CONTINUOUS
 10
13.3893073487
 20
7.0638749772
 40
0.5444607619
100
AcDbArc
 50
206.41661116
 51
207.8983917421
  0
ARC
  5
423
100
AcDbEntity
  8
0
100
AcDbCircle
 62
7
  6
CONTINUOUS
 10
13.3824459124
 20
7.0604527495
 40
0.5367932462
100
AcDbArc
 50
206.0123822851
 51
206.4153014311
  0
ARC
  5
424
100
AcDbEntity
  8
0
100
AcDbCircle
 62
7
  6
CONTINUOUS
 10
13.5468918433
 20
6.9895425652
 40
0.275
100
AcDbArc
 50
235.0
 51
125.0
  0
ARC
  5
425
100
AcDbEntity
  8
0
100
AcDbCircle
 62
7
  6
CONTINUOUS
 10
13.0742678022
 20
7.3510425652
 40
0.25
100
AcDbArc
 50
227.6857745053
 51
316.9739483152
  0
ARC
  5
426
100
AcDbEntity
  8
0
100
AcDbCircle
 62
7
  6
CONTINUOUS
 10
13.0742678022
 20
6.6280425652
 40
0.25
100
AcDbArc
 50
43.0260516848
 51
132.3015886019
  0
ARC
  5
427
100
AcDbEntity
  8
0
100
AcDbCircle
 62
7
  6
CONTINUOUS
 10
12.7518918433
 20
6.5687429122
 40
0.03
100
AcDbArc
 50
284.7630312678
 51
349.7444343804
  0
ARC
  5
428
100
AcDbEntity
  8
0
100
AcDbCircle
 62
7
  6
CONTINUOUS
 10
12.7363026994
 20
7.7335425652
 40
0.03
100
AcDbArc
 50
270.0
 51
355.5994342385
  0
ARC
  5
429
100
AcDbEntity
  8
0
100
AcDbCircle
 62
7
  6
CONTINUOUS
 10
13.2978918433
 20
7.1704362935
 40
0.016
100
AcDbArc
 50
180.0
 51
305.0
  0
ARC
  5
42A
100
AcDbEntity
  8
0
100
AcDbCircle
 62
7
  6
CONTINUOUS
 10
13.2978918433
 20
6.8086488369
 40
0.016
100
AcDbArc
 50
55.0
 51
180.0
  0
ARC
  5
42B
100
AcDbEntity
  8
0
100
AcDbCircle
 62
7
  6
CONTINUOUS
 10
13.2687253812
 20
6.8095425652
 40
0.016
100
AcDbArc
 50
223.0260516848
 51
325.3765488982
  0
ARC
  5
42C
100
AcDbEntity
  8
0
100
AcDbCircle
 62
7
  6
CONTINUOUS
 10
13.2687253812
 20
7.1695425652
 40
0.016
100
AcDbArc
 50
34.6234511018
 51
136.9739483152
  0
ARC
  5
42D
100
AcDbEntity
  8
0
100
AcDbCircle
 62
7
  6
CONTINUOUS
 10
13.8883971593
 20
9.5065141085
 40
2.3374827089
100
AcDbArc
 50
183.7560481443
 51
184.5264935784
  0
ARC
  5
42E
100
AcDbEntity
  8
0
100
AcDbCircle
 62
7
  6
CONTINUOUS
 10
12.7643918433
 20
8.3733357099
 40
0.2
100
AcDbArc
 50
329.4047719509
 51
30.0684507966
  0
ARC
  5
42F
100
AcDbEntity
  8
0
100
AcDbCircle
 62
7
  6
CONTINUOUS
 10
13.0845999961
 20
8.5587183922
 40
0.17
100
AcDbArc
 50
135.0
 51
210.0684507965
  0
ARC
  5
430
100
AcDbEntity
  8
0
100
AcDbCircle
 62
7
  6
CONTINUOUS
 10
12.8324590725
 20
9.1047236676
 40
0.0511811024
100
AcDbArc
 50
270.0
 51
351.3638693749
  0
ARC
  5
431
100
AcDbEntity
  8
0
100
AcDbCircle
 62
7
  6
CONTINUOUS
 10
12.7578183383
 20
9.2933890061
 40
0.02
100
AcDbArc
 50
271.9382038126
 51
360.0
  0
ARC
  5
432
100
AcDbEntity
  8
0
100
AcDbCircle
 62
7
  6
CONTINUOUS
 10
13.7517580959
 20
9.8714668861
 40
2.2004906674
100
AcDbArc
 50
175.4117691765
 51
176.2692530679
  0
ARC
  5
433
100
AcDbEntity
  8
0
100
AcDbCircle
 62
7
  6
CONTINUOUS
 10
13.0025451337
 20
9.9332472698
 40
1.4487375532
100
AcDbArc
 50
174.1247362547
 51
175.4770138324
  0
ARC
  5
434
100
AcDbEntity
  8
0
100
AcDbCircle
 62
7
  6
CONTINUOUS
 10
12.9312068679
 20
10.0565654507
 40
1.357441627
100
AcDbArc
 50
182.511079459
 51
182.6294675356
  0
ARC
  5
435
100
AcDbEntity
  8
0
100
AcDbCircle
 62
9
  6
CONTINUOUS
 10
11.5348089586
 20
9.9815748919
 40
0.837560329
100
AcDbArc
 50
269.9297161493
 51
272.1192044212
  0
ARC
  5
436
100
AcDbEntity
  8
0
100
AcDbCircle
 62
7
  6
CONTINUOUS
 10
11.1484322657
 20
10.4761935767
 40
0.433
100
AcDbArc
 50
241.9501223004
 51
302.0942157182
  0
ARC
  5
437
100
AcDbEntity
  8
0
100
AcDbCircle
 62
7
  6
CONTINUOUS
 10
11.6032071952
 20
10.2871079142
 40
0.2508912515
100
AcDbArc
 50
357.0916776837
 51
1.1698379518
  0
ARC
  5
438
100
AcDbEntity
  8
0
100
AcDbCircle
 62
7
  6
CONTINUOUS
 10
11.6042182972
 20
10.2868766104
 40
0.2498709263
100
AcDbArc
 50
320.0557283062
 51
357.1328844064
  0
ARC
  5
439
100
AcDbEntity
  8
0
100
AcDbCircle
 62
7
  6
CONTINUOUS
 10
11.5087090818
 20
10.2120326761
 40
0.1045375013
100
AcDbArc
 50
270.2796327832
 51
272.8014396928
  0
ARC
  5
43A
100
AcDbEntity
  8
0
100
AcDbCircle
 62
7
  6
CONTINUOUS
 10
11.4579270214
 20
10.2364888776
 40
0.0850085481
100
AcDbArc
 50
90.0029778963
 51
141.8413221768
  0
ARC
  5
43B
100
AcDbEntity
  8
0
100
AcDbCircle
 62
7
  6
CONTINUOUS
 10
11.527884301
 20
10.2165733101
 40
0.084991187
100
AcDbArc
 50
321.8422246915
 51
0.3569257697
  0
ARC
  5
43C
100
AcDbEntity
  8
0
100
AcDbCircle
 62
7
  6
CONTINUOUS
 10
11.5278683715
 20
10.2366185288
 40
0.0848324408
100
AcDbArc
 50
0.3671058392
 51
89.9844996915
  0
ARC
  5
43D
100
AcDbEntity
  8
0
100
AcDbCircle
 62
9
  6
CONTINUOUS
 10
11.457268404
 20
10.2370555722
 40
0.0841401677
100
AcDbArc
 50
141.8676563631
 51
180.3797051696
  0
ARC
  5
43E
100
AcDbEntity
  8
0
100
AcDbCircle
 62
9
  6
CONTINUOUS
 10
11.4223516493
 20
10.1926136428
 40
0.0841401635
100
AcDbArc
 50
141.8676525983
 51
180.379705922
  0
ARC
  5
43F
100
AcDbEntity
  8
0
100
AcDbCircle
 62
9
  6
CONTINUOUS
 10
11.5287205064
 20
10.2159045177
 40
0.0839182806
100
AcDbArc
 50
269.9571972399
 51
321.8485382758
  0
ARC
  5
440
100
AcDbEntity
  8
0
100
AcDbCircle
 62
9
  6
CONTINUOUS
 10
11.4938603147
 20
10.1714261515
 40
0.0838598905
100
AcDbArc
 50
316.0385962223
 51
321.844245574
  0
ARC
  5
441
100
AcDbEntity
  8
0
100
AcDbCircle
 62
9
  6
CONTINUOUS
 10
11.4938659428
 20
10.1705488203
 40
0.0830394027
100
AcDbArc
 50
283.9028448552
 51
289.3355796333
  0
ARC
  5
442
100
AcDbEntity
  8
0
100
AcDbCircle
 62
7
  6
CONTINUOUS
 10
12.8324590725
 20
10.2633850849
 40
0.0511811024
100
AcDbArc
 50
8.636130625
 51
90.0
  0
ARC
  5
443
100
AcDbEntity
  8
0
100
AcDbCircle
 62
7
  6
CONTINUOUS
 10
11.896324614
 20
10.2633850849
 40
0.0511811024
100
AcDbArc
 50
90.0
 51
145.6957080079
  0
ARC
  5
444
100
AcDbEntity
  8
0
100
AcDbCircle
 62
7
  6
CONTINUOUS
 10
12.2628183383
 20
10.0628043762
 40
0.035
100
AcDbArc
 50
94.0960437582
 51
182.0467130977
  0
ARC
  5
445
100
AcDbEntity
  8
0
100
AcDbCircle
 62
7
  6
CONTINUOUS
 10
12.2628183383
 20
10.0628043762
 40
0.035
100
AcDbArc
 50
27.2701766822
 51
85.9039562418
  0
ARC
  5
446
100
AcDbEntity
  8
0
100
AcDbCircle
 62
7
  6
CONTINUOUS
 10
12.7578183383
 20
10.0747197464
 40
0.02
100
AcDbArc
 50
0.0
 51
88.0617961874
  0
ARC
  5
447
100
AcDbEntity
  8
0
100
AcDbCircle
 62
7
  6
CONTINUOUS
 10
12.9680525233
 20
11.7609112051
 40
1.010484778
100
AcDbArc
 50
78.5520103688
 51
80.6956706769
  0
ARC
  5
448
100
AcDbEntity
  8
0
100
AcDbCircle
 62
7
  6
CONTINUOUS
 10
12.9697228266
 20
11.7710538548
 40
1.0002055182
100
AcDbArc
 50
80.6961564826
 51
85.3390493361
  0
ARC
  5
449
100
AcDbEntity
  8
0
100
AcDbCircle
 62
7
  6
CONTINUOUS
 10
12.9699777799
 20
11.8120534526
 40
0.9982446651
100
AcDbArc
 50
273.9285833862
 51
279.779320437
  0
ARC
  5
44A
100
AcDbEntity
  8
0
100
AcDbCircle
 62
7
  6
CONTINUOUS
 10
12.9704004816
 20
11.7784485185
 40
0.9927802457
100
AcDbArc
 50
85.3433506021
 51
89.9970949558
  0
ARC
  5
44B
100
AcDbEntity
  8
0
100
AcDbCircle
 62
7
  6
CONTINUOUS
 10
12.9704210191
 20
11.80587258
 40
0.9920479487
100
AcDbArc
 50
270.7415134663
 51
273.9275017748
  0
ARC
  5
44C
100
AcDbEntity
  8
0
100
AcDbCircle
 62
7
  6
CONTINUOUS
 10
12.9704509161
 20
11.8041586164
 40
0.9903337418
100
AcDbArc
 50
269.9999902061
 51
270.74106722
  0
ARC
  5
44D
100
AcDbEntity
  8
0
100
AcDbCircle
 62
7
  6
CONTINUOUS
 10
12.9706783282
 20
11.8030775996
 40
0.9892467938
100
AcDbArc
 50
269.2887489223
 51
269.9898310188
  0
ARC
  5
44E
100
AcDbEntity
  8
0
100
AcDbCircle
 62
7
  6
CONTINUOUS
 10
12.9842797594
 20
11.7794672738
 40
0.9884963944
100
AcDbArc
 50
75.2145746067
 51
77.5695545315
  0
ARC
  5
44F
100
AcDbEntity
  8
0
100
AcDbCircle
 62
7
  6
CONTINUOUS
 10
12.9842809165
 20
11.8055642739
 40
0.9884748106
100
AcDbArc
 50
282.4306657365
 51
284.7564884926
  0
ARC
  5
450
100
AcDbEntity
  8
0
100
AcDbCircle
 62
7
  6
CONTINUOUS
 10
12.4351861807
 20
11.7924139949
 40
0.5326460792
100
AcDbArc
 50
335.2098446544
 51
338.5962214168
  0
ARC
  5
451
100
AcDbEntity
  8
0
100
AcDbCircle
 62
7
  6
CONTINUOUS
 10
17.3678183383
 20
9.6840543762
 40
0.27
100
AcDbArc
 50
270.0
 51
90.0
  0
SPLINE
  5
452
100
AcDbEntity
  8
0
100
AcDbSpline
 62
7
  6
CONTINUOUS
 70
0
 71
3
 72
23
 73
19
 74
0
 42
0.0000001
 43
0.0000001
 44
0.0000000001
 40
0.0
 40
0.0
 40
0.0
 40
0.0
 40
0.125
 40
0.25
 40
0.375
 40
0.5
 40
0.625
 40
0.6875
 40
0.75
 40
0.8125
 40
0.84375
 40
0.875
 40
0.90625
 40
0.9375
 40
0.953125
 40
0.96875
 40
0.984375
 40
1.0
 40
1.0
 40
1.0
 40
1.0
 10
9.3643918433
 20
2.1965543762
 30
0.0
 10
9.3071065726
 20
2.1965543762
 30
0.0
 10
9.1955587614
 20
2.1998836107
 30
0.0
 10
9.0369797622
 20
2.2141658409
 30
0.0
 10
8.8859034857
 20
2.2370949716
 30
0.0
 10
8.7415462438
 20
2.2695235911
 30
0.0
 10
8.6269822144
 20
2.3058334085
 30
0.0
 10
8.5382060221
 20
2.3427795616
 30
0.0
 10
8.4731290658
 20
2.3758917742
 30
0.0
 10
8.420224885
 20
2.4092998042
 30
0.0
 10
8.3780634246
 20
2.4425423211
 30
0.0
 10
8.3476641725
 20
2.4707648115
 30
0.0
 10
8.3169408045
 20
2.5056108491
 30
0.0
 10
8.2930063543
 20
2.5415483972
 30
0.0
 10
8.2760550827
 20
2.5766739792
 30
0.0
 10
8.2652752212
 20
2.6059497967
 30
0.0
 10
8.2567311705
 20
2.6416921274
 30
0.0
 10
8.2543918433
 20
2.6697458241
 30
0.0
 10
8.2543918433
 20
2.6840543762
 30
0.0
  0
SPLINE
  5
453
100
AcDbEntity
  8
0
100
AcDbSpline
 62
7
  6
CONTINUOUS
 70
0
 71
3
 72
15
 73
11
 74
0
 42
0.0000001
 43
0.0000001
 44
0.0000000001
 40
0.0
 40
0.0
 40
0.0
 40
0.0
 40
0.0814558938
 40
0.1629117875
 40
0.2443676813
 40
0.325823575
 40
0.4887353626
 40
0.6516471501
 40
0.9774707251
 40
1.0
 40
1.0
 40
1.0
 40
1.0
 10
8.2543918433
 20
2.6840543762
 30
0.0
 10
8.2543918433
 20
2.6983629284
 30
0.0
 10
8.2567473624
 20
2.7264795578
 30
0.0
 10
8.2652338352
 20
2.7619805861
 30
0.0
 10
8.276112887
 20
2.7915911344
 30
0.0
 10
8.2929142706
 20
2.8263797672
 30
0.0
 10
8.3170906986
 20
2.8626587348
 30
0.0
 10
8.3575527798
 20
2.9085769942
 30
0.0
 10
8.3901085867
 20
2.9357335343
 30
0.0
 10
8.4125804019
 20
2.9520512556
 30
0.0
 10
8.4140349352
 20
2.953097665
 30
0.0
  0
SPLINE
  5
454
100
AcDbEntity
  8
0
100
AcDbSpline
 62
7
  6
CONTINUOUS
 70
0
 71
3
 72
15
 73
11
 74
0
 42
0.0000001
 43
0.0000001
 44
0.0000000001
 40
0.0
 40
0.0
 40
0.0
 40
0.0
 40
0.0229098249
 40
0.3486065499
 40
0.5114549125
 40
0.674303275
 40
0.7557274562
 40
0.8371516375
 40
0.9185758187
 40
1.0
 40
1.0
 40
1.0
 40
1.0
 10
10.314670646
 20
2.9531527944
 30
0.0
 10
10.3161487378
 20
2.9520900557
 30
0.0
 10
10.3386182388
 20
2.9357809203
 30
0.0
 10
10.3710856166
 20
2.908696009
 30
0.0
 10
10.4117995373
 20
2.8625682033
 30
0.0
 10
10.4357942065
 20
2.8264470041
 30
0.0
 10
10.4527170727
 20
2.7915465975
 30
0.0
 10
10.463523795
 20
2.7620006104
 30
0.0
 10
10.4720552045
 20
2.7264646156
 30
0.0
 10
10.4743918433
 20
2.6983629284
 30
0.0
 10
10.4743918433
 20
2.6840543762
 30
0.0
  0
SPLINE
  5
455
100
AcDbEntity
  8
0
100
AcDbSpline
 62
7
  6
CONTINUOUS
 70
0
 71
3
 72
21
 73
17
 74
0
 42
0.0000001
 43
0.0000001
 44
0.0000000001
 40
0.0
 40
0.0
 40
0.0
 40
0.0
 40
0.015625
 40
0.03125
 40
0.0625
 40
0.09375
 40
0.125
 40
0.1875
 40
0.25
 40
0.3125
 40
0.375
 40
0.5
 40
0.625
 40
0.75
 40
0.875
 40
1.0
 40
1.0
 40
1.0
 40
1.0
 10
10.4743918433
 20
2.6840543762
 30
0.0
 10
10.4743918433
 20
2.6697458241
 30
0.0
 10
10.4720410903
 20
2.6415874162
 30
0.0
 10
10.4607031978
 20
2.5943946998
 30
0.0
 10
10.4406344116
 20
2.5491077715
 30
0.0
 10
10.4117585025
 20
2.5054396522
 30
0.0
 10
10.3711093311
 20
2.4594710162
 30
0.0
 10
10.3193889391
 20
2.4162732991
 30
0.0
 10
10.2555943403
 20
2.3758258882
 30
0.0
 10
10.190569485
 20
2.3427512169
 30
0.0
 10
10.1018059975
 20
2.3058497596
 30
0.0
 10
9.9872376117
 20
2.2695181547
 30
0.0
 10
9.8428741286
 20
2.2370960085
 30
0.0
 10
9.6918280443
 20
2.2141671296
 30
0.0
 10
9.5331345176
 20
2.199877419
 30
0.0
 10
9.4216771139
 20
2.1965543762
 30
0.0
 10
9.3643918433
 20
2.1965543762
 30
0.0
  0
SPLINE
  5
456
100
AcDbEntity
  8
0
100
AcDbSpline
 62
7
  6
CONTINUOUS
 70
0
 71
3
 72
9
 73
5
 74
0
 42
0.0000001
 43
0.0000001
 44
0.0000000001
 40
0.0
 40
0.0
 40
0.0
 40
0.0
 40
0.4240425659
 40
1.0
 40
1.0
 40
1.0
 40
1.0
 10
7.1605155616
 20
10.1309886248
 30
0.0
 10
7.1612187594
 20
10.1275625908
 30
0.0
 10
7.1626572262
 20
10.1194383154
 30
0.0
 10
7.1638251748
 20
10.111272579
 30
0.0
 10
7.1644495942
 20
10.1065633636
 30
0.0
  0
LINE
  5
457
100
AcDbEntity
  8
0
100
AcDbLine
 62
7
  6
CONTINUOUS
 10
7.1644495942
 20
10.1065633636
 11
7.1673660368
 21
10.0815445152
  0
LINE
  5
458
100
AcDbEntity
  8
0
100
AcDbLine
 62
7
  6
CONTINUOUS
 10
7.1705020438
 20
9.3210837541
 11
7.1674622717
 21
9.287498399
  0
SPLINE
  5
459
100
AcDbEntity
  8
0
100
AcDbSpline
 62
7
  6
CONTINUOUS
 70
0
 71
3
 72
10
 73
6
 74
0
 42
0.0000001
 43
0.0000001
 44
0.0000000001
 40
0.0
 40
0.0
 40
0.0
 40
0.0
 40
0.5983033995
 40
0.8271787114
 40
1.0
 40
1.0
 40
1.0
 40
1.0
 10
7.1674622717
 20
9.287498399
 30
0.0
 10
7.1664265345
 20
9.2774076119
 30
0.0
 10
7.1648338082
 20
9.2634695794
 30
0.0
 10
7.1623220194
 20
9.2467008853
 30
0.0
 10
7.161106
 20
9.2399980335
 30
0.0
 10
7.1605172083
 20
9.2371277411
 30
0.0
  0
SPLINE
  5
45A
100
AcDbEntity
  8
0
100
AcDbSpline
 62
7
  6
CONTINUOUS
 70
0
 71
3
 72
9
 73
5
 74
0
 42
0.0000001
 43
0.0000001
 44
0.0000000001
 40
0.0
 40
0.0
 40
0.0
 40
0.0
 40
0.5363151709
 40
1.0
 40
1.0
 40
1.0
 40
1.0
 10
7.3726162859
 20
10.2445690883
 30
0.0
 10
7.3753453736
 20
10.2410955135
 30
0.0
 10
7.3799891187
 20
10.2342555443
 30
0.0
 10
7.3837598294
 20
10.2269167246
 30
0.0
 10
7.3853544226
 20
10.2234463454
 30
0.0
  0
SPLINE
  5
45B
100
AcDbEntity
  8
0
100
AcDbSpline
 62
7
  6
CONTINUOUS
 70
0
 71
3
 72
10
 73
6
 74
0
 42
0.0000001
 43
0.0000001
 44
0.0000000001
 40
0.0
 40
0.0
 40
0.0
 40
0.0
 40
0.2774847775
 40
0.5227148358
 40
1.0
 40
1.0
 40
1.0
 40
1.0
 10
7.3853544226
 20
10.2234463454
 30
0.0
 10
7.3869209124
 20
10.2200371288
 30
0.0
 10
7.3895950924
 20
10.21348113
 30
0.0
 10
7.3935977102
 20
10.2005582836
 30
0.0
 10
7.3958811614
 20
10.1910488276
 30
0.0
 10
7.3971966304
 20
10.1847309262
 30
0.0
  0
SPLINE
  5
45C
100
AcDbEntity
  8
0
100
AcDbSpline
 62
7
  6
CONTINUOUS
 70
0
 71
3
 72
9
 73
5
 74
0
 42
0.0000001
 43
0.0000001
 44
0.0000000001
 40
0.0
 40
0.0
 40
0.0
 40
0.0
 40
0.2393888511
 40
1.0
 40
1.0
 40
1.0
 40
1.0
 10
7.3971966304
 20
10.1847309262
 30
0.0
 10
7.3975857793
 20
10.1828619313
 30
0.0
 10
7.3991447135
 20
10.1750406596
 30
0.0
 10
7.4004606677
 20
10.1671724754
 30
0.0
 10
7.4013782925
 20
10.1611765654
 30
0.0
  0
SPLINE
  5
45D
100
AcDbEntity
  8
0
100
AcDbSpline
 62
7
  6
CONTINUOUS
 70
0
 71
3
 72
9
 73
5
 74
0
 42
0.0000001
 43
0.0000001
 44
0.0000000001
 40
0.0
 40
0.0
 40
0.0
 40
0.0
 40
0.2358125693
 40
1.0
 40
1.0
 40
1.0
 40
1.0
 10
7.4013782925
 20
10.1611765654
 30
0.0
 10
7.401738031
 20
10.1588259759
 30
0.0
 10
7.4032084211
 20
10.1488494979
 30
0.0
 10
7.4044764986
 20
10.1388438524
 30
0.0
 10
7.4053667722
 20
10.1311893079
 30
0.0
  0
SPLINE
  5
45E
100
AcDbEntity
  8
0
100
AcDbSpline
 62
7
  6
CONTINUOUS
 70
0
 71
3
 72
9
 73
5
 74
0
 42
0.0000001
 43
0.0000001
 44
0.0000000001
 40
0.0
 40
0.0
 40
0.0
 40
0.0
 40
0.2369639108
 40
1.0
 40
1.0
 40
1.0
 40
1.0
 10
7.4053667722
 20
10.1311893079
 30
0.0
 10
7.4056877184
 20
10.1284298227
 30
0.0
 10
7.406997948
 20
10.116779518
 30
0.0
 10
7.40814529
 20
10.1051112156
 30
0.0
 10
7.4089541172
 20
10.0962022732
 30
0.0
  0
SPLINE
  5
45F
100
AcDbEntity
  8
0
100
AcDbSpline
 62
7
  6
CONTINUOUS
 70
0
 71
3
 72
9
 73
5
 74
0
 42
0.0000001
 43
0.0000001
 44
0.0000000001
 40
0.0
 40
0.0
 40
0.0
 40
0.0
 40
0.2646171239
 40
1.0
 40
1.0
 40
1.0
 40
1.0
 10
7.4055010108
 20
9.2380794303
 30
0.0
 10
7.4051902282
 20
9.2353826369
 30
0.0
 10
7.403978565
 20
9.2251957493
 30
0.0
 10
7.4026091562
 20
9.2150269135
 30
0.0
 10
7.4014755407
 20
9.2075684594
 30
0.0
  0
SPLINE
  5
460
100
AcDbEntity
  8
0
100
AcDbSpline
 62
7
  6
CONTINUOUS
 70
0
 71
3
 72
9
 73
5
 74
0
 42
0.0000001
 43
0.0000001
 44
0.0000000001
 40
0.0
 40
0.0
 40
0.0
 40
0.0
 40
0.2618756376
 40
1.0
 40
1.0
 40
1.0
 40
1.0
 10
7.4014755407
 20
9.2075684594
 30
0.0
 10
7.4011574608
 20
9.2054756998
 30
0.0
 10
7.399904155
 20
9.197490402
 30
0.0
 10
7.398471832
 20
9.1895316754
 30
0.0
 10
7.3972611206
 20
9.1836893963
 30
0.0
  0
SPLINE
  5
461
100
AcDbEntity
  8
0
100
AcDbSpline
 62
7
  6
CONTINUOUS
 70
0
 71
3
 72
10
 73
6
 74
0
 42
0.0000001
 43
0.0000001
 44
0.0000000001
 40
0.0
 40
0.0
 40
0.0
 40
0.0
 40
0.4776220822
 40
0.7227137164
 40
1.0
 40
1.0
 40
1.0
 40
1.0
 10
7.3972611206
 20
9.1836893963
 30
0.0
 10
7.3959422484
 20
9.177325188
 30
0.0
 10
7.3936530891
 20
9.1677497416
 30
0.0
 10
7.3896371272
 20
9.1547400364
 30
0.0
 10
7.3869518971
 20
9.1481443056
 30
0.0
 10
7.3853782975
 20
9.1447148109
 30
0.0
  0
SPLINE
  5
462
100
AcDbEntity
  8
0
100
AcDbSpline
 62
7
  6
CONTINUOUS
 70
0
 71
3
 72
9
 73
5
 74
0
 42
0.0000001
 43
0.0000001
 44
0.0000000001
 40
0.0
 40
0.0
 40
0.0
 40
0.0
 40
0.4634725888
 40
1.0
 40
1.0
 40
1.0
 40
1.0
 10
7.3853782975
 20
9.1447148109
 30
0.0
 10
7.3837825712
 20
9.1412370932
 30
0.0
 10
7.3800069277
 20
9.1338791259
 30
0.0
 10
7.3753528115
 20
9.127022706
 30
0.0
 10
7.3726162859
 20
9.1235396642
 30
0.0
  0
SPLINE
  5
463
100
AcDbEntity
  8
0
100
AcDbSpline
 62
7
  6
CONTINUOUS
 70
0
 71
3
 72
9
 73
5
 74
0
 42
0.0000001
 43
0.0000001
 44
0.0000000001
 40
0.0
 40
0.0
 40
0.0
 40
0.0
 40
0.5363151709
 40
1.0
 40
1.0
 40
1.0
 40
1.0
 10
11.3561674006
 20
10.2445690883
 30
0.0
 10
11.353438313
 20
10.2410955135
 30
0.0
 10
11.3487945679
 20
10.2342555443
 30
0.0
 10
11.3450238572
 20
10.2269167246
 30
0.0
 10
11.343429264
 20
10.2234463454
 30
0.0
  0
SPLINE
  5
464
100
AcDbEntity
  8
0
100
AcDbSpline
 62
7
  6
CONTINUOUS
 70
0
 71
3
 72
10
 73
6
 74
0
 42
0.0000001
 43
0.0000001
 44
0.0000000001
 40
0.0
 40
0.0
 40
0.0
 40
0.0
 40
0.2774847775
 40
0.5227148358
 40
1.0
 40
1.0
 40
1.0
 40
1.0
 10
11.343429264
 20
10.2234463454
 30
0.0
 10
11.3418627742
 20
10.2200371288
 30
0.0
 10
11.3391885942
 20
10.21348113
 30
0.0
 10
11.3351859764
 20
10.2005582836
 30
0.0
 10
11.3329025252
 20
10.1910488276
 30
0.0
 10
11.3315870562
 20
10.1847309262
 30
0.0
  0
SPLINE
  5
465
100
AcDbEntity
  8
0
100
AcDbSpline
 62
7
  6
CONTINUOUS
 70
0
 71
3
 72
9
 73
5
 74
0
 42
0.0000001
 43
0.0000001
 44
0.0000000001
 40
0.0
 40
0.0
 40
0.0
 40
0.0
 40
0.2393888511
 40
1.0
 40
1.0
 40
1.0
 40
1.0
 10
11.3315870562
 20
10.1847309262
 30
0.0
 10
11.3311979072
 20
10.1828619313
 30
0.0
 10
11.329638973
 20
10.1750406596
 30
0.0
 10
11.3283230189
 20
10.1671724754
 30
0.0
 10
11.327405394
 20
10.1611765654
 30
0.0
  0
SPLINE
  5
466
100
AcDbEntity
  8
0
100
AcDbSpline
 62
7
  6
CONTINUOUS
 70
0
 71
3
 72
9
 73
5
 74
0
 42
0.0000001
 43
0.0000001
 44
0.0000000001
 40
0.0
 40
0.0
 40
0.0
 40
0.0
 40
0.2358125693
 40
1.0
 40
1.0
 40
1.0
 40
1.0
 10
11.327405394
 20
10.1611765654
 30
0.0
 10
11.3270456556
 20
10.1588259759
 30
0.0
 10
11.3255752654
 20
10.1488494979
 30
0.0
 10
11.324307188
 20
10.1388438524
 30
0.0
 10
11.3234169143
 20
10.1311893079
 30
0.0
  0
SPLINE
  5
467
100
AcDbEntity
  8
0
100
AcDbSpline
 62
7
  6
CONTINUOUS
 70
0
 71
3
 72
9
 73
5
 74
0
 42
0.0000001
 43
0.0000001
 44
0.0000000001
 40
0.0
 40
0.0
 40
0.0
 40
0.0
 40
0.2319771687
 40
1.0
 40
1.0
 40
1.0
 40
1.0
 10
11.3234169143
 20
10.1311893079
 30
0.0
 10
11.3229558437
 20
10.1272250377
 30
0.0
 10
11.321061572
 20
10.1101251324
 30
0.0
 10
11.3194970603
 20
10.0929898294
 30
0.0
 10
11.3184149256
 20
10.0798209603
 30
0.0
  0
SPLINE
  5
468
100
AcDbEntity
  8
0
100
AcDbSpline
 62
7
  6
CONTINUOUS
 70
0
 71
3
 72
9
 73
5
 74
0
 42
0.0000001
 43
0.0000001
 44
0.0000000001
 40
0.0
 40
0.0
 40
0.0
 40
0.0
 40
0.2675093337
 40
1.0
 40
1.0
 40
1.0
 40
1.0
 10
11.3184095518
 20
9.288353175
 30
0.0
 10
11.3187782681
 20
9.2838642781
 30
0.0
 10
11.3202112542
 20
9.2670886289
 30
0.0
 10
11.3218707658
 20
9.2503311788
 30
0.0
 10
11.3232826758
 20
9.2380794303
 30
0.0
  0
SPLINE
  5
469
100
AcDbEntity
  8
0
100
AcDbSpline
 62
7
  6
CONTINUOUS
 70
0
 71
3
 72
9
 73
5
 74
0
 42
0.0000001
 43
0.0000001
 44
0.0000000001
 40
0.0
 40
0.0
 40
0.0
 40
0.0
 40
0.2646171239
 40
1.0
 40
1.0
 40
1.0
 40
1.0
 10
11.3232826758
 20
9.2380794303
 30
0.0
 10
11.3235934583
 20
9.2353826369
 30
0.0
 10
11.3248051215
 20
9.2251957493
 30
0.0
 10
11.3261745304
 20
9.2150269135
 30
0.0
 10
11.3273081458
 20
9.2075684594
 30
0.0
  0
SPLINE
  5
46A
100
AcDbEntity
  8
0
100
AcDbSpline
 62
7
  6
CONTINUOUS
 70
0
 71
3
 72
9
 73
5
 74
0
 42
0.0000001
 43
0.0000001
 44
0.0000000001
 40
0.0
 40
0.0
 40
0.0
 40
0.0
 40
0.2618756376
 40
1.0
 40
1.0
 40
1.0
 40
1.0
 10
11.3273081458
 20
9.2075684594
 30
0.0
 10
11.3276262258
 20
9.2054756998
 30
0.0
 10
11.3288795315
 20
9.197490402
 30
0.0
 10
11.3303118546
 20
9.1895316754
 30
0.0
 10
11.331522566
 20
9.1836893963
 30
0.0
  0
SPLINE
  5
46B
100
AcDbEntity
  8
0
100
AcDbSpline
 62
7
  6
CONTINUOUS
 70
0
 71
3
 72
10
 73
6
 74
0
 42
0.0000001
 43
0.0000001
 44
0.0000000001
 40
0.0
 40
0.0
 40
0.0
 40
0.0
 40
0.4776220822
 40
0.7227137164
 40
1.0
 40
1.0
 40
1.0
 40
1.0
 10
11.331522566
 20
9.1836893963
 30
0.0
 10
11.3328414381
 20
9.177325188
 30
0.0
 10
11.3351305975
 20
9.1677497416
 30
0.0
 10
11.3391465593
 20
9.1547400364
 30
0.0
 10
11.3418317894
 20
9.1481443056
 30
0.0
 10
11.343405389
 20
9.1447148109
 30
0.0
  0
SPLINE
  5
46C
100
AcDbEntity
  8
0
100
AcDbSpline
 62
7
  6
CONTINUOUS
 70
0
 71
3
 72
9
 73
5
 74
0
 42
0.0000001
 43
0.0000001
 44
0.0000000001
 40
0.0
 40
0.0
 40
0.0
 40
0.0
 40
0.4634725888
 40
1.0
 40
1.0
 40
1.0
 40
1.0
 10
11.343405389
 20
9.1447148109
 30
0.0
 10
11.3450011154
 20
9.1412370932
 30
0.0
 10
11.3487767589
 20
9.1338791259
 30
0.0
 10
11.353430875
 20
9.127022706
 30
0.0
 10
11.3561674006
 20
9.1235396642
 30
0.0
  0
LINE
  5
46D
100
AcDbEntity
  8
0
100
AcDbLine
 62
7
  6
CONTINUOUS
 10
11.5682681249
 20
10.1309886248
 11
11.5669090869
 21
10.1237449383
  0
LINE
  5
46E
100
AcDbEntity
  8
0
100
AcDbLine
 62
7
  6
CONTINUOUS
 10
11.5669090869
 20
10.1237449383
 11
11.5643340924
 21
10.1065633636
  0
LINE
  5
46F
100
AcDbEntity
  8
0
100
AcDbLine
 62
7
  6
CONTINUOUS
 10
11.5643340924
 20
10.1065633636
 11
11.5614176497
 21
10.0815445152
  0
LINE
  5
470
100
AcDbEntity
  8
0
100
AcDbLine
 62
7
  6
CONTINUOUS
 10
11.5582051814
 20
9.3220398281
 11
11.5613214148
 21
9.287498399
  0
SPLINE
  5
471
100
AcDbEntity
  8
0
100
AcDbSpline
 62
7
  6
CONTINUOUS
 70
0
 71
3
 72
10
 73
6
 74
0
 42
0.0000001
 43
0.0000001
 44
0.0000000001
 40
0.0
 40
0.0
 40
0.0
 40
0.0
 40
0.5983033995
 40
0.8271787114
 40
1.0
 40
1.0
 40
1.0
 40
1.0
 10
11.5613214148
 20
9.287498399
 30
0.0
 10
11.562357152
 20
9.2774076119
 30
0.0
 10
11.5639498783
 20
9.2634695794
 30
0.0
 10
11.5664616671
 20
9.2467008853
 30
0.0
 10
11.5676776866
 20
9.2399980335
 30
0.0
 10
11.5682664783
 20
9.2371277411
 30
0.0
  0
SPLINE
  5
472
100
AcDbEntity
  8
0
100
AcDbSpline
 62
7
  6
CONTINUOUS
 70
0
 71
3
 72
21
 73
17
 74
0
 42
0.0000001
 43
0.0000001
 44
0.0000000001
 40
0.0
 40
0.0
 40
0.0
 40
0.0
 40
0.0010807911
 40
0.0043113625
 40
0.0096739018
 40
0.0171506106
 40
0.0383754078
 40
0.0678436569
 40
0.1054134954
 40
0.150943307
 40
0.2042917301
 40
0.2653158841
 40
0.4095204514
 40
0.5814650274
 40
0.7789980253
 40
1.0
 40
1.0
 40
1.0
 40
1.0
 10
12.9218918379
 20
7.1945425652
 30
0.0
 10
12.9219023048
 20
7.1945534954
 30
0.0
 10
12.9218269609
 20
7.1944436031
 30
0.0
 10
12.9218002119
 20
7.1943831881
 30
0.0
 10
12.9216611132
 20
7.1941583025
 30
0.0
 10
12.9214323498
 20
7.1937670567
 30
0.0
 10
12.9210078742
 20
7.1930514086
 30
0.0
 10
12.9203883242
 20
7.1919917211
 30
0.0
 10
12.9195937977
 20
7.1906266646
 30
0.0
 10
12.918638931
 20
7.1889731218
 30
0.0
 10
12.9175250626
 20
7.1870303868
 30
0.0
 10
12.9157340858
 20
7.183883862
 30
0.0
 10
12.9131495662
 20
7.1792779471
 30
0.0
 10
12.9097022791
 20
7.1729649206
 30
0.0
 10
12.9058407399
 20
7.1656536297
 30
0.0
 10
12.9031867047
 20
7.1604281951
 30
0.0
 10
12.90180888
 20
7.1576573076
 30
0.0
  0
SPLINE
  5
473
100
AcDbEntity
  8
0
100
AcDbSpline
 62
7
  6
CONTINUOUS
 70
0
 71
3
 72
9
 73
5
 74
0
 42
0.0000001
 43
0.0000001
 44
0.0000000001
 40
0.0
 40
0.0
 40
0.0
 40
0.0
 40
0.2227965077
 40
1.0
 40
1.0
 40
1.0
 40
1.0
 10
12.90180888
 20
7.1576573076
 30
0.0
 10
12.9001800997
 20
7.1543817334
 30
0.0
 10
12.8930179896
 20
7.1396069969
 30
0.0
 10
12.886574944
 20
7.1244771419
 30
0.0
 10
12.8820906954
 20
7.112529755
 30
0.0
  0
SPLINE
  5
474
100
AcDbEntity
  8
0
100
AcDbSpline
 62
7
  6
CONTINUOUS
 70
0
 71
3
 72
9
 73
5
 74
0
 42
0.0000001
 43
0.0000001
 44
0.0000000001
 40
0.0
 40
0.0
 40
0.0
 40
0.0
 40
0.2352816112
 40
1.0
 40
1.0
 40
1.0
 40
1.0
 10
12.8820906954
 20
7.112529755
 30
0.0
 10
12.8803781965
 20
7.107967143
 30
0.0
 10
12.8734218232
 20
7.0884581997
 30
0.0
 10
12.8679453247
 20
7.068399785
 30
0.0
 10
12.8648695483
 20
7.0528616159
 30
0.0
  0
SPLINE
  5
475
100
AcDbEntity
  8
0
100
AcDbSpline
 62
7
  6
CONTINUOUS
 70
0
 71
3
 72
9
 73
5
 74
0
 42
0.0000001
 43
0.0000001
 44
0.0000000001
 40
0.0
 40
0.0
 40
0.0
 40
0.0
 40
0.4949225237
 40
1.0
 40
1.0
 40
1.0
 40
1.0
 10
12.8648695483
 20
7.0528616159
 30
0.0
 10
12.8628285854
 20
7.0425511045
 30
0.0
 10
12.8596751748
 20
7.0215163238
 30
0.0
 10
12.8585267512
 20
7.0002687984
 30
0.0
 10
12.8585267512
 20
6.9895425652
 30
0.0
  0
SPLINE
  5
476
100
AcDbEntity
  8
0
100
AcDbSpline
 62
7
  6
CONTINUOUS
 70
0
 71
3
 72
9
 73
5
 74
0
 42
0.0000001
 43
0.0000001
 44
0.0000000001
 40
0.0
 40
0.0
 40
0.0
 40
0.0
 40
0.5044415312
 40
1.0
 40
1.0
 40
1.0
 40
1.0
 10
12.8585267512
 20
6.9895425652
 30
0.0
 10
12.8585267512
 20
6.979520089
 30
0.0
 10
12.8595259699
 20
6.95964256
 30
0.0
 10
12.8622964508
 20
6.9399401463
 30
0.0
 10
12.8640956216
 20
6.930259941
 30
0.0
  0
SPLINE
  5
477
100
AcDbEntity
  8
0
100
AcDbSpline
 62
7
  6
CONTINUOUS
 70
0
 71
3
 72
9
 73
5
 74
0
 42
0.0000001
 43
0.0000001
 44
0.0000000001
 40
0.0
 40
0.0
 40
0.0
 40
0.0
 40
0.2625935304
 40
1.0
 40
1.0
 40
1.0
 40
1.0
 10
12.8640956216
 20
6.930259941
 30
0.0
 10
12.8650694863
 20
6.9250201879
 30
0.0
 10
12.8692584937
 20
6.9051561882
 30
0.0
 10
12.8751554368
 20
6.8856709087
 30
0.0
 10
12.8802346476
 20
6.8715930754
 30
0.0
  0
SPLINE
  5
478
100
AcDbEntity
  8
0
100
AcDbSpline
 62
7
  6
CONTINUOUS
 70
0
 71
3
 72
9
 73
5
 74
0
 42
0.0000001
 43
0.0000001
 44
0.0000000001
 40
0.0
 40
0.0
 40
0.0
 40
0.0
 40
0.274085734
 40
1.0
 40
1.0
 40
1.0
 40
1.0
 10
12.8802346476
 20
6.8715930754
 30
0.0
 10
12.8818038229
 20
6.8672438586
 30
0.0
 10
12.8877851763
 20
6.8514683669
 30
0.0
 10
12.8946597005
 20
6.8360389996
 30
0.0
 10
12.9000302041
 20
6.8250338175
 30
0.0
  0
LINE
  5
479
100
AcDbEntity
  8
0
100
AcDbLine
 62
7
  6
CONTINUOUS
 10
12.916142967
 20
6.7944881164
 11
12.9218918433
 21
6.7845425652
  0
SPLINE
  5
47A
100
AcDbEntity
  8
0
100
AcDbSpline
 62
7
  6
CONTINUOUS
 70
0
 71
3
 72
26
 73
22
 74
0
 42
0.0000001
 43
0.0000001
 44
0.0000000001
 40
0.0
 40
0.0
 40
0.0
 40
0.0
 40
0.0002705914
 40
0.0010808543
 40
0.0024285609
 40
0.0043114842
 40
0.0096740769
 40
0.0171508341
 40
0.0267239715
 40
0.0383757191
 40
0.0520883216
 40
0.0678440386
 40
0.105413919
 40
0.1509437522
 40
0.2042921767
 40
0.2653163114
 40
0.3338156324
 40
0.4095211988
 40
0.5814655931
 40
0.7789983392
 40
1.0
 40
1.0
 40
1.0
 40
1.0
 10
11.8068918185
 20
6.7845425652
 30
0.0
 10
11.8068956074
 20
6.7845425652
 30
0.0
 10
11.8068989139
 20
6.784563449
 30
0.0
 10
11.8069206893
 20
6.7845850111
 30
0.0
 10
11.8069472762
 20
6.784637886
 30
0.0
 10
11.8070103982
 20
6.7847386128
 30
0.0
 10
11.8071147058
 20
6.7849177103
 30
0.0
 10
11.8072753045
 20
6.7851867173
 30
0.0
 10
11.8074795836
 20
6.78553306
 30
0.0
 10
11.8077279405
 20
6.7859544524
 30
0.0
 10
11.8080193899
 20
6.7864510499
 30
0.0
 10
11.8084933606
 20
6.7872612858
 30
0.0
 10
11.8091893643
 20
6.7884578021
 30
0.0
 10
11.810144944
 20
6.7901122714
 30
0.0
 10
11.8112585893
 20
6.7920546967
 30
0.0
 10
11.8125252414
 20
6.7942801226
 30
0.0
 10
11.8139373598
 20
6.7967829467
 30
0.0
 10
11.8160937089
 20
6.8006491201
 30
0.0
 10
11.819081505
 20
6.8061202703
 30
0.0
 10
11.8229429785
 20
6.8134316038
 30
0.0
 10
11.8255970387
 20
6.818657047
 30
0.0
 10
11.8269748665
 20
6.8214279418
 30
0.0
  0
SPLINE
  5
47B
100
AcDbEntity
  8
0
100
AcDbSpline
 62
7
  6
CONTINUOUS
 70
0
 71
3
 72
9
 73
5
 74
0
 42
0.0000001
 43
0.0000001
 44
0.0000000001
 40
0.0
 40
0.0
 40
0.0
 40
0.0
 40
0.222796571
 40
1.0
 40
1.0
 40
1.0
 40
1.0
 10
11.8269748665
 20
6.8214279418
 30
0.0
 10
11.8286036481
 20
6.8247035197
 30
0.0
 10
11.8357657619
 20
6.8394782685
 30
0.0
 10
11.8422088099
 20
6.8546081366
 30
0.0
 10
11.8466930554
 20
6.8665555341
 30
0.0
  0
SPLINE
  5
47C
100
AcDbEntity
  8
0
100
AcDbSpline
 62
7
  6
CONTINUOUS
 70
0
 71
3
 72
9
 73
5
 74
0
 42
0.0000001
 43
0.0000001
 44
0.0000000001
 40
0.0
 40
0.0
 40
0.0
 40
0.0
 40
0.2352816398
 40
1.0
 40
1.0
 40
1.0
 40
1.0
 10
11.8466930554
 20
6.8665555341
 30
0.0
 10
11.8484055527
 20
6.8711181492
 30
0.0
 10
11.8553619161
 20
6.8906271043
 30
0.0
 10
11.8608384001
 20
6.9106855308
 30
0.0
 10
11.8639141692
 20
6.9262237068
 30
0.0
  0
SPLINE
  5
47D
100
AcDbEntity
  8
0
100
AcDbSpline
 62
7
  6
CONTINUOUS
 70
0
 71
3
 72
9
 73
5
 74
0
 42
0.0000001
 43
0.0000001
 44
0.0000000001
 40
0.0
 40
0.0
 40
0.0
 40
0.0
 40
0.4949225605
 40
1.0
 40
1.0
 40
1.0
 40
1.0
 10
11.8639141692
 20
6.9262237068
 30
0.0
 10
11.8659551205
 20
6.9365341885
 30
0.0
 10
11.8691085168
 20
6.9575689052
 30
0.0
 10
11.8702569373
 20
6.9788163656
 30
0.0
 10
11.8702569373
 20
6.9895425652
 30
0.0
  0
SPLINE
  5
47E
100
AcDbEntity
  8
0
100
AcDbSpline
 62
7
  6
CONTINUOUS
 70
0
 71
3
 72
9
 73
5
 74
0
 42
0.0000001
 43
0.0000001
 44
0.0000000001
 40
0.0
 40
0.0
 40
0.0
 40
0.0
 40
0.5044415228
 40
1.0
 40
1.0
 40
1.0
 40
1.0
 10
11.8702569373
 20
6.9895425652
 30
0.0
 10
11.8702569373
 20
6.9995650313
 30
0.0
 10
11.8692577208
 20
7.0194425404
 30
0.0
 10
11.866487245
 20
7.0391449348
 30
0.0
 10
11.8646880775
 20
7.0488251309
 30
0.0
  0
SPLINE
  5
47F
100
AcDbEntity
  8
0
100
AcDbSpline
 62
7
  6
CONTINUOUS
 70
0
 71
3
 72
9
 73
5
 74
0
 42
0.0000001
 43
0.0000001
 44
0.0000000001
 40
0.0
 40
0.0
 40
0.0
 40
0.0
 40
0.262593498
 40
1.0
 40
1.0
 40
1.0
 40
1.0
 10
11.8646880775
 20
7.0488251309
 30
0.0
 10
11.8637142148
 20
7.0540648773
 30
0.0
 10
11.8595252159
 20
7.073928854
 30
0.0
 10
11.8536282846
 20
7.0934141115
 30
0.0
 10
11.8485490839
 20
7.1074919301
 30
0.0
  0
SPLINE
  5
480
100
AcDbEntity
  8
0
100
AcDbSpline
 62
7
  6
CONTINUOUS
 70
0
 71
3
 72
9
 73
5
 74
0
 42
0.0000001
 43
0.0000001
 44
0.0000000001
 40
0.0
 40
0.0
 40
0.0
 40
0.0
 40
0.2740856794
 40
1.0
 40
1.0
 40
1.0
 40
1.0
 10
11.8485490839
 20
7.1074919301
 30
0.0
 10
11.84697991
 20
7.1118411472
 30
0.0
 10
11.8409985605
 20
7.1276166431
 30
0.0
 10
11.8341240397
 20
7.1430460149
 30
0.0
 10
11.8287535373
 20
7.1540512008
 30
0.0
  0
LINE
  5
481
100
AcDbEntity
  8
0
100
AcDbLine
 62
7
  6
CONTINUOUS
 10
11.8126407678
 20
7.1845969238
 11
11.8068918182
 21
7.1945425652
  0
SPLINE
  5
482
100
AcDbEntity
  8
0
100
AcDbSpline
 62
7
  6
CONTINUOUS
 70
0
 71
3
 72
17
 73
13
 74
0
 42
0.0000001
 43
0.0000001
 44
0.0000000001
 40
0.0
 40
0.0
 40
0.0
 40
0.0
 40
0.0625552476
 40
0.1251107845
 40
0.2501377073
 40
0.3751622741
 40
0.4377165643
 40
0.500271588
 40
0.6252944777
 40
0.7502871746
 40
0.8752514439
 40
1.0
 40
1.0
 40
1.0
 40
1.0
 10
6.6605380896
 20
12.176158683
 30
0.0
 10
6.6511868223
 20
12.1981052769
 30
0.0
 10
6.6308696447
 20
12.241333531
 30
0.0
 10
6.584037764
 20
12.3245141998
 30
0.0
 10
6.5142992647
 20
12.4217650955
 30
0.0
 10
6.4310823105
 20
12.5077588188
 30
0.0
 10
6.3576017527
 20
12.5687025499
 30
0.0
 10
6.2798482962
 20
12.6240883405
 30
0.0
 10
6.1753846161
 20
12.6824498633
 30
0.0
 10
6.0412364165
 20
12.7334204009
 30
0.0
 10
5.9012277281
 20
12.7643399446
 30
0.0
 10
5.8058545035
 20
12.771214433
 30
0.0
 10
5.7582809321
 20
12.7712228086
 30
0.0
  0
SPLINE
  5
483
100
AcDbEntity
  8
0
100
AcDbSpline
 62
7
  6
CONTINUOUS
 70
0
 71
3
 72
10
 73
6
 74
0
 42
0.0000001
 43
0.0000001
 44
0.0000000001
 40
0.0
 40
0.0
 40
0.0
 40
0.0
 40
0.5379076043
 40
0.7913600471
 40
1.0
 40
1.0
 40
1.0
 40
1.0
 10
5.5892502482
 20
12.756739626
 30
0.0
 10
5.5723218427
 20
12.7538246423
 30
0.0
 10
5.5475218812
 20
12.7488928736
 30
0.0
 10
5.5164481624
 20
12.7415220956
 30
0.0
 10
5.5021678177
 20
12.7377998388
 30
0.0
 10
5.4957328612
 20
12.736072693
 30
0.0
  0
LINE
  5
484
100
AcDbEntity
  8
0
100
AcDbLine
 62
7
  6
CONTINUOUS
 10
5.4957328612
 20
12.736072693
 11
5.4925427778
 21
12.7352114806
  0
SPLINE
  5
485
100
AcDbEntity
  8
0
100
AcDbSpline
 62
7
  6
CONTINUOUS
 70
0
 71
3
 72
15
 73
11
 74
0
 42
0.0000001
 43
0.0000001
 44
0.0000000001
 40
0.0
 40
0.0
 40
0.0
 40
0.0
 40
0.1146758419
 40
0.1744990535
 40
0.2401038589
 40
0.3813175218
 40
0.5304689821
 40
0.6843102706
 40
0.8411494735
 40
1.0
 40
1.0
 40
1.0
 40
1.0
 10
5.4920803929
 20
10.8499689831
 30
0.0
 10
5.4894981848
 20
10.8506713444
 30
0.0
 10
5.4998021388
 20
10.8478797984
 30
0.0
 10
5.5037597695
 20
10.8468513583
 30
0.0
 10
5.5102006447
 20
10.8451768907
 30
0.0
 10
5.5180317318
 20
10.8432095756
 30
0.0
 10
5.5281853601
 20
10.8407550898
 30
0.0
 10
5.5386195844
 20
10.8383491533
 30
0.0
 10
5.5493278112
 20
10.835997864
 30
0.0
 10
5.5565387351
 20
10.8344966437
 30
0.0
 10
5.5601718638
 20
10.8337609584
 30
0.0
  0
SPLINE
  5
486
100
AcDbEntity
  8
0
100
AcDbSpline
 62
7
  6
CONTINUOUS
 70
0
 71
3
 72
29
 73
25
 74
0
 42
0.0000001
 43
0.0000001
 44
0.0000000001
 40
0.0
 40
0.0
 40
0.0
 40
0.0
 40
0.0624832919
 40
0.1249573167
 40
0.1874398242
 40
0.2499197301
 40
0.2811853951
 40
0.3124528128
 40
0.343720426
 40
0.3749872957
 40
0.4374685045
 40
0.46873497
 40
0.5000021825
 40
0.5312692423
 40
0.5625352064
 40
0.6250146051
 40
0.6562804239
 40
0.6875469965
 40
0.7188134797
 40
0.7500784964
 40
0.8125579356
 40
0.8750407361
 40
0.9375152918
 40
1.0
 40
1.0
 40
1.0
 40
1.0
 10
5.4922465104
 20
10.8498185374
 30
0.0
 10
5.4405823562
 20
10.8634552447
 30
0.0
 10
5.3392819429
 20
10.8991720561
 30
0.0
 10
5.1981190125
 20
10.9765220145
 30
0.0
 10
5.0712700969
 20
11.0756565557
 30
0.0
 10
4.980379701
 20
11.1744617065
 30
0.0
 10
4.9181333328
 20
11.2615007928
 30
0.0
 10
4.8769599382
 20
11.3304515812
 30
0.0
 10
4.8415843888
 20
11.4025526209
 30
0.0
 10
4.802549152
 20
11.5021797935
 30
0.0
 10
4.7760560784
 20
11.6063598567
 30
0.0
 10
4.7627749673
 20
11.712534495
 30
0.0
 10
4.7594705071
 20
11.7927783247
 30
0.0
 10
4.7628170459
 20
11.8730199531
 30
0.0
 10
4.7761522225
 20
11.979185686
 30
0.0
 10
4.8026987704
 20
12.0833491672
 30
0.0
 10
4.8417837278
 20
12.1829532145
 30
0.0
 10
4.8771942054
 20
12.2550342085
 30
0.0
 10
4.9184012041
 20
12.3239623268
 30
0.0
 10
4.9806907834
 20
12.4109683033
 30
0.0
 10
5.0716289345
 20
12.509728431
 30
0.0
 10
5.1985272767
 20
12.6088003216
 30
0.0
 10
5.339729987
 20
12.6860814696
 30
0.0
 10
5.4410495294
 20
12.7217492241
 30
0.0
 10
5.4927216872
 20
12.7353603285
 30
0.0
  0
SPLINE
  5
487
100
AcDbEntity
  8
0
100
AcDbSpline
 62
7
  6
CONTINUOUS
 70
0
 71
3
 72
21
 73
17
 74
0
 42
0.0000001
 43
0.0000001
 44
0.0000000001
 40
0.0
 40
0.0
 40
0.0
 40
0.0
 40
0.0622357576
 40
0.1244218079
 40
0.186693781
 40
0.2490523687
 40
0.3114583998
 40
0.3739093279
 40
0.4364107797
 40
0.4989652293
 40
0.6240180135
 40
0.7492027671
 40
0.8119182669
 40
0.8746326265
 40
0.9373321431
 40
1.0
 40
1.0
 40
1.0
 40
1.0
 10
6.2429045356
 20
12.3204152478
 30
0.0
 10
6.2225355202
 20
12.3187035411
 30
0.0
 10
6.1819742569
 20
12.3128840953
 30
0.0
 10
6.1225901563
 20
12.2970699895
 30
0.0
 10
6.065434517
 20
12.2743643122
 30
0.0
 10
6.0112421186
 20
12.2451421418
 30
0.0
 10
5.9607860591
 20
12.2097484416
 30
0.0
 10
5.9147982412
 20
12.1686526583
 30
0.0
 10
5.8738449404
 20
12.1224628168
 30
0.0
 10
5.8268051679
 20
12.0549288733
 30
0.0
 10
5.7831295311
 20
11.9608500891
 30
0.0
 10
5.7623548379
 20
11.8591792259
 30
0.0
 10
5.7600028808
 20
11.7767470571
 30
0.0
 10
5.7654317651
 20
11.7150500542
 30
0.0
 10
5.7779062984
 20
11.6544167653
 30
0.0
 10
5.7908681705
 20
11.6152176085
 30
0.0
 10
5.7984546839
 20
11.5960840365
 30
0.0
  0
SPLINE
  5
488
100
AcDbEntity
  8
0
100
AcDbSpline
 62
7
  6
CONTINUOUS
 70
0
 71
3
 72
11
 73
7
 74
0
 42
0.0000001
 43
0.0000001
 44
0.0000000001
 40
0.0
 40
0.0
 40
0.0
 40
0.0
 40
0.3396466482
 40
0.6203735153
 40
0.84284199
 40
1.0
 40
1.0
 40
1.0
 40
1.0
 10
6.2429238873
 20
12.3204171678
 30
0.0
 10
6.2351211367
 20
12.3197698486
 30
0.0
 10
6.2208778544
 20
12.3184802263
 30
0.0
 10
6.2015509099
 20
12.3164877347
 30
0.0
 10
6.1864136826
 20
12.3148784874
 30
0.0
 10
6.1777061692
 20
12.314004999
 30
0.0
 10
6.1741009129
 20
12.3136487354
 30
0.0
  0
SPLINE
  5
489
100
AcDbEntity
  8
0
100
AcDbSpline
 62
7
  6
CONTINUOUS
 70
0
 71
3
 72
21
 73
17
 74
0
 42
0.0000001
 43
0.0000001
 44
0.0000000001
 40
0.0
 40
0.0
 40
0.0
 40
0.0
 40
0.0010807911
 40
0.0043113625
 40
0.0096739018
 40
0.0171506106
 40
0.0383754078
 40
0.0678436569
 40
0.1054134954
 40
0.150943307
 40
0.2042917301
 40
0.2653158841
 40
0.4095204514
 40
0.5814650274
 40
0.7789980253
 40
1.0
 40
1.0
 40
1.0
 40
1.0
 10
6.9218918379
 20
7.1945425652
 30
0.0
 10
6.9219023048
 20
7.1945534954
 30
0.0
 10
6.9218269609
 20
7.1944436031
 30
0.0
 10
6.9218002119
 20
7.1943831881
 30
0.0
 10
6.9216611132
 20
7.1941583025
 30
0.0
 10
6.9214323498
 20
7.1937670567
 30
0.0
 10
6.9210078742
 20
7.1930514086
 30
0.0
 10
6.9203883242
 20
7.1919917211
 30
0.0
 10
6.9195937977
 20
7.1906266646
 30
0.0
 10
6.918638931
 20
7.1889731218
 30
0.0
 10
6.9175250626
 20
7.1870303868
 30
0.0
 10
6.9157340858
 20
7.183883862
 30
0.0
 10
6.9131495662
 20
7.1792779471
 30
0.0
 10
6.9097022791
 20
7.1729649206
 30
0.0
 10
6.9058407399
 20
7.1656536297
 30
0.0
 10
6.9031867047
 20
7.1604281951
 30
0.0
 10
6.90180888
 20
7.1576573076
 30
0.0
  0
SPLINE
  5
48A
100
AcDbEntity
  8
0
100
AcDbSpline
 62
7
  6
CONTINUOUS
 70
0
 71
3
 72
9
 73
5
 74
0
 42
0.0000001
 43
0.0000001
 44
0.0000000001
 40
0.0
 40
0.0
 40
0.0
 40
0.0
 40
0.2227965077
 40
1.0
 40
1.0
 40
1.0
 40
1.0
 10
6.90180888
 20
7.1576573076
 30
0.0
 10
6.9001800997
 20
7.1543817334
 30
0.0
 10
6.8930179896
 20
7.1396069969
 30
0.0
 10
6.886574944
 20
7.1244771419
 30
0.0
 10
6.8820906954
 20
7.112529755
 30
0.0
  0
SPLINE
  5
48B
100
AcDbEntity
  8
0
100
AcDbSpline
 62
7
  6
CONTINUOUS
 70
0
 71
3
 72
9
 73
5
 74
0
 42
0.0000001
 43
0.0000001
 44
0.0000000001
 40
0.0
 40
0.0
 40
0.0
 40
0.0
 40
0.2352816112
 40
1.0
 40
1.0
 40
1.0
 40
1.0
 10
6.8820906954
 20
7.112529755
 30
0.0
 10
6.8803781965
 20
7.107967143
 30
0.0
 10
6.8734218232
 20
7.0884581997
 30
0.0
 10
6.8679453247
 20
7.068399785
 30
0.0
 10
6.8648695483
 20
7.0528616159
 30
0.0
  0
SPLINE
  5
48C
100
AcDbEntity
  8
0
100
AcDbSpline
 62
7
  6
CONTINUOUS
 70
0
 71
3
 72
9
 73
5
 74
0
 42
0.0000001
 43
0.0000001
 44
0.0000000001
 40
0.0
 40
0.0
 40
0.0
 40
0.0
 40
0.4949225237
 40
1.0
 40
1.0
 40
1.0
 40
1.0
 10
6.8648695483
 20
7.0528616159
 30
0.0
 10
6.8628285854
 20
7.0425511045
 30
0.0
 10
6.8596751748
 20
7.0215163238
 30
0.0
 10
6.8585267512
 20
7.0002687984
 30
0.0
 10
6.8585267512
 20
6.9895425652
 30
0.0
  0
SPLINE
  5
48D
100
AcDbEntity
  8
0
100
AcDbSpline
 62
7
  6
CONTINUOUS
 70
0
 71
3
 72
9
 73
5
 74
0
 42
0.0000001
 43
0.0000001
 44
0.0000000001
 40
0.0
 40
0.0
 40
0.0
 40
0.0
 40
0.5044415312
 40
1.0
 40
1.0
 40
1.0
 40
1.0
 10
6.8585267512
 20
6.9895425652
 30
0.0
 10
6.8585267512
 20
6.979520089
 30
0.0
 10
6.8595259699
 20
6.95964256
 30
0.0
 10
6.8622964508
 20
6.9399401463
 30
0.0
 10
6.8640956216
 20
6.930259941
 30
0.0
  0
SPLINE
  5
48E
100
AcDbEntity
  8
0
100
AcDbSpline
 62
7
  6
CONTINUOUS
 70
0
 71
3
 72
9
 73
5
 74
0
 42
0.0000001
 43
0.0000001
 44
0.0000000001
 40
0.0
 40
0.0
 40
0.0
 40
0.0
 40
0.2625935304
 40
1.0
 40
1.0
 40
1.0
 40
1.0
 10
6.8640956216
 20
6.930259941
 30
0.0
 10
6.8650694863
 20
6.9250201879
 30
0.0
 10
6.8692584937
 20
6.9051561882
 30
0.0
 10
6.8751554368
 20
6.8856709087
 30
0.0
 10
6.8802346476
 20
6.8715930754
 30
0.0
  0
SPLINE
  5
48F
100
AcDbEntity
  8
0
100
AcDbSpline
 62
7
  6
CONTINUOUS
 70
0
 71
3
 72
9
 73
5
 74
0
 42
0.0000001
 43
0.0000001
 44
0.0000000001
 40
0.0
 40
0.0
 40
0.0
 40
0.0
 40
0.274085734
 40
1.0
 40
1.0
 40
1.0
 40
1.0
 10
6.8802346476
 20
6.8715930754
 30
0.0
 10
6.8818038229
 20
6.8672438586
 30
0.0
 10
6.8877851763
 20
6.8514683669
 30
0.0
 10
6.8946597005
 20
6.8360389996
 30
0.0
 10
6.9000302041
 20
6.8250338175
 30
0.0
  0
LINE
  5
490
100
AcDbEntity
  8
0
100
AcDbLine
 62
7
  6
CONTINUOUS
 10
6.916142967
 20
6.7944881164
 11
6.9218918433
 21
6.7845425652
  0
SPLINE
  5
491
100
AcDbEntity
  8
0
100
AcDbSpline
 62
7
  6
CONTINUOUS
 70
0
 71
3
 72
26
 73
22
 74
0
 42
0.0000001
 43
0.0000001
 44
0.0000000001
 40
0.0
 40
0.0
 40
0.0
 40
0.0
 40
0.0002705914
 40
0.0010808543
 40
0.0024285609
 40
0.0043114842
 40
0.0096740769
 40
0.0171508341
 40
0.0267239715
 40
0.0383757191
 40
0.0520883216
 40
0.0678440386
 40
0.105413919
 40
0.1509437522
 40
0.2042921767
 40
0.2653163114
 40
0.3338156324
 40
0.4095211988
 40
0.5814655931
 40
0.7789983392
 40
1.0
 40
1.0
 40
1.0
 40
1.0
 10
5.8068918185
 20
6.7845425652
 30
0.0
 10
5.8068956074
 20
6.7845425652
 30
0.0
 10
5.8068989139
 20
6.784563449
 30
0.0
 10
5.8069206893
 20
6.7845850111
 30
0.0
 10
5.8069472762
 20
6.784637886
 30
0.0
 10
5.8070103982
 20
6.7847386128
 30
0.0
 10
5.8071147058
 20
6.7849177103
 30
0.0
 10
5.8072753045
 20
6.7851867173
 30
0.0
 10
5.8074795836
 20
6.78553306
 30
0.0
 10
5.8077279405
 20
6.7859544524
 30
0.0
 10
5.8080193899
 20
6.7864510499
 30
0.0
 10
5.8084933606
 20
6.7872612858
 30
0.0
 10
5.8091893643
 20
6.7884578021
 30
0.0
 10
5.810144944
 20
6.7901122714
 30
0.0
 10
5.8112585893
 20
6.7920546967
 30
0.0
 10
5.8125252414
 20
6.7942801226
 30
0.0
 10
5.8139373598
 20
6.7967829467
 30
0.0
 10
5.8160937089
 20
6.8006491201
 30
0.0
 10
5.819081505
 20
6.8061202703
 30
0.0
 10
5.8229429785
 20
6.8134316038
 30
0.0
 10
5.8255970387
 20
6.818657047
 30
0.0
 10
5.8269748665
 20
6.8214279418
 30
0.0
  0
SPLINE
  5
492
100
AcDbEntity
  8
0
100
AcDbSpline
 62
7
  6
CONTINUOUS
 70
0
 71
3
 72
9
 73
5
 74
0
 42
0.0000001
 43
0.0000001
 44
0.0000000001
 40
0.0
 40
0.0
 40
0.0
 40
0.0
 40
0.222796571
 40
1.0
 40
1.0
 40
1.0
 40
1.0
 10
5.8269748665
 20
6.8214279418
 30
0.0
 10
5.8286036481
 20
6.8247035197
 30
0.0
 10
5.8357657619
 20
6.8394782685
 30
0.0
 10
5.8422088099
 20
6.8546081366
 30
0.0
 10
5.8466930554
 20
6.8665555341
 30
0.0
  0
SPLINE
  5
493
100
AcDbEntity
  8
0
100
AcDbSpline
 62
7
  6
CONTINUOUS
 70
0
 71
3
 72
9
 73
5
 74
0
 42
0.0000001
 43
0.0000001
 44
0.0000000001
 40
0.0
 40
0.0
 40
0.0
 40
0.0
 40
0.2352816398
 40
1.0
 40
1.0
 40
1.0
 40
1.0
 10
5.8466930554
 20
6.8665555341
 30
0.0
 10
5.8484055527
 20
6.8711181492
 30
0.0
 10
5.8553619161
 20
6.8906271043
 30
0.0
 10
5.8608384001
 20
6.9106855308
 30
0.0
 10
5.8639141692
 20
6.9262237068
 30
0.0
  0
SPLINE
  5
494
100
AcDbEntity
  8
0
100
AcDbSpline
 62
7
  6
CONTINUOUS
 70
0
 71
3
 72
9
 73
5
 74
0
 42
0.0000001
 43
0.0000001
 44
0.0000000001
 40
0.0
 40
0.0
 40
0.0
 40
0.0
 40
0.4949225605
 40
1.0
 40
1.0
 40
1.0
 40
1.0
 10
5.8639141692
 20
6.9262237068
 30
0.0
 10
5.8659551205
 20
6.9365341885
 30
0.0
 10
5.8691085168
 20
6.9575689052
 30
0.0
 10
5.8702569373
 20
6.9788163656
 30
0.0
 10
5.8702569373
 20
6.9895425652
 30
0.0
  0
SPLINE
  5
495
100
AcDbEntity
  8
0
100
AcDbSpline
 62
7
  6
CONTINUOUS
 70
0
 71
3
 72
9
 73
5
 74
0
 42
0.0000001
 43
0.0000001
 44
0.0000000001
 40
0.0
 40
0.0
 40
0.0
 40
0.0
 40
0.5044415228
 40
1.0
 40
1.0
 40
1.0
 40
1.0
 10
5.8702569373
 20
6.9895425652
 30
0.0
 10
5.8702569373
 20
6.9995650313
 30
0.0
 10
5.8692577208
 20
7.0194425404
 30
0.0
 10
5.866487245
 20
7.0391449348
 30
0.0
 10
5.8646880775
 20
7.0488251309
 30
0.0
  0
SPLINE
  5
496
100
AcDbEntity
  8
0
100
AcDbSpline
 62
7
  6
CONTINUOUS
 70
0
 71
3
 72
9
 73
5
 74
0
 42
0.0000001
 43
0.0000001
 44
0.0000000001
 40
0.0
 40
0.0
 40
0.0
 40
0.0
 40
0.262593498
 40
1.0
 40
1.0
 40
1.0
 40
1.0
 10
5.8646880775
 20
7.0488251309
 30
0.0
 10
5.8637142148
 20
7.0540648773
 30
0.0
 10
5.8595252159
 20
7.073928854
 30
0.0
 10
5.8536282846
 20
7.0934141115
 30
0.0
 10
5.8485490839
 20
7.1074919301
 30
0.0
  0
SPLINE
  5
497
100
AcDbEntity
  8
0
100
AcDbSpline
 62
7
  6
CONTINUOUS
 70
0
 71
3
 72
9
 73
5
 74
0
 42
0.0000001
 43
0.0000001
 44
0.0000000001
 40
0.0
 40
0.0
 40
0.0
 40
0.0
 40
0.2740856794
 40
1.0
 40
1.0
 40
1.0
 40
1.0
 10
5.8485490839
 20
7.1074919301
 30
0.0
 10
5.84697991
 20
7.1118411472
 30
0.0
 10
5.8409985605
 20
7.1276166431
 30
0.0
 10
5.8341240397
 20
7.1430460149
 30
0.0
 10
5.8287535373
 20
7.1540512008
 30
0.0
  0
LINE
  5
498
100
AcDbEntity
  8
0
100
AcDbLine
 62
7
  6
CONTINUOUS
 10
5.8126407678
 20
7.1845969238
 11
5.8068918182
 21
7.1945425652
  0
SPLINE
  5
499
100
AcDbEntity
  8
0
100
AcDbSpline
 62
7
  6
CONTINUOUS
 70
0
 71
3
 72
17
 73
13
 74
0
 42
0.0000001
 43
0.0000001
 44
0.0000000001
 40
0.0
 40
0.0
 40
0.0
 40
0.0
 40
0.1247462507
 40
0.1872676829
 40
0.249796334
 40
0.3747891066
 40
0.4998118802
 40
0.5623671327
 40
0.6249215157
 40
0.7499462681
 40
0.8749731477
 40
1.0
 40
1.0
 40
1.0
 40
1.0
 10
12.9704988946
 20
12.7712235795
 30
0.0
 10
12.9229123378
 20
12.7712153187
 30
0.0
 10
12.8513360405
 20
12.766041396
 30
0.0
 10
12.7575415677
 20
12.748888833
 30
0.0
 10
12.6651433451
 20
12.7249053836
 30
0.0
 10
12.553272186
 20
12.6823976244
 30
0.0
 10
12.4487966573
 20
12.624001504
 30
0.0
 10
12.3710286839
 20
12.5685855227
 30
0.0
 10
12.2975402522
 20
12.5076108515
 30
0.0
 10
12.2143130538
 20
12.4215547271
 30
0.0
 10
12.1306731708
 20
12.3048813454
 30
0.0
 10
12.0867926602
 20
12.2197301741
 30
0.0
 10
12.0681124879
 20
12.175847029
 30
0.0
  0
SPLINE
  5
49A
100
AcDbEntity
  8
0
100
AcDbSpline
 62
7
  6
CONTINUOUS
 70
0
 71
3
 72
29
 73
25
 74
0
 42
0.0000001
 43
0.0000001
 44
0.0000000001
 40
0.0
 40
0.0
 40
0.0
 40
0.0
 40
0.0624833361
 40
0.1249569508
 40
0.1874392822
 40
0.2499189843
 40
0.2811845364
 40
0.3124519042
 40
0.3437195503
 40
0.3749865215
 40
0.4374680655
 40
0.4687347757
 40
0.5000022938
 40
0.5312696711
 40
0.5625358845
 40
0.6250156067
 40
0.6562815226
 40
0.6875481139
 40
0.7188145573
 40
0.7500794666
 40
0.8125586779
 40
0.8750412793
 40
0.9375155076
 40
1.0
 40
1.0
 40
1.0
 40
1.0
 10
13.2360567789
 20
10.8496922289
 30
0.0
 10
13.2877276783
 20
10.8633031586
 30
0.0
 10
13.3890457505
 20
10.8989682818
 30
0.0
 10
13.5302467119
 20
10.9762475581
 30
0.0
 10
13.6571437215
 20
11.075318765
 30
0.0
 10
13.748084984
 20
11.1740760783
 30
0.0
 10
13.8103758675
 20
11.2610827513
 30
0.0
 10
13.8515842267
 20
11.3300123716
 30
0.0
 10
13.886996369
 20
11.4020953753
 30
0.0
 10
13.9260826765
 20
11.5017027491
 30
0.0
 10
13.9526298822
 20
11.6058694123
 30
0.0
 10
13.965966231
 20
11.7120377257
 30
0.0
 10
13.9693119476
 20
11.7922804687
 30
0.0
 10
13.9660065634
 20
11.8725244055
 30
0.0
 10
13.9527261486
 20
11.9786976214
 30
0.0
 10
13.9262319081
 20
12.0828748073
 30
0.0
 10
13.8871987171
 20
12.182499344
 30
0.0
 10
13.8518251627
 20
12.2545984143
 30
0.0
 10
13.810653514
 20
12.3235473624
 30
0.0
 10
13.7484084012
 20
12.4105846032
 30
0.0
 10
13.657519248
 20
12.5093888472
 30
0.0
 10
13.5306729619
 20
12.6085256477
 30
0.0
 10
13.3895101413
 20
12.6858782065
 30
0.0
 10
13.2882088178
 20
12.7215955839
 30
0.0
 10
13.2365438555
 20
12.735232908
 30
0.0
  0
SPLINE
  5
49B
100
AcDbEntity
  8
0
100
AcDbSpline
 62
7
  6
CONTINUOUS
 70
0
 71
3
 72
10
 73
6
 74
0
 42
0.0000001
 43
0.0000001
 44
0.0000000001
 40
0.0
 40
0.0
 40
0.0
 40
0.0
 40
0.5379076035
 40
0.7913600462
 40
1.0
 40
1.0
 40
1.0
 40
1.0
 10
13.1395334579
 20
10.8283140138
 30
0.0
 10
13.1564618643
 20
10.8312289979
 30
0.0
 10
13.1812618271
 20
10.8361607673
 30
0.0
 10
13.2123355476
 20
10.8435315462
 30
0.0
 10
13.2266158931
 20
10.8472538036
 30
0.0
 10
13.23305085
 20
10.8489809497
 30
0.0
  0
LINE
  5
49C
100
AcDbEntity
  8
0
100
AcDbLine
 62
7
  6
CONTINUOUS
 10
13.23305085
 20
10.8489809497
 11
13.2362409337
 21
10.8498421622
  0
SPLINE
  5
49D
100
AcDbEntity
  8
0
100
AcDbSpline
 62
7
  6
CONTINUOUS
 70
0
 71
3
 72
15
 73
11
 74
0
 42
0.0000001
 43
0.0000001
 44
0.0000000001
 40
0.0
 40
0.0
 40
0.0
 40
0.0
 40
0.1146757431
 40
0.1744989521
 40
0.2401037612
 40
0.381317438
 40
0.5304689162
 40
0.6843102255
 40
0.8411494506
 40
1.0
 40
1.0
 40
1.0
 40
1.0
 10
13.2367033178
 20
12.735084643
 30
0.0
 10
13.2392855237
 20
12.7343822824
 30
0.0
 10
13.2289815767
 20
12.7371738267
 30
0.0
 10
13.2250239484
 20
12.7382022663
 30
0.0
 10
13.2185830727
 20
12.7398767342
 30
0.0
 10
13.210751985
 20
12.7418440496
 30
0.0
 10
13.2005983557
 20
12.7442985359
 30
0.0
 10
13.1901641302
 20
12.746704473
 30
0.0
 10
13.1794559021
 20
12.7490557628
 30
0.0
 10
13.1722449772
 20
12.7505569835
 30
0.0
 10
13.1686118481
 20
12.7512926689
 30
0.0
  0
SPLINE
  5
49E
100
AcDbEntity
  8
0
100
AcDbSpline
 62
7
  6
CONTINUOUS
 70
0
 71
3
 72
21
 73
17
 74
0
 42
0.0000001
 43
0.0000001
 44
0.0000000001
 40
0.0
 40
0.0
 40
0.0
 40
0.0
 40
0.0622357758
 40
0.1244218672
 40
0.1866935725
 40
0.2490519198
 40
0.3114577448
 40
0.3739082867
 40
0.4364092367
 40
0.4989629486
 40
0.6240154346
 40
0.7492002671
 40
0.8119158801
 40
0.8746304971
 40
0.937330956
 40
1.0
 40
1.0
 40
1.0
 40
1.0
 10
12.4859824465
 20
12.3204065571
 30
0.0
 10
12.5063058526
 20
12.3186946261
 30
0.0
 10
12.5467760914
 20
12.3128854202
 30
0.0
 10
12.6060306048
 20
12.2971181496
 30
0.0
 10
12.6630688
 20
12.2744892051
 30
0.0
 10
12.7171605917
 20
12.2453706507
 30
0.0
 10
12.7675383471
 20
12.2101055316
 30
0.0
 10
12.813473754
 20
12.1691583065
 30
0.0
 10
12.8544034921
 20
12.123132645
 30
0.0
 10
12.9014562009
 20
12.0558322661
 30
0.0
 10
12.945231577
 20
11.9620592215
 30
0.0
 10
12.9662265335
 20
11.8606737839
 30
0.0
 10
12.9688227453
 20
11.7784329005
 30
0.0
 10
12.9636081456
 20
11.7168557147
 30
0.0
 10
12.9513741499
 20
11.6563136766
 30
0.0
 10
12.9385912514
 20
11.617152125
 30
0.0
 10
12.9310965923
 20
11.5980311013
 30
0.0
  0
SPLINE
  5
49F
100
AcDbEntity
  8
0
100
AcDbSpline
 62
7
  6
CONTINUOUS
 70
0
 71
3
 72
16
 73
12
 74
0
 42
0.0000001
 43
0.0000001
 44
0.0000000001
 40
0.0
 40
0.0
 40
0.0
 40
0.0
 40
0.0237995743
 40
0.0337000085
 40
0.0540432086
 40
0.1225309976
 40
0.2325177129
 40
0.3774375702
 40
0.5536200814
 40
0.7610584907
 40
1.0
 40
1.0
 40
1.0
 40
1.0
 10
12.5574571181
 20
12.3132557401
 30
0.0
 10
12.5580683849
 20
12.3132286067
 30
0.0
 10
12.5587379324
 20
12.3131980202
 30
0.0
 10
12.5606991643
 20
12.3130595302
 30
0.0
 10
12.5561173561
 20
12.3135125321
 30
0.0
 10
12.5528909333
 20
12.3138258785
 30
0.0
 10
12.5435929398
 20
12.314756216
 30
0.0
 10
12.5329911135
 20
12.3158706468
 30
0.0
 10
12.5193256791
 20
12.3173156431
 30
0.0
 10
12.5034511525
 20
12.3188888594
 30
0.0
 10
12.4920059756
 20
12.3199073101
 30
0.0
 10
12.4858840083
 20
12.3204152339
 30
0.0
  0
SPLINE
  5
4A0
100
AcDbEntity
  8
0
100
AcDbSpline
 62
7
  6
CONTINUOUS
 70
0
 71
3
 72
9
 73
5
 74
0
 42
0.0000001
 43
0.0000001
 44
0.0000000001
 40
0.0
 40
0.0
 40
0.0
 40
0.0
 40
0.2542915444
 40
1.0
 40
1.0
 40
1.0
 40
1.0
 10
6.7216653546
 20
9.3440006427
 30
0.0
 10
6.7247371348
 20
9.3381372912
 30
0.0
 10
6.7368914211
 20
9.3151187078
 30
0.0
 10
6.749291321
 20
9.292230689
 30
0.0
 10
6.7586029889
 20
9.2751989978
 30
0.0
  0
SPLINE
  5
4A1
100
AcDbEntity
  8
0
100
AcDbSpline
 62
7
  6
CONTINUOUS
 70
0
 71
3
 72
12
 73
8
 74
0
 42
0.0000001
 43
0.0000001
 44
0.0000000001
 40
0.0
 40
0.0
 40
0.0
 40
0.0
 40
0.2907567619
 40
0.4281903784
 40
0.5592143681
 40
0.7986380363
 40
1.0
 40
1.0
 40
1.0
 40
1.0
 10
6.7585607435
 20
9.2751455284
 30
0.0
 10
6.7680938751
 20
9.257966244
 30
0.0
 10
6.7821010928
 20
9.2326489802
 30
0.0
 10
6.8003406965
 20
9.1995550748
 30
0.0
 10
6.8168765492
 20
9.1694829951
 30
0.0
 10
6.8353095327
 20
9.1355232934
 30
0.0
 10
6.8490285892
 20
9.1090838432
 30
0.0
 10
6.8551889904
 20
9.0969518221
 30
0.0
  0
SPLINE
  5
4A2
100
AcDbEntity
  8
0
100
AcDbSpline
 62
7
  6
CONTINUOUS
 70
0
 71
3
 72
12
 73
8
 74
0
 42
0.0000001
 43
0.0000001
 44
0.0000000001
 40
0.0
 40
0.0
 40
0.0
 40
0.0
 40
0.0546653508
 40
0.2229408386
 40
0.5206882196
 40
0.7307189848
 40
1.0
 40
1.0
 40
1.0
 40
1.0
 10
6.8747375333
 20
9.0758786161
 30
0.0
 10
6.8743965527
 20
9.0761362515
 30
0.0
 10
6.873011951
 20
9.0771946964
 30
0.0
 10
6.8698348634
 20
9.0797394144
 30
0.0
 10
6.8658589244
 20
9.0832323519
 30
0.0
 10
6.8616263051
 20
9.0875888851
 30
0.0
 10
6.8591791125
 20
9.0904460915
 30
0.0
 10
6.8579828302
 20
9.0921782154
 30
0.0
  0
LINE
  5
4A3
100
AcDbEntity
  8
0
100
AcDbLine
 62
7
  6
CONTINUOUS
 10
6.8579828302
 20
9.0921782154
 11
6.8551890257
 21
9.0969516558
  0
SPLINE
  5
4A4
100
AcDbEntity
  8
0
100
AcDbSpline
 62
9
  6
CONTINUOUS
 70
0
 71
3
 72
17
 73
13
 74
0
 42
0.0000001
 43
0.0000001
 44
0.0000000001
 40
0.0
 40
0.0
 40
0.0
 40
0.0
 40
0.1686068899
 40
0.3180588084
 40
0.3858024373
 40
0.4499111632
 40
0.5113003716
 40
0.5707375094
 40
0.6849508363
 40
0.7940042083
 40
0.8988104354
 40
1.0
 40
1.0
 40
1.0
 40
1.0
 10
8.3213223464
 20
2.6840543762
 30
0.0
 10
8.3213223464
 20
2.6954191002
 30
0.0
 10
8.3231933293
 20
2.7169004016
 30
0.0
 10
8.3294774065
 20
2.7422219795
 30
0.0
 10
8.3358460668
 20
2.7600924904
 30
0.0
 10
8.3409871134
 20
2.7720693907
 30
0.0
 10
8.3465524132
 20
2.7832296289
 30
0.0
 10
8.3542845849
 20
2.7970621815
 30
0.0
 10
8.3646657114
 20
2.8130717858
 30
0.0
 10
8.3781863307
 20
2.8305971936
 30
0.0
 10
8.3923305442
 20
2.8464553352
 30
0.0
 10
8.4021549139
 20
2.8562778156
 30
0.0
 10
8.4071026059
 20
2.8609725175
 30
0.0
  0
SPLINE
  5
4A5
100
AcDbEntity
  8
0
100
AcDbSpline
 62
9
  6
CONTINUOUS
 70
0
 71
3
 72
13
 73
9
 74
0
 42
0.0000001
 43
0.0000001
 44
0.0000000001
 40
0.0
 40
0.0
 40
0.0
 40
0.0
 40
0.2353865365
 40
0.3590299741
 40
0.4856575654
 40
0.6142216408
 40
0.7435488443
 40
1.0
 40
1.0
 40
1.0
 40
1.0
 10
8.9149205074
 20
8.9730398844
 30
0.0
 10
8.9128519611
 20
8.9881140288
 30
0.0
 10
8.9079159011
 20
9.0109061688
 30
0.0
 10
8.8979167307
 20
9.0406859486
 30
0.0
 10
8.8883128531
 20
9.0632413465
 30
0.0
 10
8.8768079812
 20
9.0853044892
 30
0.0
 10
8.8591382948
 20
9.1134955439
 30
0.0
 10
8.8432434694
 20
9.132917226
 30
0.0
 10
8.8316709803
 20
9.1447863205
 30
0.0
  0
SPLINE
  5
4A6
100
AcDbEntity
  8
0
100
AcDbSpline
 62
7
  6
CONTINUOUS
 70
0
 71
3
 72
9
 73
5
 74
0
 42
0.0000001
 43
0.0000001
 44
0.0000000001
 40
0.0
 40
0.0
 40
0.0
 40
0.0
 40
0.2513859682
 40
1.0
 40
1.0
 40
1.0
 40
1.0
 10
6.8976858649
 20
8.9785425652
 30
0.0
 10
6.8885637016
 20
8.9825210722
 30
0.0
 10
6.8519783782
 20
8.9976375128
 30
0.0
 10
6.814043718
 20
9.0096343111
 30
0.0
 10
6.7851365615
 20
9.016168887
 30
0.0
  0
SPLINE
  5
4A7
100
AcDbEntity
  8
0
100
AcDbSpline
 62
7
  6
CONTINUOUS
 70
0
 71
3
 72
13
 73
9
 74
0
 42
0.0000001
 43
0.0000001
 44
0.0000000001
 40
0.0
 40
0.0
 40
0.0
 40
0.0
 40
0.2491054901
 40
0.3733895113
 40
0.4978005687
 40
0.6225706129
 40
0.7478183387
 40
1.0
 40
1.0
 40
1.0
 40
1.0
 10
6.7851365615
 20
9.016168887
 30
0.0
 10
6.757843106
 20
9.0223386794
 30
0.0
 10
6.7160673284
 20
9.0283591814
 30
0.0
 10
6.660093061
 20
9.0288731368
 30
0.0
 10
6.6182230439
 20
9.0254609201
 30
0.0
 10
6.5766931445
 20
9.018503043
 30
0.0
 10
6.5219467336
 20
9.0047001564
 30
0.0
 10
6.4820634076
 20
8.9898671008
 30
0.0
 10
6.4560978216
 20
8.9785425652
 30
0.0
  0
SPLINE
  5
4A8
100
AcDbEntity
  8
0
100
AcDbSpline
 62
9
  6
CONTINUOUS
 70
0
 71
3
 72
15
 73
11
 74
0
 42
0.0000001
 43
0.0000001
 44
0.0000000001
 40
0.0
 40
0.0
 40
0.0
 40
0.0
 40
0.0344721224
 40
0.0592055747
 40
0.0902781967
 40
0.1729222868
 40
0.2839766833
 40
0.42334827
 40
0.5899896194
 40
1.0
 40
1.0
 40
1.0
 40
1.0
 10
7.1160368969
 20
9.13108438
 30
0.0
 10
7.116041235
 20
9.1308336248
 30
0.0
 10
7.1163176877
 20
9.1304323967
 30
0.0
 10
7.1168429504
 20
9.1300527454
 30
0.0
 10
7.1177354018
 20
9.1295713201
 30
0.0
 10
7.1192804125
 20
9.1290242484
 30
0.0
 10
7.1216284869
 20
9.1284187388
 30
0.0
 10
7.1246077819
 20
9.1278371843
 30
0.0
 10
7.1297559758
 20
9.127037213
 30
0.0
 10
7.1339282439
 20
9.126578268
 30
0.0
 10
7.1368977136
 20
9.1262953037
 30
0.0
  0
SPLINE
  5
4A9
100
AcDbEntity
  8
0
100
AcDbSpline
 62
9
  6
CONTINUOUS
 70
0
 71
3
 72
9
 73
5
 74
0
 42
0.0000001
 43
0.0000001
 44
0.0000000001
 40
0.0
 40
0.0
 40
0.0
 40
0.0
 40
0.4621236854
 40
1.0
 40
1.0
 40
1.0
 40
1.0
 10
7.1368977136
 20
9.1262953037
 30
0.0
 10
7.1409279118
 20
9.1259112613
 30
0.0
 10
7.1496663166
 20
9.1252631581
 30
0.0
 10
7.1584175157
 20
9.124843544
 30
0.0
 10
7.1631262501
 20
9.1246657741
 30
0.0
  0
SPLINE
  5
4AA
100
AcDbEntity
  8
0
100
AcDbSpline
 62
9
  6
CONTINUOUS
 70
0
 71
3
 72
16
 73
12
 74
0
 42
0.0000001
 43
0.0000001
 44
0.0000000001
 40
0.0
 40
0.0
 40
0.0
 40
0.0
 40
0.0274681468
 40
0.0510735886
 40
0.0822276849
 40
0.1211431595
 40
0.1678066597
 40
0.2834933896
 40
0.4272549298
 40
0.5967299562
 40
1.0
 40
1.0
 40
1.0
 40
1.0
 10
11.612870172
 20
9.1510060137
 30
0.0
 10
11.6128625581
 20
9.1505659003
 30
0.0
 10
11.612082031
 20
9.1499365322
 30
0.0
 10
11.610937033
 20
9.1494112079
 30
0.0
 10
11.6094956736
 20
9.1489155579
 30
0.0
 10
11.6076915391
 20
9.1484468026
 30
0.0
 10
11.6045309652
 20
9.1477825563
 30
0.0
 10
11.5996816436
 20
9.1470377475
 30
0.0
 10
11.5928503498
 20
9.1462615988
 30
0.0
 10
11.5814079281
 20
9.1452980103
 30
0.0
 10
11.5722386544
 20
9.1448312119
 30
0.0
 10
11.5657808188
 20
9.1445874078
 30
0.0
  0
SPLINE
  5
4AB
100
AcDbEntity
  8
0
100
AcDbSpline
 62
9
  6
CONTINUOUS
 70
0
 71
3
 72
25
 73
21
 74
0
 42
0.0000001
 43
0.0000001
 44
0.0000000001
 40
0.0
 40
0.0
 40
0.0
 40
0.0
 40
0.2160487445
 40
0.4114254132
 40
0.5832725563
 40
0.6594610087
 40
0.7286652264
 40
0.7905391047
 40
0.8448458941
 40
0.8913759442
 40
0.9299190497
 40
0.9461296731
 40
0.9602644942
 40
0.9722970929
 40
0.9822010194
 40
0.9899497947
 40
0.9955169112
 40
0.9974740564
 40
0.998875834
 40
1.0
 40
1.0
 40
1.0
 40
1.0
 10
9.8138616607
 20
8.9730510835
 30
0.0
 10
9.8213561214
 20
8.9685470367
 30
0.0
 10
9.8355188665
 20
8.9597869654
 30
0.0
 10
9.8553034727
 20
8.9469075382
 30
0.0
 10
9.8701492224
 20
8.9368239442
 30
0.0
 10
9.8806823785
 20
8.9294824954
 30
0.0
 10
9.8875332071
 20
8.9246419296
 30
0.0
 10
9.8936399918
 20
8.9202831415
 30
0.0
 10
9.8989821774
 20
8.9164328603
 30
0.0
 10
9.9035435474
 20
8.9131140598
 30
0.0
 10
9.9068474667
 20
8.9106881043
 30
0.0
 10
9.9090893337
 20
8.9090302038
 30
0.0
 10
9.9104656911
 20
8.9080080292
 30
0.0
 10
9.9116372474
 20
8.9071336575
 30
0.0
 10
9.9125947632
 20
8.9064173966
 30
0.0
 10
9.9133560119
 20
8.9058419017
 30
0.0
 10
9.9138277456
 20
8.9054913345
 30
0.0
 10
9.9141446879
 20
8.9052434312
 30
0.0
 10
9.9142380241
 20
8.9051860805
 30
0.0
 10
9.9144185432
 20
8.9050226965
 30
0.0
 10
9.9143918333
 20
8.9050595272
 30
0.0
  0
SPLINE
  5
4AC
100
AcDbEntity
  8
0
100
AcDbSpline
 62
7
  6
CONTINUOUS
 70
0
 71
3
 72
15
 73
11
 74
0
 42
0.0000001
 43
0.0000001
 44
0.0000000001
 40
0.0
 40
0.0
 40
0.0
 40
0.0
 40
0.125274479
 40
0.2499874379
 40
0.3742980624
 40
0.4985153766
 40
0.6230180184
 40
0.7480134637
 40
0.8736627956
 40
1.0
 40
1.0
 40
1.0
 40
1.0
 10
5.9005326891
 20
8.7279001808
 30
0.0
 10
5.9157535047
 20
8.7231651154
 30
0.0
 10
5.9465222405
 20
8.7149177755
 30
0.0
 10
5.9935203674
 20
8.7068024509
 30
0.0
 10
6.0409592016
 20
8.7032347631
 30
0.0
 10
6.0884892685
 20
8.7045767944
 30
0.0
 10
6.1357285318
 20
8.7106362908
 30
0.0
 10
6.1823652338
 20
8.7211173678
 30
0.0
 10
6.2281455578
 20
8.7356026781
 30
0.0
 10
6.25795076
 20
8.7475000303
 30
0.0
 10
6.2726858649
 20
8.753926545
 30
0.0
  0
SPLINE
  5
4AD
100
AcDbEntity
  8
0
100
AcDbSpline
 62
7
  6
CONTINUOUS
 70
0
 71
3
 72
13
 73
9
 74
0
 42
0.0000001
 43
0.0000001
 44
0.0000000001
 40
0.0
 40
0.0
 40
0.0
 40
0.0
 40
0.251225443
 40
0.3758449808
 40
0.5
 40
0.6241550193
 40
0.7487745573
 40
1.0
 40
1.0
 40
1.0
 40
1.0
 10
6.4560978216
 20
8.753926545
 30
0.0
 10
6.4910699519
 20
8.7386739281
 30
0.0
 10
6.5453402892
 20
8.7196569333
 30
0.0
 10
6.6202222706
 20
8.7062644991
 30
0.0
 10
6.6768918433
 20
8.7027538417
 30
0.0
 10
6.733561416
 20
8.7062644993
 30
0.0
 10
6.8084433973
 20
8.7196569333
 30
0.0
 10
6.8627137347
 20
8.7386739282
 30
0.0
 10
6.8976858649
 20
8.753926545
 30
0.0
  0
SPLINE
  5
4AE
100
AcDbEntity
  8
0
100
AcDbSpline
 62
9
  6
CONTINUOUS
 70
0
 71
3
 72
18
 73
14
 74
0
 42
0.0000001
 43
0.0000001
 44
0.0000000001
 40
0.0
 40
0.0
 40
0.0
 40
0.0
 40
0.0084579591
 40
0.0152491577
 40
0.0240777782
 40
0.0481472402
 40
0.0809406794
 40
0.1717694314
 40
0.2936787236
 40
0.4428502118
 40
0.6143971644
 40
0.8026292844
 40
1.0
 40
1.0
 40
1.0
 40
1.0
 10
7.2708610837
 20
9.0466160257
 30
0.0
 10
7.2706406877
 20
9.0466192255
 30
0.0
 10
7.2703035508
 20
9.0469472124
 30
0.0
 10
7.270008806
 20
9.0474799921
 30
0.0
 10
7.2696058887
 20
9.0484442171
 30
0.0
 10
7.2691554469
 20
9.0500943423
 30
0.0
 10
7.2683985665
 20
9.0538722837
 30
0.0
 10
7.2675905206
 20
9.0602237371
 30
0.0
 10
7.266755327
 20
9.0696190345
 30
0.0
 10
7.2660507408
 20
9.0811339278
 30
0.0
 10
7.2654932864
 20
9.0943862809
 30
0.0
 10
7.265114465
 20
9.1089015163
 30
0.0
 10
7.2649868716
 20
9.1189500636
 30
0.0
 10
7.2649550159
 20
9.1240935594
 30
0.0
  0
SPLINE
  5
4AF
100
AcDbEntity
  8
0
100
AcDbSpline
 62
9
  6
CONTINUOUS
 70
0
 71
3
 72
11
 73
7
 74
0
 42
0.0000001
 43
0.0000001
 44
0.0000000001
 40
0.0
 40
0.0
 40
0.0
 40
0.0
 40
0.2352071209
 40
0.4831696137
 40
0.7399817537
 40
1.0
 40
1.0
 40
1.0
 40
1.0
 10
9.8138534596
 20
8.9730466699
 30
0.0
 10
9.8154985108
 20
8.9850335868
 30
0.0
 10
9.8203942408
 20
9.0094709326
 30
0.0
 10
9.8322877172
 20
9.0457284726
 30
0.0
 10
9.8491699479
 20
9.0813729101
 30
0.0
 10
9.8635163351
 20
9.1038627916
 30
0.0
 10
9.871466849
 20
9.1146189728
 30
0.0
  0
SPLINE
  5
4B0
100
AcDbEntity
  8
0
100
AcDbSpline
 62
9
  6
CONTINUOUS
 70
0
 71
3
 72
11
 73
7
 74
0
 42
0.0000001
 43
0.0000001
 44
0.0000000001
 40
0.0
 40
0.0
 40
0.0
 40
0.0
 40
0.3036321963
 40
0.5714386331
 40
0.8032530101
 40
1.0
 40
1.0
 40
1.0
 40
1.0
 10
9.9138104966
 20
10.2268259784
 30
0.0
 10
9.9094582174
 20
10.2297163892
 30
0.0
 10
9.9010868341
 20
10.2348938701
 30
0.0
 10
9.8887528509
 20
10.2411769473
 30
0.0
 10
9.8775467127
 20
10.2454842703
 30
0.0
 10
9.8703220438
 20
10.2471618266
 30
0.0
 10
9.8669616692
 20
10.2475730981
 30
0.0
  0
SPLINE
  5
4B1
100
AcDbEntity
  8
0
100
AcDbSpline
 62
7
  6
CONTINUOUS
 70
0
 71
3
 72
9
 73
5
 74
0
 42
0.0000001
 43
0.0000001
 44
0.0000000001
 40
0.0
 40
0.0
 40
0.0
 40
0.0
 40
0.399016737
 40
1.0
 40
1.0
 40
1.0
 40
1.0
 10
11.5714387774
 20
10.0348739406
 30
0.0
 10
11.5699601107
 20
10.0322972477
 30
0.0
 10
11.5663897024
 20
10.0257620195
 30
0.0
 10
11.563039166
 20
10.0191112469
 30
0.0
 10
11.5610875839
 20
10.015084731
 30
0.0
  0
LINE
  5
4B2
100
AcDbEntity
  8
0
100
AcDbLine
 62
7
  6
CONTINUOUS
 10
11.5610395019
 20
9.3530091726
 11
11.5647603994
 21
9.3455144893
  0
SPLINE
  5
4B3
100
AcDbEntity
  8
0
100
AcDbSpline
 62
7
  6
CONTINUOUS
 70
0
 71
3
 72
10
 73
6
 74
0
 42
0.0000001
 43
0.0000001
 44
0.0000000001
 40
0.0
 40
0.0
 40
0.0
 40
0.0
 40
0.578643696
 40
0.8116569139
 40
1.0
 40
1.0
 40
1.0
 40
1.0
 10
11.5647603994
 20
9.3455144893
 30
0.0
 10
11.566126644
 20
9.3430758404
 30
0.0
 10
11.5682911346
 20
9.3397938413
 30
0.0
 10
11.5711378225
 20
9.3358934278
 30
0.0
 10
11.5723203314
 20
9.3342348006
 30
0.0
 10
11.5728099005
 20
9.3334679038
 30
0.0
  0
SPLINE
  5
4B4
100
AcDbEntity
  8
0
100
AcDbSpline
 62
9
  6
CONTINUOUS
 70
0
 71
3
 72
11
 73
7
 74
0
 42
0.0000001
 43
0.0000001
 44
0.0000000001
 40
0.0
 40
0.0
 40
0.0
 40
0.0
 40
0.194856492
 40
0.4260728134
 40
0.6945453866
 40
1.0
 40
1.0
 40
1.0
 40
1.0
 10
8.8618213611
 20
10.2475729988
 30
0.0
 10
8.8582812572
 20
10.2471397255
 30
0.0
 10
8.8506468975
 20
10.2453239419
 30
0.0
 10
8.8388013478
 20
10.2406410038
 30
0.0
 10
8.825728921
 20
10.2337886059
 30
0.0
 10
8.8168578564
 20
10.2281413624
 30
0.0
 10
8.8122424913
 20
10.2249860806
 30
0.0
  0
SPLINE
  5
4B5
100
AcDbEntity
  8
0
100
AcDbSpline
 62
9
  6
CONTINUOUS
 70
0
 71
3
 72
13
 73
9
 74
0
 42
0.0000001
 43
0.0000001
 44
0.0000000001
 40
0.0
 40
0.0
 40
0.0
 40
0.0
 40
0.1416709111
 40
0.2754754564
 40
0.4041902399
 40
0.5289914718
 40
0.7693743068
 40
1.0
 40
1.0
 40
1.0
 40
1.0
 10
10.0068074967
 20
8.4007389984
 30
0.0
 10
10.0061680241
 20
8.3865362009
 30
0.0
 10
10.0033624786
 20
8.3589833807
 30
0.0
 10
9.9962271856
 20
8.3190304543
 30
0.0
 10
9.9870309861
 20
8.2812395165
 30
0.0
 10
9.9725924261
 20
8.2338037166
 30
0.0
 10
9.9507479428
 20
8.1780249176
 30
0.0
 10
9.9289723831
 20
8.1359597445
 30
0.0
 10
9.9172464854
 20
8.1160059587
 30
0.0
  0
SPLINE
  5
4B6
100
AcDbEntity
  8
0
100
AcDbSpline
 62
9
  6
CONTINUOUS
 70
0
 71
3
 72
9
 73
5
 74
0
 42
0.0000001
 43
0.0000001
 44
0.0000000001
 40
0.0
 40
0.0
 40
0.0
 40
0.0
 40
0.4778620913
 40
1.0
 40
1.0
 40
1.0
 40
1.0
 10
12.9704528691
 20
10.8138248699
 30
0.0
 10
12.968414405
 20
10.8138248732
 30
0.0
 10
12.9641162088
 20
10.8143399486
 30
0.0
 10
12.9601839239
 20
10.8162040148
 30
0.0
 10
12.9583272809
 20
10.817434422
 30
0.0
  0
SPLINE
  5
4B7
100
AcDbEntity
  8
0
100
AcDbSpline
 62
9
  6
CONTINUOUS
 70
0
 71
3
 72
9
 73
5
 74
0
 42
0.0000001
 43
0.0000001
 44
0.0000000001
 40
0.0
 40
0.0
 40
0.0
 40
0.0
 40
0.2418673103
 40
1.0
 40
1.0
 40
1.0
 40
1.0
 10
12.9164352096
 20
10.8946094854
 30
0.0
 10
12.9151402109
 20
10.8981012493
 30
0.0
 10
12.9098717821
 20
10.9125697978
 30
0.0
 10
12.9048679534
 20
10.9271330042
 30
0.0
 10
12.9011230149
 20
10.9381893945
 30
0.0
  0
SPLINE
  5
4B8
100
AcDbEntity
  8
0
100
AcDbSpline
 62
9
  6
CONTINUOUS
 70
0
 71
3
 72
9
 73
5
 74
0
 42
0.0000001
 43
0.0000001
 44
0.0000000001
 40
0.0
 40
0.0
 40
0.0
 40
0.0
 40
0.5067491454
 40
1.0
 40
1.0
 40
1.0
 40
1.0
 10
12.9011230149
 20
10.9381893945
 30
0.0
 10
12.896651349
 20
10.9513913425
 30
0.0
 10
12.8879698922
 20
10.9774909545
 30
0.0
 10
12.879067387
 20
11.0035191346
 30
0.0
 10
12.8744687623
 20
11.016283431
 30
0.0
  0
SPLINE
  5
4B9
100
AcDbEntity
  8
0
100
AcDbSpline
 62
9
  6
CONTINUOUS
 70
0
 71
3
 72
40
 73
36
 74
0
 42
0.0000001
 43
0.0000001
 44
0.0000000001
 40
0.0
 40
0.0
 40
0.0
 40
0.0
 40
0.0098740554
 40
0.0151336528
 40
0.0208482805
 40
0.0272046272
 40
0.0342878581
 40
0.0507260836
 40
0.0701529557
 40
0.0923311141
 40
0.1169306156
 40
0.1435754646
 40
0.2013823058
 40
0.2624132243
 40
0.3232443477
 40
0.3525147928
 40
0.3804580817
 40
0.4748471334
 40
0.5129008455
 40
0.5462175359
 40
0.5758062549
 40
0.6026155466
 40
0.6274913975
 40
0.6511484706
 40
0.6741729721
 40
0.6970626867
 40
0.720149803
 40
0.7433815438
 40
0.7897837201
 40
0.8352983761
 40
0.8791101332
 40
0.9002278945
 40
0.9208062079
 40
0.9607621712
 40
1.0
 40
1.0
 40
1.0
 40
1.0
 10
12.9704486562
 20
12.7712286554
 30
0.0
 10
12.9682757393
 20
12.7712286556
 30
0.0
 10
12.9649097506
 20
12.7707894378
 30
0.0
 10
12.9606317916
 20
12.7690797134
 30
0.0
 10
12.9573648889
 20
12.7670772645
 30
0.0
 10
12.9541382554
 20
12.7643459316
 30
0.0
 10
12.9496246252
 20
12.7595509527
 30
0.0
 10
12.9441021937
 20
12.7518376103
 30
0.0
 10
12.9377568456
 20
12.7407408461
 30
0.0
 10
12.9313933734
 20
12.7276252065
 30
0.0
 10
12.9250137992
 20
12.7127766926
 30
0.0
 10
12.9162535209
 20
12.6904313666
 30
0.0
 10
12.9055687269
 20
12.660245228
 30
0.0
 10
12.8930168899
 20
12.62275272
 30
0.0
 10
12.8824329714
 20
12.5912228475
 30
0.0
 10
12.8737821306
 20
12.5667255656
 30
0.0
 10
12.8621648808
 20
12.5354588135
 30
0.0
 10
12.8479598921
 20
12.5030031274
 30
0.0
 10
12.829316883
 20
12.4716029549
 30
0.0
 10
12.8163166817
 20
12.4535466306
 30
0.0
 10
12.8032787525
 20
12.4386793756
 30
0.0
 10
12.7902146131
 20
12.4264247974
 30
0.0
 10
12.7771447007
 20
12.4161937408
 30
0.0
 10
12.7640859385
 20
12.4073784796
 30
0.0
 10
12.751039016
 20
12.3993651524
 30
0.0
 10
12.7380304032
 20
12.3915322325
 30
0.0
 10
12.7251484075
 20
12.3834054854
 30
0.0
 10
12.7079919351
 20
12.3723605955
 30
0.0
 10
12.6867162247
 20
12.3585944744
 30
0.0
 10
12.6611477292
 20
12.3431393969
 30
0.0
 10
12.6395087328
 20
12.3319877837
 30
0.0
 10
12.6220895357
 20
12.3248350618
 30
0.0
 10
12.6050014949
 20
12.3192261131
 30
0.0
 10
12.5834018386
 20
12.314843666
 30
0.0
 10
12.5659786503
 20
12.3136097577
 30
0.0
 10
12.557346078
 20
12.3134134049
 30
0.0
  0
SPLINE
  5
4BA
100
AcDbEntity
  8
0
100
AcDbSpline
 62
9
  6
CONTINUOUS
 70
0
 71
3
 72
18
 73
14
 74
0
 42
0.0000001
 43
0.0000001
 44
0.0000000001
 40
0.0
 40
0.0
 40
0.0
 40
0.0
 40
0.0084579591
 40
0.0152491577
 40
0.0240777782
 40
0.0481472402
 40
0.0809406794
 40
0.1717694314
 40
0.2936787236
 40
0.4428502118
 40
0.6143971644
 40
0.8026292844
 40
1.0
 40
1.0
 40
1.0
 40
1.0
 10
7.2010316002
 20
10.3214927268
 30
0.0
 10
7.2008112042
 20
10.321489527
 30
0.0
 10
7.2004740673
 20
10.3211615401
 30
0.0
 10
7.2001793225
 20
10.3206287604
 30
0.0
 10
7.1997764052
 20
10.3196645354
 30
0.0
 10
7.1993259634
 20
10.3180144102
 30
0.0
 10
7.198569083
 20
10.3142364688
 30
0.0
 10
7.1977610371
 20
10.3078850154
 30
0.0
 10
7.1969258435
 20
10.298489718
 30
0.0
 10
7.1962212573
 20
10.2869748247
 30
0.0
 10
7.1956638029
 20
10.2737224716
 30
0.0
 10
7.1952849815
 20
10.2592072362
 30
0.0
 10
7.1951573881
 20
10.2491586889
 30
0.0
 10
7.1951255324
 20
10.2440151931
 30
0.0
  0
SPLINE
  5
4BB
100
AcDbEntity
  8
0
100
AcDbSpline
 62
9
  6
CONTINUOUS
 70
0
 71
3
 72
27
 73
23
 74
0
 42
0.0000001
 43
0.0000001
 44
0.0000000001
 40
0.0
 40
0.0
 40
0.0
 40
0.0
 40
0.0029817443
 40
0.0060848571
 40
0.0130364577
 40
0.0214666057
 40
0.031678163
 40
0.0438167331
 40
0.0579475985
 40
0.0740939529
 40
0.0922556421
 40
0.1124187822
 40
0.134560987
 40
0.1846642961
 40
0.2423086577
 40
0.3072017738
 40
0.3789280353
 40
0.4566898461
 40
0.5395997953
 40
0.6267643724
 40
0.8102634776
 40
1.0
 40
1.0
 40
1.0
 40
1.0
 10
12.4407810203
 20
12.3223080209
 30
0.0
 10
12.4396074821
 20
12.3223080332
 30
0.0
 10
12.4372059591
 20
12.3220530961
 30
0.0
 10
12.4322869658
 20
12.3204942345
 30
0.0
 10
12.4260992816
 20
12.3164391636
 30
0.0
 10
12.4191823215
 20
12.3090474326
 30
0.0
 10
12.4123501904
 20
12.2990014879
 30
0.0
 10
12.4055935067
 20
12.2863116596
 30
0.0
 10
12.3989091321
 20
12.2710009503
 30
0.0
 10
12.3923139822
 20
12.2531049741
 30
0.0
 10
12.385824681
 20
12.2326660734
 30
0.0
 10
12.3794585767
 20
12.2097305319
 30
0.0
 10
12.3707986614
 20
12.1744023154
 30
0.0
 10
12.3605836044
 20
12.1242925749
 30
0.0
 10
12.3495077413
 20
12.0572432961
 30
0.0
 10
12.3393208982
 20
11.981457652
 30
0.0
 10
12.3301675118
 20
11.897573742
 30
0.0
 10
12.3220787941
 20
11.8064610241
 30
0.0
 10
12.3151211149
 20
11.7091631635
 30
0.0
 10
12.3073060522
 20
11.5702208462
 30
0.0
 10
12.3009330824
 20
11.3891091275
 30
0.0
 10
12.2994819713
 20
11.2422017694
 30
0.0
 10
12.2997323233
 20
11.1675267506
 30
0.0
  0
SPLINE
  5
4BC
100
AcDbEntity
  8
0
100
AcDbSpline
 62
9
  6
CONTINUOUS
 70
0
 71
3
 72
16
 73
12
 74
0
 42
0.0000001
 43
0.0000001
 44
0.0000000001
 40
0.0
 40
0.0
 40
0.0
 40
0.0
 40
0.0274681468
 40
0.0510735886
 40
0.0822276849
 40
0.1211431595
 40
0.1678066597
 40
0.2834933896
 40
0.4272549298
 40
0.5967299562
 40
1.0
 40
1.0
 40
1.0
 40
1.0
 10
7.1159135145
 20
10.2171027387
 30
0.0
 10
7.1159211285
 20
10.2175428522
 30
0.0
 10
7.1167016556
 20
10.2181722202
 30
0.0
 10
7.1178466536
 20
10.2186975446
 30
0.0
 10
7.1192880129
 20
10.2191931946
 30
0.0
 10
7.1210921475
 20
10.2196619499
 30
0.0
 10
7.1242527214
 20
10.2203261962
 30
0.0
 10
7.1291020429
 20
10.221071005
 30
0.0
 10
7.1359333368
 20
10.2218471537
 30
0.0
 10
7.1473757585
 20
10.2228107422
 30
0.0
 10
7.1565450321
 20
10.2232775406
 30
0.0
 10
7.1630028677
 20
10.2235213446
 30
0.0
  0
SPLINE
  5
4BD
100
AcDbEntity
  8
0
100
AcDbSpline
 62
9
  6
CONTINUOUS
 70
0
 71
3
 72
13
 73
9
 74
0
 42
0.0000001
 43
0.0000001
 44
0.0000000001
 40
0.0
 40
0.0
 40
0.0
 40
0.0
 40
0.1416709111
 40
0.2754754564
 40
0.4041902399
 40
0.5289914718
 40
0.7693743068
 40
1.0
 40
1.0
 40
1.0
 40
1.0
 10
8.7219761898
 20
8.4007389984
 30
0.0
 10
8.7226156624
 20
8.3865362009
 30
0.0
 10
8.725421208
 20
8.3589833807
 30
0.0
 10
8.732556501
 20
8.3190304543
 30
0.0
 10
8.7417527004
 20
8.2812395165
 30
0.0
 10
8.7561912604
 20
8.2338037166
 30
0.0
 10
8.7780357438
 20
8.1780249176
 30
0.0
 10
8.7998113035
 20
8.1359597445
 30
0.0
 10
8.8115372011
 20
8.1160059587
 30
0.0
  0
SPLINE
  5
4BE
100
AcDbEntity
  8
0
100
AcDbSpline
 62
9
  6
CONTINUOUS
 70
0
 71
3
 72
11
 73
7
 74
0
 42
0.0000001
 43
0.0000001
 44
0.0000000001
 40
0.0
 40
0.0
 40
0.0
 40
0.0
 40
0.2718735495
 40
0.5256467794
 40
0.7670640173
 40
1.0
 40
1.0
 40
1.0
 40
1.0
 10
10.2588675948
 20
3.9338511849
 30
0.0
 10
10.2588290484
 20
3.9285709272
 30
0.0
 10
10.2583098102
 20
3.9183586833
 30
0.0
 10
10.2562687164
 20
3.9035856339
 30
0.0
 10
10.2533142962
 20
3.8897459225
 30
0.0
 10
10.2508611703
 20
3.8808596715
 30
0.0
 10
10.2495341214
 20
3.8765345345
 30
0.0
  0
SPLINE
  5
4BF
100
AcDbEntity
  8
0
100
AcDbSpline
 62
9
  6
CONTINUOUS
 70
0
 71
3
 72
21
 73
17
 74
0
 42
0.0000001
 43
0.0000001
 44
0.0000000001
 40
0.0
 40
0.0
 40
0.0
 40
0.0
 40
0.0315544049
 40
0.0618636814
 40
0.0914902551
 40
0.1207554342
 40
0.1788084215
 40
0.2078135745
 40
0.2368769781
 40
0.2953176156
 40
0.3543584233
 40
0.4746771679
 40
0.5986888805
 40
0.7270171629
 40
0.8604107964
 40
1.0
 40
1.0
 40
1.0
 40
1.0
 10
10.2495341214
 20
3.8765345345
 30
0.0
 10
10.2463295928
 20
3.8660902891
 30
0.0
 10
10.2386920995
 20
3.8460114099
 30
0.0
 10
10.2242499404
 20
3.8177675277
 30
0.0
 10
10.2077708977
 20
3.7916083524
 30
0.0
 10
10.1838111148
 20
3.7589386092
 30
0.0
 10
10.1569400126
 20
3.7287998912
 30
0.0
 10
10.1279993361
 20
3.7008818498
 30
0.0
 10
10.0977174101
 20
3.674213107
 30
0.0
 10
10.0575054917
 20
3.6431737032
 30
0.0
 10
9.9887127181
 20
3.5978362267
 30
0.0
 10
9.8953372981
 20
3.5490662097
 30
0.0
 10
9.7744567906
 20
3.5032144213
 30
0.0
 10
9.6449286296
 20
3.4696610331
 30
0.0
 10
9.5073115027
 20
3.4488980389
 30
0.0
 10
9.4127205694
 20
3.4443689989
 30
0.0
 10
9.3643918433
 20
3.4443689989
 30
0.0
  0
SPLINE
  5
4C0
100
AcDbEntity
  8
0
100
AcDbSpline
 62
9
  6
CONTINUOUS
 70
0
 71
3
 72
26
 73
22
 74
0
 42
0.0000001
 43
0.0000001
 44
0.0000000001
 40
0.0
 40
0.0
 40
0.0
 40
0.0
 40
0.0002826153
 40
0.0011270132
 40
0.0025298828
 40
0.0044879143
 40
0.0100562332
 40
0.0178055284
 40
0.0277093861
 40
0.039741421
 40
0.0538752775
 40
0.0700846301
 40
0.1086246539
 40
0.1551515368
 40
0.2094558388
 40
0.2713286791
 40
0.3405338363
 40
0.4167247401
 40
0.5885783553
 40
0.7839582678
 40
1.0
 40
1.0
 40
1.0
 40
1.0
 10
8.8143946497
 20
8.9050595827
 30
0.0
 10
8.8144012763
 20
8.9050689046
 30
0.0
 10
8.814443499
 20
8.9050908161
 30
0.0
 10
8.8145192167
 20
8.9051583796
 30
0.0
 10
8.8146579595
 20
8.9052582182
 30
0.0
 10
8.8149439437
 20
8.9054784423
 30
0.0
 10
8.815438612
 20
8.9058497374
 30
0.0
 10
8.8161888158
 20
8.9064154709
 30
0.0
 10
8.8171504696
 20
8.9071355982
 30
0.0
 10
8.8183203387
 20
8.908008595
 30
0.0
 10
8.8196970134
 20
8.9090311749
 30
0.0
 10
8.8219383426
 20
8.9106887244
 30
0.0
 10
8.8252419971
 20
8.9131144965
 30
0.0
 10
8.8298029081
 20
8.9164327481
 30
0.0
 10
8.8351448484
 20
8.9202824118
 30
0.0
 10
8.8412515937
 20
8.9246404464
 30
0.0
 10
8.8481026632
 20
8.9294801482
 30
0.0
 10
8.858636393
 20
8.9368204003
 30
0.0
 10
8.8734826381
 20
8.9469026104
 30
0.0
 10
8.8932664746
 20
8.9597813334
 30
0.0
 10
8.9074275783
 20
8.9685422241
 30
0.0
 10
8.9149207502
 20
8.9730470553
 30
0.0
  0
SPLINE
  5
4C1
100
AcDbEntity
  8
0
100
AcDbSpline
 62
9
  6
CONTINUOUS
 70
0
 71
3
 72
10
 73
6
 74
0
 42
0.0000001
 43
0.0000001
 44
0.0000000001
 40
0.0
 40
0.0
 40
0.0
 40
0.0
 40
0.5606261325
 40
0.7956054197
 40
1.0
 40
1.0
 40
1.0
 40
1.0
 10
8.8896101545
 20
10.2259543024
 30
0.0
 10
8.8971911054
 20
10.2356531238
 30
0.0
 10
8.9086039943
 20
10.2489530607
 30
0.0
 10
8.9245246293
 20
10.2640938659
 30
0.0
 10
8.9320151428
 20
10.2701982219
 30
0.0
 10
8.9356383465
 20
10.2728467877
 30
0.0
  0
SPLINE
  5
4C2
100
AcDbEntity
  8
0
100
AcDbSpline
 62
9
  6
CONTINUOUS
 70
0
 71
3
 72
15
 73
11
 74
0
 42
0.0000001
 43
0.0000001
 44
0.0000000001
 40
0.0
 40
0.0
 40
0.0
 40
0.0
 40
0.1056170923
 40
0.2182002268
 40
0.3368849219
 40
0.4611410944
 40
0.5905946739
 40
0.7243144562
 40
0.8613343257
 40
1.0
 40
1.0
 40
1.0
 40
1.0
 10
8.9149173724
 20
8.9730590563
 30
0.0
 10
8.9270873493
 20
8.9600493194
 30
0.0
 10
8.9533648092
 20
8.9342110611
 30
0.0
 10
8.9971206584
 20
8.8978528491
 30
0.0
 10
9.0465386179
 20
8.8637320506
 30
0.0
 10
9.1014993447
 20
8.8331079754
 30
0.0
 10
9.1616641827
 20
8.8072924136
 30
0.0
 10
9.2263613456
 20
8.7875250301
 30
0.0
 10
9.2944596329
 20
8.7751889912
 30
0.0
 10
9.3410028772
 20
8.772298819
 30
0.0
 10
9.3643918924
 20
8.7722945142
 30
0.0
  0
SPLINE
  5
4C3
100
AcDbEntity
  8
0
100
AcDbSpline
 62
7
  6
CONTINUOUS
 70
0
 71
3
 72
17
 73
13
 74
0
 42
0.0000001
 43
0.0000001
 44
0.0000000001
 40
0.0
 40
0.0
 40
0.0
 40
0.0
 40
0.1274851314
 40
0.2531725413
 40
0.3770929976
 40
0.4386264587
 40
0.5000002043
 40
0.5613739912
 40
0.6229074432
 40
0.7468276276
 40
0.8725148573
 40
1.0
 40
1.0
 40
1.0
 40
1.0
 10
6.8618355698
 20
10.7826133877
 30
0.0
 10
6.8468694022
 20
10.7934807024
 30
0.0
 10
6.8161229899
 20
10.8137204821
 30
0.0
 10
6.7669541446
 20
10.8380827095
 30
0.0
 10
6.7235773663
 20
10.8515123053
 30
0.0
 10
6.6881398362
 20
10.8570267532
 30
0.0
 10
6.6613917493
 20
10.8584193797
 30
0.0
 10
6.6346436606
 20
10.8570267585
 30
0.0
 10
6.5992061801
 20
10.851512222
 30
0.0
 10
6.5558294613
 20
10.8380826835
 30
0.0
 10
6.5066606778
 20
10.8137204666
 30
0.0
 10
6.4759142856
 20
10.7934807034
 30
0.0
 10
6.4609481168
 20
10.7826133877
 30
0.0
  0
SPLINE
  5
4C4
100
AcDbEntity
  8
0
100
AcDbSpline
 62
7
  6
CONTINUOUS
 70
0
 71
3
 72
17
 73
13
 74
0
 42
0.0000001
 43
0.0000001
 44
0.0000000001
 40
0.0
 40
0.0
 40
0.0
 40
0.0
 40
0.1274851314
 40
0.2531725413
 40
0.3770929976
 40
0.4386264587
 40
0.5000002043
 40
0.5613739912
 40
0.6229074432
 40
0.7468276276
 40
0.8725148573
 40
1.0
 40
1.0
 40
1.0
 40
1.0
 10
6.2678355698
 20
10.7826133877
 30
0.0
 10
6.2528694022
 20
10.7934807024
 30
0.0
 10
6.2221229899
 20
10.8137204821
 30
0.0
 10
6.1729541446
 20
10.8380827095
 30
0.0
 10
6.1295773663
 20
10.8515123053
 30
0.0
 10
6.0941398362
 20
10.8570267532
 30
0.0
 10
6.0673917493
 20
10.8584193797
 30
0.0
 10
6.0406436606
 20
10.8570267585
 30
0.0
 10
6.0052061801
 20
10.851512222
 30
0.0
 10
5.9618294613
 20
10.8380826835
 30
0.0
 10
5.9126606778
 20
10.8137204666
 30
0.0
 10
5.8819142856
 20
10.7934807034
 30
0.0
 10
5.8669481168
 20
10.7826133877
 30
0.0
  0
SPLINE
  5
4C5
100
AcDbEntity
  8
0
100
AcDbSpline
 62
7
  6
CONTINUOUS
 70
0
 71
3
 72
9
 73
5
 74
0
 42
0.0000001
 43
0.0000001
 44
0.0000000001
 40
0.0
 40
0.0
 40
0.0
 40
0.0
 40
0.2490879829
 40
1.0
 40
1.0
 40
1.0
 40
1.0
 10
6.2314173455
 20
10.4121299987
 30
0.0
 10
6.2345249928
 20
10.4140179351
 30
0.0
 10
6.2469140907
 20
10.4217402181
 30
0.0
 10
6.2589655428
 20
10.4299994946
 30
0.0
 10
6.2678355698
 20
10.4364402467
 30
0.0
  0
SPLINE
  5
4C6
100
AcDbEntity
  8
0
100
AcDbSpline
 62
7
  6
CONTINUOUS
 70
0
 71
3
 72
17
 73
13
 74
0
 42
0.0000001
 43
0.0000001
 44
0.0000000001
 40
0.0
 40
0.0
 40
0.0
 40
0.0
 40
0.1274851314
 40
0.2531725413
 40
0.3770929976
 40
0.4386264587
 40
0.5000002043
 40
0.5613739912
 40
0.6229074432
 40
0.7468276276
 40
0.8725148573
 40
1.0
 40
1.0
 40
1.0
 40
1.0
 10
6.4609481168
 20
10.4364402467
 30
0.0
 10
6.4759142843
 20
10.4255729319
 30
0.0
 10
6.5066606967
 20
10.4053331523
 30
0.0
 10
6.5558295419
 20
10.3809709249
 30
0.0
 10
6.5992063203
 20
10.3675413291
 30
0.0
 10
6.6346438503
 20
10.3620268812
 30
0.0
 10
6.6613919373
 20
10.3606342547
 30
0.0
 10
6.6881400259
 20
10.3620268759
 30
0.0
 10
6.7235775065
 20
10.3675414123
 30
0.0
 10
6.7669542252
 20
10.3809709509
 30
0.0
 10
6.8161230088
 20
10.4053331678
 30
0.0
 10
6.8468694009
 20
10.425572931
 30
0.0
 10
6.8618355698
 20
10.4364402467
 30
0.0
  0
SPLINE
  5
4C7
100
AcDbEntity
  8
0
100
AcDbSpline
 62
9
  6
CONTINUOUS
 70
0
 71
3
 72
15
 73
11
 74
0
 42
0.0000001
 43
0.0000001
 44
0.0000000001
 40
0.0
 40
0.0
 40
0.0
 40
0.0
 40
0.1386696639
 40
0.2756941711
 40
0.409414794
 40
0.5388670281
 40
0.6631219186
 40
0.7818052396
 40
0.8943862843
 40
1.0
 40
1.0
 40
1.0
 40
1.0
 10
9.3643918917
 20
8.7722948892
 30
0.0
 10
9.3877811386
 20
8.772299333
 30
0.0
 10
9.4343249287
 20
8.7751898004
 30
0.0
 10
9.5024235456
 20
8.7875256175
 30
0.0
 10
9.5671201929
 20
8.807292772
 30
0.0
 10
9.6272835045
 20
8.8331079935
 30
0.0
 10
9.6822425988
 20
8.8637311426
 30
0.0
 10
9.731659165
 20
8.8978505369
 30
0.0
 10
9.775413698
 20
8.9342068348
 30
0.0
 10
9.8016903701
 20
8.9600435839
 30
0.0
 10
9.8138599052
 20
8.973052494
 30
0.0
  0
SPLINE
  5
4C8
100
AcDbEntity
  8
0
100
AcDbSpline
 62
9
  6
CONTINUOUS
 70
0
 71
3
 72
11
 73
7
 74
0
 42
0.0000001
 43
0.0000001
 44
0.0000000001
 40
0.0
 40
0.0
 40
0.0
 40
0.0
 40
0.2730209879
 40
0.5269297862
 40
0.7678812193
 40
1.0
 40
1.0
 40
1.0
 40
1.0
 10
8.448922078
 20
3.5618053718
 30
0.0
 10
8.4489635883
 20
3.556501705
 30
0.0
 10
8.4495101415
 20
3.5462619358
 30
0.0
 10
8.4516630443
 20
3.5314835815
 30
0.0
 10
8.4547750662
 20
3.5176969728
 30
0.0
 10
8.4573571695
 20
3.5088705143
 30
0.0
 10
8.4587529219
 20
3.5045827222
 30
0.0
  0
SPLINE
  5
4C9
100
AcDbEntity
  8
0
100
AcDbSpline
 62
9
  6
CONTINUOUS
 70
0
 71
3
 72
23
 73
19
 74
0
 42
0.0000001
 43
0.0000001
 44
0.0000000001
 40
0.0
 40
0.0
 40
0.0
 40
0.0
 40
0.0157808869
 40
0.0311500756
 40
0.0610412139
 40
0.0757171517
 40
0.0902809859
 40
0.1191854231
 40
0.1766247504
 40
0.2053774984
 40
0.2342224406
 40
0.2923264887
 40
0.3511559633
 40
0.4713966578
 40
0.5957386777
 40
0.7247565846
 40
0.8591477515
 40
1.0
 40
1.0
 40
1.0
 40
1.0
 10
8.4587529219
 20
3.5045827222
 30
0.0
 10
8.4604557029
 20
3.4993517291
 30
0.0
 10
8.4641944194
 20
3.4891459785
 30
0.0
 10
8.4727430222
 20
3.4696492673
 30
0.0
 10
8.4827771061
 20
3.451269187
 30
0.0
 10
8.4939262332
 20
3.4339275833
 30
0.0
 10
8.5055643584
 20
3.4173264122
 30
0.0
 10
8.527358503
 20
3.3896797593
 30
0.0
 10
8.5552430911
 20
3.3606820224
 30
0.0
 10
8.5851740268
 20
3.3339814272
 30
0.0
 10
8.6164775612
 20
3.3085267337
 30
0.0
 10
8.6579476892
 20
3.2790507864
 30
0.0
 10
8.7287244171
 20
3.2362078035
 30
0.0
 10
8.8244161194
 20
3.1904765252
 30
0.0
 10
8.9477029834
 20
3.1477910112
 30
0.0
 10
9.0794702067
 20
3.1166885652
 30
0.0
 10
9.2192754541
 20
3.0974633299
 30
0.0
 10
9.3152912667
 20
3.0932825019
 30
0.0
 10
9.3643918431
 20
3.0932825019
 30
0.0
  0
SPLINE
  5
4CA
100
AcDbEntity
  8
0
100
AcDbSpline
 62
9
  6
CONTINUOUS
 70
0
 71
3
 72
11
 73
7
 74
0
 42
0.0000001
 43
0.0000001
 44
0.0000000001
 40
0.0
 40
0.0
 40
0.0
 40
0.0
 40
0.2740538183
 40
0.5284272515
 40
0.7689756901
 40
1.0
 40
1.0
 40
1.0
 40
1.0
 10
10.3033345282
 20
3.1458295799
 30
0.0
 10
10.3033085592
 20
3.1408852832
 30
0.0
 10
10.3028356944
 20
3.13134738
 30
0.0
 10
10.300900595
 20
3.1175929009
 30
0.0
 10
10.2980449928
 20
3.1047996886
 30
0.0
 10
10.2956602373
 20
3.0966264298
 30
0.0
 10
10.2943691133
 20
3.0926634015
 30
0.0
  0
SPLINE
  5
4CB
100
AcDbEntity
  8
0
100
AcDbSpline
 62
9
  6
CONTINUOUS
 70
0
 71
3
 72
23
 73
19
 74
0
 42
0.0000001
 43
0.0000001
 44
0.0000000001
 40
0.0
 40
0.0
 40
0.0
 40
0.0
 40
0.03087645
 40
0.0603027999
 40
0.0889695323
 40
0.1172636749
 40
0.1453937228
 40
0.1734964267
 40
0.2016632146
 40
0.2299552845
 40
0.2870866162
 40
0.3451583434
 40
0.4043145647
 40
0.4646741851
 40
0.5892976513
 40
0.7196309323
 40
0.8562386298
 40
1.0
 40
1.0
 40
1.0
 40
1.0
 10
10.2943691133
 20
3.0926634015
 30
0.0
 10
10.2910297988
 20
3.0824135744
 30
0.0
 10
10.2829202931
 20
3.0628878676
 30
0.0
 10
10.2673747224
 20
3.0359205555
 30
0.0
 10
10.2495680182
 20
3.0115206971
 30
0.0
 10
10.2301210418
 20
2.989024209
 30
0.0
 10
10.2091957821
 20
2.9681803929
 30
0.0
 10
10.187027144
 20
2.948741601
 30
0.0
 10
10.1637479566
 20
2.9305605931
 30
0.0
 10
10.1313102581
 20
2.9077209545
 30
0.0
 10
10.0883818988
 20
2.8817624504
 30
0.0
 10
10.033980767
 20
2.8543390729
 30
0.0
 10
9.9768638787
 20
2.8301104456
 30
0.0
 10
9.8965324138
 20
2.8014903738
 30
0.0
 10
9.790041619
 20
2.7728411414
 30
0.0
 10
9.6552989199
 20
2.7489304625
 30
0.0
 10
9.5125087398
 20
2.7345546073
 30
0.0
 10
9.4145840802
 20
2.7315429249
 30
0.0
 10
9.3643918435
 20
2.7315429249
 30
0.0
  0
SPLINE
  5
4CC
100
AcDbEntity
  8
0
100
AcDbSpline
 62
9
  6
CONTINUOUS
 70
0
 71
3
 72
11
 73
7
 74
0
 42
0.0000001
 43
0.0000001
 44
0.0000000001
 40
0.0
 40
0.0
 40
0.0
 40
0.0
 40
0.2730209879
 40
0.5269297862
 40
0.7678812193
 40
1.0
 40
1.0
 40
1.0
 40
1.0
 10
10.2798616085
 20
3.5618053718
 30
0.0
 10
10.2798200982
 20
3.556501705
 30
0.0
 10
10.279273545
 20
3.5462619358
 30
0.0
 10
10.2771206423
 20
3.5314835815
 30
0.0
 10
10.2740086204
 20
3.5176969728
 30
0.0
 10
10.271426517
 20
3.5088705143
 30
0.0
 10
10.2700307647
 20
3.5045827222
 30
0.0
  0
SPLINE
  5
4CD
100
AcDbEntity
  8
0
100
AcDbSpline
 62
9
  6
CONTINUOUS
 70
0
 71
3
 72
23
 73
19
 74
0
 42
0.0000001
 43
0.0000001
 44
0.0000000001
 40
0.0
 40
0.0
 40
0.0
 40
0.0
 40
0.0157808869
 40
0.0311500756
 40
0.0610412139
 40
0.0757171517
 40
0.0902809859
 40
0.1191854231
 40
0.1766247504
 40
0.2053774984
 40
0.2342224406
 40
0.2923264887
 40
0.3511559633
 40
0.4713966578
 40
0.5957386777
 40
0.7247565846
 40
0.8591477514
 40
1.0
 40
1.0
 40
1.0
 40
1.0
 10
10.2700307647
 20
3.5045827222
 30
0.0
 10
10.2683279837
 20
3.4993517291
 30
0.0
 10
10.2645892671
 20
3.4891459785
 30
0.0
 10
10.2560406643
 20
3.4696492673
 30
0.0
 10
10.2460065805
 20
3.451269187
 30
0.0
 10
10.2348574533
 20
3.4339275833
 30
0.0
 10
10.2232193282
 20
3.4173264121
 30
0.0
 10
10.2014251835
 20
3.3896797593
 30
0.0
 10
10.1735405954
 20
3.3606820223
 30
0.0
 10
10.1436096597
 20
3.3339814272
 30
0.0
 10
10.1123061253
 20
3.3085267337
 30
0.0
 10
10.0708359973
 20
3.2790507864
 30
0.0
 10
10.0000592694
 20
3.2362078035
 30
0.0
 10
9.9043675671
 20
3.1904765251
 30
0.0
 10
9.781080703
 20
3.1477910112
 30
0.0
 10
9.6493134797
 20
3.1166885651
 30
0.0
 10
9.5095082322
 20
3.0974633299
 30
0.0
 10
9.4134924196
 20
3.0932825019
 30
0.0
 10
9.3643918432
 20
3.0932825019
 30
0.0
  0
SPLINE
  5
4CE
100
AcDbEntity
  8
0
100
AcDbSpline
 62
9
  6
CONTINUOUS
 70
0
 71
3
 72
11
 73
7
 74
0
 42
0.0000001
 43
0.0000001
 44
0.0000000001
 40
0.0
 40
0.0
 40
0.0
 40
0.0
 40
0.2718735495
 40
0.5256467794
 40
0.7670640173
 40
1.0
 40
1.0
 40
1.0
 40
1.0
 10
8.4699160918
 20
3.9338511849
 30
0.0
 10
8.4699546382
 20
3.9285709272
 30
0.0
 10
8.4704738764
 20
3.9183586834
 30
0.0
 10
8.4725149702
 20
3.9035856339
 30
0.0
 10
8.4754693904
 20
3.8897459225
 30
0.0
 10
8.4779225162
 20
3.8808596715
 30
0.0
 10
8.4792495652
 20
3.8765345345
 30
0.0
  0
SPLINE
  5
4CF
100
AcDbEntity
  8
0
100
AcDbSpline
 62
9
  6
CONTINUOUS
 70
0
 71
3
 72
21
 73
17
 74
0
 42
0.0000001
 43
0.0000001
 44
0.0000000001
 40
0.0
 40
0.0
 40
0.0
 40
0.0
 40
0.0315544049
 40
0.0618636814
 40
0.0914902551
 40
0.1207554342
 40
0.1788084215
 40
0.2078135745
 40
0.2368769781
 40
0.2953176156
 40
0.3543584233
 40
0.4746771679
 40
0.5986888805
 40
0.7270171629
 40
0.8604107964
 40
1.0
 40
1.0
 40
1.0
 40
1.0
 10
8.4792495652
 20
3.8765345345
 30
0.0
 10
8.4824540937
 20
3.8660902891
 30
0.0
 10
8.490091587
 20
3.8460114099
 30
0.0
 10
8.5045337462
 20
3.8177675277
 30
0.0
 10
8.5210127888
 20
3.7916083524
 30
0.0
 10
8.5449725717
 20
3.7589386091
 30
0.0
 10
8.571843674
 20
3.7287998911
 30
0.0
 10
8.6007843505
 20
3.7008818498
 30
0.0
 10
8.6310662764
 20
3.6742131069
 30
0.0
 10
8.6712781949
 20
3.6431737032
 30
0.0
 10
8.7400709684
 20
3.5978362267
 30
0.0
 10
8.8334463884
 20
3.5490662097
 30
0.0
 10
8.954326896
 20
3.5032144213
 30
0.0
 10
9.083855057
 20
3.4696610331
 30
0.0
 10
9.2214721838
 20
3.4488980389
 30
0.0
 10
9.3160631172
 20
3.4443689989
 30
0.0
 10
9.3643918433
 20
3.4443689989
 30
0.0
  0
SPLINE
  5
4D0
100
AcDbEntity
  8
0
100
AcDbSpline
 62
9
  6
CONTINUOUS
 70
0
 71
3
 72
30
 73
26
 74
0
 42
0.0000001
 43
0.0000001
 44
0.0000000001
 40
0.0
 40
0.0
 40
0.0
 40
0.0
 40
0.1250263495
 40
0.25004771
 40
0.3125625452
 40
0.3750766878
 40
0.4375897477
 40
0.5001017016
 40
0.562612137
 40
0.6251202772
 40
0.6563765476
 40
0.6876321907
 40
0.7501376612
 40
0.7813992218
 40
0.8126598033
 40
0.8439166509
 40
0.8751659067
 40
0.8907939425
 40
0.9064176932
 40
0.9220372562
 40
0.9376572209
 40
0.9532899366
 40
0.9689001887
 40
0.9844786923
 40
1.0
 40
1.0
 40
1.0
 40
1.0
 10
9.3643918342
 20
2.3434940724
 30
0.0
 10
9.4095749501
 20
2.3434924112
 30
0.0
 10
9.4999560422
 20
2.3456632481
 30
0.0
 10
9.6126441273
 20
2.3542404181
 30
0.0
 10
9.7023982003
 20
2.3648229957
 30
0.0
 10
9.7694581793
 20
2.3747192859
 30
0.0
 10
9.8361701749
 20
2.3867441799
 30
0.0
 10
9.9024147673
 20
2.4011339035
 30
0.0
 10
9.9680314749
 20
2.4181652352
 30
0.0
 10
10.0220056388
 20
2.4348799666
 30
0.0
 10
10.0645693334
 20
2.4500546132
 30
0.0
 10
10.1066422038
 20
2.4665291222
 30
0.0
 10
10.1478396483
 20
2.4852318168
 30
0.0
 10
10.1875614156
 20
2.5068031137
 30
0.0
 10
10.2164185084
 20
2.524616273
 30
0.0
 10
10.2440012689
 20
2.5443536523
 30
0.0
 10
10.2654913738
 20
2.5627472159
 30
0.0
 10
10.2814203902
 20
2.5787767099
 30
0.0
 10
10.2925981902
 20
2.5915220273
 30
0.0
 10
10.3027692753
 20
2.605087633
 30
0.0
 10
10.3117114151
 20
2.6195030391
 30
0.0
 10
10.3191884423
 20
2.6347333609
 30
0.0
 10
10.3249252096
 20
2.6506937483
 30
0.0
 10
10.328587649
 20
2.6672264494
 30
0.0
 10
10.329377779
 20
2.6784843034
 30
0.0
 10
10.3293899116
 20
2.6840935162
 30
0.0
  0
SPLINE
  5
4D1
100
AcDbEntity
  8
0
100
AcDbSpline
 62
9
  6
CONTINUOUS
 70
0
 71
3
 72
28
 73
24
 74
0
 42
0.0000001
 43
0.0000001
 44
0.0000000001
 40
0.0
 40
0.0
 40
0.0
 40
0.0
 40
0.1249667712
 40
0.2499342802
 40
0.3124180314
 40
0.3749024377
 40
0.4373847266
 40
0.4998664566
 40
0.5623470974
 40
0.6248247437
 40
0.687299578
 40
0.7497669903
 40
0.7810113156
 40
0.8122751666
 40
0.8435384985
 40
0.8747889057
 40
0.8904203942
 40
0.9060699254
 40
0.9217538514
 40
0.9374307981
 40
0.9530934193
 40
0.9687859534
 40
1.0
 40
1.0
 40
1.0
 40
1.0
 10
9.3643918433
 20
2.3413690816
 30
0.0
 10
9.4096254346
 20
2.3413693538
 30
0.0
 10
9.5001090055
 20
2.343560938
 30
0.0
 10
9.6129245706
 20
2.3521548388
 30
0.0
 10
9.7027752451
 20
2.3627947704
 30
0.0
 10
9.7699066146
 20
2.3727197722
 30
0.0
 10
9.8366876303
 20
2.3847871334
 30
0.0
 10
9.9029991147
 20
2.399220985
 30
0.0
 10
9.968685593
 20
2.4162879371
 30
0.0
 10
10.0335043516
 20
2.436422467
 30
0.0
 10
10.0971143436
 20
2.4601124891
 30
0.0
 10
10.1486314253
 20
2.4835729289
 30
0.0
 10
10.1883700683
 20
2.5052264469
 30
0.0
 10
10.2172263233
 20
2.5231412615
 30
0.0
 10
10.2447738365
 20
2.5430261565
 30
0.0
 10
10.2662498893
 20
2.5615126919
 30
0.0
 10
10.2821184896
 20
2.5776708196
 30
0.0
 10
10.2932076844
 20
2.5905743789
 30
0.0
 10
10.3033084917
 20
2.6042916703
 30
0.0
 10
10.3121762735
 20
2.6188476275
 30
0.0
 10
10.3195362192
 20
2.6342416843
 30
0.0
 10
10.3268865624
 20
2.6556936106
 30
0.0
 10
10.3293914644
 20
2.6727559854
 30
0.0
 10
10.3293918525
 20
2.6840543762
 30
0.0
  0
SPLINE
  5
4D2
100
AcDbEntity
  8
0
100
AcDbSpline
 62
9
  6
CONTINUOUS
 70
0
 71
3
 72
42
 73
38
 74
0
 42
0.0000001
 43
0.0000001
 44
0.0000000001
 40
0.0
 40
0.0
 40
0.0
 40
0.0
 40
0.0098995634
 40
0.0151778778
 40
0.0209196633
 40
0.0273124917
 40
0.034440502
 40
0.0509899802
 40
0.0705507607
 40
0.0928778582
 40
0.1176338268
 40
0.144435303
 40
0.2025269839
 40
0.2637573932
 40
0.3246473371
 40
0.3538779799
 40
0.3817271954
 40
0.4320565018
 40
0.475588331
 40
0.5133681042
 40
0.5464436474
 40
0.575836725
 40
0.6025037561
 40
0.6272929074
 40
0.6509167985
 40
0.6739592137
 40
0.6969186101
 40
0.7200862436
 40
0.7433842175
 40
0.7898671696
 40
0.8353865665
 40
0.857524844
 40
0.879147261
 40
0.9002187721
 40
0.9207549885
 40
0.960699289
 40
1.0
 40
1.0
 40
1.0
 40
1.0
 10
5.7583308457
 20
12.7712287673
 30
0.0
 10
5.7605186313
 20
12.7712287638
 30
0.0
 10
5.7639093021
 20
12.770782892
 30
0.0
 10
5.7682154331
 20
12.7690474478
 30
0.0
 10
5.7715037582
 20
12.76701361
 30
0.0
 10
5.774751296
 20
12.7642421428
 30
0.0
 10
5.7792954001
 20
12.7593790627
 30
0.0
 10
5.7848538919
 20
12.7515633319
 30
0.0
 10
5.791240908
 20
12.7403276734
 30
0.0
 10
5.7976464442
 20
12.7270557974
 30
0.0
 10
5.8040683595
 20
12.712039693
 30
0.0
 10
5.8128839428
 20
12.6894646758
 30
0.0
 10
5.8236347924
 20
12.6590074968
 30
0.0
 10
5.8362667559
 20
12.6212384504
 30
0.0
 10
5.8469244343
 20
12.5895323476
 30
0.0
 10
5.8556382294
 20
12.5649594504
 30
0.0
 10
5.8639519684
 20
12.5427248051
 30
0.0
 10
5.8743407631
 20
12.5178954066
 30
0.0
 10
5.8873589448
 20
12.491849913
 30
0.0
 10
5.9004080389
 20
12.4701643342
 30
0.0
 10
5.9134989934
 20
12.4522506511
 30
0.0
 10
5.9266289811
 20
12.4375229855
 30
0.0
 10
5.9397840089
 20
12.4253925088
 30
0.0
 10
5.9529432344
 20
12.4152570878
 30
0.0
 10
5.9660894677
 20
12.4064939029
 30
0.0
 10
5.9792258125
 20
12.3984798994
 30
0.0
 10
5.9923075905
 20
12.3905712346
 30
0.0
 10
6.0052689847
 20
12.382359664
 30
0.0
 10
6.0225340538
 20
12.3712301141
 30
0.0
 10
6.0439404596
 20
12.3574090712
 30
0.0
 10
6.0655881801
 20
12.3444330368
 30
0.0
 10
6.0830440541
 20
12.3352228883
 30
0.0
 10
6.0960266678
 20
12.3291464994
 30
0.0
 10
6.1090237997
 20
12.3239835662
 30
0.0
 10
6.126245237
 20
12.3186113822
 30
0.0
 10
6.1479954226
 20
12.3145114787
 30
0.0
 10
6.1655151907
 20
12.3134754044
 30
0.0
 10
6.1741998683
 20
12.3133644864
 30
0.0
  0
SPLINE
  5
4D3
100
AcDbEntity
  8
0
100
AcDbSpline
 62
9
  6
CONTINUOUS
 70
0
 71
3
 72
28
 73
24
 74
0
 42
0.0000001
 43
0.0000001
 44
0.0000000001
 40
0.0
 40
0.0
 40
0.0
 40
0.0
 40
0.025561398
 40
0.0485279991
 40
0.0689688196
 40
0.0876374746
 40
0.1052625989
 40
0.1221081671
 40
0.138307593
 40
0.1539564774
 40
0.1839103616
 40
0.2127391802
 40
0.2410654129
 40
0.2691317961
 40
0.3249434302
 40
0.3809223681
 40
0.4375337257
 40
0.4950201256
 40
0.5535367098
 40
0.613175373
 40
0.7361246418
 40
0.8647215559
 40
1.0
 40
1.0
 40
1.0
 40
1.0
 10
10.407460353
 20
2.6840543762
 30
0.0
 10
10.407460353
 20
2.6737584956
 30
0.0
 10
10.4059201951
 20
2.6541769425
 30
0.0
 10
10.3997727125
 20
2.6270123827
 30
0.0
 10
10.3913841248
 20
2.6033975014
 30
0.0
 10
10.3813598304
 20
2.5828211557
 30
0.0
 10
10.3704063648
 20
2.5644078083
 30
0.0
 10
10.3586433164
 20
2.5477061895
 30
0.0
 10
10.3462464085
 20
2.5324889126
 30
0.0
 10
10.3293803516
 20
2.5141659387
 30
0.0
 10
10.3074777795
 20
2.4936231579
 30
0.0
 10
10.2798638271
 20
2.4719246158
 30
0.0
 10
10.2515106832
 20
2.4525375722
 30
0.0
 10
10.2127931057
 20
2.4291884288
 30
0.0
 10
10.1625318578
 20
2.4035738953
 30
0.0
 10
10.0998452738
 20
2.3775393236
 30
0.0
 10
10.0351329842
 20
2.3549621087
 30
0.0
 10
9.9683865088
 20
2.3354047274
 30
0.0
 10
9.899677012
 20
2.3184655329
 30
0.0
 10
9.8045285253
 20
2.2989235101
 30
0.0
 10
9.6804843678
 20
2.2802543743
 30
0.0
 10
9.5251995032
 20
2.2664904503
 30
0.0
 10
9.4188806747
 20
2.2634858665
 30
0.0
 10
9.3643918433
 20
2.2634858665
 30
0.0
  0
SPLINE
  5
4D4
100
AcDbEntity
  8
0
100
AcDbSpline
 62
9
  6
CONTINUOUS
 70
0
 71
3
 72
9
 73
5
 74
0
 42
0.0000001
 43
0.0000001
 44
0.0000000001
 40
0.0
 40
0.0
 40
0.0
 40
0.0
 40
0.4778617209
 40
1.0
 40
1.0
 40
1.0
 40
1.0
 10
5.7583350599
 20
10.8138249834
 30
0.0
 10
5.7603735084
 20
10.8138249832
 30
0.0
 10
5.7646716771
 20
10.8143400558
 30
0.0
 10
5.7686039259
 20
10.816204135
 30
0.0
 10
5.7704605477
 20
10.8174345492
 30
0.0
  0
SPLINE
  5
4D5
100
AcDbEntity
  8
0
100
AcDbSpline
 62
9
  6
CONTINUOUS
 70
0
 71
3
 72
9
 73
5
 74
0
 42
0.0000001
 43
0.0000001
 44
0.0000000001
 40
0.0
 40
0.0
 40
0.0
 40
0.0
 40
0.2418672279
 40
1.0
 40
1.0
 40
1.0
 40
1.0
 10
5.8123517747
 20
10.8946094763
 30
0.0
 10
5.8136467546
 20
10.8981012625
 30
0.0
 10
5.8189151066
 20
10.9125699074
 30
0.0
 10
5.8239188567
 20
10.9271332088
 30
0.0
 10
5.8276637364
 20
10.9381896719
 30
0.0
  0
SPLINE
  5
4D6
100
AcDbEntity
  8
0
100
AcDbSpline
 62
9
  6
CONTINUOUS
 70
0
 71
3
 72
9
 73
5
 74
0
 42
0.0000001
 43
0.0000001
 44
0.0000000001
 40
0.0
 40
0.0
 40
0.0
 40
0.0
 40
0.5067491854
 40
1.0
 40
1.0
 40
1.0
 40
1.0
 10
5.8276637364
 20
10.9381896719
 30
0.0
 10
5.8321352905
 20
10.9513915839
 30
0.0
 10
5.8408165289
 20
10.9774911209
 30
0.0
 10
5.8497188141
 20
11.0035192282
 30
0.0
 10
5.8543173271
 20
11.0162834901
 30
0.0
  0
SPLINE
  5
4D7
100
AcDbEntity
  8
0
100
AcDbSpline
 62
7
  6
CONTINUOUS
 70
0
 71
3
 72
13
 73
9
 74
0
 42
0.0000001
 43
0.0000001
 44
0.0000000001
 40
0.0
 40
0.0
 40
0.0
 40
0.0
 40
0.2521816613
 40
0.3774293873
 40
0.502199432
 40
0.6266104898
 40
0.750894511
 40
1.0
 40
1.0
 40
1.0
 40
1.0
 10
12.2726858649
 20
8.9785425652
 30
0.0
 10
12.2467202832
 20
8.989867099
 30
0.0
 10
12.2068369638
 20
9.0047001526
 30
0.0
 10
12.152090562
 20
9.0185030385
 30
0.0
 10
12.1105606695
 20
9.0254609164
 30
0.0
 10
12.0686906593
 20
9.0288731353
 30
0.0
 10
12.012716401
 20
9.0283591847
 30
0.0
 10
11.9709406297
 20
9.0223386877
 30
0.0
 10
11.9436471781
 20
9.0161688991
 30
0.0
  0
SPLINE
  5
4D8
100
AcDbEntity
  8
0
100
AcDbSpline
 62
7
  6
CONTINUOUS
 70
0
 71
3
 72
9
 73
5
 74
0
 42
0.0000001
 43
0.0000001
 44
0.0000000001
 40
0.0
 40
0.0
 40
0.0
 40
0.0
 40
0.2488623975
 40
1.0
 40
1.0
 40
1.0
 40
1.0
 10
11.9436471781
 20
9.0161688991
 30
0.0
 10
11.9340366014
 20
9.0139963916
 30
0.0
 10
11.8956634008
 20
9.0041867489
 30
0.0
 10
11.8583573957
 20
8.9904314561
 30
0.0
 10
11.8310978216
 20
8.9785425652
 30
0.0
  0
SPLINE
  5
4D9
100
AcDbEntity
  8
0
100
AcDbSpline
 62
7
  6
CONTINUOUS
 70
0
 71
3
 72
11
 73
7
 74
0
 42
0.0000001
 43
0.0000001
 44
0.0000000001
 40
0.0
 40
0.0
 40
0.0
 40
0.0
 40
0.204283641
 40
0.4437045096
 40
0.7107811136
 40
1.0
 40
1.0
 40
1.0
 40
1.0
 10
11.8735777316
 20
9.0970383736
 30
0.0
 10
11.8787599353
 20
9.107277423
 30
0.0
 10
11.890267739
 20
9.1293890993
 30
0.0
 10
11.9091999159
 20
9.1645447001
 30
0.0
 10
11.930720676
 20
9.2037232562
 30
0.0
 10
11.9458337975
 20
9.2310759923
 30
0.0
 10
11.9536986877
 20
9.245292558
 30
0.0
  0
SPLINE
  5
4DA
100
AcDbEntity
  8
0
100
AcDbSpline
 62
7
  6
CONTINUOUS
 70
0
 71
3
 72
18
 73
14
 74
0
 42
0.0000001
 43
0.0000001
 44
0.0000000001
 40
0.0
 40
0.0
 40
0.0
 40
0.0
 40
0.1250162164
 40
0.2500318223
 40
0.3750445856
 40
0.5000520628
 40
0.6250452347
 40
0.687563292
 40
0.7500821945
 40
0.8126039744
 40
0.8751228285
 40
0.93762242
 40
1.0
 40
1.0
 40
1.0
 40
1.0
 10
12.7778183383
 20
9.7935734678
 30
0.0
 10
12.7778183383
 20
9.7962646753
 30
0.0
 10
12.7777332946
 20
9.8016476771
 30
0.0
 10
12.7772922433
 20
9.8097115071
 30
0.0
 10
12.7764617358
 20
9.8177462197
 30
0.0
 10
12.7751355154
 20
9.825715231
 30
0.0
 10
12.7734851242
 20
9.8322505209
 30
0.0
 10
12.7717006922
 20
9.8373326162
 30
0.0
 10
12.7700720019
 20
9.8410325824
 30
0.0
 10
12.7680768451
 20
9.8445535005
 30
0.0
 10
12.7655927274
 20
9.847760306
 30
0.0
 10
12.7624725351
 20
9.8503875153
 30
0.0
 10
12.7598358823
 20
9.8513092289
 30
0.0
 10
12.7584976935
 20
9.8514203423
 30
0.0
  0
SPLINE
  5
4DB
100
AcDbEntity
  8
0
100
AcDbSpline
 62
7
  6
CONTINUOUS
 70
0
 71
3
 72
18
 73
14
 74
0
 42
0.0000001
 43
0.0000001
 44
0.0000000001
 40
0.0
 40
0.0
 40
0.0
 40
0.0
 40
0.0623807446
 40
0.124879153
 40
0.1873981554
 40
0.2499196578
 40
0.3124383975
 40
0.3749563677
 40
0.4999491672
 40
0.6249563314
 40
0.7499687866
 40
0.8749840859
 40
1.0
 40
1.0
 40
1.0
 40
1.0
 10
12.758483231
 20
9.5166842445
 30
0.0
 10
12.7598218029
 20
9.5167953897
 30
0.0
 10
12.7624597627
 20
9.5177138808
 30
0.0
 10
12.7655838866
 20
9.5203385653
 30
0.0
 10
12.768070105
 20
9.5235449764
 30
0.0
 10
12.7700670187
 20
9.5270660031
 30
0.0
 10
12.7716969363
 20
9.5307664725
 30
0.0
 10
12.7734826208
 20
9.5358494631
 30
0.0
 10
12.7751340554
 20
9.5423861278
 30
0.0
 10
12.776461034
 20
9.5503569248
 30
0.0
 10
12.7772919836
 20
9.5583934879
 30
0.0
 10
12.777733255
 20
9.5664591927
 30
0.0
 10
12.7778183383
 20
9.5718434498
 30
0.0
 10
12.7778183383
 20
9.5745352847
 30
0.0
  0
SPLINE
  5
4DC
100
AcDbEntity
  8
0
100
AcDbSpline
 62
7
  6
CONTINUOUS
 70
0
 71
3
 72
26
 73
22
 74
0
 42
0.0000001
 43
0.0000001
 44
0.0000000001
 40
0.0
 40
0.0
 40
0.0
 40
0.0
 40
0.0008160401
 40
0.0032274828
 40
0.00726574
 40
0.0129243608
 40
0.0201976275
 40
0.029087498
 40
0.0517927352
 40
0.0811977684
 40
0.1174832651
 40
0.1608784851
 40
0.2116616174
 40
0.2702336569
 40
0.3370867335
 40
0.41286405
 40
0.4986380792
 40
0.5959183158
 40
0.7063959698
 40
0.8367267841
 40
1.0
 40
1.0
 40
1.0
 40
1.0
 10
11.8540591724
 20
9.0758595381
 30
0.0
 10
11.8540636099
 20
9.0758530111
 30
0.0
 10
11.8541002673
 20
9.0758864702
 30
0.0
 10
11.8541431087
 20
9.0759172681
 30
0.0
 10
11.8542372562
 20
9.076002917
 30
0.0
 10
11.8543589951
 20
9.0761062168
 30
0.0
 10
11.8545227021
 20
9.0762421818
 30
0.0
 10
11.8548175784
 20
9.0764740683
 30
0.0
 10
11.8552869519
 20
9.0768324127
 30
0.0
 10
11.8559630258
 20
9.0773553757
 30
0.0
 10
11.8567884607
 20
9.0780126948
 30
0.0
 10
11.8577674038
 20
9.0788088402
 30
0.0
 10
11.858903788
 20
9.0797530011
 30
0.0
 10
11.8601977815
 20
9.080862223
 30
0.0
 10
11.8616515977
 20
9.0821559932
 30
0.0
 10
11.8632719146
 20
9.0836577854
 30
0.0
 10
11.8650589462
 20
9.0854118623
 30
0.0
 10
11.8669982726
 20
9.0874858847
 30
0.0
 10
11.8691716295
 20
9.0899304631
 30
0.0
 10
11.8715103667
 20
9.0930728977
 30
0.0
 10
11.872883523
 20
9.0955684849
 30
0.0
 10
11.8735909415
 20
9.0969803272
 30
0.0
  0
SPLINE
  5
4DD
100
AcDbEntity
  8
0
100
AcDbSpline
 62
9
  6
CONTINUOUS
 70
0
 71
3
 72
18
 73
14
 74
0
 42
0.0000001
 43
0.0000001
 44
0.0000000001
 40
0.0
 40
0.0
 40
0.0
 40
0.0
 40
0.0084579591
 40
0.0152491577
 40
0.0240777782
 40
0.0481472402
 40
0.0809406794
 40
0.1717694314
 40
0.2936787236
 40
0.4428502118
 40
0.6143971644
 40
0.8026292844
 40
1.0
 40
1.0
 40
1.0
 40
1.0
 10
11.4579226028
 20
10.3214927268
 30
0.0
 10
11.4581429989
 20
10.321489527
 30
0.0
 10
11.4584801358
 20
10.3211615401
 30
0.0
 10
11.4587748805
 20
10.3206287604
 30
0.0
 10
11.4591777978
 20
10.3196645354
 30
0.0
 10
11.4596282396
 20
10.3180144102
 30
0.0
 10
11.46038512
 20
10.3142364688
 30
0.0
 10
11.4611931659
 20
10.3078850154
 30
0.0
 10
11.4620283595
 20
10.298489718
 30
0.0
 10
11.4627329457
 20
10.2869748247
 30
0.0
 10
11.4632904001
 20
10.2737224716
 30
0.0
 10
11.4636692216
 20
10.2592072362
 30
0.0
 10
11.4637968149
 20
10.2491586889
 30
0.0
 10
11.4638286706
 20
10.2440151931
 30
0.0
  0
SPLINE
  5
4DE
100
AcDbEntity
  8
0
100
AcDbSpline
 62
9
  6
CONTINUOUS
 70
0
 71
3
 72
17
 73
13
 74
0
 42
0.0000001
 43
0.0000001
 44
0.0000000001
 40
0.0
 40
0.0
 40
0.0
 40
0.0
 40
0.1011589855
 40
0.2059625206
 40
0.3150319419
 40
0.4292696673
 40
0.4887188356
 40
0.5501205573
 40
0.6142412527
 40
0.6819935904
 40
0.8314378543
 40
1.0
 40
1.0
 40
1.0
 40
1.0
 10
10.3217744444
 20
2.8608808792
 30
0.0
 10
10.3267152967
 20
2.8561884761
 30
0.0
 10
10.3365275308
 20
2.846369963
 30
0.0
 10
10.350655435
 20
2.8305175654
 30
0.0
 10
10.3641626625
 20
2.81299703
 30
0.0
 10
10.3745344654
 20
2.7969921684
 30
0.0
 10
10.3822601985
 20
2.7831641742
 30
0.0
 10
10.3878203099
 20
2.7720077556
 30
0.0
 10
10.3929561564
 20
2.7600355211
 30
0.0
 10
10.3993177224
 20
2.7421748139
 30
0.0
 10
10.4055945387
 20
2.7168722388
 30
0.0
 10
10.4074630583
 20
2.6954086159
 30
0.0
 10
10.4074630583
 20
2.6840543762
 30
0.0
  0
SPLINE
  5
4DF
100
AcDbEntity
  8
0
100
AcDbSpline
 62
9
  6
CONTINUOUS
 70
0
 71
3
 72
9
 73
5
 74
0
 42
0.0000001
 43
0.0000001
 44
0.0000000001
 40
0.0
 40
0.0
 40
0.0
 40
0.0
 40
0.2384070404
 40
1.0
 40
1.0
 40
1.0
 40
1.0
 10
9.7931462596
 20
10.272846424
 30
0.0
 10
9.7938894338
 20
10.2723030735
 30
0.0
 10
9.7969816305
 20
10.26998977
 30
0.0
 10
9.7999759351
 20
10.2675468353
 30
0.0
 10
9.8022082881
 20
10.2656322556
 30
0.0
  0
SPLINE
  5
4E0
100
AcDbEntity
  8
0
100
AcDbSpline
 62
9
  6
CONTINUOUS
 70
0
 71
3
 72
9
 73
5
 74
0
 42
0.0000001
 43
0.0000001
 44
0.0000000001
 40
0.0
 40
0.0
 40
0.0
 40
0.0
 40
0.4586180196
 40
1.0
 40
1.0
 40
1.0
 40
1.0
 10
9.8022082881
 20
10.2656322556
 30
0.0
 10
9.8077904617
 20
10.260844699
 30
0.0
 10
9.8193368829
 20
10.2496736071
 30
0.0
 10
9.8298624201
 20
10.2375532934
 30
0.0
 10
9.8353210014
 20
10.2308030351
 30
0.0
  0
SPLINE
  5
4E1
100
AcDbEntity
  8
0
100
AcDbSpline
 62
7
  6
CONTINUOUS
 70
0
 71
3
 72
12
 73
8
 74
0
 42
0.0000001
 43
0.0000001
 44
0.0000000001
 40
0.0
 40
0.0
 40
0.0
 40
0.0
 40
0.0546652746
 40
0.2229405554
 40
0.5206877251
 40
0.7307183597
 40
1.0
 40
1.0
 40
1.0
 40
1.0
 10
11.8540461533
 20
10.2922301364
 30
0.0
 10
11.8543871358
 20
10.2919724994
 30
0.0
 10
11.8557717458
 20
10.2909140481
 30
0.0
 10
11.8589488542
 20
10.2883693146
 30
0.0
 10
11.8629248083
 20
10.2848763452
 30
0.0
 10
11.8671574795
 20
10.2805197938
 30
0.0
 10
11.8696046396
 20
10.2776625243
 30
0.0
 10
11.8708009554
 20
10.275930399
 30
0.0
  0
LINE
  5
4E2
100
AcDbEntity
  8
0
100
AcDbLine
 62
7
  6
CONTINUOUS
 10
11.8708009554
 20
10.275930399
 11
11.8735948084
 21
10.2711570108
  0
SPLINE
  5
4E3
100
AcDbEntity
  8
0
100
AcDbSpline
 62
7
  6
CONTINUOUS
 70
0
 71
3
 72
10
 73
6
 74
0
 42
0.0000001
 43
0.0000001
 44
0.0000000001
 40
0.0
 40
0.0
 40
0.0
 40
0.0
 40
0.4438971182
 40
0.7108558645
 40
1.0
 40
1.0
 40
1.0
 40
1.0
 10
11.8735948295
 20
10.2711568664
 30
0.0
 10
11.8848440758
 20
10.2488922447
 30
0.0
 10
11.9036448397
 20
10.2136368847
 30
0.0
 10
11.9307197634
 20
10.164395057
 30
0.0
 10
11.9458259531
 20
10.1370377741
 30
0.0
 10
11.9536911102
 20
10.122819534
 30
0.0
  0
SPLINE
  5
4E4
100
AcDbEntity
  8
0
100
AcDbSpline
 62
9
  6
CONTINUOUS
 70
0
 71
3
 72
27
 73
23
 74
0
 42
0.0000001
 43
0.0000001
 44
0.0000000001
 40
0.0
 40
0.0
 40
0.0
 40
0.0
 40
0.0029817443
 40
0.0060848572
 40
0.0130364579
 40
0.0214666059
 40
0.0316781633
 40
0.0438167334
 40
0.0579475987
 40
0.0740939531
 40
0.0922556422
 40
0.1124187821
 40
0.1345609868
 40
0.1846642955
 40
0.2423086568
 40
0.3072017724
 40
0.3789280335
 40
0.4566898439
 40
0.5395997929
 40
0.62676437
 40
0.8102634758
 40
1.0
 40
1.0
 40
1.0
 40
1.0
 10
6.2880026665
 20
12.3223080209
 30
0.0
 10
6.2891762047
 20
12.3223080332
 30
0.0
 10
6.2915777276
 20
12.3220530961
 30
0.0
 10
6.2964967208
 20
12.3204942344
 30
0.0
 10
6.3026844048
 20
12.3164391636
 30
0.0
 10
6.3096013648
 20
12.3090474329
 30
0.0
 10
6.3164334957
 20
12.2990014886
 30
0.0
 10
6.3231901792
 20
12.2863116609
 30
0.0
 10
6.3298745537
 20
12.2710009522
 30
0.0
 10
6.3364697035
 20
12.2531049768
 30
0.0
 10
6.3429590044
 20
12.2326660771
 30
0.0
 10
6.3493251086
 20
12.2097305366
 30
0.0
 10
6.3579850238
 20
12.1744023217
 30
0.0
 10
6.3682000806
 20
12.1242925835
 30
0.0
 10
6.3792759435
 20
12.0572433077
 30
0.0
 10
6.3894627865
 20
11.981457667
 30
0.0
 10
6.3986161729
 20
11.8975737608
 30
0.0
 10
6.4067048906
 20
11.8064610468
 30
0.0
 10
6.41366257
 20
11.7091631901
 30
0.0
 10
6.4214776329
 20
11.570220878
 30
0.0
 10
6.4278506032
 20
11.3891091652
 30
0.0
 10
6.429301715
 20
11.2422018117
 30
0.0
 10
6.4290513634
 20
11.1675267951
 30
0.0
  0
SPLINE
  5
4E5
100
AcDbEntity
  8
0
100
AcDbSpline
 62
9
  6
CONTINUOUS
 70
0
 71
3
 72
18
 73
14
 74
0
 42
0.0000001
 43
0.0000001
 44
0.0000000001
 40
0.0
 40
0.0
 40
0.0
 40
0.0
 40
0.0084579591
 40
0.0152491577
 40
0.0240777782
 40
0.0481472402
 40
0.0809406794
 40
0.1717694314
 40
0.2936787236
 40
0.4428502118
 40
0.6143971644
 40
0.8026292844
 40
1.0
 40
1.0
 40
1.0
 40
1.0
 10
11.5277520863
 20
9.0466160257
 30
0.0
 10
11.5279724824
 20
9.0466192255
 30
0.0
 10
11.5283096193
 20
9.0469472124
 30
0.0
 10
11.528604364
 20
9.0474799921
 30
0.0
 10
11.5290072813
 20
9.0484442171
 30
0.0
 10
11.5294577231
 20
9.0500943423
 30
0.0
 10
11.5302146035
 20
9.0538722837
 30
0.0
 10
11.5310226494
 20
9.0602237371
 30
0.0
 10
11.5318578431
 20
9.0696190345
 30
0.0
 10
11.5325624293
 20
9.0811339278
 30
0.0
 10
11.5331198837
 20
9.0943862809
 30
0.0
 10
11.5334987051
 20
9.1089015163
 30
0.0
 10
11.5336262985
 20
9.1189500636
 30
0.0
 10
11.5336581541
 20
9.1240935594
 30
0.0
  0
SPLINE
  5
4E6
100
AcDbEntity
  8
0
100
AcDbSpline
 62
7
  6
CONTINUOUS
 70
0
 71
3
 72
9
 73
5
 74
0
 42
0.0000001
 43
0.0000001
 44
0.0000000001
 40
0.0
 40
0.0
 40
0.0
 40
0.0
 40
0.2513859682
 40
1.0
 40
1.0
 40
1.0
 40
1.0
 10
12.8976858649
 20
8.9785425652
 30
0.0
 10
12.8885637016
 20
8.9825210722
 30
0.0
 10
12.8519783782
 20
8.9976375128
 30
0.0
 10
12.814043718
 20
9.0096343111
 30
0.0
 10
12.7851365615
 20
9.016168887
 30
0.0
  0
SPLINE
  5
4E7
100
AcDbEntity
  8
0
100
AcDbSpline
 62
7
  6
CONTINUOUS
 70
0
 71
3
 72
13
 73
9
 74
0
 42
0.0000001
 43
0.0000001
 44
0.0000000001
 40
0.0
 40
0.0
 40
0.0
 40
0.0
 40
0.2491054901
 40
0.3733895113
 40
0.4978005687
 40
0.6225706129
 40
0.7478183387
 40
1.0
 40
1.0
 40
1.0
 40
1.0
 10
12.7851365615
 20
9.016168887
 30
0.0
 10
12.757843106
 20
9.0223386794
 30
0.0
 10
12.7160673284
 20
9.0283591814
 30
0.0
 10
12.660093061
 20
9.0288731368
 30
0.0
 10
12.6182230439
 20
9.0254609201
 30
0.0
 10
12.5766931445
 20
9.018503043
 30
0.0
 10
12.5219467336
 20
9.0047001564
 30
0.0
 10
12.4820634076
 20
8.9898671008
 30
0.0
 10
12.4560978216
 20
8.9785425652
 30
0.0
  0
SPLINE
  5
4E8
100
AcDbEntity
  8
0
100
AcDbSpline
 62
7
  6
CONTINUOUS
 70
0
 71
3
 72
9
 73
5
 74
0
 42
0.0000001
 43
0.0000001
 44
0.0000000001
 40
0.0
 40
0.0
 40
0.0
 40
0.0
 40
0.480476986
 40
1.0
 40
1.0
 40
1.0
 40
1.0
 10
11.5925679047
 20
9.4714679625
 30
0.0
 10
11.5914092209
 20
9.5054673786
 30
0.0
 10
11.5893386066
 20
9.5762404502
 30
0.0
 10
11.5873667326
 20
9.6470157175
 30
0.0
 10
11.5863204659
 20
9.68378456
 30
0.0
  0
LINE
  5
4E9
100
AcDbEntity
  8
0
100
AcDbLine
 62
7
  6
CONTINUOUS
 10
11.5863204659
 20
9.68378456
 11
11.5860631035
 21
9.6928120449
  0
SPLINE
  5
4EA
100
AcDbEntity
  8
0
100
AcDbSpline
 62
7
  6
CONTINUOUS
 70
0
 71
3
 72
16
 73
12
 74
0
 42
0.0000001
 43
0.0000001
 44
0.0000000001
 40
0.0
 40
0.0
 40
0.0
 40
0.0
 40
0.1422165905
 40
0.2825145714
 40
0.419303711
 40
0.5510630994
 40
0.67639161
 40
0.7362137944
 40
0.7939137047
 40
0.9022518731
 40
1.0
 40
1.0
 40
1.0
 40
1.0
 10
11.5860631035
 20
9.6928120449
 30
0.0
 10
11.5856547327
 20
9.70710806
 30
0.0
 10
11.5848361058
 20
9.7355070135
 30
0.0
 10
11.583628322
 20
9.7776565074
 30
0.0
 10
11.5825104992
 20
9.818756511
 30
0.0
 10
11.5814646348
 20
9.858352436
 30
0.0
 10
11.5804460186
 20
9.8902063873
 30
0.0
 10
11.5794293268
 20
9.9146074358
 30
0.0
 10
11.5783046994
 20
9.937293172
 30
0.0
 10
11.5767942901
 20
9.9637774191
 30
0.0
 10
11.5756452466
 20
9.9844708431
 30
0.0
 10
11.5751944814
 20
9.9942904294
 30
0.0
  0
SPLINE
  5
4EB
100
AcDbEntity
  8
0
100
AcDbSpline
 62
9
  6
CONTINUOUS
 70
0
 71
3
 72
9
 73
5
 74
0
 42
0.0000001
 43
0.0000001
 44
0.0000000001
 40
0.0
 40
0.0
 40
0.0
 40
0.0
 40
0.2713686564
 40
1.0
 40
1.0
 40
1.0
 40
1.0
 10
9.5929756221
 20
9.0436044821
 30
0.0
 10
9.6086953939
 20
9.0474891706
 30
0.0
 10
9.6662233823
 20
9.0633668607
 30
0.0
 10
9.7221402223
 20
9.0851461951
 30
0.0
 10
9.7611852913
 20
9.1042718264
 30
0.0
  0
SPLINE
  5
4EC
100
AcDbEntity
  8
0
100
AcDbSpline
 62
9
  6
CONTINUOUS
 70
0
 71
3
 72
9
 73
5
 74
0
 42
0.0000001
 43
0.0000001
 44
0.0000000001
 40
0.0
 40
0.0
 40
0.0
 40
0.0
 40
0.2620400802
 40
1.0
 40
1.0
 40
1.0
 40
1.0
 10
9.7611852913
 20
9.1042718264
 30
0.0
 10
9.7668441601
 20
9.1070437369
 30
0.0
 10
9.788308337
 20
9.1178862353
 30
0.0
 10
9.8092325114
 20
9.1298095925
 30
0.0
 10
9.8242493463
 20
9.1392651081
 30
0.0
  0
SPLINE
  5
4ED
100
AcDbEntity
  8
0
100
AcDbSpline
 62
9
  6
CONTINUOUS
 70
0
 71
3
 72
16
 73
12
 74
0
 42
0.0000001
 43
0.0000001
 44
0.0000000001
 40
0.0
 40
0.0
 40
0.0
 40
0.0
 40
0.0274681468
 40
0.0510735886
 40
0.0822276849
 40
0.1211431595
 40
0.1678066597
 40
0.2834933896
 40
0.4272549298
 40
0.5967299562
 40
1.0
 40
1.0
 40
1.0
 40
1.0
 10
11.6127467897
 20
10.2370243725
 30
0.0
 10
11.6127391757
 20
10.237464486
 30
0.0
 10
11.6119586486
 20
10.238093854
 30
0.0
 10
11.6108136506
 20
10.2386191784
 30
0.0
 10
11.6093722913
 20
10.2391148284
 30
0.0
 10
11.6075681567
 20
10.2395835837
 30
0.0
 10
11.6044075828
 20
10.24024783
 30
0.0
 10
11.5995582612
 20
10.2409926388
 30
0.0
 10
11.5927269674
 20
10.2417687874
 30
0.0
 10
11.5812845457
 20
10.242732376
 30
0.0
 10
11.572115272
 20
10.2431991743
 30
0.0
 10
11.5656574365
 20
10.2434429784
 30
0.0
  0
SPLINE
  5
4EE
100
AcDbEntity
  8
0
100
AcDbSpline
 62
9
  6
CONTINUOUS
 70
0
 71
3
 72
13
 73
9
 74
0
 42
0.0000001
 43
0.0000001
 44
0.0000000001
 40
0.0
 40
0.0
 40
0.0
 40
0.0
 40
0.2582972582
 40
0.3875064649
 40
0.5151915114
 40
0.6406784751
 40
0.7635997875
 40
1.0
 40
1.0
 40
1.0
 40
1.0
 10
8.9149188638
 20
8.9730414461
 30
0.0
 10
8.9185980078
 20
8.9881084391
 30
0.0
 10
8.9222080372
 20
9.0112565383
 30
0.0
 10
8.9227305648
 20
9.0422224945
 30
0.0
 10
8.9207919849
 20
9.0651470631
 30
0.0
 10
8.9162951068
 20
9.0873389868
 30
0.0
 10
8.9071089442
 20
9.115003424
 30
0.0
 10
8.8965530525
 20
9.1341921259
 30
0.0
 10
8.8880049668
 20
9.1455245686
 30
0.0
  0
LINE
  5
4EF
100
AcDbEntity
  8
0
100
AcDbLine
 62
7
  6
CONTINUOUS
 10
11.5952249579
 20
9.6840366751
 11
11.5865148754
 21
9.9633620177
  0
LINE
  5
4F0
100
AcDbEntity
  8
0
100
AcDbLine
 62
7
  6
CONTINUOUS
 10
11.5852226425
 20
9.9971176778
 11
11.5850755715
 21
10.0005096863
  0
LINE
  5
4F1
100
AcDbEntity
  8
0
100
AcDbLine
 62
7
  6
CONTINUOUS
 10
11.5850755715
 20
10.0005096863
 11
11.5834344638
 21
10.032458847
  0
SPLINE
  5
4F2
100
AcDbEntity
  8
0
100
AcDbSpline
 62
7
  6
CONTINUOUS
 70
0
 71
3
 72
17
 73
13
 74
0
 42
0.0000001
 43
0.0000001
 44
0.0000000001
 40
0.0
 40
0.0
 40
0.0
 40
0.0
 40
0.2136087323
 40
0.4031229362
 40
0.5678480565
 40
0.7070806556
 40
0.8201342743
 40
0.9066390313
 40
0.9399021031
 40
0.9665072447
 40
0.9864932736
 40
1.0
 40
1.0
 40
1.0
 40
1.0
 10
11.5834344638
 20
10.032458847
 30
0.0
 10
11.5831824102
 20
10.0365860018
 30
0.0
 10
11.5826684652
 20
10.0443725081
 30
0.0
 10
11.5818341952
 20
10.0553328698
 30
0.0
 10
11.5810174764
 20
10.0648501896
 30
0.0
 10
11.5802508548
 20
10.0728860446
 30
0.0
 10
11.579574828
 20
10.0794088916
 30
0.0
 10
11.579052363
 20
10.0838861784
 30
0.0
 10
11.5786405147
 20
10.0866892467
 30
0.0
 10
11.5783690601
 20
10.0882122682
 30
0.0
 10
11.5781027142
 20
10.089343438
 30
0.0
 10
11.5778945888
 20
10.0899629217
 30
0.0
 10
11.5777722715
 20
10.0901939955
 30
0.0
  0
SPLINE
  5
4F3
100
AcDbEntity
  8
0
100
AcDbSpline
 62
7
  6
CONTINUOUS
 70
0
 71
3
 72
13
 73
9
 74
0
 42
0.0000001
 43
0.0000001
 44
0.0000000001
 40
0.0
 40
0.0
 40
0.0
 40
0.0
 40
0.251225443
 40
0.3758449808
 40
0.5
 40
0.6241550193
 40
0.7487745573
 40
1.0
 40
1.0
 40
1.0
 40
1.0
 10
11.8310978216
 20
8.753926545
 30
0.0
 10
11.8660699519
 20
8.7386739281
 30
0.0
 10
11.9203402892
 20
8.7196569333
 30
0.0
 10
11.9952222706
 20
8.7062644991
 30
0.0
 10
12.0518918433
 20
8.7027538417
 30
0.0
 10
12.108561416
 20
8.7062644993
 30
0.0
 10
12.1834433973
 20
8.7196569333
 30
0.0
 10
12.2377137347
 20
8.7386739282
 30
0.0
 10
12.2726858649
 20
8.753926545
 30
0.0
  0
SPLINE
  5
4F4
100
AcDbEntity
  8
0
100
AcDbSpline
 62
7
  6
CONTINUOUS
 70
0
 71
3
 72
13
 73
9
 74
0
 42
0.0000001
 43
0.0000001
 44
0.0000000001
 40
0.0
 40
0.0
 40
0.0
 40
0.0
 40
0.251225443
 40
0.3758449808
 40
0.5
 40
0.6241550193
 40
0.7487745573
 40
1.0
 40
1.0
 40
1.0
 40
1.0
 10
12.4560978216
 20
8.753926545
 30
0.0
 10
12.4910699519
 20
8.7386739281
 30
0.0
 10
12.5453402892
 20
8.7196569333
 30
0.0
 10
12.6202222706
 20
8.7062644991
 30
0.0
 10
12.6768918433
 20
8.7027538417
 30
0.0
 10
12.733561416
 20
8.7062644993
 30
0.0
 10
12.8084433973
 20
8.7196569333
 30
0.0
 10
12.8627137347
 20
8.7386739282
 30
0.0
 10
12.8976858649
 20
8.753926545
 30
0.0
  0
SPLINE
  5
4F5
100
AcDbEntity
  8
0
100
AcDbSpline
 62
7
  6
CONTINUOUS
 70
0
 71
3
 72
9
 73
5
 74
0
 42
0.0000001
 43
0.0000001
 44
0.0000000001
 40
0.0
 40
0.0
 40
0.0
 40
0.0
 40
0.2650120888
 40
1.0
 40
1.0
 40
1.0
 40
1.0
 10
11.4391158803
 20
9.2609609678
 30
0.0
 10
11.4368645735
 20
9.2609721718
 30
0.0
 10
11.4283690274
 20
9.260743078
 30
0.0
 10
11.4199097102
 20
9.2595215223
 30
0.0
 10
11.4138183383
 20
9.2581499424
 30
0.0
  0
SPLINE
  5
4F6
100
AcDbEntity
  8
0
100
AcDbSpline
 62
7
  6
CONTINUOUS
 70
0
 71
3
 72
9
 73
5
 74
0
 42
0.0000001
 43
0.0000001
 44
0.0000000001
 40
0.0
 40
0.0
 40
0.0
 40
0.0
 40
0.2313352084
 40
1.0
 40
1.0
 40
1.0
 40
1.0
 10
11.4138183383
 20
10.1099588101
 30
0.0
 10
11.4157352746
 20
10.109527178
 30
0.0
 10
11.4240649158
 20
10.1078643499
 30
0.0
 10
11.4325870252
 20
10.1071152929
 30
0.0
 10
11.4391158803
 20
10.1071477847
 30
0.0
  0
SPLINE
  5
4F7
100
AcDbEntity
  8
0
100
AcDbSpline
 62
9
  6
CONTINUOUS
 70
0
 71
3
 72
11
 73
7
 74
0
 42
0.0000001
 43
0.0000001
 44
0.0000000001
 40
0.0
 40
0.0
 40
0.0
 40
0.0
 40
0.2740621407
 40
0.5284366286
 40
0.7689815504
 40
1.0
 40
1.0
 40
1.0
 40
1.0
 10
8.4254490931
 20
3.145842093
 30
0.0
 10
8.4254747016
 20
3.140896502
 30
0.0
 10
8.4259470539
 20
3.131356188
 30
0.0
 10
8.4278820137
 20
3.1175983329
 30
0.0
 10
8.4307379744
 20
3.1048022461
 30
0.0
 10
8.4331231837
 20
3.0966272447
 30
0.0
 10
8.4344145732
 20
3.0926634015
 30
0.0
  0
SPLINE
  5
4F8
100
AcDbEntity
  8
0
100
AcDbSpline
 62
9
  6
CONTINUOUS
 70
0
 71
3
 72
23
 73
19
 74
0
 42
0.0000001
 43
0.0000001
 44
0.0000000001
 40
0.0
 40
0.0
 40
0.0
 40
0.0
 40
0.0308764499
 40
0.0603027999
 40
0.0889695323
 40
0.1172636748
 40
0.1453937228
 40
0.1734964267
 40
0.2016632145
 40
0.2299552844
 40
0.2870866161
 40
0.3451583433
 40
0.4043145646
 40
0.464674185
 40
0.5892976512
 40
0.7196309322
 40
0.8562386298
 40
1.0
 40
1.0
 40
1.0
 40
1.0
 10
8.4344145732
 20
3.0926634015
 30
0.0
 10
8.4377538877
 20
3.0824135743
 30
0.0
 10
8.4458633935
 20
3.0628878675
 30
0.0
 10
8.4614089642
 20
3.0359205554
 30
0.0
 10
8.4792156684
 20
3.011520697
 30
0.0
 10
8.4986626449
 20
2.9890242088
 30
0.0
 10
8.5195879047
 20
2.9681803927
 30
0.0
 10
8.5417565428
 20
2.9487416007
 30
0.0
 10
8.5650357303
 20
2.9305605929
 30
0.0
 10
8.5974734289
 20
2.9077209543
 30
0.0
 10
8.6404017883
 20
2.8817624501
 30
0.0
 10
8.6948029202
 20
2.8543390726
 30
0.0
 10
8.7519198086
 20
2.8301104452
 30
0.0
 10
8.8322512738
 20
2.8014903735
 30
0.0
 10
8.9387420688
 20
2.7728411411
 30
0.0
 10
9.0734847683
 20
2.7489304622
 30
0.0
 10
9.2162749488
 20
2.7345546072
 30
0.0
 10
9.3141996086
 20
2.7315429248
 30
0.0
 10
9.3643918456
 20
2.7315429249
 30
0.0
  0
SPLINE
  5
4F9
100
AcDbEntity
  8
0
100
AcDbSpline
 62
9
  6
CONTINUOUS
 70
0
 71
3
 72
27
 73
23
 74
0
 42
0.0000001
 43
0.0000001
 44
0.0000000001
 40
0.0
 40
0.0
 40
0.0
 40
0.0
 40
0.0311378263
 40
0.0468114922
 40
0.0624594883
 40
0.0781154308
 40
0.0937610674
 40
0.109398725
 40
0.1250475226
 40
0.1563266531
 40
0.1875942682
 40
0.2500771955
 40
0.3125677729
 40
0.375062383
 40
0.4375591426
 40
0.5000563307
 40
0.5625500325
 40
0.6250432189
 40
0.6875371655
 40
0.7500320948
 40
0.8750140434
 40
1.0
 40
1.0
 40
1.0
 40
1.0
 10
8.3993937736
 20
2.6840933525
 30
0.0
 10
8.3994066416
 20
2.6728417827
 30
0.0
 10
8.4020629536
 20
2.6558471851
 30
0.0
 10
8.4096449762
 20
2.6345620036
 30
0.0
 10
8.4171591219
 20
2.6192970473
 30
0.0
 10
8.4261506336
 20
2.6048838038
 30
0.0
 10
8.4363473709
 20
2.5913064339
 30
0.0
 10
8.4475311542
 20
2.578539166
 30
0.0
 10
8.4635147541
 20
2.5625334169
 30
0.0
 10
8.4850546798
 20
2.5441715752
 30
0.0
 10
8.5218258799
 20
2.5178559534
 30
0.0
 10
8.5709655694
 20
2.489775892
 30
0.0
 10
8.6327024705
 20
2.4617446837
 30
0.0
 10
8.6962513261
 20
2.4381382532
 30
0.0
 10
8.7609956621
 20
2.4180939744
 30
0.0
 10
8.8265946241
 20
2.4010812673
 30
0.0
 10
8.8928150105
 20
2.3867060782
 30
0.0
 10
8.9594994358
 20
2.3746903825
 30
0.0
 10
9.0265307094
 20
2.3648006801
 30
0.0
 10
9.1162476921
 20
2.354237159
 30
0.0
 10
9.2288863568
 20
2.3456586387
 30
0.0
 10
9.3192285272
 20
2.3434923799
 30
0.0
 10
9.3643918961
 20
2.3434940767
 30
0.0
  0
SPLINE
  5
4FA
100
AcDbEntity
  8
0
100
AcDbSpline
 62
7
  6
CONTINUOUS
 70
0
 71
3
 72
12
 73
8
 74
0
 42
0.0000001
 43
0.0000001
 44
0.0000000001
 40
0.0
 40
0.0
 40
0.0
 40
0.0
 40
0.1488039262
 40
0.2456283531
 40
0.3596704524
 40
0.6426493209
 40
1.0
 40
1.0
 40
1.0
 40
1.0
 10
11.3784908189
 20
10.1093665574
 30
0.0
 10
11.3799876177
 20
10.1103052869
 30
0.0
 10
11.3829376208
 20
10.1110115637
 30
0.0
 10
11.3871801842
 20
10.1112877176
 30
0.0
 10
11.3930557507
 20
10.111191491
 30
0.0
 10
11.4019826179
 20
10.1105117874
 30
0.0
 10
11.4095767526
 20
10.110067285
 30
0.0
 10
11.4138183383
 20
10.1099588101
 30
0.0
  0
SPLINE
  5
4FB
100
AcDbEntity
  8
0
100
AcDbSpline
 62
7
  6
CONTINUOUS
 70
0
 71
3
 72
12
 73
8
 74
0
 42
0.0000001
 43
0.0000001
 44
0.0000000001
 40
0.0
 40
0.0
 40
0.0
 40
0.0
 40
0.3573508127
 40
0.6403289335
 40
0.7543713901
 40
0.8511962368
 40
1.0
 40
1.0
 40
1.0
 40
1.0
 10
11.4138183383
 20
9.2581499424
 30
0.0
 10
11.4095767516
 20
9.2580414674
 30
0.0
 10
11.4019826252
 20
9.2575969551
 30
0.0
 10
11.3930557632
 20
9.2569172606
 30
0.0
 10
11.3871801951
 20
9.256821027
 30
0.0
 10
11.3829376301
 20
9.2570972246
 30
0.0
 10
11.3799876158
 20
9.2578034667
 30
0.0
 10
11.3784908189
 20
9.2587421951
 30
0.0
  0
SPLINE
  5
4FC
100
AcDbEntity
  8
0
100
AcDbSpline
 62
7
  6
CONTINUOUS
 70
0
 71
3
 72
17
 73
13
 74
0
 42
0.0000001
 43
0.0000001
 44
0.0000000001
 40
0.0
 40
0.0
 40
0.0
 40
0.0
 40
0.1274851314
 40
0.2531725413
 40
0.3770929976
 40
0.4386264587
 40
0.5000002043
 40
0.5613739912
 40
0.6229074432
 40
0.7468276276
 40
0.8725148573
 40
1.0
 40
1.0
 40
1.0
 40
1.0
 10
12.8618355698
 20
10.7826133877
 30
0.0
 10
12.8468694022
 20
10.7934807024
 30
0.0
 10
12.8161229899
 20
10.8137204821
 30
0.0
 10
12.7669541446
 20
10.8380827095
 30
0.0
 10
12.7235773663
 20
10.8515123053
 30
0.0
 10
12.6881398362
 20
10.8570267532
 30
0.0
 10
12.6613917493
 20
10.8584193797
 30
0.0
 10
12.6346436606
 20
10.8570267585
 30
0.0
 10
12.5992061801
 20
10.851512222
 30
0.0
 10
12.5558294613
 20
10.8380826835
 30
0.0
 10
12.5066606778
 20
10.8137204666
 30
0.0
 10
12.4759142856
 20
10.7934807034
 30
0.0
 10
12.4609481168
 20
10.7826133877
 30
0.0
  0
SPLINE
  5
4FD
100
AcDbEntity
  8
0
100
AcDbSpline
 62
9
  6
CONTINUOUS
 70
0
 71
3
 72
9
 73
5
 74
0
 42
0.0000001
 43
0.0000001
 44
0.0000000001
 40
0.0
 40
0.0
 40
0.0
 40
0.0
 40
0.5001229576
 40
1.0
 40
1.0
 40
1.0
 40
1.0
 10
11.5213603233
 20
10.0921932114
 30
0.0
 10
11.527538992
 20
10.0943597455
 30
0.0
 10
11.5394315776
 20
10.1001387917
 30
0.0
 10
11.5496801237
 20
10.1085024945
 30
0.0
 10
11.5542232996
 20
10.1132128259
 30
0.0
  0
SPLINE
  5
4FE
100
AcDbEntity
  8
0
100
AcDbSpline
 62
7
  6
CONTINUOUS
 70
0
 71
3
 72
17
 73
13
 74
0
 42
0.0000001
 43
0.0000001
 44
0.0000000001
 40
0.0
 40
0.0
 40
0.0
 40
0.0
 40
0.1274851314
 40
0.2531725413
 40
0.3770929976
 40
0.4386264587
 40
0.5000002043
 40
0.5613739912
 40
0.6229074432
 40
0.7468276276
 40
0.8725148573
 40
1.0
 40
1.0
 40
1.0
 40
1.0
 10
12.2678355698
 20
10.7826133877
 30
0.0
 10
12.2528694022
 20
10.7934807024
 30
0.0
 10
12.2221229899
 20
10.8137204821
 30
0.0
 10
12.1729541446
 20
10.8380827095
 30
0.0
 10
12.1295773663
 20
10.8515123053
 30
0.0
 10
12.0941398362
 20
10.8570267532
 30
0.0
 10
12.0673917493
 20
10.8584193797
 30
0.0
 10
12.0406436606
 20
10.8570267585
 30
0.0
 10
12.0052061801
 20
10.851512222
 30
0.0
 10
11.9618294613
 20
10.8380826835
 30
0.0
 10
11.9126606778
 20
10.8137204666
 30
0.0
 10
11.8819142856
 20
10.7934807034
 30
0.0
 10
11.8669481168
 20
10.7826133877
 30
0.0
  0
SPLINE
  5
4FF
100
AcDbEntity
  8
0
100
AcDbSpline
 62
9
  6
CONTINUOUS
 70
0
 71
3
 72
11
 73
7
 74
0
 42
0.0000001
 43
0.0000001
 44
0.0000000001
 40
0.0
 40
0.0
 40
0.0
 40
0.0
 40
0.249960314
 40
0.500238856
 40
0.7503776445
 40
1.0
 40
1.0
 40
1.0
 40
1.0
 10
11.4585703607
 20
10.1319093905
 30
0.0
 10
11.4475297448
 20
10.1319093905
 30
0.0
 10
11.4251971519
 20
10.1363261304
 30
0.0
 10
11.3969255699
 20
10.1551529875
 30
0.0
 10
11.3778871849
 20
10.1832665239
 30
0.0
 10
11.3733213263
 20
10.205550857
 30
0.0
 10
11.3732530413
 20
10.216576334
 30
0.0
  0
SPLINE
  5
500
100
AcDbEntity
  8
0
100
AcDbSpline
 62
9
  6
CONTINUOUS
 70
0
 71
3
 72
14
 73
10
 74
0
 42
0.0000001
 43
0.0000001
 44
0.0000000001
 40
0.0
 40
0.0
 40
0.0
 40
0.0
 40
0.0414055373
 40
0.106644558
 40
0.1968450734
 40
0.3119015597
 40
0.4512065084
 40
0.6133944202
 40
1.0
 40
1.0
 40
1.0
 40
1.0
 10
11.3732530413
 20
10.216576334
 30
0.0
 10
11.3735064451
 20
10.2168988656
 30
0.0
 10
11.3744433205
 20
10.2174668108
 30
0.0
 10
11.3762559227
 20
10.2181519973
 30
0.0
 10
11.3788550235
 20
10.2188439109
 30
0.0
 10
11.3821987516
 20
10.2195214293
 30
0.0
 10
11.3862749738
 20
10.2201748392
 30
0.0
 10
11.393034228
 20
10.2210571412
 30
0.0
 10
11.3984478405
 20
10.2215754831
 30
0.0
 10
11.40226454
 20
10.221891815
 30
0.0
  0
SPLINE
  5
501
100
AcDbEntity
  8
0
100
AcDbSpline
 62
9
  6
CONTINUOUS
 70
0
 71
3
 72
9
 73
5
 74
0
 42
0.0000001
 43
0.0000001
 44
0.0000000001
 40
0.0
 40
0.0
 40
0.0
 40
0.0
 40
0.4670527075
 40
1.0
 40
1.0
 40
1.0
 40
1.0
 10
11.40226454
 20
10.221891815
 30
0.0
 10
11.4118434184
 20
10.2226857221
 30
0.0
 10
11.4324043326
 20
10.2237473707
 30
0.0
 10
11.4529842518
 20
10.2240935594
 30
0.0
 10
11.463952053
 20
10.2240935594
 30
0.0
  0
SPLINE
  5
502
100
AcDbEntity
  8
0
100
AcDbSpline
 62
9
  6
CONTINUOUS
 70
0
 71
3
 72
18
 73
14
 74
0
 42
0.0000001
 43
0.0000001
 44
0.0000000001
 40
0.0
 40
0.0
 40
0.0
 40
0.0
 40
0.1795705517
 40
0.3560926495
 40
0.5218105521
 40
0.6705574357
 40
0.7968046947
 40
0.8500442206
 40
0.8959758348
 40
0.9341251501
 40
0.9642390607
 40
0.9861740375
 40
1.0
 40
1.0
 40
1.0
 40
1.0
 10
11.463952053
 20
10.2240935594
 30
0.0
 10
11.4639863811
 20
10.2185508546
 30
0.0
 10
11.4639777585
 20
10.2075589326
 30
0.0
 10
11.4637498023
 20
10.1914533217
 30
0.0
 10
11.4633091848
 20
10.1763036973
 30
0.0
 10
11.4626796851
 20
10.1627142107
 30
0.0
 10
11.4619882982
 20
10.1526045205
 30
0.0
 10
11.4613334265
 20
10.1456773228
 30
0.0
 10
11.4608421585
 20
10.1414660246
 30
0.0
 10
11.4603256793
 20
10.1379804819
 30
0.0
 10
11.4597976653
 20
10.1352402302
 30
0.0
 10
11.4592619477
 20
10.1332876072
 30
0.0
 10
11.4588340173
 20
10.1322449718
 30
0.0
 10
11.4585703607
 20
10.1319093905
 30
0.0
  0
SPLINE
  5
503
100
AcDbEntity
  8
0
100
AcDbSpline
 62
9
  6
CONTINUOUS
 70
0
 71
3
 72
15
 73
11
 74
0
 42
0.0000001
 43
0.0000001
 44
0.0000000001
 40
0.0
 40
0.0
 40
0.0
 40
0.0
 40
0.0224550759
 40
0.0500097264
 40
0.1211425922
 40
0.2141258991
 40
0.3289994784
 40
0.4655818226
 40
0.6234151554
 40
1.0
 40
1.0
 40
1.0
 40
1.0
 10
11.3383362968
 20
10.1721344035
 30
0.0
 10
11.3379185376
 20
10.1716026808
 30
0.0
 10
11.3371044949
 20
10.170327798
 30
0.0
 10
11.3355004188
 20
10.167047166
 30
0.0
 10
11.3336016741
 20
10.1615791434
 30
0.0
 10
11.3314723533
 20
10.1534500181
 30
0.0
 10
11.3293704451
 20
10.1432884427
 30
0.0
 10
11.3273095184
 20
10.1311352799
 30
0.0
 10
11.3244663586
 20
10.1111281959
 30
0.0
 10
11.3227070986
 20
10.0951271907
 30
0.0
 10
11.3215960662
 20
10.0838414076
 30
0.0
  0
SPLINE
  5
504
100
AcDbEntity
  8
0
100
AcDbSpline
 62
9
  6
CONTINUOUS
 70
0
 71
3
 72
15
 73
11
 74
0
 42
0.0000001
 43
0.0000001
 44
0.0000000001
 40
0.0
 40
0.0
 40
0.0
 40
0.0
 40
0.3765850815
 40
0.5344185015
 40
0.6710009235
 40
0.7858745071
 40
0.8788577419
 40
0.9499904686
 40
0.9775450275
 40
1.0
 40
1.0
 40
1.0
 40
1.0
 10
11.3215959386
 20
9.2842686413
 30
0.0
 10
11.3227069769
 20
9.2729826873
 30
0.0
 10
11.3244662478
 20
9.25698144
 30
0.0
 10
11.3273094278
 20
9.2369740523
 30
0.0
 10
11.3293703687
 20
9.2248207064
 30
0.0
 10
11.3314722931
 20
9.2146589812
 30
0.0
 10
11.3336016312
 20
9.2065297417
 30
0.0
 10
11.3355003922
 20
9.201061646
 30
0.0
 10
11.3371044831
 20
9.1977809737
 30
0.0
 10
11.3379185335
 20
9.1965060769
 30
0.0
 10
11.3383362968
 20
9.195974349
 30
0.0
  0
SPLINE
  5
505
100
AcDbEntity
  8
0
100
AcDbSpline
 62
9
  6
CONTINUOUS
 70
0
 71
3
 72
15
 73
11
 74
0
 42
0.0000001
 43
0.0000001
 44
0.0000000001
 40
0.0
 40
0.0
 40
0.0
 40
0.0
 40
0.0211546564
 40
0.0476199005
 40
0.1172320977
 40
0.2095360235
 40
0.3245122039
 40
0.4617847561
 40
0.6206487364
 40
1.0
 40
1.0
 40
1.0
 40
1.0
 10
11.3382129144
 20
9.1760527152
 30
0.0
 10
11.3377220452
 20
9.1766774922
 30
0.0
 10
11.3367713852
 20
9.1782034688
 30
0.0
 10
11.3349032166
 20
9.1821955181
 30
0.0
 10
11.3327096464
 20
9.1889441945
 30
0.0
 10
11.3302577032
 20
9.1990523726
 30
0.0
 10
11.3278492696
 20
9.2117727612
 30
0.0
 10
11.3254988262
 20
9.2270352408
 30
0.0
 10
11.322272218
 20
9.2522018531
 30
0.0
 10
11.320305703
 20
9.2723254183
 30
0.0
 10
11.3190741413
 20
9.2865200644
 30
0.0
  0
SPLINE
  5
506
100
AcDbEntity
  8
0
100
AcDbSpline
 62
9
  6
CONTINUOUS
 70
0
 71
3
 72
15
 73
11
 74
0
 42
0.0000001
 43
0.0000001
 44
0.0000000001
 40
0.0
 40
0.0
 40
0.0
 40
0.0
 40
0.3793512159
 40
0.5382151387
 40
0.6754876526
 40
0.7904638336
 40
0.8827677732
 40
0.9523800123
 40
0.9788452935
 40
1.0
 40
1.0
 40
1.0
 40
1.0
 10
11.3190742075
 20
10.0815894506
 30
0.0
 10
11.3203057668
 20
10.095783998
 30
0.0
 10
11.3222722764
 20
10.1159074219
 30
0.0
 10
11.3254988751
 20
10.1410738563
 30
0.0
 10
11.3278493105
 20
10.1563362274
 30
0.0
 10
11.3302577343
 20
10.1690565275
 30
0.0
 10
11.3327096682
 20
10.1791646374
 30
0.0
 10
11.3349032302
 20
10.1859132695
 30
0.0
 10
11.3367713912
 20
10.1899052946
 30
0.0
 10
11.3377220473
 20
10.1914312631
 30
0.0
 10
11.3382129144
 20
10.1920560373
 30
0.0
  0
SPLINE
  5
507
100
AcDbEntity
  8
0
100
AcDbSpline
 62
9
  6
CONTINUOUS
 70
0
 71
3
 72
11
 73
7
 74
0
 42
0.0000001
 43
0.0000001
 44
0.0000000001
 40
0.0
 40
0.0
 40
0.0
 40
0.0
 40
0.2493729617
 40
0.4993793193
 40
0.7495490411
 40
1.0
 40
1.0
 40
1.0
 40
1.0
 10
11.3383362968
 20
10.1721344035
 30
0.0
 10
11.3383758575
 20
10.1657468335
 30
0.0
 10
11.3399274878
 20
10.1529199503
 30
0.0
 10
11.3464844373
 20
10.1347063492
 30
0.0
 10
11.3569856739
 20
10.1184092454
 30
0.0
 10
11.3662589968
 20
10.1093693899
 30
0.0
 10
11.3713229352
 20
10.105430777
 30
0.0
  0
SPLINE
  5
508
100
AcDbEntity
  8
0
100
AcDbSpline
 62
9
  6
CONTINUOUS
 70
0
 71
3
 72
11
 73
7
 74
0
 42
0.0000001
 43
0.0000001
 44
0.0000000001
 40
0.0
 40
0.0
 40
0.0
 40
0.0
 40
0.2496223555
 40
0.499761144
 40
0.750039686
 40
1.0
 40
1.0
 40
1.0
 40
1.0
 10
11.3732530413
 20
9.1515324185
 30
0.0
 10
11.3733213263
 20
9.1625578955
 30
0.0
 10
11.3778871849
 20
9.1848422286
 30
0.0
 10
11.3969255699
 20
9.212955765
 30
0.0
 10
11.4251971519
 20
9.2317826221
 30
0.0
 10
11.4475297448
 20
9.236199362
 30
0.0
 10
11.4585703607
 20
9.236199362
 30
0.0
  0
SPLINE
  5
509
100
AcDbEntity
  8
0
100
AcDbSpline
 62
9
  6
CONTINUOUS
 70
0
 71
3
 72
18
 73
14
 74
0
 42
0.0000001
 43
0.0000001
 44
0.0000000001
 40
0.0
 40
0.0
 40
0.0
 40
0.0
 40
0.0138259625
 40
0.0357609393
 40
0.0658748499
 40
0.1040241652
 40
0.1499557794
 40
0.2031953053
 40
0.3294425643
 40
0.4781894479
 40
0.6439073505
 40
0.8204294483
 40
1.0
 40
1.0
 40
1.0
 40
1.0
 10
11.4585703607
 20
9.236199362
 30
0.0
 10
11.4588340173
 20
9.2358637806
 30
0.0
 10
11.4592619477
 20
9.2348211453
 30
0.0
 10
11.4597976653
 20
9.2328685223
 30
0.0
 10
11.4603256793
 20
9.2301282705
 30
0.0
 10
11.4608421585
 20
9.2266427279
 30
0.0
 10
11.4613334265
 20
9.2224314297
 30
0.0
 10
11.4619882982
 20
9.215504232
 30
0.0
 10
11.4626796851
 20
9.2053945418
 30
0.0
 10
11.4633091848
 20
9.1918050552
 30
0.0
 10
11.4637498023
 20
9.1766554308
 30
0.0
 10
11.4639777585
 20
9.1605498198
 30
0.0
 10
11.4639863811
 20
9.1495578979
 30
0.0
 10
11.463952053
 20
9.1440151931
 30
0.0
  0
SPLINE
  5
50A
100
AcDbEntity
  8
0
100
AcDbSpline
 62
9
  6
CONTINUOUS
 70
0
 71
3
 72
9
 73
5
 74
0
 42
0.0000001
 43
0.0000001
 44
0.0000000001
 40
0.0
 40
0.0
 40
0.0
 40
0.0
 40
0.5329472925
 40
1.0
 40
1.0
 40
1.0
 40
1.0
 10
11.463952053
 20
9.1440151931
 30
0.0
 10
11.4529842518
 20
9.1440151931
 30
0.0
 10
11.4324043326
 20
9.1443613818
 30
0.0
 10
11.4118434184
 20
9.1454230304
 30
0.0
 10
11.40226454
 20
9.1462169375
 30
0.0
  0
SPLINE
  5
50B
100
AcDbEntity
  8
0
100
AcDbSpline
 62
9
  6
CONTINUOUS
 70
0
 71
3
 72
14
 73
10
 74
0
 42
0.0000001
 43
0.0000001
 44
0.0000000001
 40
0.0
 40
0.0
 40
0.0
 40
0.0
 40
0.3866055798
 40
0.5487934916
 40
0.6880984403
 40
0.8031549266
 40
0.893355442
 40
0.9585944627
 40
1.0
 40
1.0
 40
1.0
 40
1.0
 10
11.40226454
 20
9.1462169375
 30
0.0
 10
11.3984478405
 20
9.1465332694
 30
0.0
 10
11.393034228
 20
9.1470516112
 30
0.0
 10
11.3862749738
 20
9.1479339133
 30
0.0
 10
11.3821987516
 20
9.1485873232
 30
0.0
 10
11.3788550235
 20
9.1492648416
 30
0.0
 10
11.3762559227
 20
9.1499567552
 30
0.0
 10
11.3744433205
 20
9.1506419417
 30
0.0
 10
11.3735064451
 20
9.1512098869
 30
0.0
 10
11.3732530413
 20
9.1515324185
 30
0.0
  0
SPLINE
  5
50C
100
AcDbEntity
  8
0
100
AcDbSpline
 62
9
  6
CONTINUOUS
 70
0
 71
3
 72
23
 73
19
 74
0
 42
0.0000001
 43
0.0000001
 44
0.0000000001
 40
0.0
 40
0.0
 40
0.0
 40
0.0
 40
0.0312216828
 40
0.0624614475
 40
0.0937063145
 40
0.1249664732
 40
0.1562268584
 40
0.1874777706
 40
0.218730163
 40
0.249983569
 40
0.3124817531
 40
0.3749860346
 40
0.4374939046
 40
0.5000013887
 40
0.6249904601
 40
0.7499877949
 40
0.8749913643
 40
1.0
 40
1.0
 40
1.0
 40
1.0
 10
8.4016896665
 20
2.6601910428
 30
0.0
 10
8.4038075593
 20
2.649345031
 30
0.0
 10
8.4110193568
 20
2.6281819325
 30
0.0
 10
8.4279676134
 20
2.5994759769
 30
0.0
 10
8.4494604633
 20
2.5740418022
 30
0.0
 10
8.4737665579
 20
2.5513641022
 30
0.0
 10
8.5000658055
 20
2.5310525886
 30
0.0
 10
8.5277963455
 20
2.51277589
 30
0.0
 10
8.5565679478
 20
2.496207123
 30
0.0
 10
8.5959686297
 20
2.4760452264
 30
0.0
 10
8.6468006258
 20
2.4541016261
 30
0.0
 10
8.7093333821
 20
2.4317674745
 30
0.0
 10
8.7729472384
 20
2.4127394761
 30
0.0
 10
8.8587802093
 20
2.3911324934
 30
0.0
 10
8.9675099147
 20
2.3703207439
 30
0.0
 10
9.0992130027
 20
2.3533467092
 30
0.0
 10
9.2316368257
 20
2.343453571
 30
0.0
 10
9.3201452671
 20
2.3413692602
 30
0.0
 10
9.3643918433
 20
2.3413690816
 30
0.0
  0
SPLINE
  5
50D
100
AcDbEntity
  8
0
100
AcDbSpline
 62
9
  6
CONTINUOUS
 70
0
 71
3
 72
28
 73
24
 74
0
 42
0.0000001
 43
0.0000001
 44
0.0000000001
 40
0.0
 40
0.0
 40
0.0
 40
0.0
 40
0.1352994871
 40
0.2638739892
 40
0.386822643
 40
0.4464618595
 40
0.5049773283
 40
0.5624630474
 40
0.6190745867
 40
0.6750541982
 40
0.7308647301
 40
0.758928456
 40
0.7872472784
 40
0.816063667
 40
0.8460145895
 40
0.8616703118
 40
0.8778784378
 40
0.8947288239
 40
0.9123487789
 40
0.9310012337
 40
0.9514357433
 40
0.9744223922
 40
1.0
 40
1.0
 40
1.0
 40
1.0
 10
9.3643918433
 20
2.2634838499
 30
0.0
 10
9.3098942148
 20
2.2634838499
 30
0.0
 10
9.2035753179
 20
2.2664894482
 30
0.0
 10
9.048290388
 20
2.280253508
 30
0.0
 10
8.9242544963
 20
2.2989216945
 30
0.0
 10
8.829105856
 20
2.318463463
 30
0.0
 10
8.7603965062
 20
2.3354029071
 30
0.0
 10
8.6936502122
 20
2.3549600263
 30
0.0
 10
8.6289374559
 20
2.3775373879
 30
0.0
 10
8.566250871
 20
2.40357274
 30
0.0
 10
8.5159903568
 20
2.4291866288
 30
0.0
 10
8.4772758961
 20
2.4525327023
 30
0.0
 10
8.4489283161
 20
2.4719120247
 30
0.0
 10
8.4213176151
 20
2.4936002211
 30
0.0
 10
8.3994176492
 20
2.5141413474
 30
0.0
 10
8.3825509592
 20
2.5324708231
 30
0.0
 10
8.370149746
 20
2.5476952362
 30
0.0
 10
8.3583824395
 20
2.5643979925
 30
0.0
 10
8.3474257249
 20
2.582801623
 30
0.0
 10
8.3373967975
 20
2.6033636023
 30
0.0
 10
8.3290085054
 20
2.6269781837
 30
0.0
 10
8.3228645258
 20
2.65415596
 30
0.0
 10
8.321321317
 20
2.6737519058
 30
0.0
 10
8.321321317
 20
2.6840543762
 30
0.0
  0
SPLINE
  5
50E
100
AcDbEntity
  8
0
100
AcDbSpline
 62
7
  6
CONTINUOUS
 70
0
 71
3
 72
9
 73
5
 74
0
 42
0.0000001
 43
0.0000001
 44
0.0000000001
 40
0.0
 40
0.0
 40
0.0
 40
0.0
 40
0.3883539413
 40
1.0
 40
1.0
 40
1.0
 40
1.0
 10
11.5812828518
 20
9.3166621547
 30
0.0
 10
11.5810334483
 20
9.3170553271
 30
0.0
 10
11.5806274714
 20
9.3182016265
 30
0.0
 10
11.5803455844
 20
9.3193622375
 30
0.0
 10
11.5801934157
 20
9.3200795876
 30
0.0
  0
SPLINE
  5
50F
100
AcDbEntity
  8
0
100
AcDbSpline
 62
7
  6
CONTINUOUS
 70
0
 71
3
 72
11
 73
7
 74
0
 42
0.0000001
 43
0.0000001
 44
0.0000000001
 40
0.0
 40
0.0
 40
0.0
 40
0.0
 40
0.1568104308
 40
0.3764110603
 40
0.6578518911
 40
1.0
 40
1.0
 40
1.0
 40
1.0
 10
11.5801934157
 20
9.3200795876
 30
0.0
 10
11.5798328653
 20
9.3217792853
 30
0.0
 10
11.5791988355
 20
9.3259059966
 30
0.0
 10
11.5783664932
 20
9.3331470331
 30
0.0
 10
11.5775161941
 20
9.3424521916
 30
0.0
 10
11.5769809156
 20
9.3493410052
 30
0.0
 10
11.5767039539
 20
9.3531220036
 30
0.0
  0
SPLINE
  5
510
100
AcDbEntity
  8
0
100
AcDbSpline
 62
7
  6
CONTINUOUS
 70
0
 71
3
 72
9
 73
5
 74
0
 42
0.0000001
 43
0.0000001
 44
0.0000000001
 40
0.0
 40
0.0
 40
0.0
 40
0.0
 40
0.2135343016
 40
1.0
 40
1.0
 40
1.0
 40
1.0
 10
11.5767039539
 20
9.3531220036
 30
0.0
 10
11.5764377642
 20
9.356755946
 30
0.0
 10
11.5752691633
 20
9.373779698
 30
0.0
 10
11.5743877424
 20
9.3908226295
 30
0.0
 10
11.5738183383
 20
9.4042305348
 30
0.0
  0
SPLINE
  5
511
100
AcDbEntity
  8
0
100
AcDbSpline
 62
7
  6
CONTINUOUS
 70
0
 71
3
 72
17
 73
13
 74
0
 42
0.0000001
 43
0.0000001
 44
0.0000000001
 40
0.0
 40
0.0
 40
0.0
 40
0.0
 40
0.1274851314
 40
0.2531725413
 40
0.3770929976
 40
0.4386264587
 40
0.5000002043
 40
0.5613739912
 40
0.6229074432
 40
0.7468276276
 40
0.8725148573
 40
1.0
 40
1.0
 40
1.0
 40
1.0
 10
11.8669481168
 20
10.4364402467
 30
0.0
 10
11.8819142843
 20
10.4255729319
 30
0.0
 10
11.9126606967
 20
10.4053331523
 30
0.0
 10
11.9618295419
 20
10.3809709249
 30
0.0
 10
12.0052063203
 20
10.3675413291
 30
0.0
 10
12.0406438503
 20
10.3620268812
 30
0.0
 10
12.0673919373
 20
10.3606342547
 30
0.0
 10
12.0941400259
 20
10.3620268759
 30
0.0
 10
12.1295775065
 20
10.3675414123
 30
0.0
 10
12.1729542252
 20
10.3809709509
 30
0.0
 10
12.2221230088
 20
10.4053331678
 30
0.0
 10
12.2528694009
 20
10.425572931
 30
0.0
 10
12.2678355698
 20
10.4364402467
 30
0.0
  0
SPLINE
  5
512
100
AcDbEntity
  8
0
100
AcDbSpline
 62
7
  6
CONTINUOUS
 70
0
 71
3
 72
17
 73
13
 74
0
 42
0.0000001
 43
0.0000001
 44
0.0000000001
 40
0.0
 40
0.0
 40
0.0
 40
0.0
 40
0.1274851314
 40
0.2531725413
 40
0.3770929976
 40
0.4386264587
 40
0.5000002043
 40
0.5613739912
 40
0.6229074432
 40
0.7468276276
 40
0.8725148573
 40
1.0
 40
1.0
 40
1.0
 40
1.0
 10
12.4609481168
 20
10.4364402467
 30
0.0
 10
12.4759142843
 20
10.4255729319
 30
0.0
 10
12.5066606967
 20
10.4053331523
 30
0.0
 10
12.5558295419
 20
10.3809709249
 30
0.0
 10
12.5992063203
 20
10.3675413291
 30
0.0
 10
12.6346438503
 20
10.3620268812
 30
0.0
 10
12.6613919373
 20
10.3606342547
 30
0.0
 10
12.6881400259
 20
10.3620268759
 30
0.0
 10
12.7235775065
 20
10.3675414123
 30
0.0
 10
12.7669542252
 20
10.3809709509
 30
0.0
 10
12.8161230088
 20
10.4053331678
 30
0.0
 10
12.8468694009
 20
10.425572931
 30
0.0
 10
12.8618355698
 20
10.4364402467
 30
0.0
  0
SPLINE
  5
513
100
AcDbEntity
  8
0
100
AcDbSpline
 62
9
  6
CONTINUOUS
 70
0
 71
3
 72
18
 73
14
 74
0
 42
0.0000001
 43
0.0000001
 44
0.0000000001
 40
0.0
 40
0.0
 40
0.0
 40
0.0
 40
0.1973707156
 40
0.3856028356
 40
0.5571497882
 40
0.7063212764
 40
0.8282305686
 40
0.9190593206
 40
0.9518527598
 40
0.9759222218
 40
0.9847508423
 40
0.9915420409
 40
1.0
 40
1.0
 40
1.0
 40
1.0
 10
11.5336581541
 20
10.2440151931
 30
0.0
 10
11.5336262985
 20
10.2491586889
 30
0.0
 10
11.5334987051
 20
10.2592072362
 30
0.0
 10
11.5331198837
 20
10.2737224716
 30
0.0
 10
11.5325624293
 20
10.2869748247
 30
0.0
 10
11.5318578431
 20
10.298489718
 30
0.0
 10
11.5310226494
 20
10.3078850154
 30
0.0
 10
11.5302146035
 20
10.3142364688
 30
0.0
 10
11.5294577231
 20
10.3180144102
 30
0.0
 10
11.5290072813
 20
10.3196645354
 30
0.0
 10
11.528604364
 20
10.3206287604
 30
0.0
 10
11.5283096193
 20
10.3211615401
 30
0.0
 10
11.5279724824
 20
10.321489527
 30
0.0
 10
11.5277520863
 20
10.3214927268
 30
0.0
  0
SPLINE
  5
514
100
AcDbEntity
  8
0
100
AcDbSpline
 62
9
  6
CONTINUOUS
 70
0
 71
3
 72
9
 73
5
 74
0
 42
0.0000001
 43
0.0000001
 44
0.0000000001
 40
0.0
 40
0.0
 40
0.0
 40
0.0
 40
0.5329472925
 40
1.0
 40
1.0
 40
1.0
 40
1.0
 10
11.4638286706
 20
10.2440151931
 30
0.0
 10
11.4528608694
 20
10.2440151931
 30
0.0
 10
11.4322809502
 20
10.2436690045
 30
0.0
 10
11.411720036
 20
10.2426073559
 30
0.0
 10
11.4021411576
 20
10.2418134488
 30
0.0
  0
SPLINE
  5
515
100
AcDbEntity
  8
0
100
AcDbSpline
 62
9
  6
CONTINUOUS
 70
0
 71
3
 72
14
 73
10
 74
0
 42
0.0000001
 43
0.0000001
 44
0.0000000001
 40
0.0
 40
0.0
 40
0.0
 40
0.0
 40
0.3866055798
 40
0.5487934916
 40
0.6880984403
 40
0.8031549266
 40
0.893355442
 40
0.9585944627
 40
1.0
 40
1.0
 40
1.0
 40
1.0
 10
11.4021411576
 20
10.2418134488
 30
0.0
 10
11.3983244582
 20
10.2414971169
 30
0.0
 10
11.3929108457
 20
10.240978775
 30
0.0
 10
11.3861515915
 20
10.240096473
 30
0.0
 10
11.3820753692
 20
10.2394430631
 30
0.0
 10
11.3787316411
 20
10.2387655446
 30
0.0
 10
11.3761325403
 20
10.238073631
 30
0.0
 10
11.3743199381
 20
10.2373884445
 30
0.0
 10
11.3733830627
 20
10.2368204994
 30
0.0
 10
11.3731296589
 20
10.2364979677
 30
0.0
  0
SPLINE
  5
516
100
AcDbEntity
  8
0
100
AcDbSpline
 62
9
  6
CONTINUOUS
 70
0
 71
3
 72
11
 73
7
 74
0
 42
0.0000001
 43
0.0000001
 44
0.0000000001
 40
0.0
 40
0.0
 40
0.0
 40
0.0
 40
0.2533138146
 40
0.5072229047
 40
0.7569929763
 40
1.0
 40
1.0
 40
1.0
 40
1.0
 10
9.8138625047
 20
8.973043537
 30
0.0
 10
9.8111691719
 20
8.9840741242
 30
0.0
 10
9.807156777
 20
9.0065252689
 30
0.0
 10
9.805559905
 20
9.0405215699
 30
0.0
 10
9.8089140836
 20
9.0739636289
 30
0.0
 10
9.8149462262
 20
9.0953592521
 30
0.0
 10
9.8188444279
 20
9.1055304745
 30
0.0
  0
SPLINE
  5
517
100
AcDbEntity
  8
0
100
AcDbSpline
 62
9
  6
CONTINUOUS
 70
0
 71
3
 72
9
 73
5
 74
0
 42
0.0000001
 43
0.0000001
 44
0.0000000001
 40
0.0
 40
0.0
 40
0.0
 40
0.0
 40
0.2555218671
 40
1.0
 40
1.0
 40
1.0
 40
1.0
 10
9.8188444279
 20
9.1055304745
 30
0.0
 10
9.8202367702
 20
9.1091633865
 30
0.0
 10
9.8261475701
 20
9.1231967554
 30
0.0
 10
9.8339425345
 20
9.1364596363
 30
0.0
 10
9.840767725
 20
9.145510014
 30
0.0
  0
SPLINE
  5
518
100
AcDbEntity
  8
0
100
AcDbSpline
 62
9
  6
CONTINUOUS
 70
0
 71
3
 72
9
 73
5
 74
0
 42
0.0000001
 43
0.0000001
 44
0.0000000001
 40
0.0
 40
0.0
 40
0.0
 40
0.0
 40
0.257757369
 40
1.0
 40
1.0
 40
1.0
 40
1.0
 10
11.5337815365
 20
10.2240935594
 30
0.0
 10
11.5365314128
 20
10.2240935594
 30
0.0
 10
11.5471997552
 20
10.2240457939
 30
0.0
 10
11.557867864
 20
10.2238200842
 30
0.0
 10
11.5657808188
 20
10.2235213446
 30
0.0
  0
SPLINE
  5
519
100
AcDbEntity
  8
0
100
AcDbSpline
 62
9
  6
CONTINUOUS
 70
0
 71
3
 72
12
 73
8
 74
0
 42
0.0000001
 43
0.0000001
 44
0.0000000001
 40
0.0
 40
0.0
 40
0.0
 40
0.0
 40
0.3292223441
 40
0.6120781584
 40
0.8382308927
 40
0.9275832418
 40
1.0
 40
1.0
 40
1.0
 40
1.0
 10
11.5657808188
 20
10.2235213446
 30
0.0
 10
11.5704895533
 20
10.2233435748
 30
0.0
 10
11.579241266
 20
10.2229249751
 30
0.0
 10
11.5912064543
 20
10.2220336322
 30
0.0
 10
11.5997229225
 20
10.2210870243
 30
0.0
 10
11.6052035199
 20
10.2201923714
 30
0.0
 10
11.6074704115
 20
10.2197117674
 30
0.0
 10
11.6084740889
 20
10.2194530516
 30
0.0
  0
SPLINE
  5
51A
100
AcDbEntity
  8
0
100
AcDbSpline
 62
9
  6
CONTINUOUS
 70
0
 71
3
 72
12
 73
8
 74
0
 42
0.0000001
 43
0.0000001
 44
0.0000000001
 40
0.0
 40
0.0
 40
0.0
 40
0.0
 40
0.3849315481
 40
0.6732215353
 40
0.7828494013
 40
0.8714204012
 40
1.0
 40
1.0
 40
1.0
 40
1.0
 10
11.6084740889
 20
10.2194530516
 30
0.0
 10
11.6091168445
 20
10.2192873698
 30
0.0
 10
11.610232823
 20
10.2189644462
 30
0.0
 10
11.6114919959
 20
10.2184658114
 30
0.0
 10
11.6122158254
 20
10.2180320917
 30
0.0
 10
11.6126505159
 20
10.2176814247
 30
0.0
 10
11.6128663369
 20
10.2173244249
 30
0.0
 10
11.612870172
 20
10.2171027387
 30
0.0
  0
SPLINE
  5
51B
100
AcDbEntity
  8
0
100
AcDbSpline
 62
9
  6
CONTINUOUS
 70
0
 71
3
 72
14
 73
10
 74
0
 42
0.0000001
 43
0.0000001
 44
0.0000000001
 40
0.0
 40
0.0
 40
0.0
 40
0.0
 40
0.0419677479
 40
0.108549845
 40
0.199958527
 40
0.3157581214
 40
0.455180343
 40
0.6167852223
 40
1.0
 40
1.0
 40
1.0
 40
1.0
 10
11.5283998442
 20
10.1319093905
 30
0.0
 10
11.5286635008
 20
10.1322449718
 30
0.0
 10
11.5290914312
 20
10.1332876072
 30
0.0
 10
11.5296271489
 20
10.1352402301
 30
0.0
 10
11.5301551623
 20
10.1379804822
 30
0.0
 10
11.5306716448
 20
10.1414660234
 30
0.0
 10
11.5311628967
 20
10.145677329
 30
0.0
 10
11.531817874
 20
10.1526044774
 30
0.0
 10
11.5321953663
 20
10.1581329899
 30
0.0
 10
11.5324224786
 20
10.1620232451
 30
0.0
  0
SPLINE
  5
51C
100
AcDbEntity
  8
0
100
AcDbSpline
 62
9
  6
CONTINUOUS
 70
0
 71
3
 72
9
 73
5
 74
0
 42
0.0000001
 43
0.0000001
 44
0.0000000001
 40
0.0
 40
0.0
 40
0.0
 40
0.0
 40
0.4689562967
 40
1.0
 40
1.0
 40
1.0
 40
1.0
 10
11.5324224786
 20
10.1620232451
 30
0.0
 10
11.532988162
 20
10.171712958
 30
0.0
 10
11.5337009543
 20
10.1924034371
 30
0.0
 10
11.5338496083
 20
10.2131025066
 30
0.0
 10
11.5337815365
 20
10.2240935594
 30
0.0
  0
SPLINE
  5
51D
100
AcDbEntity
  8
0
100
AcDbSpline
 62
9
  6
CONTINUOUS
 70
0
 71
3
 72
9
 73
5
 74
0
 42
0.0000001
 43
0.0000001
 44
0.0000000001
 40
0.0
 40
0.0
 40
0.0
 40
0.0
 40
0.5310437033
 40
1.0
 40
1.0
 40
1.0
 40
1.0
 10
11.5337815365
 20
9.1440151931
 30
0.0
 10
11.5338496083
 20
9.1550062459
 30
0.0
 10
11.5337009543
 20
9.1757053154
 30
0.0
 10
11.532988162
 20
9.1963957945
 30
0.0
 10
11.5324224786
 20
9.2060855074
 30
0.0
  0
SPLINE
  5
51E
100
AcDbEntity
  8
0
100
AcDbSpline
 62
9
  6
CONTINUOUS
 70
0
 71
3
 72
14
 73
10
 74
0
 42
0.0000001
 43
0.0000001
 44
0.0000000001
 40
0.0
 40
0.0
 40
0.0
 40
0.0
 40
0.3832147777
 40
0.544819657
 40
0.6842418786
 40
0.800041473
 40
0.891450155
 40
0.9580322521
 40
1.0
 40
1.0
 40
1.0
 40
1.0
 10
11.5324224786
 20
9.2060855074
 30
0.0
 10
11.5321953663
 20
9.2099757626
 30
0.0
 10
11.531817874
 20
9.215504275
 30
0.0
 10
11.5311628967
 20
9.2224314235
 30
0.0
 10
11.5306716448
 20
9.2266427291
 30
0.0
 10
11.5301551623
 20
9.2301282703
 30
0.0
 10
11.5296271489
 20
9.2328685224
 30
0.0
 10
11.5290914312
 20
9.2348211453
 30
0.0
 10
11.5286635008
 20
9.2358637806
 30
0.0
 10
11.5283998442
 20
9.236199362
 30
0.0
  0
SPLINE
  5
51F
100
AcDbEntity
  8
0
100
AcDbSpline
 62
9
  6
CONTINUOUS
 70
0
 71
3
 72
9
 73
5
 74
0
 42
0.0000001
 43
0.0000001
 44
0.0000000001
 40
0.0
 40
0.0
 40
0.0
 40
0.0
 40
0.257757369
 40
1.0
 40
1.0
 40
1.0
 40
1.0
 10
11.5336581541
 20
9.1240935594
 30
0.0
 10
11.5364080305
 20
9.1240935594
 30
0.0
 10
11.5470763728
 20
9.1241413248
 30
0.0
 10
11.5577444816
 20
9.1243670346
 30
0.0
 10
11.5656574365
 20
9.1246657741
 30
0.0
  0
SPLINE
  5
520
100
AcDbEntity
  8
0
100
AcDbSpline
 62
9
  6
CONTINUOUS
 70
0
 71
3
 72
16
 73
12
 74
0
 42
0.0000001
 43
0.0000001
 44
0.0000000001
 40
0.0
 40
0.0
 40
0.0
 40
0.0
 40
0.4032700438
 40
0.5727450702
 40
0.7165066104
 40
0.8321933403
 40
0.8788568405
 40
0.9177723151
 40
0.9489264114
 40
0.9725318532
 40
1.0
 40
1.0
 40
1.0
 40
1.0
 10
11.5656574365
 20
9.1246657741
 30
0.0
 10
11.572115272
 20
9.1249095781
 30
0.0
 10
11.5812845457
 20
9.1253763765
 30
0.0
 10
11.5927269674
 20
9.1263399651
 30
0.0
 10
11.5995582612
 20
9.1271161137
 30
0.0
 10
11.6044075828
 20
9.1278609225
 30
0.0
 10
11.6075681567
 20
9.1285251688
 30
0.0
 10
11.6093722913
 20
9.1289939241
 30
0.0
 10
11.6108136506
 20
9.1294895741
 30
0.0
 10
11.6119586486
 20
9.1300148985
 30
0.0
 10
11.6127391757
 20
9.1306442665
 30
0.0
 10
11.6127467897
 20
9.13108438
 30
0.0
  0
SPLINE
  5
521
100
AcDbEntity
  8
0
100
AcDbSpline
 62
9
  6
CONTINUOUS
 70
0
 71
3
 72
18
 73
14
 74
0
 42
0.0000001
 43
0.0000001
 44
0.0000000001
 40
0.0
 40
0.0
 40
0.0
 40
0.0
 40
0.1973707156
 40
0.3856028356
 40
0.5571497882
 40
0.7063212764
 40
0.8282305686
 40
0.9190593206
 40
0.9518527598
 40
0.9759222218
 40
0.9847508423
 40
0.9915420409
 40
1.0
 40
1.0
 40
1.0
 40
1.0
 10
11.4638286706
 20
9.1240935594
 30
0.0
 10
11.4637968149
 20
9.1189500636
 30
0.0
 10
11.4636692216
 20
9.1089015163
 30
0.0
 10
11.4632904001
 20
9.0943862809
 30
0.0
 10
11.4627329457
 20
9.0811339278
 30
0.0
 10
11.4620283595
 20
9.0696190345
 30
0.0
 10
11.4611931659
 20
9.0602237371
 30
0.0
 10
11.46038512
 20
9.0538722837
 30
0.0
 10
11.4596282396
 20
9.0500943423
 30
0.0
 10
11.4591777978
 20
9.0484442171
 30
0.0
 10
11.4587748805
 20
9.0474799921
 30
0.0
 10
11.4584801358
 20
9.0469472124
 30
0.0
 10
11.4581429989
 20
9.0466192255
 30
0.0
 10
11.4579226028
 20
9.0466160257
 30
0.0
  0
SPLINE
  5
522
100
AcDbEntity
  8
0
100
AcDbSpline
 62
9
  6
CONTINUOUS
 70
0
 71
3
 72
14
 73
10
 74
0
 42
0.0000001
 43
0.0000001
 44
0.0000000001
 40
0.0
 40
0.0
 40
0.0
 40
0.0
 40
0.0414055373
 40
0.106644558
 40
0.1968450734
 40
0.3119015597
 40
0.4512065084
 40
0.6133944202
 40
1.0
 40
1.0
 40
1.0
 40
1.0
 10
11.3731296589
 20
9.1316107847
 30
0.0
 10
11.3733830627
 20
9.1312882531
 30
0.0
 10
11.3743199381
 20
9.1307203079
 30
0.0
 10
11.3761325403
 20
9.1300351215
 30
0.0
 10
11.3787316411
 20
9.1293432078
 30
0.0
 10
11.3820753692
 20
9.1286656894
 30
0.0
 10
11.3861515915
 20
9.1280122795
 30
0.0
 10
11.3929108457
 20
9.1271299775
 30
0.0
 10
11.3983244582
 20
9.1266116356
 30
0.0
 10
11.4021411576
 20
9.1262953037
 30
0.0
  0
SPLINE
  5
523
100
AcDbEntity
  8
0
100
AcDbSpline
 62
9
  6
CONTINUOUS
 70
0
 71
3
 72
9
 73
5
 74
0
 42
0.0000001
 43
0.0000001
 44
0.0000000001
 40
0.0
 40
0.0
 40
0.0
 40
0.0
 40
0.4670527075
 40
1.0
 40
1.0
 40
1.0
 40
1.0
 10
11.4021411576
 20
9.1262953037
 30
0.0
 10
11.411720036
 20
9.1255013966
 30
0.0
 10
11.4322809502
 20
9.124439748
 30
0.0
 10
11.4528608694
 20
9.1240935594
 30
0.0
 10
11.4638286706
 20
9.1240935594
 30
0.0
  0
SPLINE
  5
524
100
AcDbEntity
  8
0
100
AcDbSpline
 62
9
  6
CONTINUOUS
 70
0
 71
3
 72
9
 73
5
 74
0
 42
0.0000001
 43
0.0000001
 44
0.0000000001
 40
0.0
 40
0.0
 40
0.0
 40
0.0
 40
0.257757369
 40
1.0
 40
1.0
 40
1.0
 40
1.0
 10
7.1951255324
 20
10.2440151931
 30
0.0
 10
7.1923756561
 20
10.2440151931
 30
0.0
 10
7.1817073137
 20
10.2439674277
 30
0.0
 10
7.171039205
 20
10.2437417179
 30
0.0
 10
7.1631262501
 20
10.2434429784
 30
0.0
  0
SPLINE
  5
525
100
AcDbEntity
  8
0
100
AcDbSpline
 62
9
  6
CONTINUOUS
 70
0
 71
3
 72
16
 73
12
 74
0
 42
0.0000001
 43
0.0000001
 44
0.0000000001
 40
0.0
 40
0.0
 40
0.0
 40
0.0
 40
0.4032700438
 40
0.5727450702
 40
0.7165066104
 40
0.8321933403
 40
0.8788568405
 40
0.9177723151
 40
0.9489264114
 40
0.9725318532
 40
1.0
 40
1.0
 40
1.0
 40
1.0
 10
7.1631262501
 20
10.2434429784
 30
0.0
 10
7.1566684145
 20
10.2431991743
 30
0.0
 10
7.1474991409
 20
10.242732376
 30
0.0
 10
7.1360567192
 20
10.2417687874
 30
0.0
 10
7.1292254253
 20
10.2409926388
 30
0.0
 10
7.1243761037
 20
10.24024783
 30
0.0
 10
7.1212155299
 20
10.2395835837
 30
0.0
 10
7.1194113953
 20
10.2391148284
 30
0.0
 10
7.117970036
 20
10.2386191784
 30
0.0
 10
7.116825038
 20
10.238093854
 30
0.0
 10
7.1160445109
 20
10.237464486
 30
0.0
 10
7.1160368969
 20
10.2370243725
 30
0.0
  0
SPLINE
  5
526
100
AcDbEntity
  8
0
100
AcDbSpline
 62
9
  6
CONTINUOUS
 70
0
 71
3
 72
12
 73
8
 74
0
 42
0.0000001
 43
0.0000001
 44
0.0000000001
 40
0.0
 40
0.0
 40
0.0
 40
0.0
 40
0.2886007471
 40
0.5523914702
 40
0.674267002
 40
0.7892102127
 40
1.0
 40
1.0
 40
1.0
 40
1.0
 10
9.1810060913
 20
9.033655565
 30
0.0
 10
9.15214682
 20
9.0392442912
 30
0.0
 10
9.0973837267
 20
9.0526032481
 30
0.0
 10
9.0324332222
 20
9.0752438482
 30
0.0
 10
8.9855958668
 20
9.0954433141
 30
0.0
 10
8.9445845092
 20
9.1153781109
 30
0.0
 10
8.9157432847
 20
9.1319193515
 30
0.0
 10
8.8977325984
 20
9.1436059205
 30
0.0
  0
SPLINE
  5
527
100
AcDbEntity
  8
0
100
AcDbSpline
 62
9
  6
CONTINUOUS
 70
0
 71
3
 72
14
 73
10
 74
0
 42
0.0000001
 43
0.0000001
 44
0.0000000001
 40
0.0
 40
0.0
 40
0.0
 40
0.0
 40
0.0414055373
 40
0.106644558
 40
0.1968450734
 40
0.3119015597
 40
0.4512065084
 40
0.6133944202
 40
1.0
 40
1.0
 40
1.0
 40
1.0
 10
7.3556540276
 20
10.2364979677
 30
0.0
 10
7.3554006238
 20
10.2368204994
 30
0.0
 10
7.3544637485
 20
10.2373884445
 30
0.0
 10
7.3526511462
 20
10.238073631
 30
0.0
 10
7.3500520454
 20
10.2387655446
 30
0.0
 10
7.3467083174
 20
10.2394430631
 30
0.0
 10
7.3426320951
 20
10.240096473
 30
0.0
 10
7.3358728409
 20
10.240978775
 30
0.0
 10
7.3304592284
 20
10.2414971169
 30
0.0
 10
7.3266425289
 20
10.2418134488
 30
0.0
  0
SPLINE
  5
528
100
AcDbEntity
  8
0
100
AcDbSpline
 62
9
  6
CONTINUOUS
 70
0
 71
3
 72
9
 73
5
 74
0
 42
0.0000001
 43
0.0000001
 44
0.0000000001
 40
0.0
 40
0.0
 40
0.0
 40
0.0
 40
0.4670527075
 40
1.0
 40
1.0
 40
1.0
 40
1.0
 10
7.3266425289
 20
10.2418134488
 30
0.0
 10
7.3170636505
 20
10.2426073559
 30
0.0
 10
7.2965027363
 20
10.2436690045
 30
0.0
 10
7.2759228171
 20
10.2440151931
 30
0.0
 10
7.2649550159
 20
10.2440151931
 30
0.0
  0
SPLINE
  5
529
100
AcDbEntity
  8
0
100
AcDbSpline
 62
9
  6
CONTINUOUS
 70
0
 71
3
 72
18
 73
14
 74
0
 42
0.0000001
 43
0.0000001
 44
0.0000000001
 40
0.0
 40
0.0
 40
0.0
 40
0.0
 40
0.1973707156
 40
0.3856028356
 40
0.5571497882
 40
0.7063212764
 40
0.8282305686
 40
0.9190593206
 40
0.9518527598
 40
0.9759222218
 40
0.9847508423
 40
0.9915420409
 40
1.0
 40
1.0
 40
1.0
 40
1.0
 10
7.2649550159
 20
10.2440151931
 30
0.0
 10
7.2649868716
 20
10.2491586889
 30
0.0
 10
7.265114465
 20
10.2592072362
 30
0.0
 10
7.2654932864
 20
10.2737224716
 30
0.0
 10
7.2660507408
 20
10.2869748247
 30
0.0
 10
7.266755327
 20
10.298489718
 30
0.0
 10
7.2675905206
 20
10.3078850154
 30
0.0
 10
7.2683985665
 20
10.3142364688
 30
0.0
 10
7.2691554469
 20
10.3180144102
 30
0.0
 10
7.2696058887
 20
10.3196645354
 30
0.0
 10
7.270008806
 20
10.3206287604
 30
0.0
 10
7.2703035508
 20
10.3211615401
 30
0.0
 10
7.2706406877
 20
10.321489527
 30
0.0
 10
7.2708610837
 20
10.3214927268
 30
0.0
  0
SPLINE
  5
52A
100
AcDbEntity
  8
0
100
AcDbSpline
 62
9
  6
CONTINUOUS
 70
0
 71
3
 72
13
 73
9
 74
0
 42
0.0000001
 43
0.0000001
 44
0.0000000001
 40
0.0
 40
0.0
 40
0.0
 40
0.0
 40
0.0589685357
 40
0.1361516395
 40
0.2322797118
 40
0.3476037171
 40
0.6358670659
 40
1.0
 40
1.0
 40
1.0
 40
1.0
 10
7.3905707721
 20
10.1920560373
 30
0.0
 10
7.3912039512
 20
10.1912501288
 30
0.0
 10
7.3924079171
 20
10.1891927968
 30
0.0
 10
7.3939843068
 20
10.1854731633
 30
0.0
 10
7.3955597134
 20
10.1807051002
 30
0.0
 10
7.3978186886
 20
10.1723162389
 30
0.0
 10
7.4004757532
 20
10.1592292418
 30
0.0
 10
7.4022276976
 20
10.1480249602
 30
0.0
 10
7.4031168579
 20
10.1417589848
 30
0.0
  0
SPLINE
  5
52B
100
AcDbEntity
  8
0
100
AcDbSpline
 62
9
  6
CONTINUOUS
 70
0
 71
3
 72
9
 73
5
 74
0
 42
0.0000001
 43
0.0000001
 44
0.0000000001
 40
0.0
 40
0.0
 40
0.0
 40
0.0
 40
0.4649719172
 40
1.0
 40
1.0
 40
1.0
 40
1.0
 10
7.4031168579
 20
10.1417589848
 30
0.0
 10
7.4041111995
 20
10.1347517896
 30
0.0
 10
7.4060101381
 20
10.1196475656
 30
0.0
 10
7.4075827683
 20
10.1045070308
 30
0.0
 10
7.4083595316
 20
10.0964004331
 30
0.0
  0
SPLINE
  5
52C
100
AcDbEntity
  8
0
100
AcDbSpline
 62
9
  6
CONTINUOUS
 70
0
 71
3
 72
10
 73
6
 74
0
 42
0.0000001
 43
0.0000001
 44
0.0000000001
 40
0.0
 40
0.0
 40
0.0
 40
0.0
 40
0.5612223528
 40
0.7964259498
 40
1.0
 40
1.0
 40
1.0
 40
1.0
 10
7.4083588052
 20
9.2717007386
 30
0.0
 10
7.407187146
 20
9.2594735063
 30
0.0
 10
7.4053282667
 20
9.2421372016
 30
0.0
 10
7.4023151985
 20
9.2204576077
 30
0.0
 10
7.4007441634
 20
9.2109816687
 30
0.0
 10
7.3999298184
 20
9.2066011796
 30
0.0
  0
SPLINE
  5
52D
100
AcDbEntity
  8
0
100
AcDbSpline
 62
9
  6
CONTINUOUS
 70
0
 71
3
 72
12
 73
8
 74
0
 42
0.0000001
 43
0.0000001
 44
0.0000000001
 40
0.0
 40
0.0
 40
0.0
 40
0.0
 40
0.3503816308
 40
0.6333973273
 40
0.8491851601
 40
0.9324325241
 40
1.0
 40
1.0
 40
1.0
 40
1.0
 10
7.3999298184
 20
9.2066011796
 30
0.0
 10
7.3992437923
 20
9.2029109377
 30
0.0
 10
7.3978957642
 20
9.1962573545
 30
0.0
 10
7.3956270441
 20
9.1874460378
 30
0.0
 10
7.3936021283
 20
9.1815298176
 30
0.0
 10
7.3918882505
 20
9.1779917973
 30
0.0
 10
7.3910179469
 20
9.176621878
 30
0.0
 10
7.3905707721
 20
9.1760527152
 30
0.0
  0
SPLINE
  5
52E
100
AcDbEntity
  8
0
100
AcDbSpline
 62
9
  6
CONTINUOUS
 70
0
 71
3
 72
12
 73
8
 74
0
 42
0.0000001
 43
0.0000001
 44
0.0000000001
 40
0.0
 40
0.0
 40
0.0
 40
0.0
 40
0.0648358983
 40
0.1461580868
 40
0.360542563
 40
0.6452113716
 40
1.0
 40
1.0
 40
1.0
 40
1.0
 10
7.3904473897
 20
9.195974349
 30
0.0
 10
7.3909250778
 20
9.1965823489
 30
0.0
 10
7.391849387
 20
9.1980710542
 30
0.0
 10
7.3936652597
 20
9.2019732348
 30
0.0
 10
7.3957957476
 20
9.2085800143
 30
0.0
 10
7.3981774598
 20
9.2184813562
 30
0.0
 10
7.3995841223
 20
9.225980382
 30
0.0
 10
7.4003000162
 20
9.2301504478
 30
0.0
  0
SPLINE
  5
52F
100
AcDbEntity
  8
0
100
AcDbSpline
 62
9
  6
CONTINUOUS
 70
0
 71
3
 72
9
 73
5
 74
0
 42
0.0000001
 43
0.0000001
 44
0.0000000001
 40
0.0
 40
0.0
 40
0.0
 40
0.0
 40
0.4586135225
 40
1.0
 40
1.0
 40
1.0
 40
1.0
 10
7.4003000162
 20
9.2301504478
 30
0.0
 10
7.401311953
 20
9.2360449563
 30
0.0
 10
7.4032343305
 20
9.24894653
 30
0.0
 10
7.4048009471
 20
9.2618940648
 30
0.0
 10
7.4055816193
 20
9.2689109458
 30
0.0
  0
SPLINE
  5
530
100
AcDbEntity
  8
0
100
AcDbSpline
 62
9
  6
CONTINUOUS
 70
0
 71
3
 72
9
 73
5
 74
0
 42
0.0000001
 43
0.0000001
 44
0.0000000001
 40
0.0
 40
0.0
 40
0.0
 40
0.0
 40
0.5413912953
 40
1.0
 40
1.0
 40
1.0
 40
1.0
 10
7.4055816844
 20
10.099197221
 30
0.0
 10
7.4048009402
 20
10.1062147843
 30
0.0
 10
7.403234182
 20
10.1191634619
 30
0.0
 10
7.4013115904
 20
10.1320661688
 30
0.0
 10
7.400299532
 20
10.1379611284
 30
0.0
  0
SPLINE
  5
531
100
AcDbEntity
  8
0
100
AcDbSpline
 62
9
  6
CONTINUOUS
 70
0
 71
3
 72
12
 73
8
 74
0
 42
0.0000001
 43
0.0000001
 44
0.0000000001
 40
0.0
 40
0.0
 40
0.0
 40
0.0
 40
0.3496259625
 40
0.6324179
 40
0.8484755232
 40
0.932028022
 40
1.0
 40
1.0
 40
1.0
 40
1.0
 10
7.3993083602
 20
10.1434768687
 30
0.0
 10
7.3986574467
 20
10.1469323737
 30
0.0
 10
7.3973785882
 20
10.1531661983
 30
0.0
 10
7.3952294542
 20
10.1614262883
 30
0.0
 10
7.3933126978
 20
10.1669788586
 30
0.0
 10
7.3916922621
 20
10.1703058864
 30
0.0
 10
7.3908697253
 20
10.1715968561
 30
0.0
 10
7.3904473897
 20
10.1721344035
 30
0.0
  0
SPLINE
  5
532
100
AcDbEntity
  8
0
100
AcDbSpline
 62
9
  6
CONTINUOUS
 70
0
 71
3
 72
11
 73
7
 74
0
 42
0.0000001
 43
0.0000001
 44
0.0000000001
 40
0.0
 40
0.0
 40
0.0
 40
0.0
 40
0.2496223555
 40
0.499761144
 40
0.750039686
 40
1.0
 40
1.0
 40
1.0
 40
1.0
 10
7.3555306453
 20
10.216576334
 30
0.0
 10
7.3554623602
 20
10.205550857
 30
0.0
 10
7.3508965017
 20
10.1832665239
 30
0.0
 10
7.3318581167
 20
10.1551529875
 30
0.0
 10
7.3035865346
 20
10.1363261304
 30
0.0
 10
7.2812539417
 20
10.1319093905
 30
0.0
 10
7.2702133259
 20
10.1319093905
 30
0.0
  0
SPLINE
  5
533
100
AcDbEntity
  8
0
100
AcDbSpline
 62
9
  6
CONTINUOUS
 70
0
 71
3
 72
18
 73
14
 74
0
 42
0.0000001
 43
0.0000001
 44
0.0000000001
 40
0.0
 40
0.0
 40
0.0
 40
0.0
 40
0.0138259625
 40
0.0357609393
 40
0.0658748499
 40
0.1040241652
 40
0.1499557794
 40
0.2031953053
 40
0.3294425643
 40
0.4781894479
 40
0.6439073505
 40
0.8204294483
 40
1.0
 40
1.0
 40
1.0
 40
1.0
 10
7.2702133259
 20
10.1319093905
 30
0.0
 10
7.2699496692
 20
10.1322449718
 30
0.0
 10
7.2695217389
 20
10.1332876072
 30
0.0
 10
7.2689860213
 20
10.1352402302
 30
0.0
 10
7.2684580073
 20
10.1379804819
 30
0.0
 10
7.267941528
 20
10.1414660246
 30
0.0
 10
7.2674502601
 20
10.1456773228
 30
0.0
 10
7.2667953883
 20
10.1526045205
 30
0.0
 10
7.2661040014
 20
10.1627142107
 30
0.0
 10
7.2654745017
 20
10.1763036973
 30
0.0
 10
7.2650338842
 20
10.1914533217
 30
0.0
 10
7.2648059281
 20
10.2075589326
 30
0.0
 10
7.2647973054
 20
10.2185508546
 30
0.0
 10
7.2648316336
 20
10.2240935594
 30
0.0
  0
SPLINE
  5
534
100
AcDbEntity
  8
0
100
AcDbSpline
 62
9
  6
CONTINUOUS
 70
0
 71
3
 72
9
 73
5
 74
0
 42
0.0000001
 43
0.0000001
 44
0.0000000001
 40
0.0
 40
0.0
 40
0.0
 40
0.0
 40
0.5329472925
 40
1.0
 40
1.0
 40
1.0
 40
1.0
 10
7.2648316336
 20
10.2240935594
 30
0.0
 10
7.2757994348
 20
10.2240935594
 30
0.0
 10
7.296379354
 20
10.2237473707
 30
0.0
 10
7.3169402681
 20
10.2226857221
 30
0.0
 10
7.3265191466
 20
10.221891815
 30
0.0
  0
SPLINE
  5
535
100
AcDbEntity
  8
0
100
AcDbSpline
 62
9
  6
CONTINUOUS
 70
0
 71
3
 72
14
 73
10
 74
0
 42
0.0000001
 43
0.0000001
 44
0.0000000001
 40
0.0
 40
0.0
 40
0.0
 40
0.0
 40
0.3866055798
 40
0.5487934916
 40
0.6880984403
 40
0.8031549266
 40
0.893355442
 40
0.9585944627
 40
1.0
 40
1.0
 40
1.0
 40
1.0
 10
7.3265191466
 20
10.221891815
 30
0.0
 10
7.330335846
 20
10.2215754831
 30
0.0
 10
7.3357494585
 20
10.2210571412
 30
0.0
 10
7.3425087127
 20
10.2201748392
 30
0.0
 10
7.346584935
 20
10.2195214293
 30
0.0
 10
7.349928663
 20
10.2188439109
 30
0.0
 10
7.3525277638
 20
10.2181519973
 30
0.0
 10
7.3543403661
 20
10.2174668108
 30
0.0
 10
7.3552772415
 20
10.2168988656
 30
0.0
 10
7.3555306453
 20
10.216576334
 30
0.0
  0
SPLINE
  5
536
100
AcDbEntity
  8
0
100
AcDbSpline
 62
7
  6
CONTINUOUS
 70
0
 71
3
 72
11
 73
7
 74
0
 42
0.0000001
 43
0.0000001
 44
0.0000000001
 40
0.0
 40
0.0
 40
0.0
 40
0.0
 40
0.1417510269
 40
0.3443718804
 40
0.6234006328
 40
1.0
 40
1.0
 40
1.0
 40
1.0
 10
7.373191146
 20
10.1340555826
 30
0.0
 10
7.371924619
 20
10.1340555826
 30
0.0
 10
7.3688813256
 20
10.1332658664
 30
0.0
 10
7.3638499376
 20
10.1308955202
 30
0.0
 10
7.3571536137
 20
10.1271423207
 30
0.0
 10
7.3520146889
 20
10.124333856
 30
0.0
 10
7.3490306635
 20
10.1227788905
 30
0.0
  0
SPLINE
  5
537
100
AcDbEntity
  8
0
100
AcDbSpline
 62
7
  6
CONTINUOUS
 70
0
 71
3
 72
9
 73
5
 74
0
 42
0.0000001
 43
0.0000001
 44
0.0000000001
 40
0.0
 40
0.0
 40
0.0
 40
0.0
 40
0.4429051156
 40
1.0
 40
1.0
 40
1.0
 40
1.0
 10
7.3490306635
 20
10.1227788905
 30
0.0
 10
7.3458638464
 20
10.1211286728
 30
0.0
 10
7.3386243582
 20
10.1175662661
 30
0.0
 10
7.3310818642
 20
10.1146706723
 30
0.0
 10
7.3268183383
 20
10.1132573973
 30
0.0
  0
SPLINE
  5
538
100
AcDbEntity
  8
0
100
AcDbSpline
 62
7
  6
CONTINUOUS
 70
0
 71
3
 72
12
 73
8
 74
0
 42
0.0000001
 43
0.0000001
 44
0.0000000001
 40
0.0
 40
0.0
 40
0.0
 40
0.0
 40
0.3793805528
 40
0.6564420303
 40
0.8577883787
 40
0.9354535822
 40
1.0
 40
1.0
 40
1.0
 40
1.0
 10
7.3268183383
 20
9.2548513552
 30
0.0
 10
7.3323719918
 20
9.2530104282
 30
0.0
 10
7.3417727874
 20
9.2491651268
 30
0.0
 10
7.3534956835
 20
9.24302556
 30
0.0
 10
7.3609543761
 20
9.2387908312
 30
0.0
 10
7.3656625189
 20
9.2363591011
 30
0.0
 10
7.3676667937
 20
9.2354618524
 30
0.0
 10
7.3685957376
 20
9.2351041403
 30
0.0
  0
SPLINE
  5
539
100
AcDbEntity
  8
0
100
AcDbSpline
 62
7
  6
CONTINUOUS
 70
0
 71
3
 72
9
 73
5
 74
0
 42
0.0000001
 43
0.0000001
 44
0.0000000001
 40
0.0
 40
0.0
 40
0.0
 40
0.0
 40
0.5532910415
 40
1.0
 40
1.0
 40
1.0
 40
1.0
 10
7.3685957376
 20
9.2351041403
 30
0.0
 10
7.3694103261
 20
9.2347904635
 30
0.0
 10
7.3709102213
 20
9.2342898802
 30
0.0
 10
7.3724863516
 20
9.2340531746
 30
0.0
 10
7.3731910992
 20
9.2340531699
 30
0.0
  0
SPLINE
  5
53A
100
AcDbEntity
  8
0
100
AcDbSpline
 62
9
  6
CONTINUOUS
 70
0
 71
3
 72
11
 73
7
 74
0
 42
0.0000001
 43
0.0000001
 44
0.0000000001
 40
0.0
 40
0.0
 40
0.0
 40
0.0
 40
0.249960314
 40
0.500238856
 40
0.7503776445
 40
1.0
 40
1.0
 40
1.0
 40
1.0
 10
7.2702133259
 20
9.236199362
 30
0.0
 10
7.2812539417
 20
9.236199362
 30
0.0
 10
7.3035865346
 20
9.2317826221
 30
0.0
 10
7.3318581167
 20
9.212955765
 30
0.0
 10
7.3508965017
 20
9.1848422286
 30
0.0
 10
7.3554623602
 20
9.1625578955
 30
0.0
 10
7.3555306453
 20
9.1515324185
 30
0.0
  0
SPLINE
  5
53B
100
AcDbEntity
  8
0
100
AcDbSpline
 62
9
  6
CONTINUOUS
 70
0
 71
3
 72
14
 73
10
 74
0
 42
0.0000001
 43
0.0000001
 44
0.0000000001
 40
0.0
 40
0.0
 40
0.0
 40
0.0
 40
0.0414055373
 40
0.106644558
 40
0.1968450734
 40
0.3119015597
 40
0.4512065084
 40
0.6133944202
 40
1.0
 40
1.0
 40
1.0
 40
1.0
 10
7.3555306453
 20
9.1515324185
 30
0.0
 10
7.3552772415
 20
9.1512098869
 30
0.0
 10
7.3543403661
 20
9.1506419417
 30
0.0
 10
7.3525277638
 20
9.1499567552
 30
0.0
 10
7.349928663
 20
9.1492648416
 30
0.0
 10
7.346584935
 20
9.1485873232
 30
0.0
 10
7.3425087127
 20
9.1479339133
 30
0.0
 10
7.3357494585
 20
9.1470516112
 30
0.0
 10
7.330335846
 20
9.1465332694
 30
0.0
 10
7.3265191466
 20
9.1462169375
 30
0.0
  0
SPLINE
  5
53C
100
AcDbEntity
  8
0
100
AcDbSpline
 62
9
  6
CONTINUOUS
 70
0
 71
3
 72
9
 73
5
 74
0
 42
0.0000001
 43
0.0000001
 44
0.0000000001
 40
0.0
 40
0.0
 40
0.0
 40
0.0
 40
0.4670527075
 40
1.0
 40
1.0
 40
1.0
 40
1.0
 10
7.3265191466
 20
9.1462169375
 30
0.0
 10
7.3169402681
 20
9.1454230304
 30
0.0
 10
7.296379354
 20
9.1443613818
 30
0.0
 10
7.2757994348
 20
9.1440151931
 30
0.0
 10
7.2648316336
 20
9.1440151931
 30
0.0
  0
SPLINE
  5
53D
100
AcDbEntity
  8
0
100
AcDbSpline
 62
9
  6
CONTINUOUS
 70
0
 71
3
 72
18
 73
14
 74
0
 42
0.0000001
 43
0.0000001
 44
0.0000000001
 40
0.0
 40
0.0
 40
0.0
 40
0.0
 40
0.1795705517
 40
0.3560926495
 40
0.5218105521
 40
0.6705574357
 40
0.7968046947
 40
0.8500442206
 40
0.8959758348
 40
0.9341251501
 40
0.9642390607
 40
0.9861740375
 40
1.0
 40
1.0
 40
1.0
 40
1.0
 10
7.2648316336
 20
9.1440151931
 30
0.0
 10
7.2647973054
 20
9.1495578979
 30
0.0
 10
7.2648059281
 20
9.1605498198
 30
0.0
 10
7.2650338842
 20
9.1766554308
 30
0.0
 10
7.2654745017
 20
9.1918050552
 30
0.0
 10
7.2661040014
 20
9.2053945418
 30
0.0
 10
7.2667953883
 20
9.215504232
 30
0.0
 10
7.2674502601
 20
9.2224314297
 30
0.0
 10
7.267941528
 20
9.2266427279
 30
0.0
 10
7.2684580073
 20
9.2301282705
 30
0.0
 10
7.2689860213
 20
9.2328685223
 30
0.0
 10
7.2695217389
 20
9.2348211453
 30
0.0
 10
7.2699496692
 20
9.2358637806
 30
0.0
 10
7.2702133259
 20
9.236199362
 30
0.0
  0
SPLINE
  5
53E
100
AcDbEntity
  8
0
100
AcDbSpline
 62
9
  6
CONTINUOUS
 70
0
 71
3
 72
9
 73
5
 74
0
 42
0.0000001
 43
0.0000001
 44
0.0000000001
 40
0.0
 40
0.0
 40
0.0
 40
0.0
 40
0.5329472925
 40
1.0
 40
1.0
 40
1.0
 40
1.0
 10
7.2649550159
 20
9.1240935594
 30
0.0
 10
7.2759228171
 20
9.1240935594
 30
0.0
 10
7.2965027363
 20
9.124439748
 30
0.0
 10
7.3170636505
 20
9.1255013966
 30
0.0
 10
7.3266425289
 20
9.1262953037
 30
0.0
  0
SPLINE
  5
53F
100
AcDbEntity
  8
0
100
AcDbSpline
 62
9
  6
CONTINUOUS
 70
0
 71
3
 72
14
 73
10
 74
0
 42
0.0000001
 43
0.0000001
 44
0.0000000001
 40
0.0
 40
0.0
 40
0.0
 40
0.0
 40
0.3866055798
 40
0.5487934916
 40
0.6880984403
 40
0.8031549266
 40
0.893355442
 40
0.9585944627
 40
1.0
 40
1.0
 40
1.0
 40
1.0
 10
7.3266425289
 20
9.1262953037
 30
0.0
 10
7.3304592284
 20
9.1266116356
 30
0.0
 10
7.3358728409
 20
9.1271299775
 30
0.0
 10
7.3426320951
 20
9.1280122795
 30
0.0
 10
7.3467083174
 20
9.1286656894
 30
0.0
 10
7.3500520454
 20
9.1293432078
 30
0.0
 10
7.3526511462
 20
9.1300351215
 30
0.0
 10
7.3544637485
 20
9.1307203079
 30
0.0
 10
7.3554006238
 20
9.1312882531
 30
0.0
 10
7.3556540276
 20
9.1316107847
 30
0.0
  0
SPLINE
  5
540
100
AcDbEntity
  8
0
100
AcDbSpline
 62
9
  6
CONTINUOUS
 70
0
 71
3
 72
18
 73
14
 74
0
 42
0.0000001
 43
0.0000001
 44
0.0000000001
 40
0.0
 40
0.0
 40
0.0
 40
0.0
 40
0.1973707156
 40
0.3856028356
 40
0.5571497882
 40
0.7063212764
 40
0.8282305686
 40
0.9190593206
 40
0.9518527598
 40
0.9759222218
 40
0.9847508423
 40
0.9915420409
 40
1.0
 40
1.0
 40
1.0
 40
1.0
 10
7.1951255324
 20
9.1240935594
 30
0.0
 10
7.1951573881
 20
9.1189500636
 30
0.0
 10
7.1952849815
 20
9.1089015163
 30
0.0
 10
7.1956638029
 20
9.0943862809
 30
0.0
 10
7.1962212573
 20
9.0811339278
 30
0.0
 10
7.1969258435
 20
9.0696190345
 30
0.0
 10
7.1977610371
 20
9.0602237371
 30
0.0
 10
7.198569083
 20
9.0538722837
 30
0.0
 10
7.1993259634
 20
9.0500943423
 30
0.0
 10
7.1997764052
 20
9.0484442171
 30
0.0
 10
7.2001793225
 20
9.0474799921
 30
0.0
 10
7.2004740673
 20
9.0469472124
 30
0.0
 10
7.2008112042
 20
9.0466192255
 30
0.0
 10
7.2010316002
 20
9.0466160257
 30
0.0
  0
SPLINE
  5
541
100
AcDbEntity
  8
0
100
AcDbSpline
 62
9
  6
CONTINUOUS
 70
0
 71
3
 72
14
 73
10
 74
0
 42
0.0000001
 43
0.0000001
 44
0.0000000001
 40
0.0
 40
0.0
 40
0.0
 40
0.0
 40
0.0419677479
 40
0.1085498449
 40
0.199958527
 40
0.3157581214
 40
0.455180343
 40
0.6167852223
 40
1.0
 40
1.0
 40
1.0
 40
1.0
 10
7.2003838423
 20
9.236199362
 30
0.0
 10
7.2001201857
 20
9.2358637806
 30
0.0
 10
7.1996922554
 20
9.2348211453
 30
0.0
 10
7.1991565376
 20
9.2328685224
 30
0.0
 10
7.1986285243
 20
9.2301282703
 30
0.0
 10
7.1981120418
 20
9.2266427291
 30
0.0
 10
7.1976207898
 20
9.2224314235
 30
0.0
 10
7.1969658125
 20
9.215504275
 30
0.0
 10
7.1965883202
 20
9.2099757626
 30
0.0
 10
7.1963612079
 20
9.2060855074
 30
0.0
  0
SPLINE
  5
542
100
AcDbEntity
  8
0
100
AcDbSpline
 62
9
  6
CONTINUOUS
 70
0
 71
3
 72
9
 73
5
 74
0
 42
0.0000001
 43
0.0000001
 44
0.0000000001
 40
0.0
 40
0.0
 40
0.0
 40
0.0
 40
0.4689562967
 40
1.0
 40
1.0
 40
1.0
 40
1.0
 10
7.1963612079
 20
9.2060855074
 30
0.0
 10
7.1957955245
 20
9.1963957945
 30
0.0
 10
7.1950827323
 20
9.1757053154
 30
0.0
 10
7.1949340782
 20
9.1550062459
 30
0.0
 10
7.19500215
 20
9.1440151931
 30
0.0
  0
SPLINE
  5
543
100
AcDbEntity
  8
0
100
AcDbSpline
 62
9
  6
CONTINUOUS
 70
0
 71
3
 72
9
 73
5
 74
0
 42
0.0000001
 43
0.0000001
 44
0.0000000001
 40
0.0
 40
0.0
 40
0.0
 40
0.0
 40
0.257757369
 40
1.0
 40
1.0
 40
1.0
 40
1.0
 10
7.19500215
 20
9.1440151931
 30
0.0
 10
7.1922522737
 20
9.1440151931
 30
0.0
 10
7.1815839313
 20
9.1440629586
 30
0.0
 10
7.1709158226
 20
9.1442886683
 30
0.0
 10
7.1630028677
 20
9.1445874078
 30
0.0
  0
SPLINE
  5
544
100
AcDbEntity
  8
0
100
AcDbSpline
 62
9
  6
CONTINUOUS
 70
0
 71
3
 72
12
 73
8
 74
0
 42
0.0000001
 43
0.0000001
 44
0.0000000001
 40
0.0
 40
0.0
 40
0.0
 40
0.0
 40
0.3292223441
 40
0.6120781584
 40
0.8382308927
 40
0.9275832418
 40
1.0
 40
1.0
 40
1.0
 40
1.0
 10
7.1630028677
 20
9.1445874078
 30
0.0
 10
7.1582941333
 20
9.1447651777
 30
0.0
 10
7.1495424205
 20
9.1451837774
 30
0.0
 10
7.1375772323
 20
9.1460751203
 30
0.0
 10
7.129060764
 20
9.1470217282
 30
0.0
 10
7.1235801667
 20
9.1479163811
 30
0.0
 10
7.121313275
 20
9.1483969851
 30
0.0
 10
7.1203095976
 20
9.1486557009
 30
0.0
  0
SPLINE
  5
545
100
AcDbEntity
  8
0
100
AcDbSpline
 62
9
  6
CONTINUOUS
 70
0
 71
3
 72
12
 73
8
 74
0
 42
0.0000001
 43
0.0000001
 44
0.0000000001
 40
0.0
 40
0.0
 40
0.0
 40
0.0
 40
0.3849315481
 40
0.6732215353
 40
0.7828494013
 40
0.8714204012
 40
1.0
 40
1.0
 40
1.0
 40
1.0
 10
7.1203095976
 20
9.1486557009
 30
0.0
 10
7.119666842
 20
9.1488213827
 30
0.0
 10
7.1185508635
 20
9.1491443062
 30
0.0
 10
7.1172916907
 20
9.149642941
 30
0.0
 10
7.1165678611
 20
9.1500766608
 30
0.0
 10
7.1161331707
 20
9.1504273278
 30
0.0
 10
7.1159173497
 20
9.1507843276
 30
0.0
 10
7.1159135145
 20
9.1510060137
 30
0.0
  0
SPLINE
  5
546
100
AcDbEntity
  8
0
100
AcDbSpline
 62
9
  6
CONTINUOUS
 70
0
 71
3
 72
9
 73
5
 74
0
 42
0.0000001
 43
0.0000001
 44
0.0000000001
 40
0.0
 40
0.0
 40
0.0
 40
0.0
 40
0.4401367119
 40
1.0
 40
1.0
 40
1.0
 40
1.0
 10
7.2353005868
 20
10.08746746
 30
0.0
 10
7.2357291235
 20
10.0869220198
 30
0.0
 10
7.2365537936
 20
10.085568063
 30
0.0
 10
7.237203288
 20
10.0841304799
 30
0.0
 10
7.2375374415
 20
10.0833138658
 30
0.0
  0
SPLINE
  5
547
100
AcDbEntity
  8
0
100
AcDbSpline
 62
9
  6
CONTINUOUS
 70
0
 71
3
 72
9
 73
5
 74
0
 42
0.0000001
 43
0.0000001
 44
0.0000000001
 40
0.0
 40
0.0
 40
0.0
 40
0.0
 40
0.5598632881
 40
1.0
 40
1.0
 40
1.0
 40
1.0
 10
7.2375374415
 20
9.2847948867
 30
0.0
 10
7.237203288
 20
9.2839782726
 30
0.0
 10
7.2365537936
 20
9.2825406895
 30
0.0
 10
7.2357291235
 20
9.2811867327
 30
0.0
 10
7.2353005868
 20
9.2806412925
 30
0.0
  0
SPLINE
  5
548
100
AcDbEntity
  8
0
100
AcDbSpline
 62
9
  6
CONTINUOUS
 70
0
 71
3
 72
9
 73
5
 74
0
 42
0.0000001
 43
0.0000001
 44
0.0000000001
 40
0.0
 40
0.0
 40
0.0
 40
0.0
 40
0.5310437033
 40
1.0
 40
1.0
 40
1.0
 40
1.0
 10
7.19500215
 20
10.2240935594
 30
0.0
 10
7.1949340782
 20
10.2131025066
 30
0.0
 10
7.1950827323
 20
10.1924034371
 30
0.0
 10
7.1957955245
 20
10.171712958
 30
0.0
 10
7.1963612079
 20
10.1620232451
 30
0.0
  0
SPLINE
  5
549
100
AcDbEntity
  8
0
100
AcDbSpline
 62
9
  6
CONTINUOUS
 70
0
 71
3
 72
14
 73
10
 74
0
 42
0.0000001
 43
0.0000001
 44
0.0000000001
 40
0.0
 40
0.0
 40
0.0
 40
0.0
 40
0.3832147777
 40
0.544819657
 40
0.6842418786
 40
0.800041473
 40
0.891450155
 40
0.9580322521
 40
1.0
 40
1.0
 40
1.0
 40
1.0
 10
7.1963612079
 20
10.1620232451
 30
0.0
 10
7.1965883202
 20
10.1581329899
 30
0.0
 10
7.1969658125
 20
10.1526044774
 30
0.0
 10
7.1976207898
 20
10.145677329
 30
0.0
 10
7.1981120418
 20
10.1414660234
 30
0.0
 10
7.1986285243
 20
10.1379804822
 30
0.0
 10
7.1991565376
 20
10.1352402301
 30
0.0
 10
7.1996922554
 20
10.1332876072
 30
0.0
 10
7.2001201857
 20
10.1322449718
 30
0.0
 10
7.2003838423
 20
10.1319093905
 30
0.0
  0
SPLINE
  5
54A
100
AcDbEntity
  8
0
100
AcDbSpline
 62
7
  6
CONTINUOUS
 70
0
 71
3
 72
12
 73
8
 74
0
 42
0.0000001
 43
0.0000001
 44
0.0000000001
 40
0.0
 40
0.0
 40
0.0
 40
0.0
 40
0.0757407236
 40
0.168605341
 40
0.4007851749
 40
0.6828178197
 40
1.0
 40
1.0
 40
1.0
 40
1.0
 10
7.2609133283
 20
10.0937507367
 30
0.0
 10
7.2615831705
 20
10.0942516052
 30
0.0
 10
7.2631889886
 20
10.0952107006
 30
0.0
 10
7.2672120377
 20
10.0970626892
 30
0.0
 10
7.2735758004
 20
10.0992150341
 30
0.0
 10
7.2824260586
 20
10.1016545288
 30
0.0
 10
7.28886125
 20
10.1032019496
 30
0.0
 10
7.2922735423
 20
10.1039922034
 30
0.0
  0
SPLINE
  5
54B
100
AcDbEntity
  8
0
100
AcDbSpline
 62
7
  6
CONTINUOUS
 70
0
 71
3
 72
12
 73
8
 74
0
 42
0.0000001
 43
0.0000001
 44
0.0000000001
 40
0.0
 40
0.0
 40
0.0
 40
0.0
 40
0.3110803642
 40
0.5900659308
 40
0.8239470826
 40
0.9198358435
 40
1.0
 40
1.0
 40
1.0
 40
1.0
 10
7.2922735418
 20
9.2641165488
 30
0.0
 10
7.2890166433
 20
9.2648708256
 30
0.0
 10
7.2828496326
 20
9.2663521571
 30
0.0
 10
7.2743067073
 20
9.2686814926
 30
0.0
 10
7.2680836836
 20
9.2707319445
 30
0.0
 10
7.2640372173
 20
9.2724799725
 30
0.0
 10
7.2623680636
 20
9.2733821596
 30
0.0
 10
7.2616450276
 20
9.273850569
 30
0.0
  0
SPLINE
  5
54C
100
AcDbEntity
  8
0
100
AcDbSpline
 62
7
  6
CONTINUOUS
 70
0
 71
3
 72
10
 73
6
 74
0
 42
0.0000001
 43
0.0000001
 44
0.0000000001
 40
0.0
 40
0.0
 40
0.0
 40
0.0
 40
0.3734955206
 40
0.7036664359
 40
1.0
 40
1.0
 40
1.0
 40
1.0
 10
7.2922735397
 20
10.1039922976
 30
0.0
 10
7.296612123
 20
10.1050032989
 30
0.0
 10
7.3048103555
 20
10.1068058737
 30
0.0
 10
7.3163338719
 20
10.1099014032
 30
0.0
 10
7.3234633745
 20
10.1121452928
 30
0.0
 10
7.3268183383
 20
10.1132573973
 30
0.0
  0
SPLINE
  5
54D
100
AcDbEntity
  8
0
100
AcDbSpline
 62
7
  6
CONTINUOUS
 70
0
 71
3
 72
10
 73
6
 74
0
 42
0.0000001
 43
0.0000001
 44
0.0000000001
 40
0.0
 40
0.0
 40
0.0
 40
0.0
 40
0.2963346979
 40
0.6265042111
 40
1.0
 40
1.0
 40
1.0
 40
1.0
 10
7.3268183383
 20
9.2548513552
 30
0.0
 10
7.3234633616
 20
9.2559634639
 30
0.0
 10
7.3163338623
 20
9.2582073536
 30
0.0
 10
7.304810345
 20
9.2613028807
 30
0.0
 10
7.2966121257
 20
9.2631054526
 30
0.0
 10
7.2922735391
 20
9.2641164546
 30
0.0
  0
SPLINE
  5
54E
100
AcDbEntity
  8
0
100
AcDbSpline
 62
9
  6
CONTINUOUS
 70
0
 71
3
 72
12
 73
8
 74
0
 42
0.0000001
 43
0.0000001
 44
0.0000000001
 40
0.0
 40
0.0
 40
0.0
 40
0.0
 40
0.2241809694
 40
0.4669953507
 40
0.5958280318
 40
0.7286929291
 40
1.0
 40
1.0
 40
1.0
 40
1.0
 10
6.152296881
 20
10.0240559528
 30
0.0
 10
6.1453310347
 20
10.0241067081
 30
0.0
 10
6.1307756823
 20
10.0265122301
 30
0.0
 10
6.1138905945
 20
10.0347821163
 30
0.0
 10
6.1016866894
 20
10.0447050871
 30
0.0
 10
6.0903450275
 20
10.0568203255
 30
0.0
 10
6.0835523635
 20
10.0675929588
 30
0.0
 10
6.0799880756
 20
10.0752328128
 30
0.0
  0
SPLINE
  5
54F
100
AcDbEntity
  8
0
100
AcDbSpline
 62
9
  6
CONTINUOUS
 70
0
 71
3
 72
41
 73
37
 74
0
 42
0.0000001
 43
0.0000001
 44
0.0000000001
 40
0.0
 40
0.0
 40
0.0
 40
0.0
 40
0.0490053888
 40
0.0751467844
 40
0.1024654238
 40
0.1606422128
 40
0.223342447
 40
0.2562104262
 40
0.2899530591
 40
0.3244500984
 40
0.3595435622
 40
0.3950533491
 40
0.4128819142
 40
0.4306931527
 40
0.448416476
 40
0.4659361956
 40
0.4746314314
 40
0.4832258776
 40
0.4999995792
 40
0.5167733311
 40
0.5253678209
 40
0.5340630933
 40
0.5515828302
 40
0.5693061663
 40
0.5871175235
 40
0.6049462017
 40
0.6404558275
 40
0.6755492362
 40
0.710046422
 40
0.7437892264
 40
0.7766572471
 40
0.8393570642
 40
0.8975334736
 40
0.9248518496
 40
0.9509931333
 40
1.0
 40
1.0
 40
1.0
 40
1.0
 10
6.1527714896
 20
10.0240542486
 30
0.0
 10
6.1322644971
 20
10.0240535828
 30
0.0
 10
6.1007582136
 20
10.0201533046
 30
0.0
 10
6.0592643261
 20
10.0092881742
 30
0.0
 10
6.0150863218
 20
9.9939506678
 30
0.0
 10
5.9587499198
 20
9.9676621916
 30
0.0
 10
5.9033497829
 20
9.9347987237
 30
0.0
 10
5.8584704122
 20
9.9045500815
 30
0.0
 10
5.824268356
 20
9.8796277522
 30
0.0
 10
5.7902117559
 20
9.8529669999
 30
0.0
 10
5.756657024
 20
9.8245190602
 30
0.0
 10
5.7294924425
 20
9.7993586665
 30
0.0
 10
5.7087043032
 20
9.7780330511
 30
0.0
 10
5.6938537918
 20
9.7613448832
 30
0.0
 10
5.6800476769
 20
9.7439342503
 30
0.0
 10
5.6701983099
 20
9.7283347113
 30
0.0
 10
5.6639607768
 20
9.7151463936
 30
0.0
 10
5.6591377716
 20
9.7017229014
 30
0.0
 10
5.6561393554
 20
9.6840549264
 30
0.0
 10
5.6591377431
 20
9.6663869372
 30
0.0
 10
5.6639606498
 20
9.6529633543
 30
0.0
 10
5.6701980173
 20
9.6397749164
 30
0.0
 10
5.6800470421
 20
9.6241751324
 30
0.0
 10
5.6938529501
 20
9.6067642394
 30
0.0
 10
5.7087037025
 20
9.5900761406
 30
0.0
 10
5.7294921195
 20
9.5687507638
 30
0.0
 10
5.7566562899
 20
9.543590004
 30
0.0
 10
5.7902110347
 20
9.5151421045
 30
0.0
 10
5.8242678659
 20
9.4884814734
 30
0.0
 10
5.8584700363
 20
9.4635590495
 30
0.0
 10
5.9033492478
 20
9.4333103239
 30
0.0
 10
5.9587491116
 20
9.4004470039
 30
0.0
 10
6.0150850785
 20
9.3741586752
 30
0.0
 10
6.0592626845
 20
9.3588209994
 30
0.0
 10
6.1007569722
 20
9.3479555343
 30
0.0
 10
6.1322638455
 20
9.3440553208
 30
0.0
 10
6.1527714564
 20
9.3440545804
 30
0.0
  0
SPLINE
  5
550
100
AcDbEntity
  8
0
100
AcDbSpline
 62
9
  6
CONTINUOUS
 70
0
 71
3
 72
51
 73
47
 74
0
 42
0.0000001
 43
0.0000001
 44
0.0000000001
 40
0.0
 40
0.0
 40
0.0
 40
0.0
 40
0.021520863
 40
0.0443539761
 40
0.0685048592
 40
0.094061458
 40
0.1211318698
 40
0.1497252489
 40
0.1797978636
 40
0.2112834038
 40
0.2440823181
 40
0.2780758096
 40
0.3131393095
 40
0.3491484438
 40
0.3859736596
 40
0.404624235
 40
0.4234124773
 40
0.4423957457
 40
0.4616122757
 40
0.4712312944
 40
0.4808314659
 40
0.4904382288
 40
0.500086141
 40
0.5097624422
 40
0.519434268
 40
0.5290607515
 40
0.5386440537
 40
0.5577520078
 40
0.5767177289
 40
0.5955163022
 40
0.6141734636
 40
0.6326683614
 40
0.6509749827
 40
0.6869671276
 40
0.7220218348
 40
0.7560015554
 40
0.7887872583
 40
0.8202607542
 40
0.8503223725
 40
0.878903343
 40
0.9059619694
 40
0.9314970047
 40
0.9437239845
 40
0.9556168791
 40
0.9784376568
 40
1.0
 40
1.0
 40
1.0
 40
1.0
 10
6.0799881738
 20
10.075232877
 30
0.0
 10
6.0711441542
 20
10.0749116831
 30
0.0
 10
6.0529401912
 20
10.073234061
 30
0.0
 10
6.0252794858
 20
10.0676233139
 30
0.0
 10
5.9968211518
 20
10.0584651661
 30
0.0
 10
5.9679708235
 20
10.0455116074
 30
0.0
 10
5.9387386163
 20
10.0292978314
 30
0.0
 10
5.9090491422
 20
10.0102453368
 30
0.0
 10
5.8789973833
 20
9.9885076356
 30
0.0
 10
5.8487221818
 20
9.964216372
 30
0.0
 10
5.8183123217
 20
9.9375811779
 30
0.0
 10
5.7878930554
 20
9.9087740315
 30
0.0
 10
5.7576364147
 20
9.877916053
 30
0.0
 10
5.7278721976
 20
9.8449957593
 30
0.0
 10
5.7039372214
 20
9.8159396741
 30
0.0
 10
5.6857935403
 20
9.7913667094
 30
0.0
 10
5.6728291814
 20
9.772109572
 30
0.0
 10
5.6610528194
 20
9.7518285119
 30
0.0
 10
5.6526507227
 20
9.733998807
 30
0.0
 10
5.6474184918
 20
9.7190685567
 30
0.0
 10
5.6444453151
 20
9.707576182
 30
0.0
 10
5.6426404611
 20
9.6958252588
 30
0.0
 10
5.6421280281
 20
9.683916838
 30
0.0
 10
5.6428122921
 20
9.6719940553
 30
0.0
 10
5.6446332513
 20
9.6602006641
 30
0.0
 10
5.6475486617
 20
9.6486699146
 30
0.0
 10
5.6527326142
 20
9.6337721999
 30
0.0
 10
5.6611597196
 20
9.6160243813
 30
0.0
 10
5.6729785185
 20
9.5958262512
 30
0.0
 10
5.6859108738
 20
9.5765485811
 30
0.0
 10
5.699602867
 20
9.5580507295
 30
0.0
 10
5.7138122215
 20
9.5402078285
 30
0.0
 10
5.7330992117
 20
9.5173113919
 30
0.0
 10
5.7577719311
 20
9.490065522
 30
0.0
 10
5.7880118855
 20
9.4592162165
 30
0.0
 10
5.8184235106
 20
9.4304215246
 30
0.0
 10
5.8488328173
 20
9.4038100264
 30
0.0
 10
5.8790979191
 20
9.3795311217
 30
0.0
 10
5.9091206756
 20
9.3577774661
 30
0.0
 10
5.9388316235
 20
9.3387811874
 30
0.0
 10
5.9680796162
 20
9.3226410875
 30
0.0
 10
5.9924049057
 20
9.3116380992
 30
0.0
 10
6.0116305656
 20
9.304727447
 30
0.0
 10
6.0301600462
 20
9.2992826849
 30
0.0
 10
6.0528965052
 20
9.2946925017
 30
0.0
 10
6.0711248403
 20
9.2931276137
 30
0.0
 10
6.0799881738
 20
9.2928758755
 30
0.0
  0
SPLINE
  5
551
100
AcDbEntity
  8
0
100
AcDbSpline
 62
9
  6
CONTINUOUS
 70
0
 71
3
 72
11
 73
7
 74
0
 42
0.0000001
 43
0.0000001
 44
0.0000000001
 40
0.0
 40
0.0
 40
0.0
 40
0.0
 40
0.2652467902
 40
0.514194447
 40
0.7562724308
 40
1.0
 40
1.0
 40
1.0
 40
1.0
 10
6.1930980444
 20
9.3423509094
 30
0.0
 10
6.1852879569
 20
9.3343100482
 30
0.0
 10
6.1687700489
 20
9.3199589498
 30
0.0
 10
6.1407477975
 20
9.3041244735
 30
0.0
 10
6.1108865834
 20
9.2948210597
 30
0.0
 10
6.0902882588
 20
9.2928765521
 30
0.0
 10
6.0799881738
 20
9.2928758755
 30
0.0
  0
SPLINE
  5
552
100
AcDbEntity
  8
0
100
AcDbSpline
 62
9
  6
CONTINUOUS
 70
0
 71
3
 72
11
 73
7
 74
0
 42
0.0000001
 43
0.0000001
 44
0.0000000001
 40
0.0
 40
0.0
 40
0.0
 40
0.0
 40
0.23282207
 40
0.4795729697
 40
0.737935966
 40
1.0
 40
1.0
 40
1.0
 40
1.0
 10
6.1522831698
 20
9.3440527275
 30
0.0
 10
6.1450546473
 20
9.3439978979
 30
0.0
 10
6.1301181826
 20
9.341400577
 30
0.0
 10
6.1093594826
 20
9.3309232927
 30
0.0
 10
6.09206194
 20
9.3141088258
 30
0.0
 10
6.0834281291
 20
9.3002496175
 30
0.0
 10
6.0799880376
 20
9.2928759655
 30
0.0
  0
SPLINE
  5
553
100
AcDbEntity
  8
0
100
AcDbSpline
 62
9
  6
CONTINUOUS
 70
0
 71
3
 72
11
 73
7
 74
0
 42
0.0000001
 43
0.0000001
 44
0.0000000001
 40
0.0
 40
0.0
 40
0.0
 40
0.0
 40
0.2437510407
 40
0.4858183994
 40
0.7347633148
 40
1.0
 40
1.0
 40
1.0
 40
1.0
 10
6.0799881738
 20
10.075232877
 30
0.0
 10
6.090286428
 20
10.0752287615
 30
0.0
 10
6.1108788764
 20
10.0732844698
 30
0.0
 10
6.1407343816
 20
10.0639899638
 30
0.0
 10
6.1687497682
 20
10.0481629087
 30
0.0
 10
6.1852647277
 20
10.0338187074
 30
0.0
 10
6.1930740869
 20
10.0257820149
 30
0.0
  0
SPLINE
  5
554
100
AcDbEntity
  8
0
100
AcDbSpline
 62
7
  6
CONTINUOUS
 70
0
 71
3
 72
20
 73
16
 74
0
 42
0.0000001
 43
0.0000001
 44
0.0000000001
 40
0.0
 40
0.0
 40
0.0
 40
0.0
 40
0.003799059
 40
0.0141441027
 40
0.0313092412
 40
0.0553877531
 40
0.0865073587
 40
0.1248009951
 40
0.1704702643
 40
0.2237657821
 40
0.354644755
 40
0.5212422826
 40
0.6200397839
 40
0.7310873129
 40
1.0
 40
1.0
 40
1.0
 40
1.0
 10
6.8747259071
 20
10.2922470722
 30
0.0
 10
6.8747405331
 20
10.2922211313
 30
0.0
 10
6.8746100029
 20
10.2921282188
 30
0.0
 10
6.8744538047
 20
10.29200284
 30
0.0
 10
6.8741028345
 20
10.2917544785
 30
0.0
 10
6.8736643214
 20
10.2914125377
 30
0.0
 10
6.8730836502
 20
10.2909582709
 30
0.0
 10
6.8723778684
 20
10.2903989905
 30
0.0
 10
6.8715381575
 20
10.2897253802
 30
0.0
 10
6.8701444608
 20
10.2885839035
 30
0.0
 10
6.868053859
 20
10.2867970011
 30
0.0
 10
6.8657608329
 20
10.2847004738
 30
0.0
 10
6.8636591046
 20
10.2826275487
 30
0.0
 10
6.8611011769
 20
10.2798840712
 30
0.0
 10
6.8591310468
 20
10.2776299367
 30
0.0
 10
6.8579496145
 20
10.2758841779
 30
0.0
  0
LINE
  5
555
100
AcDbEntity
  8
0
100
AcDbLine
 62
7
  6
CONTINUOUS
 10
6.8579496145
 20
10.2758841779
 11
6.8551925933
 21
10.2711283591
  0
SPLINE
  5
556
100
AcDbEntity
  8
0
100
AcDbSpline
 62
7
  6
CONTINUOUS
 70
0
 71
3
 72
11
 73
7
 74
0
 42
0.0000001
 43
0.0000001
 44
0.0000000001
 40
0.0
 40
0.0
 40
0.0
 40
0.0
 40
0.2012400332
 40
0.4406422739
 40
0.7091836587
 40
1.0
 40
1.0
 40
1.0
 40
1.0
 10
6.8552008135
 20
10.2710703789
 30
0.0
 10
6.8490647278
 20
10.2589406178
 30
0.0
 10
6.8352768388
 20
10.232559067
 30
0.0
 10
6.8124270832
 20
10.1904547594
 30
0.0
 10
6.7863721804
 20
10.1432074389
 30
0.0
 10
6.7680751802
 20
10.1101493778
 30
0.0
 10
6.7585606944
 20
10.0929630356
 30
0.0
  0
SPLINE
  5
557
100
AcDbEntity
  8
0
100
AcDbSpline
 62
7
  6
CONTINUOUS
 70
0
 71
3
 72
9
 73
5
 74
0
 42
0.0000001
 43
0.0000001
 44
0.0000000001
 40
0.0
 40
0.0
 40
0.0
 40
0.0
 40
0.2450198804
 40
1.0
 40
1.0
 40
1.0
 40
1.0
 10
6.7586033088
 20
10.0929091278
 30
0.0
 10
6.7555437927
 20
10.087313044
 30
0.0
 10
6.7430868263
 20
10.0644575474
 30
0.0
 10
6.7307860118
 20
10.041516041
 30
0.0
 10
6.7216661784
 20
10.0241082511
 30
0.0
  0
ENDSEC
  0
SECTION
  2
OBJECTS
  0
DICTIONARY
  5
C
100
AcDbDictionary
280
0
281
1
  3
ACAD_GROUP
350
D
  3
ACAD_MLINESTYLE
350
17
  3
ACAD_LAYOUT
350
1A
  3
ACAD_PLOTSETTINGS
350
19
  3
ACAD_PLOTSTYLENAME
350
E
  0
DICTIONARY
  5
D
102
{ACAD_REACTORS
330
C
102
}
100
AcDbDictionary
280
0
281
1
  0
ACDBDICTIONARYWDFLT
  5
E
102
{ACAD_REACTORS
330
C
102
}
100
AcDbDictionary
281
1
  3
Normal
350
F
100
AcDbDictionaryWithDefault
340
F
  0
DICTIONARY
  5
17
102
{ACAD_REACTORS
330
C
102
}
100
AcDbDictionary
280
0
281
1
  3
Standard
350
18
  0
DICTIONARY
  5
19
102
{ACAD_REACTORS
330
C
102
}
100
AcDbDictionary
281
1
  0
DICTIONARY
  5
1A
102
{ACAD_REACTORS
330
C
102
}
100
AcDbDictionary
281
1
  3
Model
350
558
  3
Layout1
350
559
  0
ACDBPLACEHOLDER
  5
F
102
{ACAD_REACTORS
330
E
102
}
  0
MLINESTYLE
  5
18
102
{ACAD_REACTORS
330
17
102
}
100
AcDbMlineStyle
  2
STANDARD
 70
0
  3

 62
256
 51
90.0
 52
90.0
 71
2
 49
0.5
 62
256
  6
BYLAYER
 49
-0.5
 62
256
  6
BYLAYER
  0
LAYOUT
  5
558
102
{ACAD_REACTORS
330
1A
102
}
100
AcDbPlotSettings
  1

  2
none_device
  4
ANSI_C_(22.00_x_17.00_Inches)
  6

 40
0.0
 41
0.0
 42
0.0
 43
0.0
 44
558.8
 45
431.8
 46
0.0
 47
0.0
 48
0.0
 49
0.0
140
0.0
141
0.0
142
1.0
143
1.0
 70
1024
 72
0
 73
0
 74
0
  7

 75
0
147
1.0
148
0.0
149
0.0
100
AcDbLayout
  1
Model
 70
0
 71
0
 10
0.0
 20
0.0
 11
22.0
 21
17.0
 12
0.0
 22
0.0
 32
0.0
 14
0.0
 24
0.0
 34
0.0
 15
0.0
 25
0.0
 35
0.0
146
0.0
 13
0.0
 23
0.0
 33
0.0
 16
1.0
 26
0.0
 36
0.0
 17
0.0
 27
1.0
 37
0.0
 76
0
330
202
345
0
346
0
  0
LAYOUT
  5
559
102
{ACAD_REACTORS
330
1A
102
}
100
AcDbPlotSettings
  1

  2
none_device
  4
ANSI_C_(22.00_x_17.00_Inches)
  6

 40
0.0
 41
0.0
 42
0.0
 43
0.0
 44
558.8
 45
431.8
 46
0.0
 47
0.0
 48
0.0
 49
0.0
140
0.0
141
0.0
142
1.0
143
1.0
 70
0
 72
0
 73
0
 74
0
  7

 75
0
147
1.0
148
0.0
149
0.0
100
AcDbLayout
  1
Layout1
 70
0
 71
1
 10
0.0
 20
0.0
 11
22.0
 21
17.0
 12
0.0
 22
0.0
 32
0.0
 14
0.0
 24
0.0
 34
0.0
 15
0.0
 25
0.0
 35
0.0
146
0.0
 13
0.0
 23
0.0
 33
0.0
 16
1.0
 26
0.0
 36
0.0
 17
0.0
 27
1.0
 37
0.0
 76
0
330
203
345
0
346
0
  0
ENDSEC
  0
EOF
