999
DXF file: 9457_right.dxf
999
Pro/ENGINEER 2018400 by Parametric Technology Corporation
  0
SECTION
  2
HEADER
  9
$ACADVER
  1
AC1027
  9
$DWGCODEPAGE
  3
ANSI_1252
  9
$EXTMAX
 10
11.0
 20
8.5
 30
0.0
  9
$EXTMIN
 10
0.0
 20
0.0
 30
0.0
  9
$LIMMIN
 10
0.0
 20
0.0
  9
$LIMMAX
 10
11.0
 20
8.5
  9
$VIEWCTR
 10
5.5
 20
4.25
  9
$VIEWSIZE
 40
8.5
  9
$CLAYER
  8
0
  9
$LTSCALE
 40
0.605
  9
$CELTYPE
  6
BYLAYER
  9
$DIMSCALE
 40
1.0
  9
$DIMASZ
 40
0.1
  9
$DIMEXO
 40
0.0625
  9
$DIMDLI
 40
0.418
  9
$DIMEXE
 40
0.125
  9
$DIMCEN
 40
0.099
  9
$DIMLFAC
 40
1.0
  9
$DIMBLK
  1
_FILLED
  9
$DIMALT
 70
1
  9
$DIMALTD
 70
1
  9
$DIMALTTD
 70
2
  9
$DIMALTF
 40
25.4
  9
$DIMTXT
 40
0.08
  9
$DIMTOL
 70
1
  9
$DIMLIM
 70
0
  9
$DIMTFAC
 40
1.0
  9
$DIMTP
 40
0.01
  9
$DIMTM
 40
0.01
  9
$DIMGAP
 40
0.09
  9
$DIMDSEP
 70
46
  9
$AUNITS
 70
0
  9
$PDMODE
 70
3
  9
$PDSIZE
 40
0.3125
  9
$HANDSEED
  5
2F3
  9
$TILEMODE
 70
1
  9
$MEASUREMENT
 70
0
  9
$INSUNITS
 70
1
  0
ENDSEC
  0
SECTION
  2
CLASSES
  0
CLASS
  1
ACDBDICTIONARYWDFLT
  2
AcDbDictionaryWithDefault
  3
AutoCAD 2000
 90
0
 91
1
280
0
281
0
  0
CLASS
  1
ACDBPLACEHOLDER
  2
AcDbPlaceHolder
  3
AutoCAD 2000
 90
0
 91
1
280
0
281
0
  0
CLASS
  1
LAYOUT
  2
AcDbLayout
  3
AutoCAD 2000
 90
0
 91
0
280
0
281
0
  0
ENDSEC
  0
SECTION
  2
TABLES
  0
TABLE
  2
VPORT
  5
8
100
AcDbSymbolTable
 70
2
  0
VPORT
  5
1F4
100
AcDbSymbolTableRecord
100
AcDbViewportTableRecord
  2
*ACTIVE
 70
0
 10
0.0
 20
0.0
 11
1.0
 21
1.0
 12
5.5
 22
4.25
 13
0.0
 23
0.0
 14
1.0
 24
1.0
 15
0.0
 25
0.0
 16
0.0
 26
0.0
 36
1.0
 17
0.0
 27
0.0
 37
0.0
 40
8.5
 41
1.2941176471
 42
50.0
 43
0.0
 44
0.0
 50
0.0
 51
0.0
 71
0
 72
100
 73
1
 74
1
 75
0
 76
0
 77
0
 78
0
  0
ENDTAB
  0
TABLE
  2
LTYPE
  5
5
100
AcDbSymbolTable
 70
6
  0
LTYPE
  5
14
100
AcDbSymbolTableRecord
100
AcDbLinetypeTableRecord
  2
BYBLOCK
 70
0
  3

 72
65
 73
0
 40
0.0
  0
LTYPE
  5
15
100
AcDbSymbolTableRecord
100
AcDbLinetypeTableRecord
  2
BYLAYER
 70
0
  3

 72
65
 73
0
 40
0.0
  0
LTYPE
  5
16
100
AcDbSymbolTableRecord
100
AcDbLinetypeTableRecord
  2
CONTINUOUS
 70
64
  3
Solid line
 72
65
 73
0
 40
0.0
  0
LTYPE
  5
1F5
100
AcDbSymbolTableRecord
100
AcDbLinetypeTableRecord
  2
CENTER
 70
64
  3
____ _ ____ _ ____ _ ____ _ ____ _ ____ _ ____
 72
65
 73
4
 40
0.6
 49
0.375
 74
0
 49
-0.075
 74
0
 49
0.075
 74
0
 49
-0.075
 74
0
  0
LTYPE
  5
1F6
100
AcDbSymbolTableRecord
100
AcDbLinetypeTableRecord
  2
HIDDEN
 70
64
  3
- - - - - - - - - - - - - - - - - - - -
 72
65
 73
2
 40
0.2
 49
0.1
 74
0
 49
-0.1
 74
0
  0
LTYPE
  5
1F7
100
AcDbSymbolTableRecord
100
AcDbLinetypeTableRecord
  2
PHANTOM
 70
64
  3
_____ _ _ _____ _ _ _____ _ _ _____
 72
65
 73
6
 40
0.8
 49
0.45
 74
0
 49
-0.05
 74
0
 49
0.1
 74
0
 49
-0.05
 74
0
 49
0.1
 74
0
 49
-0.05
 74
0
  0
LTYPE
  5
1F8
100
AcDbSymbolTableRecord
100
AcDbLinetypeTableRecord
  2
DOT
 70
64
  3
. . . . . . . . . . . . . . . . . . . .
 72
65
 73
2
 40
0.2
 49
0.1
 74
0
 49
-0.1
 74
0
  0
LTYPE
  5
1F9
100
AcDbSymbolTableRecord
100
AcDbLinetypeTableRecord
  2
DASHED
 70
64
  3
- - - - - - - - - - - - - - - - - - - -
 72
65
 73
2
 40
0.2
 49
0.1
 74
0
 49
-0.1
 74
0
  0
ENDTAB
  0
TABLE
  2
LAYER
  5
2
100
AcDbSymbolTable
 70
36
  0
LAYER
  5
10
100
AcDbSymbolTableRecord
100
AcDbLayerTableRecord
  2
0
 70
0
 62
7
  6
CONTINUOUS
370
-3
390
F
  0
LAYER
  5
1FA
100
AcDbSymbolTableRecord
100
AcDbLayerTableRecord
  2
DEFAULT_1
 70
0
 62
7
  6
CENTER
370
-3
390
F
  0
LAYER
  5
1FB
100
AcDbSymbolTableRecord
100
AcDbLayerTableRecord
  2
DEFAULT_2
 70
0
 62
8
  6
HIDDEN
370
-3
390
F
  0
LAYER
  5
1FC
100
AcDbSymbolTableRecord
100
AcDbLayerTableRecord
  2
DEFAULT_3
 70
0
 62
7
  6
PHANTOM
370
-3
390
F
  0
LAYER
  5
1FD
100
AcDbSymbolTableRecord
100
AcDbLayerTableRecord
  2
DEFAULT_COORDINATE_SYSTEM
 70
0
 62
7
  6
CONTINUOUS
370
-3
390
F
  0
LAYER
  5
1FE
100
AcDbSymbolTableRecord
100
AcDbLayerTableRecord
  2
DEFAULT_DATUM_AXES
 70
0
 62
7
  6
CONTINUOUS
370
-3
390
F
  0
LAYER
  5
1FF
100
AcDbSymbolTableRecord
100
AcDbLayerTableRecord
  2
DEFAULT_DATUM_PLANES
 70
0
 62
7
  6
CONTINUOUS
370
-3
390
F
  0
ENDTAB
  0
TABLE
  2
STYLE
  5
3
100
AcDbSymbolTable
 70
1
  0
STYLE
  5
11
100
AcDbSymbolTableRecord
100
AcDbTextStyleTableRecord
  2
STANDARD
 70
0
 40
0.0
 41
0.8
 50
0.0
 71
0
 42
0.2
  3
txt
  4

  0
STYLE
  5
200
100
AcDbSymbolTableRecord
100
AcDbTextStyleTableRecord
  2
TEXTSTYLE_1
 70
0
 40
0.0
 41
0.8
 50
0.0
 71
0
 42
0.2
  3
gdt
  4

  0
ENDTAB
  0
TABLE
  2
VIEW
  5
6
100
AcDbSymbolTable
 70
0
  0
ENDTAB
  0
TABLE
  2
UCS
  5
7
100
AcDbSymbolTable
 70
0
  0
ENDTAB
  0
TABLE
  2
APPID
  5
9
100
AcDbSymbolTable
 70
1
  0
APPID
  5
201
100
AcDbSymbolTableRecord
100
AcDbRegAppTableRecord
  2
ACAD
 70
0
  0
ENDTAB
  0
TABLE
  2
BLOCK_RECORD
  5
1
100
AcDbSymbolTable
 70
0
  0
BLOCK_RECORD
  5
202
100
AcDbSymbolTableRecord
100
AcDbBlockTableRecord
  2
*Model_Space
  0
BLOCK_RECORD
  5
203
100
AcDbSymbolTableRecord
100
AcDbBlockTableRecord
  2
*Paper_Space
  0
BLOCK_RECORD
  5
204
100
AcDbSymbolTableRecord
100
AcDbBlockTableRecord
  2
_FILLED
  0
ENDTAB
  0
TABLE
  2
DIMSTYLE
  5
A
100
AcDbSymbolTable
 70
1
100
AcDbDimStyleTable
 71
0
  0
DIMSTYLE
105
205
100
AcDbSymbolTableRecord
100
AcDbDimStyleTableRecord
  2
STANDARD
 70
0
  3

  4

 40
1.0
 41
0.1
 42
0.0625
 43
0.38
 44
0.125
 45
0.0
 46
0.0
 47
0.01
 48
0.01
140
0.08
141
0.09
142
0.0
143
25.4
144
1.0
145
0.0
146
1.0
147
0.09
 71
1.0
 72
0.0
 73
1
 74
1
 75
0
 76
0
 77
0
 78
4
 79
1
170
1
171
1
172
0
173
0
174
0
175
0
176
0
177
0
178
0
270
2
179
2
271
2
272
2
273
2
274
2
275
0
280
0
281
0
282
0
283
1
284
4
285
0
286
0
287
3
288
0
340
11
278
46
341
204
342
204
343
204
344
204
  0
ENDTAB
  0
ENDSEC
  0
SECTION
  2
BLOCKS
  0
BLOCK
  5
20
100
AcDbEntity
  8
0
100
AcDbBlockBegin
  2
*Model_Space
 70
0
 10
0.0
 20
0.0
 30
0.0
  3
*Model_Space
  1

  0
ENDBLK
  5
21
100
AcDbEntity
  8
0
100
AcDbBlockEnd
  0
BLOCK
  5
1C
100
AcDbEntity
  8
0
100
AcDbBlockBegin
  2
*Paper_Space
 70
0
 10
0.0
 20
0.0
 30
0.0
  3
*Paper_Space
  1

  0
ENDBLK
  5
1D
100
AcDbEntity
  8
0
100
AcDbBlockEnd
  0
BLOCK
  5
206
100
AcDbEntity
  8
0
100
AcDbBlockBegin
  2
_FILLED
 70
64
 10
0.0
 20
0.0
  3
_FILLED
  1

  0
SOLID
  5
207
100
AcDbEntity
  8
0
  6
BYBLOCK
 62
0
100
AcDbTrace
 10
0.0
 20
0.0
 11
-1.0
 21
0.2
 12
-1.0
 22
-0.2
 13
-1.0
 23
-0.2
  0
ENDBLK
  5
208
100
AcDbEntity
  8
0
  6
BYBLOCK
 62
0
100
AcDbBlockEnd
  0
ENDSEC
  0
SECTION
  2
ENTITIES
  0
MTEXT
  5
209
100
AcDbEntity
  8
0
100
AcDbMText
 62
2
  6
CONTINUOUS
  7
STANDARD
 71
3
 72
1
 10
5.1195263975
 20
0.5454745478
 30
0.0
 11
1.0
 21
0.0
 31
0.0
 73
2
 44
0.9
  1
SCALE  .500
 40
0.08
 41
0.704
  0
LINE
  5
20A
100
AcDbEntity
  8
0
100
AcDbLine
 62
7
  6
CONTINUOUS
 10
0.0
 20
0.0
 11
0.0
 21
8.5
  0
LINE
  5
20B
100
AcDbEntity
  8
0
100
AcDbLine
 62
7
  6
CONTINUOUS
 10
0.0
 20
0.0
 11
11.0
 21
0.0
  0
LINE
  5
20C
100
AcDbEntity
  8
0
100
AcDbLine
 62
7
  6
CONTINUOUS
 10
0.0
 20
8.5
 11
11.0
 21
8.5
  0
LINE
  5
20D
100
AcDbEntity
  8
0
100
AcDbLine
 62
7
  6
CONTINUOUS
 10
11.0
 20
0.0
 11
11.0
 21
8.5
  0
LINE
  5
20E
100
AcDbEntity
  8
0
100
AcDbLine
 62
7
  6
CONTINUOUS
 10
6.6935678042
 20
0.6404745478
 11
7.7384054018
 21
0.6404745478
  0
LINE
  5
20F
100
AcDbEntity
  8
0
100
AcDbLine
 62
7
  6
CONTINUOUS
 10
6.6284056465
 20
0.6494745478
 11
7.8034051571
 21
0.6494745478
  0
LINE
  5
210
100
AcDbEntity
  8
0
100
AcDbLine
 62
7
  6
CONTINUOUS
 10
6.6284054018
 20
0.7044745478
 11
7.8034054018
 21
0.7044745478
  0
LINE
  5
211
100
AcDbEntity
  8
0
100
AcDbLine
 62
7
  6
CONTINUOUS
 10
7.7884052362
 20
0.7194745478
 11
6.6434054018
 21
0.7194745478
  0
LINE
  5
212
100
AcDbEntity
  8
0
100
AcDbLine
 62
7
  6
CONTINUOUS
 10
6.7809054663
 20
0.8394745478
 11
7.6509053373
 21
0.8394745478
  0
LINE
  5
213
100
AcDbEntity
  8
0
100
AcDbLine
 62
7
  6
CONTINUOUS
 10
6.9509057213
 20
1.0044745478
 11
7.4809050823
 21
1.0044745478
  0
LINE
  5
214
100
AcDbEntity
  8
0
100
AcDbLine
 62
7
  6
CONTINUOUS
 10
6.940556027
 20
1.0211436667
 11
7.4912547766
 21
1.0211436667
  0
LINE
  5
215
100
AcDbEntity
  8
0
100
AcDbLine
 62
7
  6
CONTINUOUS
 10
6.8712425214
 20
1.6024220644
 11
7.5605682822
 21
1.6024220644
  0
LINE
  5
216
100
AcDbEntity
  8
0
100
AcDbLine
 62
7
  6
CONTINUOUS
 10
7.5459054018
 20
1.6294745478
 11
6.8859054018
 21
1.6294745478
  0
LINE
  5
217
100
AcDbEntity
  8
0
100
AcDbLine
 62
7
  6
CONTINUOUS
 10
6.8978787681
 20
1.6448167667
 11
7.5339320355
 21
1.6448167667
  0
LINE
  5
218
100
AcDbEntity
  8
0
100
AcDbLine
 62
7
  6
CONTINUOUS
 10
2.4659054018
 20
5.5010745478
 11
2.4946831474
 21
5.183368236
  0
LINE
  5
219
100
AcDbEntity
  8
0
100
AcDbLine
 62
7
  6
CONTINUOUS
 10
2.4971554018
 20
5.5610745478
 11
2.4971554018
 21
5.7485745478
  0
LINE
  5
21A
100
AcDbEntity
  8
0
100
AcDbLine
 62
7
  6
CONTINUOUS
 10
2.9346554018
 20
5.5610745478
 11
2.9346554018
 21
5.7485745478
  0
LINE
  5
21B
100
AcDbEntity
  8
0
100
AcDbLine
 62
7
  6
CONTINUOUS
 10
2.9659054018
 20
5.5010745478
 11
2.9371276562
 21
5.183368236
  0
LINE
  5
21C
100
AcDbEntity
  8
0
100
AcDbLine
 62
7
  6
CONTINUOUS
 10
6.9126625917
 20
2.2332743645
 11
7.5191482119
 21
2.2332743645
  0
LINE
  5
21D
100
AcDbEntity
  8
0
100
AcDbLine
 62
7
  6
CONTINUOUS
 10
7.4891554018
 20
2.2544745478
 11
6.9426554018
 21
2.2544745478
  0
LINE
  5
21E
100
AcDbEntity
  8
0
100
AcDbLine
 62
7
  6
CONTINUOUS
 10
7.5159054018
 20
2.2604745478
 11
7.5120595601
 21
2.2604745478
  0
LINE
  5
21F
100
AcDbEntity
  8
0
100
AcDbLine
 62
7
  6
CONTINUOUS
 10
6.9197512435
 20
2.2604745478
 11
6.9159054018
 21
2.2604745478
  0
LINE
  5
220
100
AcDbEntity
  8
0
100
AcDbLine
 62
7
  6
CONTINUOUS
 10
7.5129054018
 20
2.3299848572
 11
7.4416570413
 21
2.3299848572
  0
LINE
  5
221
100
AcDbEntity
  8
0
100
AcDbLine
 62
7
  6
CONTINUOUS
 10
7.2871537623
 20
2.3299848572
 11
7.1446570413
 21
2.3299848572
  0
LINE
  5
222
100
AcDbEntity
  8
0
100
AcDbLine
 62
7
  6
CONTINUOUS
 10
6.9901537623
 20
2.3299848572
 11
6.9189054018
 21
2.3299848572
  0
LINE
  5
223
100
AcDbEntity
  8
0
100
AcDbLine
 62
7
  6
CONTINUOUS
 10
7.4780968002
 20
2.4459745478
 11
6.9537140034
 21
2.4459745478
  0
LINE
  5
224
100
AcDbEntity
  8
0
100
AcDbLine
 62
7
  6
CONTINUOUS
 10
7.4244730278
 20
2.8874887537
 11
7.0073377757
 21
2.8874887537
  0
LINE
  5
225
100
AcDbEntity
  8
0
100
AcDbLine
 62
7
  6
CONTINUOUS
 10
7.3996554018
 20
2.9094745478
 11
7.0321554018
 21
2.9094745478
  0
LINE
  5
226
100
AcDbEntity
  8
0
100
AcDbLine
 62
7
  6
CONTINUOUS
 10
7.0441554018
 20
2.9194745478
 11
7.3876554018
 21
2.9194745478
  0
LINE
  5
227
100
AcDbEntity
  8
0
100
AcDbLine
 62
7
  6
CONTINUOUS
 10
7.0306554018
 20
3.0989745478
 11
7.0517981011
 21
3.0989745478
  0
LINE
  5
228
100
AcDbEntity
  8
0
100
AcDbLine
 62
7
  6
CONTINUOUS
 10
7.3800138355
 20
3.0989745478
 11
7.4011554018
 21
3.0989745478
  0
LINE
  5
229
100
AcDbEntity
  8
0
100
AcDbLine
 62
7
  6
CONTINUOUS
 10
6.9521554018
 20
3.1244745478
 11
7.0292969124
 21
3.1244745478
  0
LINE
  5
22A
100
AcDbEntity
  8
0
100
AcDbLine
 62
7
  6
CONTINUOUS
 10
7.4025147663
 20
3.1244745478
 11
7.4796554018
 21
3.1244745478
  0
LINE
  5
22B
100
AcDbEntity
  8
0
100
AcDbLine
 62
7
  6
CONTINUOUS
 10
6.9371554018
 20
3.1639745478
 11
7.0050019323
 21
3.1639745478
  0
LINE
  5
22C
100
AcDbEntity
  8
0
100
AcDbLine
 62
7
  6
CONTINUOUS
 10
7.4268081767
 20
3.1639745478
 11
7.4946554018
 21
3.1639745478
  0
LINE
  5
22D
100
AcDbEntity
  8
0
100
AcDbLine
 62
7
  6
CONTINUOUS
 10
7.1930410829
 20
3.5160079368
 11
7.1915265739
 21
3.515977269
  0
LINE
  5
22E
100
AcDbEntity
  8
0
100
AcDbLine
 62
7
  6
CONTINUOUS
 10
7.1997907242
 20
3.5161468311
 11
7.1854054018
 21
3.5158578809
  0
LINE
  5
22F
100
AcDbEntity
  8
0
100
AcDbLine
 62
7
  6
CONTINUOUS
 10
7.191526568
 20
3.5164775898
 11
7.1930410757
 21
3.5165082378
  0
LINE
  5
230
100
AcDbEntity
  8
0
100
AcDbLine
 62
7
  6
CONTINUOUS
 10
7.1854054018
 20
3.5163582788
 11
7.1997907242
 21
3.5166470425
  0
LINE
  5
231
100
AcDbEntity
  8
0
100
AcDbLine
 62
7
  6
CONTINUOUS
 10
6.9371554018
 20
3.3689745478
 11
7.0050026269
 21
3.3689745478
  0
LINE
  5
232
100
AcDbEntity
  8
0
100
AcDbLine
 62
7
  6
CONTINUOUS
 10
7.4268088712
 20
3.3689745478
 11
7.4946554018
 21
3.3689745478
  0
LINE
  5
233
100
AcDbEntity
  8
0
100
AcDbLine
 62
7
  6
CONTINUOUS
 10
6.9513092442
 20
3.4089745478
 11
7.0296710694
 21
3.4089745478
  0
LINE
  5
234
100
AcDbEntity
  8
0
100
AcDbLine
 62
7
  6
CONTINUOUS
 10
7.4021385113
 20
3.4089745478
 11
7.4805015594
 21
3.4089745478
  0
LINE
  5
235
100
AcDbEntity
  8
0
100
AcDbLine
 62
7
  6
CONTINUOUS
 10
6.9651554018
 20
3.4169745478
 11
7.0360773269
 21
3.4169745478
  0
LINE
  5
236
100
AcDbEntity
  8
0
100
AcDbLine
 62
7
  6
CONTINUOUS
 10
7.3957346724
 20
3.4169745478
 11
7.4666554018
 21
3.4169745478
  0
LINE
  5
237
100
AcDbEntity
  8
0
100
AcDbLine
 62
7
  6
CONTINUOUS
 10
6.9521554018
 20
3.4244745478
 11
7.042633134
 21
3.4244745478
  0
LINE
  5
238
100
AcDbEntity
  8
0
100
AcDbLine
 62
7
  6
CONTINUOUS
 10
7.3891787276
 20
3.4244745478
 11
7.4796554018
 21
3.4244745478
  0
LINE
  5
239
100
AcDbEntity
  8
0
100
AcDbLine
 62
7
  6
CONTINUOUS
 10
6.9521554018
 20
3.4601165964
 11
7.0836658504
 21
3.4601165964
  0
LINE
  5
23A
100
AcDbEntity
  8
0
100
AcDbLine
 62
7
  6
CONTINUOUS
 10
7.3481452763
 20
3.4601165964
 11
7.4796554018
 21
3.4601165964
  0
LINE
  5
23B
100
AcDbEntity
  8
0
100
AcDbLine
 62
7
  6
CONTINUOUS
 10
6.9632651912
 20
3.4712263858
 11
7.1016112321
 21
3.4712263858
  0
LINE
  5
23C
100
AcDbEntity
  8
0
100
AcDbLine
 62
7
  6
CONTINUOUS
 10
7.3301983222
 20
3.4712263858
 11
7.4685456124
 21
3.4712263858
  0
LINE
  5
23D
100
AcDbEntity
  8
0
100
AcDbLine
 62
7
  6
CONTINUOUS
 10
6.9886504237
 20
3.4794745478
 11
7.1178466347
 21
3.4794745478
  0
LINE
  5
23E
100
AcDbEntity
  8
0
100
AcDbLine
 62
7
  6
CONTINUOUS
 10
7.3139638773
 20
3.4794745478
 11
7.4431603798
 21
3.4794745478
  0
LINE
  5
23F
100
AcDbEntity
  8
0
100
AcDbLine
 62
7
  6
CONTINUOUS
 10
7.1495541878
 20
3.4913791944
 11
7.0183330735
 21
3.4913791944
  0
LINE
  5
240
100
AcDbEntity
  8
0
100
AcDbLine
 62
7
  6
CONTINUOUS
 10
7.2822560545
 20
3.4913791944
 11
7.4134777301
 21
3.4913791944
  0
LINE
  5
241
100
AcDbEntity
  8
0
100
AcDbLine
 62
7
  6
CONTINUOUS
 10
6.8792401986
 20
3.5626340418
 11
7.5525706049
 21
3.5626340418
  0
LINE
  5
242
100
AcDbEntity
  8
0
100
AcDbLine
 62
7
  6
CONTINUOUS
 10
7.5359054018
 20
3.5854745478
 11
6.8959054018
 21
3.5854745478
  0
LINE
  5
243
100
AcDbEntity
  8
0
100
AcDbLine
 62
7
  6
CONTINUOUS
 10
7.5240186234
 20
3.6001765393
 11
6.9077921802
 21
3.6001765393
  0
LINE
  5
244
100
AcDbEntity
  8
0
100
AcDbLine
 62
7
  6
CONTINUOUS
 10
7.2489054018
 20
3.5157553513
 11
7.2345200794
 21
3.5160907784
  0
LINE
  5
245
100
AcDbEntity
  8
0
100
AcDbLine
 62
7
  6
CONTINUOUS
 10
7.2351035387
 20
3.5160767302
 11
7.2345200794
 21
3.5160907784
  0
LINE
  5
246
100
AcDbEntity
  8
0
100
AcDbLine
 62
7
  6
CONTINUOUS
 10
7.2345200794
 20
3.516591026
 11
7.2489054018
 21
3.5162558155
  0
LINE
  5
247
100
AcDbEntity
  8
0
100
AcDbLine
 62
7
  6
CONTINUOUS
 10
7.2345200794
 20
3.516591026
 11
7.2351035404
 21
3.5165769869
  0
LINE
  5
248
100
AcDbEntity
  8
0
100
AcDbLine
 62
7
  6
CONTINUOUS
 10
7.1993443359
 20
3.5123592979
 11
7.2008827521
 21
3.5122960053
  0
LINE
  5
249
100
AcDbEntity
  8
0
100
AcDbLine
 62
7
  6
CONTINUOUS
 10
7.0306554018
 20
3.0989745478
 11
6.9521554018
 21
3.1244745478
  0
LINE
  5
24A
100
AcDbEntity
  8
0
100
AcDbLine
 62
7
  6
CONTINUOUS
 10
6.9159054018
 20
4.1504745478
 11
7.5159054018
 21
4.1504745478
  0
LINE
  5
24B
100
AcDbEntity
  8
0
100
AcDbLine
 62
7
  6
CONTINUOUS
 10
7.11150982
 20
4.1754745478
 11
7.0245335479
 21
4.1754745478
  0
LINE
  5
24C
100
AcDbEntity
  8
0
100
AcDbLine
 62
7
  6
CONTINUOUS
 10
6.9201379661
 20
4.1754745478
 11
6.9159054018
 21
4.1754745478
  0
LINE
  5
24D
100
AcDbEntity
  8
0
100
AcDbLine
 62
7
  6
CONTINUOUS
 10
7.3203009836
 20
4.1754745478
 11
7.4072772557
 21
4.1754745478
  0
LINE
  5
24E
100
AcDbEntity
  8
0
100
AcDbLine
 62
7
  6
CONTINUOUS
 10
7.5116728375
 20
4.1754745478
 11
7.5159054018
 21
4.1754745478
  0
LINE
  5
24F
100
AcDbEntity
  8
0
100
AcDbLine
 62
7
  6
CONTINUOUS
 10
6.9659054861
 20
4.2254745478
 11
7.4659053175
 21
4.2254745478
  0
LINE
  5
250
100
AcDbEntity
  8
0
100
AcDbLine
 62
7
  6
CONTINUOUS
 10
7.4685456124
 20
3.4712263858
 11
7.4431603798
 21
3.4794745478
  0
LINE
  5
251
100
AcDbEntity
  8
0
100
AcDbLine
 62
7
  6
CONTINUOUS
 10
6.9651554018
 20
3.4169745478
 11
6.9521554018
 21
3.4244745478
  0
LINE
  5
252
100
AcDbEntity
  8
0
100
AcDbLine
 62
7
  6
CONTINUOUS
 10
7.4805015594
 20
3.4089745478
 11
7.4666554018
 21
3.4169745478
  0
LINE
  5
253
100
AcDbEntity
  8
0
100
AcDbLine
 62
7
  6
CONTINUOUS
 10
2.9072498843
 20
5.1560745478
 11
2.5245609192
 21
5.1560745478
  0
LINE
  5
254
100
AcDbEntity
  8
0
100
AcDbLine
 62
7
  6
CONTINUOUS
 10
2.9371276562
 20
5.183368236
 11
2.4946831474
 21
5.183368236
  0
LINE
  5
255
100
AcDbEntity
  8
0
100
AcDbLine
 62
7
  6
CONTINUOUS
 10
2.4659054018
 20
5.5010745478
 11
2.9659054018
 21
5.5010745478
  0
LINE
  5
256
100
AcDbEntity
  8
0
100
AcDbLine
 62
7
  6
CONTINUOUS
 10
2.465905486
 20
5.5610745478
 11
2.9659053176
 21
5.5610745478
  0
LINE
  5
257
100
AcDbEntity
  8
0
100
AcDbLine
 62
7
  6
CONTINUOUS
 10
7.4796554018
 20
3.4601165964
 11
7.4685456124
 21
3.4712263858
  0
LINE
  5
258
100
AcDbEntity
  8
0
100
AcDbLine
 62
7
  6
CONTINUOUS
 10
6.6284054018
 20
0.7044745478
 11
6.6284054018
 21
0.6494745478
  0
LINE
  5
259
100
AcDbEntity
  8
0
100
AcDbLine
 62
7
  6
CONTINUOUS
 10
6.9632651912
 20
3.4712263858
 11
6.9886504237
 21
3.4794745478
  0
LINE
  5
25A
100
AcDbEntity
  8
0
100
AcDbLine
 62
7
  6
CONTINUOUS
 10
7.4346554018
 20
5.7485745478
 11
6.9971554018
 21
5.7485745478
  0
LINE
  5
25B
100
AcDbEntity
  8
0
100
AcDbLine
 62
7
  6
CONTINUOUS
 10
2.4971554018
 20
5.7485745478
 11
2.9346554018
 21
5.7485745478
  0
LINE
  5
25C
100
AcDbEntity
  8
0
100
AcDbLine
 62
7
  6
CONTINUOUS
 10
6.9159054018
 20
4.1754745478
 11
6.9159054018
 21
4.1504745478
  0
LINE
  5
25D
100
AcDbEntity
  8
0
100
AcDbLine
 62
7
  6
CONTINUOUS
 10
6.9189054018
 20
2.2609566946
 11
6.9189054018
 21
2.3485740938
  0
LINE
  5
25E
100
AcDbEntity
  8
0
100
AcDbLine
 62
7
  6
CONTINUOUS
 10
6.9201379661
 20
4.1754745478
 11
6.9201379661
 21
4.1504745478
  0
LINE
  5
25F
100
AcDbEntity
  8
0
100
AcDbLine
 62
7
  6
CONTINUOUS
 10
6.9371554018
 20
3.1639745478
 11
6.9371554018
 21
3.3689745478
  0
LINE
  5
260
100
AcDbEntity
  8
0
100
AcDbLine
 62
7
  6
CONTINUOUS
 10
6.9521554018
 20
3.4244745478
 11
6.9521554018
 21
3.4601165964
  0
LINE
  5
261
100
AcDbEntity
  8
0
100
AcDbLine
 62
7
  6
CONTINUOUS
 10
6.9971554018
 20
5.7485745478
 11
6.9971554018
 21
4.2254745478
  0
LINE
  5
262
100
AcDbEntity
  8
0
100
AcDbLine
 62
7
  6
CONTINUOUS
 10
6.9513092442
 20
3.4089745478
 11
6.9651554018
 21
3.4169745478
  0
LINE
  5
263
100
AcDbEntity
  8
0
100
AcDbLine
 62
7
  6
CONTINUOUS
 10
7.0245335479
 20
4.1754745478
 11
7.0245335479
 21
4.1504745478
  0
LINE
  5
264
100
AcDbEntity
  8
0
100
AcDbLine
 62
7
  6
CONTINUOUS
 10
7.0441554018
 20
2.9194745478
 11
7.0441554018
 21
3.0989745478
  0
LINE
  5
265
100
AcDbEntity
  8
0
100
AcDbLine
 62
7
  6
CONTINUOUS
 10
7.11150982
 20
4.1754745478
 11
7.11150982
 21
4.1504745478
  0
LINE
  5
266
100
AcDbEntity
  8
0
100
AcDbLine
 62
7
  6
CONTINUOUS
 10
7.1734054018
 20
3.5035454146
 11
7.1734054018
 21
3.5099579143
  0
LINE
  5
267
100
AcDbEntity
  8
0
100
AcDbLine
 62
7
  6
CONTINUOUS
 10
7.1734054018
 20
3.5116913492
 11
7.1734054018
 21
3.5157927059
  0
LINE
  5
268
100
AcDbEntity
  8
0
100
AcDbLine
 62
7
  6
CONTINUOUS
 10
7.1847907242
 20
3.5134624495
 11
7.1847907242
 21
3.5148146099
  0
LINE
  5
269
100
AcDbEntity
  8
0
100
AcDbLine
 62
7
  6
CONTINUOUS
 10
7.1854054018
 20
3.5040006668
 11
7.1854054018
 21
3.5068447392
  0
LINE
  5
26A
100
AcDbEntity
  8
0
100
AcDbLine
 62
7
  6
CONTINUOUS
 10
7.1854054018
 20
3.5100235842
 11
7.1854054018
 21
3.5105277792
  0
LINE
  5
26B
100
AcDbEntity
  8
0
100
AcDbLine
 62
7
  6
CONTINUOUS
 10
7.1854054018
 20
3.5158578809
 11
7.1854054018
 21
3.5163582788
  0
LINE
  5
26C
100
AcDbEntity
  8
0
100
AcDbLine
 62
7
  6
CONTINUOUS
 10
7.1920238389
 20
3.5126029386
 11
7.1920238389
 21
3.5131054479
  0
LINE
  5
26D
100
AcDbEntity
  8
0
100
AcDbLine
 62
7
  6
CONTINUOUS
 10
7.1934676595
 20
3.5096667772
 11
7.1934676595
 21
3.5101712063
  0
LINE
  5
26E
100
AcDbEntity
  8
0
100
AcDbLine
 62
7
  6
CONTINUOUS
 10
7.1997907242
 20
3.5161468311
 11
7.1997907242
 21
3.5166470425
  0
LINE
  5
26F
100
AcDbEntity
  8
0
100
AcDbLine
 62
7
  6
CONTINUOUS
 10
7.2018135651
 20
3.50053871
 11
7.2018135651
 21
3.500607476
  0
LINE
  5
270
100
AcDbEntity
  8
0
100
AcDbLine
 62
7
  6
CONTINUOUS
 10
7.2324972385
 20
3.5003843916
 11
7.2324972385
 21
3.5005569392
  0
LINE
  5
271
100
AcDbEntity
  8
0
100
AcDbLine
 62
7
  6
CONTINUOUS
 10
7.2345200794
 20
3.5160907784
 11
7.2345200794
 21
3.516591026
  0
LINE
  5
272
100
AcDbEntity
  8
0
100
AcDbLine
 62
7
  6
CONTINUOUS
 10
7.240843144
 20
3.5095896675
 11
7.240843144
 21
3.5100941472
  0
LINE
  5
273
100
AcDbEntity
  8
0
100
AcDbLine
 62
7
  6
CONTINUOUS
 10
7.2489054018
 20
3.5038965424
 11
7.2489054018
 21
3.5067410019
  0
LINE
  5
274
100
AcDbEntity
  8
0
100
AcDbLine
 62
7
  6
CONTINUOUS
 10
7.2489054018
 20
3.509920276
 11
7.2489054018
 21
3.5104245388
  0
LINE
  5
275
100
AcDbEntity
  8
0
100
AcDbLine
 62
7
  6
CONTINUOUS
 10
7.2489054018
 20
3.5157553513
 11
7.2489054018
 21
3.5162558155
  0
LINE
  5
276
100
AcDbEntity
  8
0
100
AcDbLine
 62
7
  6
CONTINUOUS
 10
7.2579054018
 20
3.5158199933
 11
7.2579054018
 21
3.5145561748
  0
LINE
  5
277
100
AcDbEntity
  8
0
100
AcDbLine
 62
7
  6
CONTINUOUS
 10
7.2579054018
 20
3.5099854089
 11
7.2579054018
 21
3.5035731407
  0
LINE
  5
278
100
AcDbEntity
  8
0
100
AcDbLine
 62
7
  6
CONTINUOUS
 10
7.3203009836
 20
4.1754745478
 11
7.3203009836
 21
4.1504745478
  0
LINE
  5
279
100
AcDbEntity
  8
0
100
AcDbLine
 62
7
  6
CONTINUOUS
 10
6.9537140034
 20
2.4459745478
 11
7.0073377757
 21
2.8874887537
  0
LINE
  5
27A
100
AcDbEntity
  8
0
100
AcDbLine
 62
7
  6
CONTINUOUS
 10
6.9521554018
 20
3.4601165964
 11
6.9632651912
 21
3.4712263858
  0
LINE
  5
27B
100
AcDbEntity
  8
0
100
AcDbLine
 62
7
  6
CONTINUOUS
 10
7.4666554018
 20
3.4169745478
 11
7.4796554018
 21
3.4244745478
  0
LINE
  5
27C
100
AcDbEntity
  8
0
100
AcDbLine
 62
7
  6
CONTINUOUS
 10
7.4011554018
 20
3.0989745478
 11
7.4796554018
 21
3.1244745478
  0
LINE
  5
27D
100
AcDbEntity
  8
0
100
AcDbLine
 62
7
  6
CONTINUOUS
 10
7.4780968002
 20
2.4459745478
 11
7.4244730278
 21
2.8874887537
  0
LINE
  5
27E
100
AcDbEntity
  8
0
100
AcDbLine
 62
7
  6
CONTINUOUS
 10
7.3876554018
 20
2.9194745478
 11
7.3876554018
 21
3.0989745478
  0
LINE
  5
27F
100
AcDbEntity
  8
0
100
AcDbLine
 62
7
  6
CONTINUOUS
 10
7.4072772557
 20
4.1754745478
 11
7.4072772557
 21
4.1504745478
  0
LINE
  5
280
100
AcDbEntity
  8
0
100
AcDbLine
 62
7
  6
CONTINUOUS
 10
7.4346554018
 20
5.7485745478
 11
7.4346554018
 21
4.2254745478
  0
LINE
  5
281
100
AcDbEntity
  8
0
100
AcDbLine
 62
7
  6
CONTINUOUS
 10
7.4796554018
 20
3.4244745478
 11
7.4796554018
 21
3.4601165964
  0
LINE
  5
282
100
AcDbEntity
  8
0
100
AcDbLine
 62
7
  6
CONTINUOUS
 10
7.4946554018
 20
3.1639745478
 11
7.4946554018
 21
3.3689745478
  0
LINE
  5
283
100
AcDbEntity
  8
0
100
AcDbLine
 62
7
  6
CONTINUOUS
 10
7.5116728375
 20
4.1754745478
 11
7.5116728375
 21
4.1504745478
  0
LINE
  5
284
100
AcDbEntity
  8
0
100
AcDbLine
 62
7
  6
CONTINUOUS
 10
7.5129054018
 20
2.2609566946
 11
7.5129054018
 21
2.3485740938
  0
LINE
  5
285
100
AcDbEntity
  8
0
100
AcDbLine
 62
7
  6
CONTINUOUS
 10
7.5159054018
 20
4.1754745478
 11
7.5159054018
 21
4.1504745478
  0
LINE
  5
286
100
AcDbEntity
  8
0
100
AcDbLine
 62
7
  6
CONTINUOUS
 10
7.8034054018
 20
0.7044745478
 11
7.8034054018
 21
0.6494745478
  0
ARC
  5
287
100
AcDbEntity
  8
0
100
AcDbCircle
 62
7
  6
CONTINUOUS
 10
4.6500471976
 20
2.8482702016
 40
2.3408582042
100
AcDbArc
 50
345.457230208
 51
345.7560315134
  0
ARC
  5
288
100
AcDbEntity
  8
0
100
AcDbCircle
 62
7
  6
CONTINUOUS
 10
4.6500471976
 20
2.8482702016
 40
2.3408582042
100
AcDbArc
 50
356.9924288749
 51
6.5902454258
  0
ARC
  5
289
100
AcDbEntity
  8
0
100
AcDbCircle
 62
7
  6
CONTINUOUS
 10
4.6500471976
 20
2.8482702016
 40
2.3408582042
100
AcDbArc
 50
12.2982208381
 51
17.7684982641
  0
ARC
  5
28A
100
AcDbEntity
  8
0
100
AcDbCircle
 62
7
  6
CONTINUOUS
 10
4.9659054018
 20
5.7485745478
 40
2.46875
100
AcDbArc
 50
0.0
 51
180.0
  0
ARC
  5
28B
100
AcDbEntity
  8
0
100
AcDbCircle
 62
7
  6
CONTINUOUS
 10
4.9659054018
 20
5.7485745478
 40
2.03125
100
AcDbArc
 50
0.0
 51
180.0
  0
ARC
  5
28C
100
AcDbEntity
  8
0
100
AcDbCircle
 62
7
  6
CONTINUOUS
 10
2.9072499742
 20
5.1860745478
 40
0.03
100
AcDbArc
 50
270.0
 51
354.8242890856
  0
ARC
  5
28D
100
AcDbEntity
  8
0
100
AcDbCircle
 62
7
  6
CONTINUOUS
 10
2.5245608293
 20
5.1860745478
 40
0.03
100
AcDbArc
 50
185.1757109144
 51
270.0
  0
ARC
  5
28E
100
AcDbEntity
  8
0
100
AcDbCircle
 62
7
  6
CONTINUOUS
 10
2.9659054018
 20
5.5310745478
 40
0.03
100
AcDbArc
 50
270.0
 51
90.0
  0
ARC
  5
28F
100
AcDbEntity
  8
0
100
AcDbCircle
 62
7
  6
CONTINUOUS
 10
2.4659054018
 20
5.5310745478
 40
0.03
100
AcDbArc
 50
90.0
 51
270.0
  0
ARC
  5
290
100
AcDbEntity
  8
0
100
AcDbCircle
 62
7
  6
CONTINUOUS
 10
6.3174003439
 20
1.2416083604
 40
0.6610050579
100
AcDbArc
 50
340.5168569435
 51
33.0831922526
  0
ARC
  5
291
100
AcDbEntity
  8
0
100
AcDbCircle
 62
7
  6
CONTINUOUS
 10
6.9902318831
 20
0.8237027915
 40
0.185
100
AcDbArc
 50
102.2733303409
 51
175.109441632
  0
ARC
  5
292
100
AcDbEntity
  8
0
100
AcDbCircle
 62
7
  6
CONTINUOUS
 10
7.4415789205
 20
0.8237027915
 40
0.185
100
AcDbArc
 50
4.890558368
 51
77.7266696591
  0
ARC
  5
293
100
AcDbEntity
  8
0
100
AcDbCircle
 62
7
  6
CONTINUOUS
 10
6.6560054418
 20
0.8444745478
 40
0.125
100
AcDbArc
 50
270.0
 51
357.707557224
  0
ARC
  5
294
100
AcDbEntity
  8
0
100
AcDbCircle
 62
7
  6
CONTINUOUS
 10
7.7758053618
 20
0.8444745478
 40
0.125
100
AcDbArc
 50
182.292442776
 51
270.0
  0
ARC
  5
295
100
AcDbEntity
  8
0
100
AcDbCircle
 62
7
  6
CONTINUOUS
 10
7.7384054018
 20
0.6662245478
 40
0.02575
100
AcDbArc
 50
270.0
 51
319.4217882604
  0
ARC
  5
296
100
AcDbEntity
  8
0
100
AcDbCircle
 62
7
  6
CONTINUOUS
 10
6.6934054018
 20
0.6662245478
 40
0.02575
100
AcDbArc
 50
220.5782117396
 51
270.0
  0
ARC
  5
297
100
AcDbEntity
  8
0
100
AcDbCircle
 62
7
  6
CONTINUOUS
 10
6.8859054018
 20
1.6119745478
 40
0.0175
100
AcDbArc
 50
90.0
 51
213.0831922526
  0
ARC
  5
298
100
AcDbEntity
  8
0
100
AcDbCircle
 62
7
  6
CONTINUOUS
 10
7.5459054018
 20
1.6119745478
 40
0.0175
100
AcDbArc
 50
326.9168077474
 51
90.0
  0
ARC
  5
299
100
AcDbEntity
  8
0
100
AcDbCircle
 62
7
  6
CONTINUOUS
 10
6.6434054018
 20
0.7044745478
 40
0.015
100
AcDbArc
 50
90.0
 51
180.0
  0
ARC
  5
29A
100
AcDbEntity
  8
0
100
AcDbCircle
 62
7
  6
CONTINUOUS
 10
7.7884054018
 20
0.7044745478
 40
0.015
100
AcDbArc
 50
0.0
 51
90.0
  0
ARC
  5
29B
100
AcDbEntity
  8
0
100
AcDbCircle
 62
7
  6
CONTINUOUS
 10
6.9523402727
 20
1.0169745478
 40
0.0125
100
AcDbArc
 50
160.5168569435
 51
267.5670412654
  0
ARC
  5
29C
100
AcDbEntity
  8
0
100
AcDbCircle
 62
7
  6
CONTINUOUS
 10
7.4794705308
 20
1.0169745478
 40
0.0125
100
AcDbArc
 50
272.4329587346
 51
19.4831430565
  0
ARC
  5
29D
100
AcDbEntity
  8
0
100
AcDbCircle
 62
7
  6
CONTINUOUS
 10
6.8894253251
 20
1.6394745478
 40
0.01
100
AcDbArc
 50
270.0
 51
32.2911569963
  0
ARC
  5
29E
100
AcDbEntity
  8
0
100
AcDbCircle
 62
7
  6
CONTINUOUS
 10
7.5423854785
 20
1.6394745478
 40
0.01
100
AcDbArc
 50
147.7088430037
 51
270.0
  0
ARC
  5
29F
100
AcDbEntity
  8
0
100
AcDbCircle
 62
7
  6
CONTINUOUS
 10
7.085867624
 20
1.9279745478
 40
0.5300377778
100
AcDbArc
 50
327.7088430037
 51
35.1694359445
  0
ARC
  5
2A0
100
AcDbEntity
  8
0
100
AcDbCircle
 62
7
  6
CONTINUOUS
 10
6.720924671
 20
2.4742477993
 40
0.2345
100
AcDbArc
 50
327.5935402047
 51
353.0751017558
  0
ARC
  5
2A1
100
AcDbEntity
  8
0
100
AcDbCircle
 62
7
  6
CONTINUOUS
 10
6.9535352055
 20
2.2044745478
 40
0.05
100
AcDbArc
 50
90.0
 51
144.8305640555
  0
ARC
  5
2A2
100
AcDbEntity
  8
0
100
AcDbCircle
 62
7
  6
CONTINUOUS
 10
6.9426554018
 20
2.3012245478
 40
0.04675
100
AcDbArc
 50
239.4678748052
 51
270.0
  0
ARC
  5
2A3
100
AcDbEntity
  8
0
100
AcDbCircle
 62
7
  6
CONTINUOUS
 10
6.9159054018
 20
2.2304745478
 40
0.03
100
AcDbArc
 50
90.0
 51
228.3542416197
  0
ARC
  5
2A4
100
AcDbEntity
  8
0
100
AcDbCircle
 62
7
  6
CONTINUOUS
 10
7.2009878657
 20
2.7648566595
 40
0.7473438606
100
AcDbArc
 50
90.0446551133
 51
92.1151144109
  0
ARC
  5
2A5
100
AcDbEntity
  8
0
100
AcDbCircle
 62
7
  6
CONTINUOUS
 10
6.8468393794
 20
3.162251542
 40
0.68
100
AcDbArc
 50
17.6982774827
 51
21.2739720086
  0
ARC
  5
2A6
100
AcDbEntity
  8
0
100
AcDbCircle
 62
7
  6
CONTINUOUS
 10
7.1769010409
 20
2.9482507428
 40
0.5650571094
100
AcDbArc
 50
87.3532425516
 51
88.4663922313
  0
ARC
  5
2A7
100
AcDbEntity
  8
0
100
AcDbCircle
 62
7
  6
CONTINUOUS
 10
7.1769015543
 20
2.9481358385
 40
0.5646696296
100
AcDbArc
 50
87.7221805793
 51
88.4653917189
  0
ARC
  5
2A8
100
AcDbEntity
  8
0
100
AcDbCircle
 62
7
  6
CONTINUOUS
 10
7.0321554018
 20
2.8844745478
 40
0.025
100
AcDbArc
 50
90.0
 51
173.0751017558
  0
ARC
  5
2A9
100
AcDbEntity
  8
0
100
AcDbCircle
 62
7
  6
CONTINUOUS
 10
7.3459431796
 20
1.9279745478
 40
0.5300377778
100
AcDbArc
 50
144.8305640555
 51
212.2911569963
  0
ARC
  5
2AA
100
AcDbEntity
  8
0
100
AcDbCircle
 62
7
  6
CONTINUOUS
 10
7.7108861325
 20
2.4742477993
 40
0.2345
100
AcDbArc
 50
186.9248982442
 51
212.4064597953
  0
ARC
  5
2AB
100
AcDbEntity
  8
0
100
AcDbCircle
 62
7
  6
CONTINUOUS
 10
7.4782755981
 20
2.2044745478
 40
0.05
100
AcDbArc
 50
35.1694359445
 51
90.0
  0
ARC
  5
2AC
100
AcDbEntity
  8
0
100
AcDbCircle
 62
7
  6
CONTINUOUS
 10
7.4891554018
 20
2.3012245478
 40
0.04675
100
AcDbArc
 50
270.0
 51
300.5321251948
  0
ARC
  5
2AD
100
AcDbEntity
  8
0
100
AcDbCircle
 62
7
  6
CONTINUOUS
 10
7.5159054018
 20
2.2304745478
 40
0.03
100
AcDbArc
 50
311.6457583803
 51
90.0
  0
ARC
  5
2AE
100
AcDbEntity
  8
0
100
AcDbCircle
 62
7
  6
CONTINUOUS
 10
7.2159054018
 20
2.7416395401
 40
0.7753350077
100
AcDbArc
 50
88.6231111619
 51
91.1920956682
  0
ARC
  5
2AF
100
AcDbEntity
  8
0
100
AcDbCircle
 62
7
  6
CONTINUOUS
 10
7.2159054018
 20
2.7416395401
 40
0.7753188855
100
AcDbArc
 50
92.2545204889
 51
104.7630312681
  0
ARC
  5
2B0
100
AcDbEntity
  8
0
100
AcDbCircle
 62
7
  6
CONTINUOUS
 10
7.2159054018
 20
2.7416395401
 40
0.7753188855
100
AcDbArc
 50
75.2369687319
 51
87.5605752481
  0
ARC
  5
2B1
100
AcDbEntity
  8
0
100
AcDbCircle
 62
7
  6
CONTINUOUS
 10
7.2159054018
 20
2.7416395401
 40
0.7751750201
100
AcDbArc
 50
88.6239946244
 51
91.1911755502
  0
ARC
  5
2B2
100
AcDbEntity
  8
0
100
AcDbCircle
 62
7
  6
CONTINUOUS
 10
7.2159054018
 20
2.7416395401
 40
0.7748188751
100
AcDbArc
 50
86.8926895707
 51
87.5590000722
  0
ARC
  5
2B3
100
AcDbEntity
  8
0
100
AcDbCircle
 62
7
  6
CONTINUOUS
 10
7.2159054018
 20
2.7416395401
 40
0.7748188751
100
AcDbArc
 50
92.2559761406
 51
93.1443391817
  0
ARC
  5
2B4
100
AcDbEntity
  8
0
100
AcDbCircle
 62
7
  6
CONTINUOUS
 10
7.2159054018
 20
2.7416395401
 40
0.7746749168
100
AcDbArc
 50
88.6231061521
 51
91.1919446428
  0
ARC
  5
2B5
100
AcDbEntity
  8
0
100
AcDbCircle
 62
7
  6
CONTINUOUS
 10
7.2159054018
 20
2.7416395401
 40
0.7746000979
100
AcDbArc
 50
88.6229731319
 51
91.1920597897
  0
ARC
  5
2B6
100
AcDbEntity
  8
0
100
AcDbCircle
 62
7
  6
CONTINUOUS
 10
7.2159054018
 20
2.7416395401
 40
0.7740569257
100
AcDbArc
 50
86.889627857
 51
87.5565957966
  0
ARC
  5
2B7
100
AcDbEntity
  8
0
100
AcDbCircle
 62
7
  6
CONTINUOUS
 10
7.2159054018
 20
2.7416395401
 40
0.7694929332
100
AcDbArc
 50
92.2715987345
 51
93.1661244052
  0
ARC
  5
2B8
100
AcDbEntity
  8
0
100
AcDbCircle
 62
7
  6
CONTINUOUS
 10
7.2159054018
 20
2.7416395401
 40
0.7694929332
100
AcDbArc
 50
86.871161409
 51
87.5420946835
  0
ARC
  5
2B9
100
AcDbEntity
  8
0
100
AcDbCircle
 62
7
  6
CONTINUOUS
 10
7.2159054018
 20
2.7416395401
 40
0.7689891346
100
AcDbArc
 50
92.2730877396
 51
93.1682007883
  0
ARC
  5
2BA
100
AcDbEntity
  8
0
100
AcDbCircle
 62
7
  6
CONTINUOUS
 10
7.2159054018
 20
2.7416395401
 40
0.7689891346
100
AcDbArc
 50
86.8691095275
 51
87.5404834123
  0
ARC
  5
2BB
100
AcDbEntity
  8
0
100
AcDbCircle
 62
7
  6
CONTINUOUS
 10
7.2159054018
 20
2.7416395401
 40
0.7688591381
100
AcDbArc
 50
88.1413005927
 51
91.6723095547
  0
ARC
  5
2BC
100
AcDbEntity
  8
0
100
AcDbCircle
 62
7
  6
CONTINUOUS
 10
7.2159054018
 20
2.7416395401
 40
0.768354924
100
AcDbArc
 50
88.1400804383
 51
91.6734072789
  0
ARC
  5
2BD
100
AcDbEntity
  8
0
100
AcDbCircle
 62
7
  6
CONTINUOUS
 10
7.2159054018
 20
2.7416395401
 40
0.7662813403
100
AcDbArc
 50
87.7562904206
 51
92.0566497773
  0
ARC
  5
2BE
100
AcDbEntity
  8
0
100
AcDbCircle
 62
7
  6
CONTINUOUS
 10
7.5849714242
 20
3.162251542
 40
0.68
100
AcDbArc
 50
158.7260279914
 51
162.3017225173
  0
ARC
  5
2BF
100
AcDbEntity
  8
0
100
AcDbCircle
 62
7
  6
CONTINUOUS
 10
7.3996554018
 20
2.8844745478
 40
0.025
100
AcDbArc
 50
6.9248982442
 51
90.0
  0
ARC
  5
2C0
100
AcDbEntity
  8
0
100
AcDbCircle
 62
7
  6
CONTINUOUS
 10
8.1144104597
 20
1.2416083604
 40
0.6610050579
100
AcDbArc
 50
146.9168077474
 51
199.4831430565
  0
ARC
  5
2C1
100
AcDbEntity
  8
0
100
AcDbCircle
 62
7
  6
CONTINUOUS
 10
9.781763606
 20
2.8482702016
 40
2.3408582042
100
AcDbArc
 50
194.2439684866
 51
194.542769792
  0
ARC
  5
2C2
100
AcDbEntity
  8
0
100
AcDbCircle
 62
7
  6
CONTINUOUS
 10
9.781763606
 20
2.8482702016
 40
2.3408582042
100
AcDbArc
 50
173.4097545742
 51
183.0075711251
  0
ARC
  5
2C3
100
AcDbEntity
  8
0
100
AcDbCircle
 62
7
  6
CONTINUOUS
 10
9.781763606
 20
2.8482702016
 40
2.3408582042
100
AcDbArc
 50
162.2315017359
 51
167.7017791619
  0
ARC
  5
2C4
100
AcDbEntity
  8
0
100
AcDbCircle
 62
7
  6
CONTINUOUS
 10
7.5800547922
 20
3.3855154556
 40
0.68
100
AcDbArc
 50
199.0137742001
 51
202.5744557109
  0
ARC
  5
2C5
100
AcDbEntity
  8
0
100
AcDbCircle
 62
7
  6
CONTINUOUS
 10
6.8517560114
 20
3.3855154556
 40
0.68
100
AcDbArc
 50
337.4255442891
 51
340.9862257999
  0
ARC
  5
2C6
100
AcDbEntity
  8
0
100
AcDbCircle
 62
7
  6
CONTINUOUS
 10
7.0213637351
 20
3.8679745478
 40
0.5695416667
100
AcDbArc
 50
331.9527753269
 51
29.736562717
  0
ARC
  5
2C7
100
AcDbEntity
  8
0
100
AcDbCircle
 62
7
  6
CONTINUOUS
 10
7.4104470685
 20
3.8679745478
 40
0.5695416667
100
AcDbArc
 50
150.263437283
 51
208.0472246731
  0
ARC
  5
2C8
100
AcDbEntity
  8
0
100
AcDbCircle
 62
7
  6
CONTINUOUS
 10
7.218934461
 20
3.7862095757
 40
0.2859744354
100
AcDbArc
 50
272.3922506463
 51
272.7183601928
  0
ARC
  5
2C9
100
AcDbEntity
  8
0
100
AcDbCircle
 62
7
  6
CONTINUOUS
 10
7.2162280325
 20
3.7844945462
 40
0.2842527844
100
AcDbArc
 50
267.0932825797
 51
267.2185898881
  0
CIRCLE
  5
2CA
100
AcDbEntity
  8
0
100
AcDbCircle
 62
7
  6
CONTINUOUS
 10
7.2159054018
 20
3.2664745478
 40
0.2344999982
  0
ARC
  5
2CB
100
AcDbEntity
  8
0
100
AcDbCircle
 62
7
  6
CONTINUOUS
 10
7.2430840869
 20
3.3001917421
 40
0.2162616376
100
AcDbArc
 50
100.683056413
 51
101.381888457
  0
CIRCLE
  5
2CC
100
AcDbEntity
  8
0
100
AcDbCircle
 62
7
  6
CONTINUOUS
 10
7.2159054018
 20
3.2664745478
 40
0.14075
  0
CIRCLE
  5
2CD
100
AcDbEntity
  8
0
100
AcDbCircle
 62
7
  6
CONTINUOUS
 10
7.2159054018
 20
3.2664745478
 40
0.13075
  0
CIRCLE
  5
2CE
100
AcDbEntity
  8
0
100
AcDbCircle
 62
7
  6
CONTINUOUS
 10
7.2159054018
 20
3.2664745478
 40
0.125
  0
ARC
  5
2CF
100
AcDbEntity
  8
0
100
AcDbCircle
 62
7
  6
CONTINUOUS
 10
7.4659054018
 20
4.1754745478
 40
0.05
100
AcDbArc
 50
0.0
 51
90.0
  0
ARC
  5
2D0
100
AcDbEntity
  8
0
100
AcDbCircle
 62
7
  6
CONTINUOUS
 10
6.9659054018
 20
4.1754745478
 40
0.05
100
AcDbArc
 50
90.0
 51
180.0
  0
ARC
  5
2D1
100
AcDbEntity
  8
0
100
AcDbCircle
 62
7
  6
CONTINUOUS
 10
7.5359054018
 20
3.5679745478
 40
0.0175
100
AcDbArc
 50
342.2315017359
 51
90.0
  0
ARC
  5
2D2
100
AcDbEntity
  8
0
100
AcDbCircle
 62
7
  6
CONTINUOUS
 10
6.8959054018
 20
3.5679745478
 40
0.0175
100
AcDbArc
 50
90.0
 51
197.7684982641
  0
ARC
  5
2D3
100
AcDbEntity
  8
0
100
AcDbCircle
 62
7
  6
CONTINUOUS
 10
7.4096554018
 20
3.4768743743
 40
0.015
100
AcDbArc
 50
9.9842614036
 51
75.2369687319
  0
ARC
  5
2D4
100
AcDbEntity
  8
0
100
AcDbCircle
 62
7
  6
CONTINUOUS
 10
7.0221554018
 20
3.4768743743
 40
0.015
100
AcDbArc
 50
104.7630312681
 51
170.0157385964
  0
ARC
  5
2D5
100
AcDbEntity
  8
0
100
AcDbCircle
 62
7
  6
CONTINUOUS
 10
7.5328442268
 20
3.5954745478
 40
0.01
100
AcDbArc
 50
151.9527753269
 51
270.0
  0
ARC
  5
2D6
100
AcDbEntity
  8
0
100
AcDbCircle
 62
7
  6
CONTINUOUS
 10
6.8989665767
 20
3.5954745478
 40
0.01
100
AcDbArc
 50
270.0
 51
28.0472246731
  0
SPLINE
  5
2D7
100
AcDbEntity
  8
0
100
AcDbSpline
 62
7
  6
CONTINUOUS
 70
0
 71
3
 72
27
 73
23
 74
0
 42
0.0000001
 43
0.0000001
 44
0.0000000001
 40
0.0
 40
0.0
 40
0.0
 40
0.0
 40
0.1936830528
 40
0.3799192751
 40
0.5515865285
 40
0.6298878694
 40
0.7021601004
 40
0.7677206899
 40
0.8259539478
 40
0.876320328
 40
0.8984084968
 40
0.918367286
 40
0.9361562923
 40
0.9517415029
 40
0.9651015539
 40
0.976225913
 40
0.9851294796
 40
0.9918710913
 40
0.9944823813
 40
0.9966414454
 40
0.9984322076
 40
1.0
 40
1.0
 40
1.0
 40
1.0
 10
7.1997907242
 20
3.5160719961
 30
0.0
 10
7.198814129
 20
3.5160516747
 30
0.0
 10
7.1968987057
 20
3.5160001577
 30
0.0
 10
7.1941189781
 20
3.5158902147
 30
0.0
 10
7.1919221118
 20
3.5157723205
 30
0.0
 10
7.1903005812
 20
3.5156633526
 30
0.0
 10
7.1892137808
 20
3.5155791592
 30
0.0
 10
7.1882288744
 20
3.5154908663
 30
0.0
 10
7.1873552719
 20
3.5153993617
 30
0.0
 10
7.1867011232
 20
3.5153181684
 30
0.0
 10
7.1862398817
 20
3.515251138
 30
0.0
 10
7.185941981
 20
3.5152028491
 30
0.0
 10
7.1856773714
 20
3.5151544642
 30
0.0
 10
7.1854466488
 20
3.5151061162
 30
0.0
 10
7.1852503431
 20
3.5150579765
 30
0.0
 10
7.1850887355
 20
3.5150102465
 30
0.0
 10
7.1849621708
 20
3.5149630713
 30
0.0
 10
7.1848794084
 20
3.5149216431
 30
0.0
 10
7.1848324574
 20
3.5148872224
 30
0.0
 10
7.1848090385
 20
3.5148635743
 30
0.0
 10
7.1847943058
 20
3.5148395539
 30
0.0
 10
7.1847907242
 20
3.5148225167
 30
0.0
 10
7.1847907242
 20
3.5148146099
 30
0.0
  0
SPLINE
  5
2D8
100
AcDbEntity
  8
0
100
AcDbSpline
 62
7
  6
CONTINUOUS
 70
0
 71
3
 72
21
 73
17
 74
0
 42
0.0000001
 43
0.0000001
 44
0.0000000001
 40
0.0
 40
0.0
 40
0.0
 40
0.0
 40
0.2006655739
 40
0.379543281
 40
0.4605639733
 40
0.5358746494
 40
0.605443674
 40
0.6692722146
 40
0.7274094509
 40
0.7799636187
 40
0.8271258877
 40
0.8692040527
 40
0.9066712414
 40
0.9402362904
 40
0.970904834
 40
1.0
 40
1.0
 40
1.0
 40
1.0
 10
7.1831661076
 20
3.4986675198
 30
0.0
 10
7.1824215487
 20
3.4988296503
 30
0.0
 10
7.1810183756
 20
3.4991606088
 30
0.0
 10
7.1793347848
 20
3.4996373238
 30
0.0
 10
7.178126286
 20
3.5000377546
 30
0.0
 10
7.1773211684
 20
3.5003343571
 30
0.0
 10
7.1765882782
 20
3.5006366145
 30
0.0
 10
7.1759287725
 20
3.5009440024
 30
0.0
 10
7.1753436347
 20
3.5012559594
 30
0.0
 10
7.1748336797
 20
3.5015719976
 30
0.0
 10
7.1743995507
 20
3.5018917145
 30
0.0
 10
7.1740417282
 20
3.5022148808
 30
0.0
 10
7.1737607246
 20
3.5025415886
 30
0.0
 10
7.1735573765
 20
3.5028723304
 30
0.0
 10
7.1734335318
 20
3.503207158
 30
0.0
 10
7.1734054018
 20
3.5034349288
 30
0.0
 10
7.1734054018
 20
3.5035454146
 30
0.0
  0
SPLINE
  5
2D9
100
AcDbEntity
  8
0
100
AcDbSpline
 62
7
  6
CONTINUOUS
 70
0
 71
3
 72
21
 73
17
 74
0
 42
0.0000001
 43
0.0000001
 44
0.0000000001
 40
0.0
 40
0.0
 40
0.0
 40
0.0
 40
0.1891835614
 40
0.3710438228
 40
0.538741742
 40
0.6861564317
 40
0.7506366925
 40
0.8082397545
 40
0.8585472541
 40
0.901254068
 40
0.9362195837
 40
0.9635874545
 40
0.9746336379
 40
0.9841432326
 40
0.9924364037
 40
1.0
 40
1.0
 40
1.0
 40
1.0
 10
7.1884054018
 20
3.5074272668
 30
0.0
 10
7.1882088233
 20
3.5074202076
 30
0.0
 10
7.1878234618
 20
3.5074004282
 30
0.0
 10
7.1872651285
 20
3.5073539395
 30
0.0
 10
7.186751914
 20
3.5072928073
 30
0.0
 10
7.1863621473
 20
3.5072294662
 30
0.0
 10
7.1860878517
 20
3.5071719601
 30
0.0
 10
7.1859138216
 20
3.5071288217
 30
0.0
 10
7.1857636455
 20
3.5070841969
 30
0.0
 10
7.1856385046
 20
3.5070385427
 30
0.0
 10
7.1855394247
 20
3.5069923214
 30
0.0
 10
7.1854746153
 20
3.5069511168
 30
0.0
 10
7.185438041
 20
3.5069170507
 30
0.0
 10
7.1854195478
 20
3.5068932135
 30
0.0
 10
7.1854080997
 20
3.5068691693
 30
0.0
 10
7.1854054018
 20
3.5068526035
 30
0.0
 10
7.1854054018
 20
3.5068447392
 30
0.0
  0
SPLINE
  5
2DA
100
AcDbEntity
  8
0
100
AcDbSpline
 62
7
  6
CONTINUOUS
 70
0
 71
3
 72
21
 73
17
 74
0
 42
0.0000001
 43
0.0000001
 44
0.0000000001
 40
0.0
 40
0.0
 40
0.0
 40
0.0
 40
0.0075657749
 40
0.015867349
 40
0.0253896087
 40
0.0364509321
 40
0.0638517744
 40
0.0988489813
 40
0.1415829171
 40
0.191911175
 40
0.2495275396
 40
0.3140131789
 40
0.4614153347
 40
0.6290743335
 40
0.8108788736
 40
1.0
 40
1.0
 40
1.0
 40
1.0
 10
7.2489054018
 20
3.5067410019
 30
0.0
 10
7.2489054018
 20
3.5067488728
 30
0.0
 10
7.2489026997
 20
3.5067654579
 30
0.0
 10
7.2488912478
 20
3.5067895419
 30
0.0
 10
7.2488727505
 20
3.5068134433
 30
0.0
 10
7.2488361695
 20
3.5068476339
 30
0.0
 10
7.2487713533
 20
3.5068890561
 30
0.0
 10
7.2486722579
 20
3.5069356102
 30
0.0
 10
7.2485471039
 20
3.5069816801
 30
0.0
 10
7.2483969198
 20
3.5070268005
 30
0.0
 10
7.2482228887
 20
3.5070705105
 30
0.0
 10
7.2479486186
 20
3.5071289118
 30
0.0
 10
7.2475588904
 20
3.5071935273
 30
0.0
 10
7.2470457055
 20
3.5072563403
 30
0.0
 10
7.2464873829
 20
3.5073046586
 30
0.0
 10
7.2461019992
 20
3.5073257008
 30
0.0
 10
7.2459054018
 20
3.5073334035
 30
0.0
  0
SPLINE
  5
2DB
100
AcDbEntity
  8
0
100
AcDbSpline
 62
7
  6
CONTINUOUS
 70
0
 71
3
 72
17
 73
13
 74
0
 42
0.0000001
 43
0.0000001
 44
0.0000000001
 40
0.0
 40
0.0
 40
0.0
 40
0.0
 40
0.0273598645
 40
0.0608467826
 40
0.1002707343
 40
0.1454068397
 40
0.2516709361
 40
0.3769997356
 40
0.5182320044
 40
0.6717878328
 40
0.8337571109
 40
1.0
 40
1.0
 40
1.0
 40
1.0
 10
7.2489054018
 20
3.5149927092
 30
0.0
 10
7.2487773218
 20
3.5150231202
 30
0.0
 10
7.2484903543
 20
3.5150817433
 30
0.0
 10
7.2480144761
 20
3.5151613862
 30
0.0
 10
7.2474520263
 20
3.515240817
 30
0.0
 10
7.2465405706
 20
3.5153517471
 30
0.0
 10
7.2452153217
 20
3.5154819629
 30
0.0
 10
7.243426906
 20
3.5156221625
 30
0.0
 10
7.2414094606
 20
3.5157492572
 30
0.0
 10
7.2392145261
 20
3.5158598394
 30
0.0
 10
7.2368982651
 20
3.5159508715
 30
0.0
 10
7.2353197194
 20
3.5159967159
 30
0.0
 10
7.2345200794
 20
3.5160159379
 30
0.0
  0
SPLINE
  5
2DC
100
AcDbEntity
  8
0
100
AcDbSpline
 62
7
  6
CONTINUOUS
 70
0
 71
3
 72
21
 73
17
 74
0
 42
0.0000001
 43
0.0000001
 44
0.0000000001
 40
0.0
 40
0.0
 40
0.0
 40
0.0
 40
0.0292375458
 40
0.0600379291
 40
0.0937138405
 40
0.1312660107
 40
0.1734022795
 40
0.2205968978
 40
0.2731596814
 40
0.3312841725
 40
0.3950811387
 40
0.4646022938
 40
0.5398514499
 40
0.620799609
 40
0.7995104327
 40
1.0
 40
1.0
 40
1.0
 40
1.0
 10
7.2579054018
 20
3.5035731407
 30
0.0
 10
7.2579054018
 20
3.5034634756
 30
0.0
 10
7.2578777053
 20
3.5032374767
 30
0.0
 10
7.2577557398
 20
3.5029051054
 30
0.0
 10
7.2575554209
 20
3.5025766614
 30
0.0
 10
7.2572785524
 20
3.5022521179
 30
0.0
 10
7.2569259626
 20
3.501931002
 30
0.0
 10
7.2564981588
 20
3.5016132234
 30
0.0
 10
7.2559956111
 20
3.5012990029
 30
0.0
 10
7.2554189449
 20
3.5009887311
 30
0.0
 10
7.2547689507
 20
3.5006828834
 30
0.0
 10
7.2540465822
 20
3.5003820078
 30
0.0
 10
7.2532529623
 20
3.5000866175
 30
0.0
 10
7.2520616331
 20
3.4996876113
 30
0.0
 10
7.250401623
 20
3.4992121058
 30
0.0
 10
7.2490178503
 20
3.4988815242
 30
0.0
 10
7.2482835199
 20
3.498719457
 30
0.0
  0
SPLINE
  5
2DD
100
AcDbEntity
  8
0
100
AcDbSpline
 62
7
  6
CONTINUOUS
 70
0
 71
3
 72
25
 73
21
 74
0
 42
0.0000001
 43
0.0000001
 44
0.0000000001
 40
0.0
 40
0.0
 40
0.0
 40
0.0
 40
0.0052092135
 40
0.011157226
 40
0.018384957
 40
0.027198445
 40
0.0377622777
 40
0.0501649998
 40
0.0644562906
 40
0.0806636294
 40
0.1188535767
 40
0.1647287892
 40
0.2181827883
 40
0.2790525415
 40
0.347122411
 40
0.4221432265
 40
0.5038267145
 40
0.5918539588
 40
0.7855051463
 40
1.0
 40
1.0
 40
1.0
 40
1.0
 10
7.1847907242
 20
3.5139643995
 30
0.0
 10
7.1847907242
 20
3.5139515996
 30
0.0
 10
7.1847968134
 20
3.513923992
 30
0.0
 10
7.1848220746
 20
3.5138857552
 30
0.0
 10
7.1848620576
 20
3.5138489198
 30
0.0
 10
7.1849167943
 20
3.5138128362
 30
0.0
 10
7.1849864292
 20
3.5137772585
 30
0.0
 10
7.1850710508
 20
3.5137421452
 30
0.0
 10
7.185170664
 20
3.5137075139
 30
0.0
 10
7.1853324819
 20
3.5136593862
 30
0.0
 10
7.1855723292
 20
3.5136022837
 30
0.0
 10
7.1859043795
 20
3.5135392821
 30
0.0
 10
7.1862934401
 20
3.5134790398
 30
0.0
 10
7.1867379847
 20
3.5134218574
 30
0.0
 10
7.1872362788
 20
3.5133680309
 30
0.0
 10
7.1877863204
 20
3.5133178292
 30
0.0
 10
7.1883858936
 20
3.513271475
 30
0.0
 10
7.1892768497
 20
3.5132132385
 30
0.0
 10
7.1904946143
 20
3.5131529588
 30
0.0
 10
7.1914969785
 20
3.5131195532
 30
0.0
 10
7.1920238389
 20
3.5131054479
 30
0.0
  0
SPLINE
  5
2DE
100
AcDbEntity
  8
0
100
AcDbSpline
 62
7
  6
CONTINUOUS
 70
0
 71
3
 72
14
 73
10
 74
0
 42
0.0000001
 43
0.0000001
 44
0.0000000001
 40
0.0
 40
0.0
 40
0.0
 40
0.0
 40
0.0789837062
 40
0.1752056595
 40
0.2870387149
 40
0.4124689379
 40
0.5491632676
 40
0.6945307485
 40
1.0
 40
1.0
 40
1.0
 40
1.0
 10
7.1854054018
 20
3.5105277792
 30
0.0
 10
7.1856136919
 20
3.5104841704
 30
0.0
 10
7.1860797577
 20
3.5104068571
 30
0.0
 10
7.1868479957
 20
3.5103166862
 30
0.0
 10
7.1877436438
 20
3.5102430588
 30
0.0
 10
7.1887497674
 20
3.5101876676
 30
0.0
 10
7.1898471753
 20
3.5101518338
 30
0.0
 10
7.1914300912
 20
3.5101309699
 30
0.0
 10
7.1926449826
 20
3.5101471877
 30
0.0
 10
7.1934676595
 20
3.5101712063
 30
0.0
  0
SPLINE
  5
2DF
100
AcDbEntity
  8
0
100
AcDbSpline
 62
7
  6
CONTINUOUS
 70
0
 71
3
 72
25
 73
21
 74
0
 42
0.0000001
 43
0.0000001
 44
0.0000000001
 40
0.0
 40
0.0
 40
0.0
 40
0.0
 40
0.2144909326
 40
0.4081386404
 40
0.4961643577
 40
0.577846488
 40
0.6528661423
 40
0.7209350795
 40
0.7818041682
 40
0.835257821
 40
0.881133074
 40
0.9193235499
 40
0.9355313869
 40
0.949823369
 40
0.9622270176
 40
0.9727920718
 40
0.9816071604
 40
0.9888369784
 40
0.9947876519
 40
1.0
 40
1.0
 40
1.0
 40
1.0
 10
7.1920238389
 20
3.5126029386
 30
0.0
 10
7.1914969775
 20
3.5126170532
 30
0.0
 10
7.1904946115
 20
3.5126504806
 30
0.0
 10
7.1892768455
 20
3.5127107997
 30
0.0
 10
7.188385889
 20
3.5127690743
 30
0.0
 10
7.1877863157
 20
3.5128154588
 30
0.0
 10
7.1872362741
 20
3.5128656932
 30
0.0
 10
7.1867379802
 20
3.5129195548
 30
0.0
 10
7.1862934359
 20
3.5129767745
 30
0.0
 10
7.1859043755
 20
3.5130370561
 30
0.0
 10
7.1855723252
 20
3.5131000989
 30
0.0
 10
7.1853324786
 20
3.5131572387
 30
0.0
 10
7.185170662
 20
3.5132053974
 30
0.0
 10
7.1850710487
 20
3.5132400514
 30
0.0
 10
7.1849864271
 20
3.5132751878
 30
0.0
 10
7.1849167918
 20
3.513310789
 30
0.0
 10
7.1848620549
 20
3.5133468967
 30
0.0
 10
7.1848220718
 20
3.513383757
 30
0.0
 10
7.1847968121
 20
3.5134220191
 30
0.0
 10
7.1847907242
 20
3.5134496416
 30
0.0
 10
7.1847907242
 20
3.5134624495
 30
0.0
  0
SPLINE
  5
2E0
100
AcDbEntity
  8
0
100
AcDbSpline
 62
7
  6
CONTINUOUS
 70
0
 71
3
 72
32
 73
28
 74
0
 42
0.0000001
 43
0.0000001
 44
0.0000000001
 40
0.0
 40
0.0
 40
0.0
 40
0.0
 40
0.0156260219
 40
0.0312532979
 40
0.0468797281
 40
0.0625072691
 40
0.0781353229
 40
0.09376352
 40
0.1250029367
 40
0.1562484463
 40
0.1874977654
 40
0.218748968
 40
0.250000742
 40
0.2812531069
 40
0.3125060832
 40
0.3437582347
 40
0.3750108305
 40
0.4375075524
 40
0.5000062052
 40
0.5625055603
 40
0.6250051347
 40
0.6562565036
 40
0.6875074165
 40
0.7500076782
 40
0.8125074567
 40
0.8750077515
 40
1.0
 40
1.0
 40
1.0
 40
1.0
 10
7.11150982
 20
4.1754745478
 30
0.0
 10
7.11150982
 20
4.1760969729
 30
0.0
 10
7.1115769136
 20
4.1773428921
 30
0.0
 10
7.1118750231
 20
4.1791895681
 30
0.0
 10
7.1123603141
 20
4.1809960678
 30
0.0
 10
7.1130173776
 20
4.1827469509
 30
0.0
 10
7.1138284582
 20
4.1844317367
 30
0.0
 10
7.1150899204
 20
4.1865804862
 30
0.0
 10
7.1169615751
 20
4.189079459
 30
0.0
 10
7.1195525
 20
4.1917777233
 30
0.0
 10
7.1223990285
 20
4.1942026167
 30
0.0
 10
7.1254355345
 20
4.1963824508
 30
0.0
 10
7.1286154846
 20
4.1983454919
 30
0.0
 10
7.1319054266
 20
4.2001167514
 30
0.0
 10
7.1352810121
 20
4.2017177128
 30
0.0
 10
7.1387239094
 20
4.2031675218
 30
0.0
 10
7.1433857928
 20
4.2049193001
 30
0.0
 10
7.1493215983
 20
4.2068054221
 30
0.0
 10
7.1565567788
 20
4.2086690517
 30
0.0
 10
7.1638693326
 20
4.210198194
 30
0.0
 10
7.170007579
 20
4.2112354255
 30
0.0
 10
7.1749366045
 20
4.2119413192
 30
0.0
 10
7.1798760543
 20
4.2125704683
 30
0.0
 10
7.1860667592
 20
4.2132205813
 30
0.0
 10
7.1935131733
 20
4.2138063983
 30
0.0
 10
7.2034568922
 20
4.2143485164
 30
0.0
 10
7.2109266356
 20
4.2145057853
 30
0.0
 10
7.2159054018
 20
4.2145057853
 30
0.0
  0
SPLINE
  5
2E1
100
AcDbEntity
  8
0
100
AcDbSpline
 62
7
  6
CONTINUOUS
 70
0
 71
3
 72
47
 73
43
 74
0
 42
0.0000001
 43
0.0000001
 44
0.0000000001
 40
0.0
 40
0.0
 40
0.0
 40
0.0
 40
0.0254829578
 40
0.0501736239
 40
0.0735711995
 40
0.095512943
 40
0.1160577491
 40
0.1353613064
 40
0.153601547
 40
0.1709463065
 40
0.1875422365
 40
0.2035129966
 40
0.218961856
 40
0.2339743123
 40
0.2629526649
 40
0.2908933417
 40
0.3180978876
 40
0.3447786341
 40
0.3710868361
 40
0.3971317168
 40
0.4487186703
 40
0.5000000104
 40
0.551281354
 40
0.6028683405
 40
0.6289132274
 40
0.655221423
 40
0.6819021524
 40
0.7091066846
 40
0.7370473501
 40
0.7660256874
 40
0.7810381357
 40
0.7964869882
 40
0.8124577406
 40
0.8290536605
 40
0.8463984151
 40
0.86463866
 40
0.8839422155
 40
0.9044870268
 40
0.9264287692
 40
0.9498263527
 40
0.9745170189
 40
1.0
 40
1.0
 40
1.0
 40
1.0
 10
6.9201379661
 20
4.1754745478
 30
0.0
 10
6.9201379661
 20
4.1767124341
 30
0.0
 10
6.9202682541
 20
4.179151752
 30
0.0
 10
6.9208336703
 20
4.182686779
 30
0.0
 10
6.921708677
 20
4.185979957
 30
0.0
 10
6.9228234991
 20
4.1889848235
 30
0.0
 10
6.924116559
 20
4.1916977475
 30
0.0
 10
6.9255406155
 20
4.1941373632
 30
0.0
 10
6.9270615339
 20
4.1963304225
 30
0.0
 10
6.9286549897
 20
4.1983044133
 30
0.0
 10
6.9303037031
 20
4.2000844872
 30
0.0
 10
6.9319952541
 20
4.2016925159
 30
0.0
 10
6.9337201543
 20
4.2031478164
 30
0.0
 10
6.9360280506
 20
4.20488495
 30
0.0
 10
6.9389783584
 20
4.206768563
 30
0.0
 10
6.9426129456
 20
4.2086468203
 30
0.0
 10
6.9462821719
 20
4.2101850792
 30
0.0
 10
6.9499747421
 20
4.2114350316
 30
0.0
 10
6.9536835892
 20
4.2124359561
 30
0.0
 10
6.9586266705
 20
4.2134755662
 30
0.0
 10
6.9648455648
 20
4.2142946186
 30
0.0
 10
6.9723357584
 20
4.2146110544
 30
0.0
 10
6.9798259544
 20
4.2142946209
 30
0.0
 10
6.9860448484
 20
4.213475556
 30
0.0
 10
6.9909879347
 20
4.2124359616
 30
0.0
 10
6.9946967778
 20
4.2114350245
 30
0.0
 10
6.998389347
 20
4.2101850759
 30
0.0
 10
7.0020585722
 20
4.2086468193
 30
0.0
 10
7.0056931574
 20
4.2067685622
 30
0.0
 10
7.0086434634
 20
4.2048849496
 30
0.0
 10
7.0109513586
 20
4.2031478171
 30
0.0
 10
7.0126762582
 20
4.2016925174
 30
0.0
 10
7.0143678079
 20
4.2000844892
 30
0.0
 10
7.0160165216
 20
4.1983044171
 30
0.0
 10
7.0176099771
 20
4.1963304267
 30
0.0
 10
7.0191308954
 20
4.1941373674
 30
0.0
 10
7.0205549525
 20
4.1916977518
 30
0.0
 10
7.021848013
 20
4.1889848278
 30
0.0
 10
7.0229628357
 20
4.1859799609
 30
0.0
 10
7.023837843
 20
4.1826867828
 30
0.0
 10
7.0244032596
 20
4.1791517543
 30
0.0
 10
7.0245335479
 20
4.1767124353
 30
0.0
 10
7.0245335479
 20
4.1754745478
 30
0.0
  0
SPLINE
  5
2E2
100
AcDbEntity
  8
0
100
AcDbSpline
 62
7
  6
CONTINUOUS
 70
0
 71
3
 72
14
 73
10
 74
0
 42
0.0000001
 43
0.0000001
 44
0.0000000001
 40
0.0
 40
0.0
 40
0.0
 40
0.0
 40
0.3054687096
 40
0.4508359198
 40
0.587529992
 40
0.7129600157
 40
0.8247930528
 40
0.9210153372
 40
1.0
 40
1.0
 40
1.0
 40
1.0
 10
7.1934676595
 20
3.5096667772
 30
0.0
 10
7.1926449818
 20
3.5096427428
 30
0.0
 10
7.1914300883
 20
3.5096265143
 30
0.0
 10
7.1898471701
 20
3.5096473921
 30
0.0
 10
7.1887497611
 20
3.5096832496
 30
0.0
 10
7.1877436373
 20
3.5097386773
 30
0.0
 10
7.1868479896
 20
3.5098123532
 30
0.0
 10
7.1860797524
 20
3.5099025834
 30
0.0
 10
7.1856136894
 20
3.5099799473
 30
0.0
 10
7.1854054018
 20
3.5100235842
 30
0.0
  0
SPLINE
  5
2E3
100
AcDbEntity
  8
0
100
AcDbSpline
 62
7
  6
CONTINUOUS
 70
0
 71
3
 72
14
 73
10
 74
0
 42
0.0000001
 43
0.0000001
 44
0.0000000001
 40
0.0
 40
0.0
 40
0.0
 40
0.0
 40
0.0789590485
 40
0.1751669535
 40
0.2869957394
 40
0.4124293602
 40
0.5491319776
 40
0.6945099399
 40
1.0
 40
1.0
 40
1.0
 40
1.0
 10
7.2489054018
 20
3.509920276
 30
0.0
 10
7.2486970764
 20
3.5098773033
 30
0.0
 10
7.2482309407
 20
3.5098014381
 30
0.0
 10
7.2474626418
 20
3.509713695
 30
0.0
 10
7.2465669233
 20
3.5096429261
 30
0.0
 10
7.2455607412
 20
3.5095907707
 30
0.0
 10
7.2444633097
 20
3.5095584877
 30
0.0
 10
7.2428804387
 20
3.5095427695
 30
0.0
 10
7.2416656842
 20
3.509562957
 30
0.0
 10
7.240843144
 20
3.5095896675
 30
0.0
  0
SPLINE
  5
2E4
100
AcDbEntity
  8
0
100
AcDbSpline
 62
7
  6
CONTINUOUS
 70
0
 71
3
 72
23
 73
19
 74
0
 42
0.0000001
 43
0.0000001
 44
0.0000000001
 40
0.0
 40
0.0
 40
0.0
 40
0.0
 40
0.010129628
 40
0.0206238482
 40
0.03182465
 40
0.0440131594
 40
0.0721228133
 40
0.106124009
 40
0.1465606843
 40
0.1936641408
 40
0.2474827896
 40
0.3079439236
 40
0.3748896075
 40
0.4480966115
 40
0.5272848801
 40
0.6121253691
 40
0.7972324415
 40
1.0
 40
1.0
 40
1.0
 40
1.0
 10
7.2489054018
 20
3.5038965424
 30
0.0
 10
7.2489054018
 20
3.503846166
 30
0.0
 10
7.2488949284
 20
3.5037433235
 30
0.0
 10
7.2488482901
 20
3.5035911715
 30
0.0
 10
7.2487712252
 20
3.5034404657
 30
0.0
 10
7.248621302
 20
3.5032318535
 30
0.0
 10
7.2483499672
 20
3.502976574
 30
0.0
 10
7.2479253017
 20
3.5026919191
 30
0.0
 10
7.2473871715
 20
3.5024144224
 30
0.0
 10
7.246737146
 20
3.5021452018
 30
0.0
 10
7.2459773285
 20
3.5018853986
 30
0.0
 10
7.2451108345
 20
3.5016364128
 30
0.0
 10
7.2441414342
 20
3.5013995887
 30
0.0
 10
7.2430735469
 20
3.5011762537
 30
0.0
 10
7.2419121826
 20
3.5009676304
 30
0.0
 10
7.2401960125
 20
3.5007029569
 30
0.0
 10
7.2378612743
 20
3.5004221776
 30
0.0
 10
7.2359388441
 20
3.5002591131
 30
0.0
 10
7.2349329085
 20
3.500188675
 30
0.0
  0
SPLINE
  5
2E5
100
AcDbEntity
  8
0
100
AcDbSpline
 62
7
  6
CONTINUOUS
 70
0
 71
3
 72
47
 73
43
 74
0
 42
0.0000001
 43
0.0000001
 44
0.0000000001
 40
0.0
 40
0.0
 40
0.0
 40
0.0
 40
0.0254829583
 40
0.0501736243
 40
0.0735711999
 40
0.0955129433
 40
0.1160577494
 40
0.1353613068
 40
0.1536015474
 40
0.1709463069
 40
0.1875422367
 40
0.2035129966
 40
0.2189618558
 40
0.233974312
 40
0.2629526641
 40
0.2908933406
 40
0.3180978859
 40
0.3447786321
 40
0.3710868342
 40
0.3971317151
 40
0.4487186692
 40
0.5000000093
 40
0.5512813529
 40
0.6028683398
 40
0.628913227
 40
0.6552214228
 40
0.6819021523
 40
0.7091066845
 40
0.73704735
 40
0.7660256871
 40
0.7810381352
 40
0.7964869877
 40
0.8124577399
 40
0.8290536598
 40
0.8463984144
 40
0.8646386596
 40
0.8839422152
 40
0.9044870266
 40
0.9264287688
 40
0.9498263524
 40
0.9745170185
 40
1.0
 40
1.0
 40
1.0
 40
1.0
 10
7.4072772557
 20
4.1754745478
 30
0.0
 10
7.4072772557
 20
4.1767124341
 30
0.0
 10
7.4074075437
 20
4.1791517521
 30
0.0
 10
7.4079729599
 20
4.1826867791
 30
0.0
 10
7.4088479667
 20
4.185979957
 30
0.0
 10
7.4099627888
 20
4.1889848235
 30
0.0
 10
7.4112558487
 20
4.1916977476
 30
0.0
 10
7.4126799052
 20
4.1941373632
 30
0.0
 10
7.4142008236
 20
4.1963304225
 30
0.0
 10
7.4157942794
 20
4.1983044133
 30
0.0
 10
7.4174429928
 20
4.2000844872
 30
0.0
 10
7.4191345437
 20
4.2016925159
 30
0.0
 10
7.4208594439
 20
4.2031478164
 30
0.0
 10
7.4231673402
 20
4.20488495
 30
0.0
 10
7.4261176479
 20
4.2067685629
 30
0.0
 10
7.4297522351
 20
4.2086468203
 30
0.0
 10
7.4334214614
 20
4.210185079
 30
0.0
 10
7.4371140315
 20
4.2114350315
 30
0.0
 10
7.4408228786
 20
4.2124359563
 30
0.0
 10
7.44576596
 20
4.2134755659
 30
0.0
 10
7.4519848542
 20
4.2142946186
 30
0.0
 10
7.4594750478
 20
4.2146110544
 30
0.0
 10
7.4669652439
 20
4.2142946209
 30
0.0
 10
7.4731841379
 20
4.2134755561
 30
0.0
 10
7.4781272243
 20
4.2124359616
 30
0.0
 10
7.4818360674
 20
4.2114350245
 30
0.0
 10
7.4855286366
 20
4.2101850759
 30
0.0
 10
7.4891978618
 20
4.2086468193
 30
0.0
 10
7.492832447
 20
4.2067685622
 30
0.0
 10
7.4957827529
 20
4.2048849496
 30
0.0
 10
7.4980906482
 20
4.2031478171
 30
0.0
 10
7.4998155477
 20
4.2016925175
 30
0.0
 10
7.5015070974
 20
4.2000844892
 30
0.0
 10
7.5031558112
 20
4.1983044172
 30
0.0
 10
7.5047492667
 20
4.1963304268
 30
0.0
 10
7.506270185
 20
4.1941373675
 30
0.0
 10
7.5076942421
 20
4.1916977518
 30
0.0
 10
7.5089873026
 20
4.1889848279
 30
0.0
 10
7.5101021253
 20
4.1859799609
 30
0.0
 10
7.5109771326
 20
4.1826867828
 30
0.0
 10
7.5115425492
 20
4.1791517543
 30
0.0
 10
7.5116728375
 20
4.1767124353
 30
0.0
 10
7.5116728375
 20
4.1754745478
 30
0.0
  0
SPLINE
  5
2E6
100
AcDbEntity
  8
0
100
AcDbSpline
 62
7
  6
CONTINUOUS
 70
0
 71
3
 72
26
 73
22
 74
0
 42
0.0000001
 43
0.0000001
 44
0.0000000001
 40
0.0
 40
0.0
 40
0.0
 40
0.0
 40
0.2033681928
 40
0.2983778171
 40
0.388379868
 40
0.4730012663
 40
0.55190604
 40
0.6248002372
 40
0.6914344121
 40
0.7516139619
 40
0.8052093599
 40
0.8295224699
 40
0.8521816051
 40
0.8731995801
 40
0.8926001443
 40
0.9267031686
 40
0.9550679588
 40
0.9674434345
 40
0.978866673
 40
0.9896097477
 40
1.0
 40
1.0
 40
1.0
 40
1.0
 10
7.1984548761
 20
3.5003192306
 30
0.0
 10
7.197508763
 20
3.5003974952
 30
0.0
 10
7.1961221257
 20
3.5005326243
 30
0.0
 10
7.194323083
 20
3.5007578359
 30
0.0
 10
7.1930774036
 20
3.5009389125
 30
0.0
 10
7.1919101608
 20
3.5011350345
 30
0.0
 10
7.1908265834
 20
3.501345194
 30
0.0
 10
7.1898314536
 20
3.5015682988
 30
0.0
 10
7.188929047
 20
3.5018032101
 30
0.0
 10
7.1881231954
 20
3.502048754
 30
0.0
 10
7.1875164757
 20
3.5022677121
 30
0.0
 10
7.1870833769
 20
3.5024491098
 30
0.0
 10
7.1867953676
 20
3.5025826618
 30
0.0
 10
7.1865337227
 20
3.5027179969
 30
0.0
 10
7.1862331484
 20
3.5028933614
 30
0.0
 10
7.1859194492
 20
3.5031134218
 30
0.0
 10
7.1856682681
 20
3.5033603168
 30
0.0
 10
7.1855296279
 20
3.5035613763
 30
0.0
 10
7.1854582524
 20
3.503706731
 30
0.0
 10
7.1854150914
 20
3.5038532642
 30
0.0
 10
7.1854054018
 20
3.503952164
 30
0.0
 10
7.1854054018
 20
3.5040006668
 30
0.0
  0
SPLINE
  5
2E7
100
AcDbEntity
  8
0
100
AcDbSpline
 62
7
  6
CONTINUOUS
 70
0
 71
3
 72
31
 73
27
 74
0
 42
0.0000001
 43
0.0000001
 44
0.0000000001
 40
0.0
 40
0.0
 40
0.0
 40
0.0
 40
0.124992586
 40
0.1874930605
 40
0.2499928816
 40
0.3124931593
 40
0.374993558
 40
0.4374931914
 40
0.4999925749
 40
0.562491265
 40
0.6249880382
 40
0.6562407101
 40
0.6874928803
 40
0.7187458961
 40
0.7499983577
 40
0.7812501914
 40
0.8125014604
 40
0.8437508768
 40
0.874996512
 40
0.9062360528
 40
0.9218643065
 40
0.9374924369
 40
0.9531200451
 40
0.9687465292
 40
0.9843739039
 40
1.0
 40
1.0
 40
1.0
 40
1.0
 10
7.2159054018
 20
4.2145057853
 30
0.0
 10
7.2208841719
 20
4.2145057853
 30
0.0
 10
7.2283539254
 20
4.2143485129
 30
0.0
 10
7.2382976372
 20
4.213806397
 30
0.0
 10
7.2457440793
 20
4.2132206059
 30
0.0
 10
7.2531727574
 20
4.2124403154
 30
0.0
 10
7.2605756675
 20
4.2114427106
 30
0.0
 10
7.2679414324
 20
4.2101982433
 30
0.0
 10
7.2752539972
 20
4.2086690436
 30
0.0
 10
7.2824891637
 20
4.2068054342
 30
0.0
 10
7.2884249625
 20
4.2049193028
 30
0.0
 10
7.2930868505
 20
4.203167548
 30
0.0
 10
7.296529742
 20
4.201717729
 30
0.0
 10
7.2999053281
 20
4.2001167723
 30
0.0
 10
7.3031952771
 20
4.1983455242
 30
0.0
 10
7.306375227
 20
4.196382479
 30
0.0
 10
7.3094117344
 20
4.1942026442
 30
0.0
 10
7.3122582701
 20
4.1917777526
 30
0.0
 10
7.3148492036
 20
4.1890794873
 30
0.0
 10
7.3167208656
 20
4.1865805121
 30
0.0
 10
7.3179823333
 20
4.1844317594
 30
0.0
 10
7.3187934182
 20
4.1827469708
 30
0.0
 10
7.319450484
 20
4.1809960839
 30
0.0
 10
7.3199357778
 20
4.1791895796
 30
0.0
 10
7.3202338887
 20
4.1773428984
 30
0.0
 10
7.3203009836
 20
4.1760969746
 30
0.0
 10
7.3203009836
 20
4.1754745478
 30
0.0
  0
SPLINE
  5
2E8
100
AcDbEntity
  8
0
100
AcDbSpline
 62
7
  6
CONTINUOUS
 70
0
 71
3
 72
58
 73
54
 74
0
 42
0.0000001
 43
0.0000001
 44
0.0000000001
 40
0.0
 40
0.0
 40
0.0
 40
0.0
 40
0.015546083
 40
0.0311740505
 40
0.0469031048
 40
0.0627621771
 40
0.0787868336
 40
0.0950221612
 40
0.1115215543
 40
0.1283367329
 40
0.1368798401
 40
0.1455063939
 40
0.154205718
 40
0.1629586291
 40
0.17173821
 40
0.1805133502
 40
0.1892536312
 40
0.1979340872
 40
0.2065379513
 40
0.2150565519
 40
0.2318247298
 40
0.24828341
 40
0.2644859703
 40
0.2804847807
 40
0.2963237096
 40
0.312037194
 40
0.3276517717
 40
0.3431883409
 40
0.3586624862
 40
0.3894657682
 40
0.4201381017
 40
0.4507234189
 40
0.4659937028
 40
0.4812517798
 40
0.5117395193
 40
0.5422005944
 40
0.5574245181
 40
0.5726447357
 40
0.6030767898
 40
0.6335019234
 40
0.6639235892
 40
0.6943448889
 40
0.7247686913
 40
0.7551984876
 40
0.7856382592
 40
0.8160937962
 40
0.8313301938
 40
0.8465739728
 40
0.877088369
 40
0.907655137
 40
0.9382997991
 40
0.9690611537
 40
1.0
 40
1.0
 40
1.0
 40
1.0
 10
6.9901537623
 20
2.3299848572
 30
0.0
 10
6.9890085589
 20
2.3294973966
 30
0.0
 10
6.9867332294
 20
2.3284691502
 30
0.0
 10
6.9833917148
 20
2.3267521342
 30
0.0
 10
6.9801326964
 20
2.3248320346
 30
0.0
 10
6.9769827141
 20
2.3226794303
 30
0.0
 10
6.9739794674
 20
2.3202591299
 30
0.0
 10
6.9711777778
 20
2.3175308322
 30
0.0
 10
6.9686588103
 20
2.314453813
 30
0.0
 10
6.9669012918
 20
2.3115839669
 30
0.0
 10
6.9657728087
 20
2.3091049196
 30
0.0
 10
6.9650845478
 20
2.307148335
 30
0.0
 10
6.964581881
 20
2.3051184037
 30
0.0
 10
6.9642842081
 20
2.3030357157
 30
0.0
 10
6.9642044995
 20
2.300927129
 30
0.0
 10
6.9643464048
 20
2.2988228567
 30
0.0
 10
6.9647034708
 20
2.2967525278
 30
0.0
 10
6.9652605691
 20
2.2947414737
 30
0.0
 10
6.9659970664
 20
2.2928083283
 30
0.0
 10
6.9671809401
 20
2.2903637853
 30
0.0
 10
6.9689925358
 20
2.2875393241
 30
0.0
 10
6.9715574313
 20
2.2845138111
 30
0.0
 10
6.974391684
 20
2.2818314348
 30
0.0
 10
6.9774184269
 20
2.2794511414
 30
0.0
 10
6.9805857695
 20
2.2773332746
 30
0.0
 10
6.9838578483
 20
2.2754436001
 30
0.0
 10
6.9872093026
 20
2.2737529418
 30
0.0
 10
6.9906221173
 20
2.2722373697
 30
0.0
 10
6.9952288326
 20
2.2704258084
 30
0.0
 10
7.0010866605
 20
2.2685006393
 30
0.0
 10
7.0082188561
 20
2.2666284294
 30
0.0
 10
7.0142169563
 20
2.265367844
 30
0.0
 10
7.019034234
 20
2.2645101658
 30
0.0
 10
7.0238590997
 20
2.263744369
 30
0.0
 10
7.0299088913
 20
2.262945359
 30
0.0
 10
7.0359765332
 20
2.2623253754
 30
0.0
 10
7.0408362301
 20
2.261924245
 30
0.0
 10
7.0456980864
 20
2.2615817995
 30
0.0
 10
7.0517808916
 20
2.2612591757
 30
0.0
 10
7.0590854585
 20
2.2610243818
 30
0.0
 10
7.066392368
 20
2.2609346829
 30
0.0
 10
7.0736995385
 20
2.2609851344
 30
0.0
 10
7.0810049798
 20
2.2611793856
 30
0.0
 10
7.088306486
 20
2.2615228433
 30
0.0
 10
7.0956010723
 20
2.2620301304
 30
0.0
 10
7.1016699903
 20
2.2626036909
 30
0.0
 10
7.1065161243
 20
2.2631667335
 30
0.0
 10
7.1113577618
 20
2.2638042381
 30
0.0
 10
7.117395712
 20
2.2647530088
 30
0.0
 10
7.124602356
 20
2.266176029
 30
0.0
 10
7.1317545701
 20
2.2679412307
 30
0.0
 10
7.1388232154
 20
2.2701227486
 30
0.0
 10
7.1434334499
 20
2.2719149495
 30
0.0
 10
7.1456990649
 20
2.2729161803
 30
0.0
  0
SPLINE
  5
2E9
100
AcDbEntity
  8
0
100
AcDbSpline
 62
7
  6
CONTINUOUS
 70
0
 71
3
 72
58
 73
54
 74
0
 42
0.0000001
 43
0.0000001
 44
0.0000000001
 40
0.0
 40
0.0
 40
0.0
 40
0.0
 40
0.015546083
 40
0.0311740505
 40
0.0469031048
 40
0.0627621772
 40
0.0787868337
 40
0.0950221613
 40
0.1115215545
 40
0.1283367331
 40
0.1368798403
 40
0.1455063942
 40
0.1542057183
 40
0.1629586293
 40
0.1717382103
 40
0.1805133505
 40
0.1892536314
 40
0.1979340874
 40
0.2065379515
 40
0.2150565521
 40
0.2318247299
 40
0.24828341
 40
0.2644859701
 40
0.2804847805
 40
0.2963237093
 40
0.3120371938
 40
0.3276517714
 40
0.3431883406
 40
0.3586624858
 40
0.3894657678
 40
0.4201381012
 40
0.4507234184
 40
0.4659937023
 40
0.4812517793
 40
0.5117395189
 40
0.542200594
 40
0.5574245177
 40
0.5726447353
 40
0.6030767893
 40
0.633501923
 40
0.6639235888
 40
0.6943448885
 40
0.7247686909
 40
0.7551984872
 40
0.7856382588
 40
0.8160937958
 40
0.8313301934
 40
0.8465739724
 40
0.8770883687
 40
0.9076551367
 40
0.9382997989
 40
0.9690611535
 40
1.0
 40
1.0
 40
1.0
 40
1.0
 10
7.2871537623
 20
2.3299848572
 30
0.0
 10
7.2860085589
 20
2.3294973965
 30
0.0
 10
7.2837332293
 20
2.3284691502
 30
0.0
 10
7.2803917146
 20
2.3267521341
 30
0.0
 10
7.2771326962
 20
2.3248320344
 30
0.0
 10
7.2739827139
 20
2.3226794301
 30
0.0
 10
7.2709794671
 20
2.3202591296
 30
0.0
 10
7.2681777774
 20
2.3175308319
 30
0.0
 10
7.26565881
 20
2.3144538125
 30
0.0
 10
7.2639012915
 20
2.3115839663
 30
0.0
 10
7.2627728084
 20
2.3091049189
 30
0.0
 10
7.2620845476
 20
2.3071483342
 30
0.0
 10
7.2615818809
 20
2.3051184029
 30
0.0
 10
7.261284208
 20
2.3030357148
 30
0.0
 10
7.2612044996
 20
2.3009271281
 30
0.0
 10
7.2613464049
 20
2.2988228557
 30
0.0
 10
7.261703471
 20
2.2967525268
 30
0.0
 10
7.2622605694
 20
2.2947414727
 30
0.0
 10
7.2629970668
 20
2.2928083273
 30
0.0
 10
7.2641809407
 20
2.2903637843
 30
0.0
 10
7.2659925365
 20
2.2875393232
 30
0.0
 10
7.2685574322
 20
2.2845138102
 30
0.0
 10
7.271391685
 20
2.2818314339
 30
0.0
 10
7.274418428
 20
2.2794511407
 30
0.0
 10
7.2775857707
 20
2.2773332739
 30
0.0
 10
7.2808578496
 20
2.2754435994
 30
0.0
 10
7.284209304
 20
2.2737529411
 30
0.0
 10
7.2876221188
 20
2.2722373691
 30
0.0
 10
7.2922288342
 20
2.2704258079
 30
0.0
 10
7.2980866623
 20
2.2685006388
 30
0.0
 10
7.305218858
 20
2.266628429
 30
0.0
 10
7.3112169583
 20
2.2653678436
 30
0.0
 10
7.3160342361
 20
2.2645101654
 30
0.0
 10
7.3208591019
 20
2.2637443686
 30
0.0
 10
7.3269088936
 20
2.2629453587
 30
0.0
 10
7.3329765357
 20
2.2623253752
 30
0.0
 10
7.3378362327
 20
2.2619242448
 30
0.0
 10
7.3426980891
 20
2.2615817994
 30
0.0
 10
7.3487808944
 20
2.2612591756
 30
0.0
 10
7.3560854615
 20
2.2610243817
 30
0.0
 10
7.3633923711
 20
2.2609346829
 30
0.0
 10
7.3706995418
 20
2.2609851345
 30
0.0
 10
7.3780049833
 20
2.2611793857
 30
0.0
 10
7.3853064896
 20
2.2615228435
 30
0.0
 10
7.392601076
 20
2.2620301307
 30
0.0
 10
7.3986699942
 20
2.2626036913
 30
0.0
 10
7.4035161282
 20
2.263166734
 30
0.0
 10
7.4083577658
 20
2.2638042387
 30
0.0
 10
7.4143957161
 20
2.2647530095
 30
0.0
 10
7.4216023603
 20
2.2661760299
 30
0.0
 10
7.4287545744
 20
2.2679412319
 30
0.0
 10
7.4358232198
 20
2.2701227502
 30
0.0
 10
7.4404334544
 20
2.2719149514
 30
0.0
 10
7.4426990694
 20
2.2729161823
 30
0.0
  0
SPLINE
  5
2EA
100
AcDbEntity
  8
0
100
AcDbSpline
 62
7
  6
CONTINUOUS
 70
0
 71
3
 72
23
 73
19
 74
0
 42
0.0000001
 43
0.0000001
 44
0.0000000001
 40
0.0
 40
0.0
 40
0.0
 40
0.0
 40
0.0631208806
 40
0.1260756036
 40
0.1888414225
 40
0.2514072799
 40
0.3137747991
 40
0.3759646706
 40
0.4380191276
 40
0.4999999892
 40
0.5619808418
 40
0.6240352897
 40
0.6862251836
 40
0.7485927241
 40
0.8111585906
 40
0.8739244136
 40
0.93687913
 40
1.0
 40
1.0
 40
1.0
 40
1.0
 10
7.2871537623
 20
2.3299848572
 30
0.0
 10
7.2902516174
 20
2.3313034721
 30
0.0
 10
7.2964709043
 20
2.3338638175
 30
0.0
 10
7.3058977336
 20
2.3374176106
 30
0.0
 10
7.3154218297
 20
2.3406127974
 30
0.0
 10
7.3250486108
 20
2.3433761346
 30
0.0
 10
7.3347765803
 20
2.3456319223
 30
0.0
 10
7.3445947441
 20
2.3473074846
 30
0.0
 10
7.354481462
 20
2.348341041
 30
0.0
 10
7.3644053996
 20
2.3486905509
 30
0.0
 10
7.3743293367
 20
2.3483410413
 30
0.0
 10
7.3842160548
 20
2.3473074854
 30
0.0
 10
7.3940342206
 20
2.3456319229
 30
0.0
 10
7.4037621927
 20
2.3433761345
 30
0.0
 10
7.4133889756
 20
2.3406127968
 30
0.0
 10
7.4229130722
 20
2.3374176104
 30
0.0
 10
7.4323399002
 20
2.333863816
 30
0.0
 10
7.4385591867
 20
2.3313034719
 30
0.0
 10
7.4416570413
 20
2.3299848572
 30
0.0
  0
SPLINE
  5
2EB
100
AcDbEntity
  8
0
100
AcDbSpline
 62
7
  6
CONTINUOUS
 70
0
 71
3
 72
23
 73
19
 74
0
 42
0.0000001
 43
0.0000001
 44
0.0000000001
 40
0.0
 40
0.0
 40
0.0
 40
0.0
 40
0.0631208692
 40
0.1260755846
 40
0.188841407
 40
0.2514072732
 40
0.3137748136
 40
0.375964708
 40
0.4380191569
 40
0.5000000108
 40
0.5619808735
 40
0.6240353315
 40
0.6862252036
 40
0.7485927229
 40
0.8111585799
 40
0.8739243984
 40
0.9368791203
 40
1.0
 40
1.0
 40
1.0
 40
1.0
 10
6.9901537623
 20
2.3299848572
 30
0.0
 10
6.9932516169
 20
2.3313034718
 30
0.0
 10
6.9994709033
 20
2.3338638159
 30
0.0
 10
7.0088977311
 20
2.3374176104
 30
0.0
 10
7.0184218276
 20
2.3406127967
 30
0.0
 10
7.0280486105
 20
2.3433761343
 30
0.0
 10
7.0377765826
 20
2.3456319228
 30
0.0
 10
7.0475947484
 20
2.3473074853
 30
0.0
 10
7.0574814667
 20
2.3483410413
 30
0.0
 10
7.067405404
 20
2.3486905509
 30
0.0
 10
7.0773293417
 20
2.348341041
 30
0.0
 10
7.0872160598
 20
2.3473074845
 30
0.0
 10
7.0970342237
 20
2.3456319222
 30
0.0
 10
7.1067621932
 20
2.3433761345
 30
0.0
 10
7.1163889743
 20
2.3406127973
 30
0.0
 10
7.1259130702
 20
2.3374176105
 30
0.0
 10
7.1353398994
 20
2.3338638174
 30
0.0
 10
7.1415591862
 20
2.3313034721
 30
0.0
 10
7.1446570413
 20
2.3299848572
 30
0.0
  0
SPLINE
  5
2EC
100
AcDbEntity
  8
0
100
AcDbSpline
 62
7
  6
CONTINUOUS
 70
0
 71
3
 72
25
 73
21
 74
0
 42
0.0000001
 43
0.0000001
 44
0.0000000001
 40
0.0
 40
0.0
 40
0.0
 40
0.0
 40
0.0095335078
 40
0.01948452
 40
0.0302288558
 40
0.0420647125
 40
0.0552118707
 40
0.0698264441
 40
0.0860146069
 40
0.1038466773
 40
0.1445953655
 40
0.1922508889
 40
0.2467887655
 40
0.3080646492
 40
0.3758455863
 40
0.4498267921
 40
0.5296429391
 40
0.6148761768
 40
0.7996716861
 40
1.0
 40
1.0
 40
1.0
 40
1.0
 10
7.1854054018
 20
3.5045088425
 30
0.0
 10
7.1854054018
 20
3.5044536454
 30
0.0
 10
7.1854180872
 20
3.5043404782
 30
0.0
 10
7.1854743279
 20
3.5041735609
 30
0.0
 10
7.1855670205
 20
3.5040085302
 30
0.0
 10
7.1856954511
 20
3.5038455263
 30
0.0
 10
7.185859182
 20
3.5036843548
 30
0.0
 10
7.1860580071
 20
3.5035249874
 30
0.0
 10
7.186291714
 20
3.503367447
 30
0.0
 10
7.1866665128
 20
3.5031502938
 30
0.0
 10
7.1872244716
 20
3.5028888694
 30
0.0
 10
7.1879996819
 20
3.5025975432
 30
0.0
 10
7.1889043878
 20
3.5023179742
 30
0.0
 10
7.1899338469
 20
3.5020519476
 30
0.0
 10
7.1910825948
 20
3.5018012467
 30
0.0
 10
7.1923442072
 20
3.5015675504
 30
0.0
 10
7.193711474
 20
3.5013524153
 30
0.0
 10
7.1957194474
 20
3.5010850973
 30
0.0
 10
7.1984297874
 20
3.5008126148
 30
0.0
 10
7.2006551964
 20
3.500666297
 30
0.0
 10
7.2018135651
 20
3.500607476
 30
0.0
  0
SPLINE
  5
2ED
100
AcDbEntity
  8
0
100
AcDbSpline
 62
7
  6
CONTINUOUS
 70
0
 71
3
 72
25
 73
21
 74
0
 42
0.0000001
 43
0.0000001
 44
0.0000000001
 40
0.0
 40
0.0
 40
0.0
 40
0.0
 40
0.2004042098
 40
0.3852585888
 40
0.4705123472
 40
0.5503419096
 40
0.6243288078
 40
0.6921073748
 40
0.7533728133
 40
0.8078925505
 40
0.855523125
 40
0.8962415998
 40
0.9140573713
 40
0.9302290092
 40
0.944827424
 40
0.9579596104
 40
0.9697827287
 40
0.980517859
 40
0.9904646202
 40
1.0
 40
1.0
 40
1.0
 40
1.0
 10
7.2324972385
 20
3.5005569392
 30
0.0
 10
7.2336555333
 20
3.5006119447
 30
0.0
 10
7.2358808447
 20
3.5007509328
 30
0.0
 10
7.2385913161
 20
3.5010145217
 30
0.0
 10
7.2405994605
 20
3.5012752814
 30
0.0
 10
7.2419668085
 20
3.5014859567
 30
0.0
 10
7.243228486
 20
3.5017155478
 30
0.0
 10
7.244377274
 20
3.5019625194
 30
0.0
 10
7.2454067429
 20
3.5022252106
 30
0.0
 10
7.2463114282
 20
3.5025018535
 30
0.0
 10
7.2470865912
 20
3.5027906751
 30
0.0
 10
7.2476445238
 20
3.5030503117
 30
0.0
 10
7.248019291
 20
3.5032662707
 30
0.0
 10
7.248252959
 20
3.5034230587
 30
0.0
 10
7.2484517474
 20
3.5035817876
 30
0.0
 10
7.2486154456
 20
3.503742436
 30
0.0
 10
7.2487438486
 20
3.5039050348
 30
0.0
 10
7.2488365167
 20
3.5040697794
 30
0.0
 10
7.2488927336
 20
3.504236526
 30
0.0
 10
7.2489054018
 20
3.5043496128
 30
0.0
 10
7.2489054018
 20
3.5044047874
 30
0.0
  0
SPLINE
  5
2EE
100
AcDbEntity
  8
0
100
AcDbSpline
 62
7
  6
CONTINUOUS
 70
0
 71
3
 72
14
 73
10
 74
0
 42
0.0000001
 43
0.0000001
 44
0.0000000001
 40
0.0
 40
0.0
 40
0.0
 40
0.0
 40
0.3054905564
 40
0.4508687676
 40
0.5875716371
 40
0.7130054409
 40
0.8248342701
 40
0.9210418701
 40
1.0
 40
1.0
 40
1.0
 40
1.0
 10
7.240843144
 20
3.5100941472
 30
0.0
 10
7.2416656835
 20
3.5100674543
 30
0.0
 10
7.242880436
 20
3.51004728
 30
0.0
 10
7.2444633046
 20
3.5100629878
 30
0.0
 10
7.2455607351
 20
3.5100952494
 30
0.0
 10
7.2465669169
 20
3.5101473704
 30
0.0
 10
7.2474626358
 20
3.5102180927
 30
0.0
 10
7.2482309355
 20
3.5103057781
 30
0.0
 10
7.2486970739
 20
3.5103815937
 30
0.0
 10
7.2489054018
 20
3.5104245388
 30
0.0
  0
SPLINE
  5
2EF
100
AcDbEntity
  8
0
100
AcDbSpline
 62
7
  6
CONTINUOUS
 70
0
 71
3
 72
31
 73
27
 74
0
 42
0.0000001
 43
0.0000001
 44
0.0000000001
 40
0.0
 40
0.0
 40
0.0
 40
0.0
 40
0.0595197195
 40
0.1194938865
 40
0.1800846618
 40
0.2415176573
 40
0.2726590503
 40
0.3041331373
 40
0.3359830372
 40
0.3682442044
 40
0.4009295374
 40
0.4340088923
 40
0.4673908974
 40
0.5009194767
 40
0.5344013419
 40
0.5676557162
 40
0.600555664
 40
0.6330405004
 40
0.665103078
 40
0.6967691786
 40
0.7280799516
 40
0.759079849
 40
0.8202887975
 40
0.8807154526
 40
0.9405701906
 40
1.0
 40
1.0
 40
1.0
 40
1.0
 10
7.1456990649
 20
2.2729161803
 30
0.0
 10
7.1471647133
 20
2.2735638862
 30
0.0
 10
7.1500699072
 20
2.274951355
 30
0.0
 10
7.1542923528
 20
2.277343349
 30
0.0
 10
7.1583423015
 20
2.2801129061
 30
0.0
 10
7.1614943037
 20
2.2827878112
 30
0.0
 10
7.1638200499
 20
2.285187859
 30
0.0
 10
7.1654523016
 20
2.2871415807
 30
0.0
 10
7.1669341811
 20
2.2892494905
 30
0.0
 10
7.1682283838
 20
2.291516318
 30
0.0
 10
7.1692903461
 20
2.293938227
 30
0.0
 10
7.1700713687
 20
2.2964976107
 30
0.0
 10
7.1705258574
 20
2.2991587258
 30
0.0
 10
7.1706222829
 20
2.3018680352
 30
0.0
 10
7.1703534627
 20
2.3045620676
 30
0.0
 10
7.1697390691
 20
2.3071806252
 30
0.0
 10
7.1688187037
 20
2.3096780995
 30
0.0
 10
7.1676406589
 20
2.3120276796
 30
0.0
 10
7.1662522966
 20
2.3142189666
 30
0.0
 10
7.1646949497
 20
2.3162527958
 30
0.0
 10
7.1630023532
 20
2.3181364294
 30
0.0
 10
7.1606114692
 20
2.3204507833
 30
0.0
 10
7.1574011113
 20
2.3230309042
 30
0.0
 10
7.1533043538
 20
2.3257046911
 30
0.0
 10
7.1490493428
 20
2.328016429
 30
0.0
 10
7.1461291941
 20
2.3293582292
 30
0.0
 10
7.1446570413
 20
2.3299848572
 30
0.0
  0
SPLINE
  5
2F0
100
AcDbEntity
  8
0
100
AcDbSpline
 62
7
  6
CONTINUOUS
 70
0
 71
3
 72
31
 73
27
 74
0
 42
0.0000001
 43
0.0000001
 44
0.0000000001
 40
0.0
 40
0.0
 40
0.0
 40
0.0
 40
0.0595197197
 40
0.119493887
 40
0.1800846627
 40
0.2415176589
 40
0.2726590522
 40
0.3041331397
 40
0.33598304
 40
0.3682442076
 40
0.400929541
 40
0.4340088962
 40
0.4673909015
 40
0.5009194808
 40
0.5344013457
 40
0.5676557196
 40
0.600555667
 40
0.6330405029
 40
0.6651030801
 40
0.6967691803
 40
0.7280799531
 40
0.7590798502
 40
0.8202887983
 40
0.8807154531
 40
0.9405701909
 40
1.0
 40
1.0
 40
1.0
 40
1.0
 10
7.4426990694
 20
2.2729161823
 30
0.0
 10
7.4441647177
 20
2.2735638882
 30
0.0
 10
7.4470699112
 20
2.2749513571
 30
0.0
 10
7.4512923565
 20
2.2773433513
 30
0.0
 10
7.4553423047
 20
2.2801129086
 30
0.0
 10
7.4584943066
 20
2.2827878138
 30
0.0
 10
7.4608200524
 20
2.2851878618
 30
0.0
 10
7.4624523038
 20
2.2871415835
 30
0.0
 10
7.463934183
 20
2.2892494935
 30
0.0
 10
7.4652283853
 20
2.291516321
 30
0.0
 10
7.4662903472
 20
2.29393823
 30
0.0
 10
7.4670713694
 20
2.2964976138
 30
0.0
 10
7.4675258577
 20
2.2991587287
 30
0.0
 10
7.4676222828
 20
2.301868038
 30
0.0
 10
7.4673534623
 20
2.3045620701
 30
0.0
 10
7.4667390684
 20
2.3071806275
 30
0.0
 10
7.4658187028
 20
2.3096781015
 30
0.0
 10
7.4646406579
 20
2.3120276814
 30
0.0
 10
7.4632522955
 20
2.3142189681
 30
0.0
 10
7.4616949486
 20
2.316252797
 30
0.0
 10
7.4600023522
 20
2.3181364305
 30
0.0
 10
7.4576114683
 20
2.3204507841
 30
0.0
 10
7.4544011105
 20
2.3230309047
 30
0.0
 10
7.4503043533
 20
2.3257046915
 30
0.0
 10
7.4460493425
 20
2.3280164291
 30
0.0
 10
7.443129194
 20
2.3293582292
 30
0.0
 10
7.4416570413
 20
2.3299848572
 30
0.0
  0
ENDSEC
  0
SECTION
  2
OBJECTS
  0
DICTIONARY
  5
C
100
AcDbDictionary
280
0
281
1
  3
ACAD_GROUP
350
D
  3
ACAD_MLINESTYLE
350
17
  3
ACAD_LAYOUT
350
1A
  3
ACAD_PLOTSETTINGS
350
19
  3
ACAD_PLOTSTYLENAME
350
E
  0
DICTIONARY
  5
D
102
{ACAD_REACTORS
330
C
102
}
100
AcDbDictionary
280
0
281
1
  0
ACDBDICTIONARYWDFLT
  5
E
102
{ACAD_REACTORS
330
C
102
}
100
AcDbDictionary
281
1
  3
Normal
350
F
100
AcDbDictionaryWithDefault
340
F
  0
DICTIONARY
  5
17
102
{ACAD_REACTORS
330
C
102
}
100
AcDbDictionary
280
0
281
1
  3
Standard
350
18
  0
DICTIONARY
  5
19
102
{ACAD_REACTORS
330
C
102
}
100
AcDbDictionary
281
1
  0
DICTIONARY
  5
1A
102
{ACAD_REACTORS
330
C
102
}
100
AcDbDictionary
281
1
  3
Model
350
2F1
  3
Layout1
350
2F2
  0
ACDBPLACEHOLDER
  5
F
102
{ACAD_REACTORS
330
E
102
}
  0
MLINESTYLE
  5
18
102
{ACAD_REACTORS
330
17
102
}
100
AcDbMlineStyle
  2
STANDARD
 70
0
  3

 62
256
 51
90.0
 52
90.0
 71
2
 49
0.5
 62
256
  6
BYLAYER
 49
-0.5
 62
256
  6
BYLAYER
  0
LAYOUT
  5
2F1
102
{ACAD_REACTORS
330
1A
102
}
100
AcDbPlotSettings
  1

  2
none_device
  4
ANSI_A_(11.00_x_8.50_Inches)
  6

 40
0.0
 41
0.0
 42
0.0
 43
0.0
 44
279.4
 45
215.9
 46
0.0
 47
0.0
 48
0.0
 49
0.0
140
0.0
141
0.0
142
1.0
143
1.0
 70
1024
 72
0
 73
0
 74
0
  7

 75
0
147
1.0
148
0.0
149
0.0
100
AcDbLayout
  1
Model
 70
0
 71
0
 10
0.0
 20
0.0
 11
11.0
 21
8.5
 12
0.0
 22
0.0
 32
0.0
 14
0.0
 24
0.0
 34
0.0
 15
0.0
 25
0.0
 35
0.0
146
0.0
 13
0.0
 23
0.0
 33
0.0
 16
1.0
 26
0.0
 36
0.0
 17
0.0
 27
1.0
 37
0.0
 76
0
330
202
345
0
346
0
  0
LAYOUT
  5
2F2
102
{ACAD_REACTORS
330
1A
102
}
100
AcDbPlotSettings
  1

  2
none_device
  4
ANSI_A_(11.00_x_8.50_Inches)
  6

 40
0.0
 41
0.0
 42
0.0
 43
0.0
 44
279.4
 45
215.9
 46
0.0
 47
0.0
 48
0.0
 49
0.0
140
0.0
141
0.0
142
1.0
143
1.0
 70
0
 72
0
 73
0
 74
0
  7

 75
0
147
1.0
148
0.0
149
0.0
100
AcDbLayout
  1
Layout1
 70
0
 71
1
 10
0.0
 20
0.0
 11
11.0
 21
8.5
 12
0.0
 22
0.0
 32
0.0
 14
0.0
 24
0.0
 34
0.0
 15
0.0
 25
0.0
 35
0.0
146
0.0
 13
0.0
 23
0.0
 33
0.0
 16
1.0
 26
0.0
 36
0.0
 17
0.0
 27
1.0
 37
0.0
 76
0
330
203
345
0
346
0
  0
ENDSEC
  0
EOF
