999
DXF file: 9458_front.dxf
999
Pro/ENGINEER 2018400 by Parametric Technology Corporation
  0
SECTION
  2
HEADER
  9
$ACADVER
  1
AC1027
  9
$DWGCODEPAGE
  3
ANSI_1252
  9
$EXTMAX
 10
11.0
 20
8.5
 30
0.0
  9
$EXTMIN
 10
0.0
 20
0.0
 30
0.0
  9
$LIMMIN
 10
0.0
 20
0.0
  9
$LIMMAX
 10
11.0
 20
8.5
  9
$VIEWCTR
 10
5.5
 20
4.25
  9
$VIEWSIZE
 40
8.5
  9
$CLAYER
  8
0
  9
$LTSCALE
 40
0.605
  9
$CELTYPE
  6
BYLAYER
  9
$DIMSCALE
 40
1.0
  9
$DIMASZ
 40
0.1
  9
$DIMEXO
 40
0.0625
  9
$DIMDLI
 40
0.418
  9
$DIMEXE
 40
0.125
  9
$DIMCEN
 40
0.099
  9
$DIMLFAC
 40
1.0
  9
$DIMBLK
  1
_FILLED
  9
$DIMALT
 70
1
  9
$DIMALTD
 70
1
  9
$DIMALTTD
 70
2
  9
$DIMALTF
 40
25.4
  9
$DIMTXT
 40
0.08
  9
$DIMTOL
 70
1
  9
$DIMLIM
 70
0
  9
$DIMTFAC
 40
1.0
  9
$DIMTP
 40
0.01
  9
$DIMTM
 40
0.01
  9
$DIMGAP
 40
0.09
  9
$DIMDSEP
 70
46
  9
$AUNITS
 70
0
  9
$PDMODE
 70
3
  9
$PDSIZE
 40
0.3125
  9
$HANDSEED
  5
60B
  9
$TILEMODE
 70
1
  9
$MEASUREMENT
 70
0
  9
$INSUNITS
 70
1
  0
ENDSEC
  0
SECTION
  2
CLASSES
  0
CLASS
  1
ACDBDICTIONARYWDFLT
  2
AcDbDictionaryWithDefault
  3
AutoCAD 2000
 90
0
 91
1
280
0
281
0
  0
CLASS
  1
ACDBPLACEHOLDER
  2
AcDbPlaceHolder
  3
AutoCAD 2000
 90
0
 91
1
280
0
281
0
  0
CLASS
  1
LAYOUT
  2
AcDbLayout
  3
AutoCAD 2000
 90
0
 91
0
280
0
281
0
  0
ENDSEC
  0
SECTION
  2
TABLES
  0
TABLE
  2
VPORT
  5
8
100
AcDbSymbolTable
 70
2
  0
VPORT
  5
1F4
100
AcDbSymbolTableRecord
100
AcDbViewportTableRecord
  2
*ACTIVE
 70
0
 10
0.0
 20
0.0
 11
1.0
 21
1.0
 12
5.5
 22
4.25
 13
0.0
 23
0.0
 14
1.0
 24
1.0
 15
0.0
 25
0.0
 16
0.0
 26
0.0
 36
1.0
 17
0.0
 27
0.0
 37
0.0
 40
8.5
 41
1.2941176471
 42
50.0
 43
0.0
 44
0.0
 50
0.0
 51
0.0
 71
0
 72
100
 73
1
 74
1
 75
0
 76
0
 77
0
 78
0
  0
ENDTAB
  0
TABLE
  2
LTYPE
  5
5
100
AcDbSymbolTable
 70
6
  0
LTYPE
  5
14
100
AcDbSymbolTableRecord
100
AcDbLinetypeTableRecord
  2
BYBLOCK
 70
0
  3

 72
65
 73
0
 40
0.0
  0
LTYPE
  5
15
100
AcDbSymbolTableRecord
100
AcDbLinetypeTableRecord
  2
BYLAYER
 70
0
  3

 72
65
 73
0
 40
0.0
  0
LTYPE
  5
16
100
AcDbSymbolTableRecord
100
AcDbLinetypeTableRecord
  2
CONTINUOUS
 70
64
  3
Solid line
 72
65
 73
0
 40
0.0
  0
LTYPE
  5
1F5
100
AcDbSymbolTableRecord
100
AcDbLinetypeTableRecord
  2
CENTER
 70
64
  3
____ _ ____ _ ____ _ ____ _ ____ _ ____ _ ____
 72
65
 73
4
 40
0.6
 49
0.375
 74
0
 49
-0.075
 74
0
 49
0.075
 74
0
 49
-0.075
 74
0
  0
LTYPE
  5
1F6
100
AcDbSymbolTableRecord
100
AcDbLinetypeTableRecord
  2
HIDDEN
 70
64
  3
- - - - - - - - - - - - - - - - - - - -
 72
65
 73
2
 40
0.2
 49
0.1
 74
0
 49
-0.1
 74
0
  0
LTYPE
  5
1F7
100
AcDbSymbolTableRecord
100
AcDbLinetypeTableRecord
  2
PHANTOM
 70
64
  3
_____ _ _ _____ _ _ _____ _ _ _____
 72
65
 73
6
 40
0.8
 49
0.45
 74
0
 49
-0.05
 74
0
 49
0.1
 74
0
 49
-0.05
 74
0
 49
0.1
 74
0
 49
-0.05
 74
0
  0
LTYPE
  5
1F8
100
AcDbSymbolTableRecord
100
AcDbLinetypeTableRecord
  2
DOT
 70
64
  3
. . . . . . . . . . . . . . . . . . . .
 72
65
 73
2
 40
0.2
 49
0.1
 74
0
 49
-0.1
 74
0
  0
LTYPE
  5
1F9
100
AcDbSymbolTableRecord
100
AcDbLinetypeTableRecord
  2
DASHED
 70
64
  3
- - - - - - - - - - - - - - - - - - - -
 72
65
 73
2
 40
0.2
 49
0.1
 74
0
 49
-0.1
 74
0
  0
ENDTAB
  0
TABLE
  2
LAYER
  5
2
100
AcDbSymbolTable
 70
36
  0
LAYER
  5
10
100
AcDbSymbolTableRecord
100
AcDbLayerTableRecord
  2
0
 70
0
 62
7
  6
CONTINUOUS
370
-3
390
F
  0
LAYER
  5
1FA
100
AcDbSymbolTableRecord
100
AcDbLayerTableRecord
  2
DEFAULT_1
 70
0
 62
7
  6
CENTER
370
-3
390
F
  0
LAYER
  5
1FB
100
AcDbSymbolTableRecord
100
AcDbLayerTableRecord
  2
DEFAULT_2
 70
0
 62
8
  6
HIDDEN
370
-3
390
F
  0
LAYER
  5
1FC
100
AcDbSymbolTableRecord
100
AcDbLayerTableRecord
  2
DEFAULT_3
 70
0
 62
7
  6
PHANTOM
370
-3
390
F
  0
LAYER
  5
1FD
100
AcDbSymbolTableRecord
100
AcDbLayerTableRecord
  2
DEFAULT_COORDINATE_SYSTEM
 70
0
 62
7
  6
CONTINUOUS
370
-3
390
F
  0
LAYER
  5
1FE
100
AcDbSymbolTableRecord
100
AcDbLayerTableRecord
  2
DEFAULT_DATUM_AXES
 70
0
 62
7
  6
CONTINUOUS
370
-3
390
F
  0
LAYER
  5
1FF
100
AcDbSymbolTableRecord
100
AcDbLayerTableRecord
  2
DEFAULT_DATUM_PLANES
 70
0
 62
7
  6
CONTINUOUS
370
-3
390
F
  0
ENDTAB
  0
TABLE
  2
STYLE
  5
3
100
AcDbSymbolTable
 70
1
  0
STYLE
  5
11
100
AcDbSymbolTableRecord
100
AcDbTextStyleTableRecord
  2
STANDARD
 70
0
 40
0.0
 41
0.8
 50
0.0
 71
0
 42
0.2
  3
txt
  4

  0
STYLE
  5
200
100
AcDbSymbolTableRecord
100
AcDbTextStyleTableRecord
  2
TEXTSTYLE_1
 70
0
 40
0.0
 41
0.8
 50
0.0
 71
0
 42
0.2
  3
gdt
  4

  0
ENDTAB
  0
TABLE
  2
VIEW
  5
6
100
AcDbSymbolTable
 70
0
  0
ENDTAB
  0
TABLE
  2
UCS
  5
7
100
AcDbSymbolTable
 70
0
  0
ENDTAB
  0
TABLE
  2
APPID
  5
9
100
AcDbSymbolTable
 70
1
  0
APPID
  5
201
100
AcDbSymbolTableRecord
100
AcDbRegAppTableRecord
  2
ACAD
 70
0
  0
ENDTAB
  0
TABLE
  2
BLOCK_RECORD
  5
1
100
AcDbSymbolTable
 70
0
  0
BLOCK_RECORD
  5
202
100
AcDbSymbolTableRecord
100
AcDbBlockTableRecord
  2
*Model_Space
  0
BLOCK_RECORD
  5
203
100
AcDbSymbolTableRecord
100
AcDbBlockTableRecord
  2
*Paper_Space
  0
BLOCK_RECORD
  5
204
100
AcDbSymbolTableRecord
100
AcDbBlockTableRecord
  2
_FILLED
  0
ENDTAB
  0
TABLE
  2
DIMSTYLE
  5
A
100
AcDbSymbolTable
 70
1
100
AcDbDimStyleTable
 71
0
  0
DIMSTYLE
105
205
100
AcDbSymbolTableRecord
100
AcDbDimStyleTableRecord
  2
STANDARD
 70
0
  3

  4

 40
1.0
 41
0.1
 42
0.0625
 43
0.38
 44
0.125
 45
0.0
 46
0.0
 47
0.01
 48
0.01
140
0.08
141
0.09
142
0.0
143
25.4
144
1.0
145
0.0
146
1.0
147
0.09
 71
1.0
 72
0.0
 73
1
 74
1
 75
0
 76
0
 77
0
 78
4
 79
1
170
1
171
1
172
0
173
0
174
0
175
0
176
0
177
0
178
0
270
2
179
2
271
2
272
2
273
2
274
2
275
0
280
0
281
0
282
0
283
1
284
4
285
0
286
0
287
3
288
0
340
11
278
46
341
204
342
204
343
204
344
204
  0
ENDTAB
  0
ENDSEC
  0
SECTION
  2
BLOCKS
  0
BLOCK
  5
20
100
AcDbEntity
  8
0
100
AcDbBlockBegin
  2
*Model_Space
 70
0
 10
0.0
 20
0.0
 30
0.0
  3
*Model_Space
  1

  0
ENDBLK
  5
21
100
AcDbEntity
  8
0
100
AcDbBlockEnd
  0
BLOCK
  5
1C
100
AcDbEntity
  8
0
100
AcDbBlockBegin
  2
*Paper_Space
 70
0
 10
0.0
 20
0.0
 30
0.0
  3
*Paper_Space
  1

  0
ENDBLK
  5
1D
100
AcDbEntity
  8
0
100
AcDbBlockEnd
  0
BLOCK
  5
206
100
AcDbEntity
  8
0
100
AcDbBlockBegin
  2
_FILLED
 70
64
 10
0.0
 20
0.0
  3
_FILLED
  1

  0
SOLID
  5
207
100
AcDbEntity
  8
0
  6
BYBLOCK
 62
0
100
AcDbTrace
 10
0.0
 20
0.0
 11
-1.0
 21
0.2
 12
-1.0
 22
-0.2
 13
-1.0
 23
-0.2
  0
ENDBLK
  5
208
100
AcDbEntity
  8
0
  6
BYBLOCK
 62
0
100
AcDbBlockEnd
  0
ENDSEC
  0
SECTION
  2
ENTITIES
  0
MTEXT
  5
209
100
AcDbEntity
  8
0
100
AcDbMText
 62
2
  6
CONTINUOUS
  7
STANDARD
 71
3
 72
1
 10
5.4077639752
 20
0.4575462733
 30
0.0
 11
1.0
 21
0.0
 31
0.0
 73
2
 44
0.9
  1
SCALE  .500
 40
0.08
 41
0.704
  0
LINE
  5
20A
100
AcDbEntity
  8
0
100
AcDbLine
 62
7
  6
CONTINUOUS
 10
0.0
 20
0.0
 11
0.0
 21
8.5
  0
LINE
  5
20B
100
AcDbEntity
  8
0
100
AcDbLine
 62
7
  6
CONTINUOUS
 10
0.0
 20
0.0
 11
11.0
 21
0.0
  0
LINE
  5
20C
100
AcDbEntity
  8
0
100
AcDbLine
 62
7
  6
CONTINUOUS
 10
0.0
 20
8.5
 11
11.0
 21
8.5
  0
LINE
  5
20D
100
AcDbEntity
  8
0
100
AcDbLine
 62
7
  6
CONTINUOUS
 10
11.0
 20
0.0
 11
11.0
 21
8.5
  0
LINE
  5
20E
100
AcDbEntity
  8
0
100
AcDbLine
 62
7
  6
CONTINUOUS
 10
1.1313889752
 20
3.0387961843
 11
1.1313889752
 21
3.3002963623
  0
LINE
  5
20F
100
AcDbEntity
  8
0
100
AcDbLine
 62
7
  6
CONTINUOUS
 10
1.1413889752
 20
3.3102962733
 11
1.1413889752
 21
3.0287962733
  0
LINE
  5
210
100
AcDbEntity
  8
0
100
AcDbLine
 62
7
  6
CONTINUOUS
 10
1.1813889752
 20
3.0287962733
 11
1.1813889752
 21
3.3102962733
  0
LINE
  5
211
100
AcDbEntity
  8
0
100
AcDbLine
 62
7
  6
CONTINUOUS
 10
9.7221389752
 20
0.5525462733
 11
8.5671389752
 21
0.5525462733
  0
LINE
  5
212
100
AcDbEntity
  8
0
100
AcDbLine
 62
7
  6
CONTINUOUS
 10
7.3571389752
 20
0.5525462733
 11
6.1821389752
 21
0.5525462733
  0
LINE
  5
213
100
AcDbEntity
  8
0
100
AcDbLine
 62
7
  6
CONTINUOUS
 10
3.3571389752
 20
0.5525462733
 11
2.1821389752
 21
0.5525462733
  0
LINE
  5
214
100
AcDbEntity
  8
0
100
AcDbLine
 62
7
  6
CONTINUOUS
 10
1.1413889752
 20
3.0287962733
 11
1.1313889752
 21
3.0387962733
  0
LINE
  5
215
100
AcDbEntity
  8
0
100
AcDbLine
 62
7
  6
CONTINUOUS
 10
9.7321389752
 20
0.5625462733
 11
8.5571389752
 21
0.5625462733
  0
LINE
  5
216
100
AcDbEntity
  8
0
100
AcDbLine
 62
7
  6
CONTINUOUS
 10
9.7321389752
 20
0.6050462733
 11
8.5571389752
 21
0.6050462733
  0
LINE
  5
217
100
AcDbEntity
  8
0
100
AcDbLine
 62
7
  6
CONTINUOUS
 10
7.3571389752
 20
0.6075462733
 11
6.1821389752
 21
0.6075462733
  0
LINE
  5
218
100
AcDbEntity
  8
0
100
AcDbLine
 62
7
  6
CONTINUOUS
 10
3.3571389752
 20
0.6075462733
 11
2.1821389752
 21
0.6075462733
  0
LINE
  5
219
100
AcDbEntity
  8
0
100
AcDbLine
 62
7
  6
CONTINUOUS
 10
9.7171389752
 20
0.6200462733
 11
8.5721389752
 21
0.6200462733
  0
LINE
  5
21A
100
AcDbEntity
  8
0
100
AcDbLine
 62
7
  6
CONTINUOUS
 10
7.3421389752
 20
0.6225462733
 11
6.1971389752
 21
0.6225462733
  0
LINE
  5
21B
100
AcDbEntity
  8
0
100
AcDbLine
 62
7
  6
CONTINUOUS
 10
3.3421389752
 20
0.6225462733
 11
2.1971389752
 21
0.6225462733
  0
LINE
  5
21C
100
AcDbEntity
  8
0
100
AcDbLine
 62
7
  6
CONTINUOUS
 10
9.5796389752
 20
0.7400462733
 11
8.7096389752
 21
0.7400462733
  0
LINE
  5
21D
100
AcDbEntity
  8
0
100
AcDbLine
 62
7
  6
CONTINUOUS
 10
7.2046389752
 20
0.7425462733
 11
6.3346389752
 21
0.7425462733
  0
LINE
  5
21E
100
AcDbEntity
  8
0
100
AcDbLine
 62
7
  6
CONTINUOUS
 10
3.2046389752
 20
0.7425462733
 11
2.3346389752
 21
0.7425462733
  0
LINE
  5
21F
100
AcDbEntity
  8
0
100
AcDbLine
 62
7
  6
CONTINUOUS
 10
9.4101389752
 20
0.9075462733
 11
8.8791389752
 21
0.9075462733
  0
LINE
  5
220
100
AcDbEntity
  8
0
100
AcDbLine
 62
7
  6
CONTINUOUS
 10
7.0346389752
 20
0.9075462733
 11
6.5046389752
 21
0.9075462733
  0
LINE
  5
221
100
AcDbEntity
  8
0
100
AcDbLine
 62
7
  6
CONTINUOUS
 10
3.0346389752
 20
0.9075462733
 11
2.5046389752
 21
0.9075462733
  0
LINE
  5
222
100
AcDbEntity
  8
0
100
AcDbLine
 62
7
  6
CONTINUOUS
 10
8.8840488052
 20
0.9180462733
 11
9.4052291451
 21
0.9180462733
  0
LINE
  5
223
100
AcDbEntity
  8
0
100
AcDbLine
 62
7
  6
CONTINUOUS
 10
2.4942896004
 20
0.9242153922
 11
3.04498835
 21
0.9242153922
  0
LINE
  5
224
100
AcDbEntity
  8
0
100
AcDbLine
 62
7
  6
CONTINUOUS
 10
6.4942896004
 20
0.9242153922
 11
7.04498835
 21
0.9242153922
  0
LINE
  5
225
100
AcDbEntity
  8
0
100
AcDbLine
 62
7
  6
CONTINUOUS
 10
2.1821389752
 20
0.5525462733
 11
2.1821389752
 21
0.6075462733
  0
LINE
  5
226
100
AcDbEntity
  8
0
100
AcDbLine
 62
7
  6
CONTINUOUS
 10
2.3258889752
 20
3.0287962733
 11
2.3258889752
 21
3.3102962733
  0
LINE
  5
227
100
AcDbEntity
  8
0
100
AcDbLine
 62
7
  6
CONTINUOUS
 10
2.3783889752
 20
3.0287962733
 11
2.3783889752
 21
3.3102962733
  0
LINE
  5
228
100
AcDbEntity
  8
0
100
AcDbLine
 62
7
  6
CONTINUOUS
 10
9.3996389752
 20
0.9805462733
 11
8.8896389752
 21
0.9805462733
  0
LINE
  5
229
100
AcDbEntity
  8
0
100
AcDbLine
 62
7
  6
CONTINUOUS
 10
9.3996389752
 20
1.0430462733
 11
8.8896389752
 21
1.0430462733
  0
LINE
  5
22A
100
AcDbEntity
  8
0
100
AcDbLine
 62
7
  6
CONTINUOUS
 10
8.8840488052
 20
1.1055462733
 11
9.4052291451
 21
1.1055462733
  0
LINE
  5
22B
100
AcDbEntity
  8
0
100
AcDbLine
 62
7
  6
CONTINUOUS
 10
4.7131172565
 20
1.1260462733
 11
4.8261606938
 21
1.1260462733
  0
LINE
  5
22C
100
AcDbEntity
  8
0
100
AcDbLine
 62
7
  6
CONTINUOUS
 10
4.6591389752
 20
1.1695462733
 11
4.8801389752
 21
1.1695462733
  0
LINE
  5
22D
100
AcDbEntity
  8
0
100
AcDbLine
 62
7
  6
CONTINUOUS
 10
4.6291389752
 20
1.1995462733
 11
4.9101389752
 21
1.1995462733
  0
LINE
  5
22E
100
AcDbEntity
  8
0
100
AcDbLine
 62
7
  6
CONTINUOUS
 10
8.9116874282
 20
1.2155462733
 11
9.3775905221
 21
1.2155462733
  0
LINE
  5
22F
100
AcDbEntity
  8
0
100
AcDbLine
 62
7
  6
CONTINUOUS
 10
4.6291389752
 20
1.2175462733
 11
4.9101389752
 21
1.2175462733
  0
LINE
  5
230
100
AcDbEntity
  8
0
100
AcDbLine
 62
7
  6
CONTINUOUS
 10
4.6591389752
 20
1.2475462733
 11
4.8801389752
 21
1.2475462733
  0
LINE
  5
231
100
AcDbEntity
  8
0
100
AcDbLine
 62
7
  6
CONTINUOUS
 10
4.6803889752
 20
1.2630462733
 11
4.8588889752
 21
1.2630462733
  0
LINE
  5
232
100
AcDbEntity
  8
0
100
AcDbLine
 62
7
  6
CONTINUOUS
 10
4.6838315093
 20
1.270596084
 11
4.855446441
 21
1.270596084
  0
LINE
  5
233
100
AcDbEntity
  8
0
100
AcDbLine
 62
7
  6
CONTINUOUS
 10
2.4783889752
 20
3.0710462733
 11
2.4783889752
 21
3.2680462733
  0
LINE
  5
234
100
AcDbEntity
  8
0
100
AcDbLine
 62
7
  6
CONTINUOUS
 10
2.4908889752
 20
3.2720462733
 11
2.4908889752
 21
3.2680462733
  0
LINE
  5
235
100
AcDbEntity
  8
0
100
AcDbLine
 62
7
  6
CONTINUOUS
 10
2.4908889752
 20
3.0710462733
 11
2.4908889752
 21
3.0670462733
  0
LINE
  5
236
100
AcDbEntity
  8
0
100
AcDbLine
 62
7
  6
CONTINUOUS
 10
2.5058889752
 20
3.3631883218
 11
2.5058889752
 21
3.3275462733
  0
LINE
  5
237
100
AcDbEntity
  8
0
100
AcDbLine
 62
7
  6
CONTINUOUS
 10
2.5083889752
 20
3.1536638931
 11
2.5083889752
 21
3.1854286535
  0
LINE
  5
238
100
AcDbEntity
  8
0
100
AcDbLine
 62
7
  6
CONTINUOUS
 10
2.5978889752
 20
3.0020462733
 11
2.5978889752
 21
2.8225462733
  0
LINE
  5
239
100
AcDbEntity
  8
0
100
AcDbLine
 62
7
  6
CONTINUOUS
 10
2.6371389752
 20
3.4074575646
 11
2.6371389752
 21
3.4080315881
  0
LINE
  5
23A
100
AcDbEntity
  8
0
100
AcDbLine
 62
7
  6
CONTINUOUS
 10
2.6453889752
 20
3.4092806958
 11
2.6453889752
 21
3.4100228318
  0
LINE
  5
23B
100
AcDbEntity
  8
0
100
AcDbLine
 62
7
  6
CONTINUOUS
 10
2.6653889752
 20
3.4122634811
 11
2.6653889752
 21
3.4129894284
  0
LINE
  5
23C
100
AcDbEntity
  8
0
100
AcDbLine
 62
7
  6
CONTINUOUS
 10
2.6736389752
 20
3.4134753037
 11
2.6736389752
 21
3.412905348
  0
LINE
  5
23D
100
AcDbEntity
  8
0
100
AcDbLine
 62
7
  6
CONTINUOUS
 10
2.6821389752
 20
3.4139198815
 11
2.6821389752
 21
3.4144890861
  0
LINE
  5
23E
100
AcDbEntity
  8
0
100
AcDbLine
 62
7
  6
CONTINUOUS
 10
2.6903889752
 20
3.4152460756
 11
2.6903889752
 21
3.4159692156
  0
LINE
  5
23F
100
AcDbEntity
  8
0
100
AcDbLine
 62
7
  6
CONTINUOUS
 10
2.7103889752
 20
3.417041433
 11
2.7103889752
 21
3.417779063
  0
LINE
  5
240
100
AcDbEntity
  8
0
100
AcDbLine
 62
7
  6
CONTINUOUS
 10
2.7186389752
 20
3.4177656827
 11
2.7186389752
 21
3.4171988925
  0
LINE
  5
241
100
AcDbEntity
  8
0
100
AcDbLine
 62
7
  6
CONTINUOUS
 10
2.7477889752
 20
3.4192381326
 11
2.7477889752
 21
3.4197383314
  0
LINE
  5
242
100
AcDbEntity
  8
0
100
AcDbLine
 62
7
  6
CONTINUOUS
 10
2.5610713491
 20
2.7905604792
 11
2.5074475768
 21
2.3490462733
  0
LINE
  5
243
100
AcDbEntity
  8
0
100
AcDbLine
 62
7
  6
CONTINUOUS
 10
8.966959787
 20
2.4216249861
 11
8.9763942381
 21
2.423977259
  0
LINE
  5
244
100
AcDbEntity
  8
0
100
AcDbLine
 62
7
  6
CONTINUOUS
 10
9.3996669956
 20
2.5256030066
 11
9.4091540643
 21
2.527793269
  0
LINE
  5
245
100
AcDbEntity
  8
0
100
AcDbLine
 62
7
  6
CONTINUOUS
 10
4.6785780402
 20
1.3549444423
 11
4.8606999101
 21
1.3549444423
  0
LINE
  5
246
100
AcDbEntity
  8
0
100
AcDbLine
 62
7
  6
CONTINUOUS
 10
4.6683889752
 20
1.3740462733
 11
4.8708889752
 21
1.3740462733
  0
LINE
  5
247
100
AcDbEntity
  8
0
100
AcDbLine
 62
7
  6
CONTINUOUS
 10
4.8708889752
 20
1.4440728407
 11
4.6683889752
 21
1.4440728407
  0
LINE
  5
248
100
AcDbEntity
  8
0
100
AcDbLine
 62
7
  6
CONTINUOUS
 10
3.1143018556
 20
1.5054937899
 11
2.4249760948
 21
1.5054937899
  0
LINE
  5
249
100
AcDbEntity
  8
0
100
AcDbLine
 62
7
  6
CONTINUOUS
 10
6.4249760948
 20
1.5054937899
 11
7.1143018556
 21
1.5054937899
  0
LINE
  5
24A
100
AcDbEntity
  8
0
100
AcDbLine
 62
7
  6
CONTINUOUS
 10
3.0996389752
 20
1.5325462733
 11
2.4396389752
 21
1.5325462733
  0
LINE
  5
24B
100
AcDbEntity
  8
0
100
AcDbLine
 62
7
  6
CONTINUOUS
 10
6.4396389752
 20
1.5325462733
 11
7.0996389752
 21
1.5325462733
  0
LINE
  5
24C
100
AcDbEntity
  8
0
100
AcDbLine
 62
7
  6
CONTINUOUS
 10
3.0876656089
 20
1.5478884921
 11
2.4516123414
 21
1.5478884921
  0
LINE
  5
24D
100
AcDbEntity
  8
0
100
AcDbLine
 62
7
  6
CONTINUOUS
 10
6.4516123414
 20
1.5478884921
 11
7.0876656089
 21
1.5478884921
  0
LINE
  5
24E
100
AcDbEntity
  8
0
100
AcDbLine
 62
7
  6
CONTINUOUS
 10
3.0482965606
 20
3.0757490393
 11
3.0483889752
 21
3.0755570964
  0
LINE
  5
24F
100
AcDbEntity
  8
0
100
AcDbLine
 62
7
  6
CONTINUOUS
 10
2.7902889752
 20
3.4192710551
 11
2.7902889752
 21
3.4197712327
  0
LINE
  5
250
100
AcDbEntity
  8
0
100
AcDbLine
 62
7
  6
CONTINUOUS
 10
2.8386389752
 20
3.4157995475
 11
2.8386389752
 21
3.4163673655
  0
LINE
  5
251
100
AcDbEntity
  8
0
100
AcDbLine
 62
7
  6
CONTINUOUS
 10
2.8478889752
 20
3.4154434447
 11
2.8478889752
 21
3.416085748
  0
LINE
  5
252
100
AcDbEntity
  8
0
100
AcDbLine
 62
7
  6
CONTINUOUS
 10
2.8658889752
 20
3.4134030756
 11
2.8658889752
 21
3.4140488585
  0
LINE
  5
253
100
AcDbEntity
  8
0
100
AcDbLine
 62
7
  6
CONTINUOUS
 10
2.8751389752
 20
3.4122292788
 11
2.8751389752
 21
3.4116583971
  0
LINE
  5
254
100
AcDbEntity
  8
0
100
AcDbLine
 62
7
  6
CONTINUOUS
 10
2.9413889752
 20
3.0020462733
 11
2.9413889752
 21
2.8225462733
  0
LINE
  5
255
100
AcDbEntity
  8
0
100
AcDbLine
 62
7
  6
CONTINUOUS
 10
3.0308889752
 20
3.1571365996
 11
3.0308889752
 21
3.1819559469
  0
LINE
  5
256
100
AcDbEntity
  8
0
100
AcDbLine
 62
7
  6
CONTINUOUS
 10
3.0333889752
 20
3.3631883218
 11
3.0333889752
 21
3.3275462733
  0
LINE
  5
257
100
AcDbEntity
  8
0
100
AcDbLine
 62
7
  6
CONTINUOUS
 10
3.037983848
 20
3.1070050206
 11
3.037983848
 21
3.232087526
  0
LINE
  5
258
100
AcDbEntity
  8
0
100
AcDbLine
 62
7
  6
CONTINUOUS
 10
3.0482965606
 20
3.2633435073
 11
3.0482965606
 21
3.0757490393
  0
LINE
  5
259
100
AcDbEntity
  8
0
100
AcDbLine
 62
7
  6
CONTINUOUS
 10
3.0483889752
 20
3.2720462733
 11
3.0483889752
 21
3.2635354502
  0
LINE
  5
25A
100
AcDbEntity
  8
0
100
AcDbLine
 62
7
  6
CONTINUOUS
 10
3.0483889752
 20
3.0755570964
 11
3.0483889752
 21
3.0670462733
  0
LINE
  5
25B
100
AcDbEntity
  8
0
100
AcDbLine
 62
7
  6
CONTINUOUS
 10
1.1413889752
 20
3.3102962733
 11
1.1313889752
 21
3.3002962733
  0
LINE
  5
25C
100
AcDbEntity
  8
0
100
AcDbLine
 62
7
  6
CONTINUOUS
 10
9.3223181633
 20
2.8894675605
 11
9.3128837122
 21
2.8871152876
  0
LINE
  5
25D
100
AcDbEntity
  8
0
100
AcDbLine
 62
7
  6
CONTINUOUS
 10
8.8896109547
 20
2.78548954
 11
8.880123886
 21
2.7832992776
  0
LINE
  5
25E
100
AcDbEntity
  8
0
100
AcDbLine
 62
7
  6
CONTINUOUS
 10
8.9549542451
 20
2.4312501171
 11
8.9645119736
 21
2.4331079513
  0
LINE
  5
25F
100
AcDbEntity
  8
0
100
AcDbLine
 62
7
  6
CONTINUOUS
 10
9.3925167834
 20
2.512433954
 11
9.4021054799
 21
2.5141246999
  0
LINE
  5
260
100
AcDbEntity
  8
0
100
AcDbLine
 62
7
  6
CONTINUOUS
 10
8.9434754476
 20
2.4414848389
 11
8.9531173092
 21
2.4428399142
  0
LINE
  5
261
100
AcDbEntity
  8
0
100
AcDbLine
 62
7
  6
CONTINUOUS
 10
9.3846871554
 20
2.4996571623
 11
9.3943511977
 21
2.5008437575
  0
LINE
  5
262
100
AcDbEntity
  8
0
100
AcDbLine
 62
7
  6
CONTINUOUS
 10
8.9115699155
 20
1.9140462733
 11
9.3777080348
 21
1.9140462733
  0
LINE
  5
263
100
AcDbEntity
  8
0
100
AcDbLine
 62
7
  6
CONTINUOUS
 10
2.5058889752
 20
3.3275462733
 11
2.5188889752
 21
3.3200462733
  0
LINE
  5
264
100
AcDbEntity
  8
0
100
AcDbLine
 62
7
  6
CONTINUOUS
 10
3.2243698463
 20
3.0670279129
 11
3.1997868113
 21
3.0841775946
  0
LINE
  5
265
100
AcDbEntity
  8
0
100
AcDbLine
 62
7
  6
CONTINUOUS
 10
3.0222791858
 20
3.3742981112
 11
3.0333889752
 21
3.3631883218
  0
LINE
  5
266
100
AcDbEntity
  8
0
100
AcDbLine
 62
7
  6
CONTINUOUS
 10
2.9782066012
 20
2.7905604792
 11
3.0318303736
 21
2.3490462733
  0
LINE
  5
267
100
AcDbEntity
  8
0
100
AcDbLine
 62
7
  6
CONTINUOUS
 10
3.1739588756
 20
3.0737244911
 11
3.1739588756
 21
3.2653680555
  0
LINE
  5
268
100
AcDbEntity
  8
0
100
AcDbLine
 62
7
  6
CONTINUOUS
 10
3.1753608909
 20
2.0424099097
 11
3.1753608909
 21
1.6196826369
  0
LINE
  5
269
100
AcDbEntity
  8
0
100
AcDbLine
 62
7
  6
CONTINUOUS
 10
3.1874458467
 20
3.0795462733
 11
3.1874458467
 21
3.2595462733
  0
LINE
  5
26A
100
AcDbEntity
  8
0
100
AcDbLine
 62
7
  6
CONTINUOUS
 10
3.1997868113
 20
3.0841775946
 11
3.1997868113
 21
3.254914952
  0
LINE
  5
26B
100
AcDbEntity
  8
0
100
AcDbLine
 62
7
  6
CONTINUOUS
 10
3.2243698463
 20
3.0670279129
 11
3.2243698463
 21
3.2720646337
  0
LINE
  5
26C
100
AcDbEntity
  8
0
100
AcDbLine
 62
7
  6
CONTINUOUS
 10
3.230085502
 20
2.0310462733
 11
3.230085502
 21
1.6310462733
  0
LINE
  5
26D
100
AcDbEntity
  8
0
100
AcDbLine
 62
7
  6
CONTINUOUS
 10
3.3571389752
 20
0.5525462733
 11
3.3571389752
 21
0.6075462733
  0
LINE
  5
26E
100
AcDbEntity
  8
0
100
AcDbLine
 62
7
  6
CONTINUOUS
 10
3.4971389752
 20
2.0435589328
 11
3.4971389752
 21
1.6185336138
  0
LINE
  5
26F
100
AcDbEntity
  8
0
100
AcDbLine
 62
7
  6
CONTINUOUS
 10
9.3343237052
 20
2.8798424295
 11
9.3247659767
 21
2.8779845953
  0
LINE
  5
270
100
AcDbEntity
  8
0
100
AcDbLine
 62
7
  6
CONTINUOUS
 10
8.8967611669
 20
2.7986585926
 11
8.8871724704
 21
2.7969678467
  0
LINE
  5
271
100
AcDbEntity
  8
0
100
AcDbLine
 62
7
  6
CONTINUOUS
 10
9.3458025027
 20
2.8696077077
 11
9.3361606412
 21
2.8682526324
  0
LINE
  5
272
100
AcDbEntity
  8
0
100
AcDbLine
 62
7
  6
CONTINUOUS
 10
8.9045907949
 20
2.8114353843
 11
8.8949267526
 21
2.8102487891
  0
LINE
  5
273
100
AcDbEntity
  8
0
100
AcDbLine
 62
7
  6
CONTINUOUS
 10
8.9325480254
 20
2.4523062882
 11
8.9422475922
 21
2.4531548904
  0
LINE
  5
274
100
AcDbEntity
  8
0
100
AcDbLine
 62
7
  6
CONTINUOUS
 10
9.3762079895
 20
2.4873015362
 11
9.385907578
 21
2.4879797975
  0
LINE
  5
275
100
AcDbEntity
  8
0
100
AcDbLine
 62
7
  6
CONTINUOUS
 10
8.9222019297
 20
2.4636848042
 11
8.931932616
 21
2.4640246073
  0
LINE
  5
276
100
AcDbEntity
  8
0
100
AcDbLine
 62
7
  6
CONTINUOUS
 10
9.3670772971
 20
2.4754192718
 11
9.3768124318
 21
2.4755891992
  0
LINE
  5
277
100
AcDbEntity
  8
0
100
AcDbLine
 62
7
  6
CONTINUOUS
 10
5.0696389752
 20
2.1035462733
 11
4.4696389752
 21
2.1035462733
  0
LINE
  5
278
100
AcDbEntity
  8
0
100
AcDbLine
 62
7
  6
CONTINUOUS
 10
2.4663961651
 20
2.13634609
 11
3.0728817852
 21
2.13634609
  0
LINE
  5
279
100
AcDbEntity
  8
0
100
AcDbLine
 62
7
  6
CONTINUOUS
 10
6.4663961651
 20
2.13634609
 11
7.0728817852
 21
2.13634609
  0
LINE
  5
27A
100
AcDbEntity
  8
0
100
AcDbLine
 62
7
  6
CONTINUOUS
 10
7.0428888963
 20
2.1575462733
 11
6.4963889752
 21
2.1575462733
  0
LINE
  5
27B
100
AcDbEntity
  8
0
100
AcDbLine
 62
7
  6
CONTINUOUS
 10
3.0428888963
 20
2.1575462733
 11
2.4963889752
 21
2.1575462733
  0
LINE
  5
27C
100
AcDbEntity
  8
0
100
AcDbLine
 62
7
  6
CONTINUOUS
 10
5.0696389752
 20
2.1635462733
 11
4.4696389752
 21
2.1635462733
  0
LINE
  5
27D
100
AcDbEntity
  8
0
100
AcDbLine
 62
7
  6
CONTINUOUS
 10
9.3998889752
 20
2.1680462733
 11
8.8893889752
 21
2.1680462733
  0
LINE
  5
27E
100
AcDbEntity
  8
0
100
AcDbLine
 62
7
  6
CONTINUOUS
 10
9.3998889752
 20
2.2305462733
 11
8.8893889752
 21
2.2305462733
  0
LINE
  5
27F
100
AcDbEntity
  8
0
100
AcDbLine
 62
7
  6
CONTINUOUS
 10
7.07974555
 20
2.2330565826
 11
7.0714497749
 21
2.2330565826
  0
LINE
  5
280
100
AcDbEntity
  8
0
100
AcDbLine
 62
7
  6
CONTINUOUS
 10
6.9822472652
 20
2.2330565826
 11
6.8588414848
 21
2.2330565826
  0
LINE
  5
281
100
AcDbEntity
  8
0
100
AcDbLine
 62
7
  6
CONTINUOUS
 10
3.07974555
 20
2.2330565826
 11
3.0714497749
 21
2.2330565826
  0
LINE
  5
282
100
AcDbEntity
  8
0
100
AcDbLine
 62
7
  6
CONTINUOUS
 10
2.9822472652
 20
2.2330565826
 11
2.8588414848
 21
2.2330565826
  0
LINE
  5
283
100
AcDbEntity
  8
0
100
AcDbLine
 62
7
  6
CONTINUOUS
 10
2.4595324004
 20
2.2330565826
 11
2.4678281754
 21
2.2330565826
  0
LINE
  5
284
100
AcDbEntity
  8
0
100
AcDbLine
 62
7
  6
CONTINUOUS
 10
2.5570306851
 20
2.2330565826
 11
2.6804364655
 21
2.2330565826
  0
LINE
  5
285
100
AcDbEntity
  8
0
100
AcDbLine
 62
7
  6
CONTINUOUS
 10
6.4595324004
 20
2.2330565826
 11
6.4678281754
 21
2.2330565826
  0
LINE
  5
286
100
AcDbEntity
  8
0
100
AcDbLine
 62
7
  6
CONTINUOUS
 10
6.5570306851
 20
2.2330565826
 11
6.6804364655
 21
2.2330565826
  0
LINE
  5
287
100
AcDbEntity
  8
0
100
AcDbLine
 62
7
  6
CONTINUOUS
 10
2.5074475768
 20
2.3490462733
 11
3.0318303736
 21
2.3490462733
  0
LINE
  5
288
100
AcDbEntity
  8
0
100
AcDbLine
 62
7
  6
CONTINUOUS
 10
6.5074475768
 20
2.3490462733
 11
7.0318303736
 21
2.3490462733
  0
LINE
  5
289
100
AcDbEntity
  8
0
100
AcDbLine
 62
7
  6
CONTINUOUS
 10
2.5058889752
 20
3.0275462733
 11
2.5843889752
 21
3.0020462733
  0
LINE
  5
28A
100
AcDbEntity
  8
0
100
AcDbLine
 62
7
  6
CONTINUOUS
 10
2.3783889752
 20
3.3102962733
 11
2.4783889752
 21
3.2680462733
  0
LINE
  5
28B
100
AcDbEntity
  8
0
100
AcDbLine
 62
7
  6
CONTINUOUS
 10
3.0203889752
 20
3.3200462733
 11
3.0342351328
 21
3.3120462733
  0
LINE
  5
28C
100
AcDbEntity
  8
0
100
AcDbLine
 62
7
  6
CONTINUOUS
 10
3.5562954877
 20
2.0435589328
 11
3.5562954877
 21
1.6185336138
  0
LINE
  5
28D
100
AcDbEntity
  8
0
100
AcDbLine
 62
7
  6
CONTINUOUS
 10
3.0483889752
 20
3.2635354502
 11
3.0482965606
 21
3.2633435073
  0
LINE
  5
28E
100
AcDbEntity
  8
0
100
AcDbLine
 62
7
  6
CONTINUOUS
 10
9.3567299249
 20
2.8587862584
 11
9.3470303581
 21
2.8579376562
  0
LINE
  5
28F
100
AcDbEntity
  8
0
100
AcDbLine
 62
7
  6
CONTINUOUS
 10
8.9130699609
 20
2.8237910103
 11
8.9033703723
 21
2.823112749
  0
LINE
  5
290
100
AcDbEntity
  8
0
100
AcDbLine
 62
7
  6
CONTINUOUS
 10
9.3670760206
 20
2.8474077424
 11
9.3573453343
 21
2.8470679393
  0
LINE
  5
291
100
AcDbEntity
  8
0
100
AcDbLine
 62
7
  6
CONTINUOUS
 10
8.9222006532
 20
2.8356732748
 11
8.9124655185
 21
2.8355033474
  0
LINE
  5
292
100
AcDbEntity
  8
0
100
AcDbLine
 62
7
  6
CONTINUOUS
 10
2.5610713491
 20
2.7905604792
 11
2.9782066012
 21
2.7905604792
  0
LINE
  5
293
100
AcDbEntity
  8
0
100
AcDbLine
 62
7
  6
CONTINUOUS
 10
6.5610713491
 20
2.7905604792
 11
6.9782066012
 21
2.7905604792
  0
LINE
  5
294
100
AcDbEntity
  8
0
100
AcDbLine
 62
7
  6
CONTINUOUS
 10
6.9533889752
 20
2.8125462733
 11
6.5858889752
 21
2.8125462733
  0
LINE
  5
295
100
AcDbEntity
  8
0
100
AcDbLine
 62
7
  6
CONTINUOUS
 10
2.9533889752
 20
2.8125462733
 11
2.5858889752
 21
2.8125462733
  0
LINE
  5
296
100
AcDbEntity
  8
0
100
AcDbLine
 62
7
  6
CONTINUOUS
 10
2.5978889752
 20
2.8225462733
 11
2.9413889752
 21
2.8225462733
  0
LINE
  5
297
100
AcDbEntity
  8
0
100
AcDbLine
 62
7
  6
CONTINUOUS
 10
6.5978889752
 20
2.8225462733
 11
6.9413889752
 21
2.8225462733
  0
LINE
  5
298
100
AcDbEntity
  8
0
100
AcDbLine
 62
7
  6
CONTINUOUS
 10
8.9124655185
 20
2.4755891992
 11
8.9222006532
 21
2.4754192718
  0
LINE
  5
299
100
AcDbEntity
  8
0
100
AcDbLine
 62
7
  6
CONTINUOUS
 10
9.3573453343
 20
2.4640246073
 11
9.3670760206
 21
2.4636848042
  0
LINE
  5
29A
100
AcDbEntity
  8
0
100
AcDbLine
 62
7
  6
CONTINUOUS
 10
8.9033703723
 20
2.4879797975
 11
8.9130699609
 21
2.4873015362
  0
LINE
  5
29B
100
AcDbEntity
  8
0
100
AcDbLine
 62
7
  6
CONTINUOUS
 10
9.3470303581
 20
2.4531548904
 11
9.3567299249
 21
2.4523062882
  0
LINE
  5
29C
100
AcDbEntity
  8
0
100
AcDbLine
 62
7
  6
CONTINUOUS
 10
2.9968939532
 20
3.3825462733
 11
3.0222791858
 21
3.3742981112
  0
LINE
  5
29D
100
AcDbEntity
  8
0
100
AcDbLine
 62
7
  6
CONTINUOUS
 10
2.5169987646
 20
3.3742981112
 11
2.5058889752
 21
3.3631883218
  0
LINE
  5
29E
100
AcDbEntity
  8
0
100
AcDbLine
 62
7
  6
CONTINUOUS
 10
6.6064503124
 20
3.4021207747
 11
6.5946389752
 21
3.4000385947
  0
LINE
  5
29F
100
AcDbEntity
  8
0
100
AcDbLine
 62
7
  6
CONTINUOUS
 10
6.6518157042
 20
3.4099763737
 11
6.6352828578
 21
3.4072256853
  0
LINE
  5
2A0
100
AcDbEntity
  8
0
100
AcDbLine
 62
7
  6
CONTINUOUS
 10
6.6491337214
 20
3.4095309535
 11
6.6481505005
 21
3.409367466
  0
LINE
  5
2A1
100
AcDbEntity
  8
0
100
AcDbLine
 62
7
  6
CONTINUOUS
 10
6.6451778447
 20
3.4088732772
 11
6.6431869445
 21
3.4085422054
  0
LINE
  5
2A2
100
AcDbEntity
  8
0
100
AcDbLine
 62
7
  6
CONTINUOUS
 10
6.6352828578
 20
3.4077337589
 11
6.6708639194
 21
3.4136350996
  0
LINE
  5
2A3
100
AcDbEntity
  8
0
100
AcDbLine
 62
7
  6
CONTINUOUS
 10
6.6528568748
 20
3.4106553582
 11
6.6537648532
 21
3.4108059038
  0
LINE
  5
2A4
100
AcDbEntity
  8
0
100
AcDbLine
 62
7
  6
CONTINUOUS
 10
6.6546542226
 20
3.4109534413
 11
6.6555218683
 21
3.4110972891
  0
LINE
  5
2A5
100
AcDbEntity
  8
0
100
AcDbLine
 62
7
  6
CONTINUOUS
 10
6.6555218683
 20
3.4110972891
 11
6.6579882248
 21
3.4115060132
  0
LINE
  5
2A6
100
AcDbEntity
  8
0
100
AcDbLine
 62
7
  6
CONTINUOUS
 10
6.6701896102
 20
3.4135237549
 11
6.6705358809
 21
3.4135808682
  0
LINE
  5
2A7
100
AcDbEntity
  8
0
100
AcDbLine
 62
7
  6
CONTINUOUS
 10
6.6156401081
 20
3.4045985751
 11
6.6161903944
 21
3.4046819919
  0
LINE
  5
2A8
100
AcDbEntity
  8
0
100
AcDbLine
 62
7
  6
CONTINUOUS
 10
6.6161903983
 20
3.4046819758
 11
6.6186234839
 21
3.4050424653
  0
LINE
  5
2A9
100
AcDbEntity
  8
0
100
AcDbLine
 62
7
  6
CONTINUOUS
 10
6.6156401141
 20
3.4040884047
 11
6.6186234839
 21
3.4045325921
  0
LINE
  5
2AA
100
AcDbEntity
  8
0
100
AcDbLine
 62
7
  6
CONTINUOUS
 10
2.5843889752
 20
3.0020462733
 11
2.9548889752
 21
3.0020462733
  0
LINE
  5
2AB
100
AcDbEntity
  8
0
100
AcDbLine
 62
7
  6
CONTINUOUS
 10
6.5843889255
 20
3.0020462733
 11
6.9548890248
 21
3.0020462733
  0
LINE
  5
2AC
100
AcDbEntity
  8
0
100
AcDbLine
 62
7
  6
CONTINUOUS
 10
2.5058889752
 20
3.0275462733
 11
3.0333889752
 21
3.0275462733
  0
LINE
  5
2AD
100
AcDbEntity
  8
0
100
AcDbLine
 62
7
  6
CONTINUOUS
 10
6.5058889752
 20
3.0275462733
 11
7.0333889752
 21
3.0275462733
  0
LINE
  5
2AE
100
AcDbEntity
  8
0
100
AcDbLine
 62
7
  6
CONTINUOUS
 10
8.3978889752
 20
3.0287962733
 11
8.3578889752
 21
3.0287962733
  0
LINE
  5
2AF
100
AcDbEntity
  8
0
100
AcDbLine
 62
7
  6
CONTINUOUS
 10
7.2133889752
 20
3.0287962733
 11
7.1608889752
 21
3.0287962733
  0
LINE
  5
2B0
100
AcDbEntity
  8
0
100
AcDbLine
 62
7
  6
CONTINUOUS
 10
1.1413889752
 20
3.0287962733
 11
1.1813889752
 21
3.0287962733
  0
LINE
  5
2B1
100
AcDbEntity
  8
0
100
AcDbLine
 62
7
  6
CONTINUOUS
 10
2.3258889752
 20
3.0287962733
 11
2.3783889752
 21
3.0287962733
  0
LINE
  5
2B2
100
AcDbEntity
  8
0
100
AcDbLine
 62
7
  6
CONTINUOUS
 10
2.4908889752
 20
3.0670462733
 11
3.0483889752
 21
3.0670462733
  0
LINE
  5
2B3
100
AcDbEntity
  8
0
100
AcDbLine
 62
7
  6
CONTINUOUS
 10
6.4908889752
 20
3.0670462733
 11
7.0483889752
 21
3.0670462733
  0
LINE
  5
2B4
100
AcDbEntity
  8
0
100
AcDbLine
 62
7
  6
CONTINUOUS
 10
7.0608889752
 20
3.0710462733
 11
7.0483889752
 21
3.0710462733
  0
LINE
  5
2B5
100
AcDbEntity
  8
0
100
AcDbLine
 62
7
  6
CONTINUOUS
 10
2.4783889752
 20
3.0710462733
 11
2.4908889752
 21
3.0710462733
  0
LINE
  5
2B6
100
AcDbEntity
  8
0
100
AcDbLine
 62
7
  6
CONTINUOUS
 10
9.3768124318
 20
2.8355033474
 11
9.3670772971
 21
2.8356732748
  0
LINE
  5
2B7
100
AcDbEntity
  8
0
100
AcDbLine
 62
7
  6
CONTINUOUS
 10
8.931932616
 20
2.8470679393
 11
8.9222019297
 21
2.8474077424
  0
LINE
  5
2B8
100
AcDbEntity
  8
0
100
AcDbLine
 62
7
  6
CONTINUOUS
 10
9.385907578
 20
2.823112749
 11
9.3762079895
 21
2.8237910103
  0
LINE
  5
2B9
100
AcDbEntity
  8
0
100
AcDbLine
 62
7
  6
CONTINUOUS
 10
8.9422475922
 20
2.8579376562
 11
8.9325480254
 21
2.8587862584
  0
LINE
  5
2BA
100
AcDbEntity
  8
0
100
AcDbLine
 62
7
  6
CONTINUOUS
 10
8.8949267526
 20
2.5008437575
 11
8.9045907949
 21
2.4996571623
  0
LINE
  5
2BB
100
AcDbEntity
  8
0
100
AcDbLine
 62
7
  6
CONTINUOUS
 10
9.3361606412
 20
2.4428399142
 11
9.3458025027
 21
2.4414848389
  0
LINE
  5
2BC
100
AcDbEntity
  8
0
100
AcDbLine
 62
7
  6
CONTINUOUS
 10
8.8871724704
 20
2.5141246999
 11
8.8967611669
 21
2.512433954
  0
LINE
  5
2BD
100
AcDbEntity
  8
0
100
AcDbLine
 62
7
  6
CONTINUOUS
 10
9.3247659767
 20
2.4331079513
 11
9.3343237052
 21
2.4312501171
  0
LINE
  5
2BE
100
AcDbEntity
  8
0
100
AcDbLine
 62
7
  6
CONTINUOUS
 10
4.5196389752
 20
5.4041462733
 11
4.5484167208
 21
5.0864399615
  0
LINE
  5
2BF
100
AcDbEntity
  8
0
100
AcDbLine
 62
7
  6
CONTINUOUS
 10
4.3881389752
 20
2.0435462733
 11
4.3881389752
 21
1.6185462733
  0
LINE
  5
2C0
100
AcDbEntity
  8
0
100
AcDbLine
 62
7
  6
CONTINUOUS
 10
4.4451389752
 20
2.0649260501
 11
4.4451389752
 21
1.5971664965
  0
LINE
  5
2C1
100
AcDbEntity
  8
0
100
AcDbLine
 62
7
  6
CONTINUOUS
 10
4.4883889752
 20
4.1175775108
 11
4.4883889752
 21
4.0535462733
  0
LINE
  5
2C2
100
AcDbEntity
  8
0
100
AcDbLine
 62
7
  6
CONTINUOUS
 10
4.5386047493
 20
4.0785462733
 11
4.5386047493
 21
4.0535462733
  0
LINE
  5
2C3
100
AcDbEntity
  8
0
100
AcDbLine
 62
7
  6
CONTINUOUS
 10
4.5508889752
 20
5.0769425311
 11
4.5508889752
 21
4.1285462733
  0
LINE
  5
2C4
100
AcDbEntity
  8
0
100
AcDbLine
 62
7
  6
CONTINUOUS
 10
4.5508889752
 20
5.4641462733
 11
4.5508889752
 21
7.9016462733
  0
LINE
  5
2C5
100
AcDbEntity
  8
0
100
AcDbLine
 62
7
  6
CONTINUOUS
 10
4.6291389752
 20
1.2175462733
 11
4.6291389752
 21
1.1995462733
  0
LINE
  5
2C6
100
AcDbEntity
  8
0
100
AcDbLine
 62
7
  6
CONTINUOUS
 10
4.6683889752
 20
1.4440728407
 11
4.6683889752
 21
1.3740462733
  0
LINE
  5
2C7
100
AcDbEntity
  8
0
100
AcDbLine
 62
7
  6
CONTINUOUS
 10
4.6803889752
 20
1.2630462733
 11
4.6803889752
 21
1.2475462733
  0
LINE
  5
2C8
100
AcDbEntity
  8
0
100
AcDbLine
 62
7
  6
CONTINUOUS
 10
6.7502838091
 20
3.4198040484
 11
6.7502889752
 21
3.4198047772
  0
LINE
  5
2C9
100
AcDbEntity
  8
0
100
AcDbLine
 62
7
  6
CONTINUOUS
 10
6.7680680135
 20
3.4200394952
 11
6.7680579543
 21
3.4200384791
  0
LINE
  5
2CA
100
AcDbEntity
  8
0
100
AcDbLine
 62
7
  6
CONTINUOUS
 10
6.768024809
 20
3.4200362729
 11
6.7680104884
 21
3.4200350912
  0
LINE
  5
2CB
100
AcDbEntity
  8
0
100
AcDbLine
 62
7
  6
CONTINUOUS
 10
6.7679749606
 20
3.4200325683
 11
6.7679575774
 21
3.4200312226
  0
LINE
  5
2CC
100
AcDbEntity
  8
0
100
AcDbLine
 62
7
  6
CONTINUOUS
 10
6.7681389752
 20
3.4200448223
 11
6.7670813249
 21
3.4199676878
  0
LINE
  5
2CD
100
AcDbEntity
  8
0
100
AcDbLine
 62
7
  6
CONTINUOUS
 10
6.7502763966
 20
3.4198038634
 11
6.7502889752
 21
3.4198047772
  0
LINE
  5
2CE
100
AcDbEntity
  8
0
100
AcDbLine
 62
7
  6
CONTINUOUS
 10
6.7500974745
 20
3.4189501114
 11
6.7077175417
 21
3.4167098985
  0
LWPOLYLINE
  5
2CF
100
AcDbEntity
  8
0
100
AcDbPolyline
 62
7
  6
CONTINUOUS
 90
3
 70
0
 10
6.7282807601
 20
3.4177889467
 10
6.7270011754
 20
3.4177214133
 10
6.7257218627
 20
3.4176539751
  0
LINE
  5
2D0
100
AcDbEntity
  8
0
100
AcDbLine
 62
7
  6
CONTINUOUS
 10
6.7144312058
 20
3.4170604995
 11
6.7132429676
 21
3.416998187
  0
LINE
  5
2D1
100
AcDbEntity
  8
0
100
AcDbLine
 62
7
  6
CONTINUOUS
 10
6.7132429676
 20
3.416998187
 11
6.710938404
 21
3.4168775361
  0
LINE
  5
2D2
100
AcDbEntity
  8
0
100
AcDbLine
 62
7
  6
CONTINUOUS
 10
6.710938404
 20
3.4168775361
 11
6.7077175417
 21
3.4167098985
  0
LINE
  5
2D3
100
AcDbEntity
  8
0
100
AcDbLine
 62
7
  6
CONTINUOUS
 10
6.6907211999
 20
3.4159407142
 11
6.6896389752
 21
3.4159079812
  0
LINE
  5
2D4
100
AcDbEntity
  8
0
100
AcDbLine
 62
7
  6
CONTINUOUS
 10
2.8081389752
 20
3.4190898083
 11
2.8070875804
 21
3.4190673832
  0
LINE
  5
2D5
100
AcDbEntity
  8
0
100
AcDbLine
 62
7
  6
CONTINUOUS
 10
2.8081389752
 20
3.4190898083
 11
2.807088223
 21
3.4190673497
  0
LWPOLYLINE
  5
2D6
100
AcDbEntity
  8
0
100
AcDbPolyline
 62
7
  6
CONTINUOUS
 90
10
 70
0
 10
6.7681389752
 20
3.4200448223
 10
6.768107099
 20
3.4200446719
 10
6.7681102475
 20
3.4200444324
 10
6.7681292482
 20
3.420044087
 10
6.7681311883
 20
3.4200435837
 10
6.7681120382
 20
3.4200429178
 10
6.7681036834
 20
3.4200421654
 10
6.7681017429
 20
3.4200413557
 10
6.7680833757
 20
3.4200404579
 10
6.7680407978
 20
3.420037404
  0
LINE
  5
2D7
100
AcDbEntity
  8
0
100
AcDbLine
 62
7
  6
CONTINUOUS
 10
7.0608889752
 20
3.2680462733
 11
7.0483889752
 21
3.2680462733
  0
LINE
  5
2D8
100
AcDbEntity
  8
0
100
AcDbLine
 62
7
  6
CONTINUOUS
 10
2.4783889752
 20
3.2680462733
 11
2.4908889752
 21
3.2680462733
  0
LINE
  5
2D9
100
AcDbEntity
  8
0
100
AcDbLine
 62
7
  6
CONTINUOUS
 10
2.4908889752
 20
3.2720462733
 11
3.0483889752
 21
3.2720462733
  0
LINE
  5
2DA
100
AcDbEntity
  8
0
100
AcDbLine
 62
7
  6
CONTINUOUS
 10
6.4908889752
 20
3.2720462733
 11
7.0483889752
 21
3.2720462733
  0
LINE
  5
2DB
100
AcDbEntity
  8
0
100
AcDbLine
 62
7
  6
CONTINUOUS
 10
8.3978889752
 20
3.3102962733
 11
8.3578889752
 21
3.3102962733
  0
LINE
  5
2DC
100
AcDbEntity
  8
0
100
AcDbLine
 62
7
  6
CONTINUOUS
 10
7.2133889752
 20
3.3102962733
 11
7.1608889752
 21
3.3102962733
  0
LINE
  5
2DD
100
AcDbEntity
  8
0
100
AcDbLine
 62
7
  6
CONTINUOUS
 10
1.1413889752
 20
3.3102962733
 11
1.1813889752
 21
3.3102962733
  0
LINE
  5
2DE
100
AcDbEntity
  8
0
100
AcDbLine
 62
7
  6
CONTINUOUS
 10
2.3258889752
 20
3.3102962733
 11
2.3783889752
 21
3.3102962733
  0
LINE
  5
2DF
100
AcDbEntity
  8
0
100
AcDbLine
 62
7
  6
CONTINUOUS
 10
2.5050428175
 20
3.3120462733
 11
3.0342351328
 21
3.3120462733
  0
LINE
  5
2E0
100
AcDbEntity
  8
0
100
AcDbLine
 62
7
  6
CONTINUOUS
 10
6.5050428175
 20
3.3120462733
 11
7.0342351328
 21
3.3120462733
  0
LINE
  5
2E1
100
AcDbEntity
  8
0
100
AcDbLine
 62
7
  6
CONTINUOUS
 10
2.5188889752
 20
3.3200462733
 11
3.0203889752
 21
3.3200462733
  0
LINE
  5
2E2
100
AcDbEntity
  8
0
100
AcDbLine
 62
7
  6
CONTINUOUS
 10
6.5188889752
 20
3.3200462733
 11
7.0203889752
 21
3.3200462733
  0
LINE
  5
2E3
100
AcDbEntity
  8
0
100
AcDbLine
 62
7
  6
CONTINUOUS
 10
2.5058889752
 20
3.3275462733
 11
3.0333889752
 21
3.3275462733
  0
LINE
  5
2E4
100
AcDbEntity
  8
0
100
AcDbLine
 62
7
  6
CONTINUOUS
 10
6.5058889752
 20
3.3275462733
 11
7.0333889752
 21
3.3275462733
  0
LINE
  5
2E5
100
AcDbEntity
  8
0
100
AcDbLine
 62
7
  6
CONTINUOUS
 10
2.5058889752
 20
3.3631883218
 11
3.0333889752
 21
3.3631883218
  0
LINE
  5
2E6
100
AcDbEntity
  8
0
100
AcDbLine
 62
7
  6
CONTINUOUS
 10
6.5058889752
 20
3.3631883218
 11
7.0333889752
 21
3.3631883218
  0
LINE
  5
2E7
100
AcDbEntity
  8
0
100
AcDbLine
 62
7
  6
CONTINUOUS
 10
2.5169987646
 20
3.3742981112
 11
3.0222791858
 21
3.3742981112
  0
LINE
  5
2E8
100
AcDbEntity
  8
0
100
AcDbLine
 62
7
  6
CONTINUOUS
 10
6.5169987646
 20
3.3742981112
 11
7.0222791858
 21
3.3742981112
  0
LINE
  5
2E9
100
AcDbEntity
  8
0
100
AcDbLine
 62
7
  6
CONTINUOUS
 10
2.5423841969
 20
3.3825462733
 11
2.9968937534
 21
3.3825462733
  0
LINE
  5
2EA
100
AcDbEntity
  8
0
100
AcDbLine
 62
7
  6
CONTINUOUS
 10
6.5423839971
 20
3.3825462733
 11
6.9968939532
 21
3.3825462733
  0
LINE
  5
2EB
100
AcDbEntity
  8
0
100
AcDbLine
 62
7
  6
CONTINUOUS
 10
6.9672113034
 20
3.3944509199
 11
6.5720666469
 21
3.3944509199
  0
LINE
  5
2EC
100
AcDbEntity
  8
0
100
AcDbLine
 62
7
  6
CONTINUOUS
 10
2.9672112949
 20
3.3944509798
 11
2.5720666554
 21
3.3944509798
  0
LINE
  5
2ED
100
AcDbEntity
  8
0
100
AcDbLine
 62
7
  6
CONTINUOUS
 10
5.1063041783
 20
3.4657057673
 11
4.432973772
 21
3.4657057673
  0
LINE
  5
2EE
100
AcDbEntity
  8
0
100
AcDbLine
 62
7
  6
CONTINUOUS
 10
5.0896389752
 20
3.4885462733
 11
4.4496389752
 21
3.4885462733
  0
LINE
  5
2EF
100
AcDbEntity
  8
0
100
AcDbLine
 62
7
  6
CONTINUOUS
 10
5.0777521968
 20
3.5032482648
 11
4.4615257535
 21
3.5032482648
  0
LINE
  5
2F0
100
AcDbEntity
  8
0
100
AcDbLine
 62
7
  6
CONTINUOUS
 10
2.7306980407
 20
3.4189909153
 11
2.7296389751
 21
3.419013776
  0
LINE
  5
2F1
100
AcDbEntity
  8
0
100
AcDbLine
 62
7
  6
CONTINUOUS
 10
2.7306987971
 20
3.4189909561
 11
2.7296389752
 21
3.419013776
  0
LINE
  5
2F2
100
AcDbEntity
  8
0
100
AcDbLine
 62
7
  6
CONTINUOUS
 10
6.8483891258
 20
3.4153812831
 11
6.8498614435
 21
3.4152740144
  0
LINE
  5
2F3
100
AcDbEntity
  8
0
100
AcDbLine
 62
7
  6
CONTINUOUS
 10
6.8498614435
 20
3.4152740144
 11
6.8503190809
 21
3.4152215604
  0
LINE
  5
2F4
100
AcDbEntity
  8
0
100
AcDbLine
 62
7
  6
CONTINUOUS
 10
6.8498614435
 20
3.4152740144
 11
6.8503190793
 21
3.415221542
  0
LINE
  5
2F5
100
AcDbEntity
  8
0
100
AcDbLine
 62
7
  6
CONTINUOUS
 10
9.3943511977
 20
2.8102487891
 11
9.3846871554
 21
2.8114353843
  0
LINE
  5
2F6
100
AcDbEntity
  8
0
100
AcDbLine
 62
7
  6
CONTINUOUS
 10
8.9531173092
 20
2.8682526324
 11
8.9434754476
 21
2.8696077077
  0
LINE
  5
2F7
100
AcDbEntity
  8
0
100
AcDbLine
 62
7
  6
CONTINUOUS
 10
9.4021054799
 20
2.7969678467
 11
9.3925167834
 21
2.7986585926
  0
LINE
  5
2F8
100
AcDbEntity
  8
0
100
AcDbLine
 62
7
  6
CONTINUOUS
 10
8.9645119736
 20
2.8779845953
 11
8.9549542451
 21
2.8798424295
  0
LINE
  5
2F9
100
AcDbEntity
  8
0
100
AcDbLine
 62
7
  6
CONTINUOUS
 10
8.880123886
 20
2.527793269
 11
8.8896109547
 21
2.5256030066
  0
LINE
  5
2FA
100
AcDbEntity
  8
0
100
AcDbLine
 62
7
  6
CONTINUOUS
 10
9.3128837122
 20
2.423977259
 11
9.3223181633
 21
2.4216249861
  0
LINE
  5
2FB
100
AcDbEntity
  8
0
100
AcDbLine
 62
7
  6
CONTINUOUS
 10
8.8738003191
 20
2.5418120001
 11
8.8831597567
 21
2.5391282246
  0
LINE
  5
2FC
100
AcDbEntity
  8
0
100
AcDbLine
 62
7
  6
CONTINUOUS
 10
6.5058889752
 20
3.0275462733
 11
6.5843889752
 21
3.0020462733
  0
LINE
  5
2FD
100
AcDbEntity
  8
0
100
AcDbLine
 62
7
  6
CONTINUOUS
 10
4.719423201
 20
4.0785462733
 11
4.719423201
 21
4.0535462733
  0
LINE
  5
2FE
100
AcDbEntity
  8
0
100
AcDbLine
 62
7
  6
CONTINUOUS
 10
4.8198547493
 20
4.0785462733
 11
4.8198547493
 21
4.0535462733
  0
LINE
  5
2FF
100
AcDbEntity
  8
0
100
AcDbLine
 62
7
  6
CONTINUOUS
 10
4.8588889752
 20
1.2630462733
 11
4.8588889752
 21
1.2475462733
  0
LINE
  5
300
100
AcDbEntity
  8
0
100
AcDbLine
 62
7
  6
CONTINUOUS
 10
4.8708889752
 20
1.4440728407
 11
4.8708889752
 21
1.3740462733
  0
LINE
  5
301
100
AcDbEntity
  8
0
100
AcDbLine
 62
7
  6
CONTINUOUS
 10
4.9101389752
 20
1.2175462733
 11
4.9101389752
 21
1.1995462733
  0
LINE
  5
302
100
AcDbEntity
  8
0
100
AcDbLine
 62
7
  6
CONTINUOUS
 10
4.9883889752
 20
5.0769425311
 11
4.9883889752
 21
4.1285462733
  0
LINE
  5
303
100
AcDbEntity
  8
0
100
AcDbLine
 62
7
  6
CONTINUOUS
 10
4.9883889752
 20
5.4641462733
 11
4.9883889752
 21
7.9016462733
  0
LINE
  5
304
100
AcDbEntity
  8
0
100
AcDbLine
 62
7
  6
CONTINUOUS
 10
5.000673201
 20
4.0785462733
 11
5.000673201
 21
4.0535462733
  0
LINE
  5
305
100
AcDbEntity
  8
0
100
AcDbLine
 62
7
  6
CONTINUOUS
 10
5.0508889752
 20
4.0535462733
 11
5.0508889752
 21
4.1175775108
  0
LINE
  5
306
100
AcDbEntity
  8
0
100
AcDbLine
 62
7
  6
CONTINUOUS
 10
5.0196389752
 20
5.4041462733
 11
4.9908612295
 21
5.0864399615
  0
LINE
  5
307
100
AcDbEntity
  8
0
100
AcDbLine
 62
7
  6
CONTINUOUS
 10
3.2243698463
 20
3.2720646337
 11
3.1997868113
 21
3.254914952
  0
LINE
  5
308
100
AcDbEntity
  8
0
100
AcDbLine
 62
7
  6
CONTINUOUS
 10
2.5188889752
 20
3.3200462733
 11
2.5050428175
 21
3.3120462733
  0
LINE
  5
309
100
AcDbEntity
  8
0
100
AcDbLine
 62
7
  6
CONTINUOUS
 10
2.7902816213
 20
3.4197705796
 11
2.7902889752
 21
3.4197712327
  0
LINE
  5
30A
100
AcDbEntity
  8
0
100
AcDbLine
 62
7
  6
CONTINUOUS
 10
6.9491389752
 20
3.3989818202
 11
6.9068889752
 21
3.4066171401
  0
LINE
  5
30B
100
AcDbEntity
  8
0
100
AcDbLine
 62
7
  6
CONTINUOUS
 10
9.4091540643
 20
2.7832992776
 11
9.3996669956
 21
2.78548954
  0
LINE
  5
30C
100
AcDbEntity
  8
0
100
AcDbLine
 62
7
  6
CONTINUOUS
 10
8.9763942381
 20
2.8871152876
 11
8.966959787
 21
2.8894675605
  0
LINE
  5
30D
100
AcDbEntity
  8
0
100
AcDbLine
 62
7
  6
CONTINUOUS
 10
6.9299694351
 20
3.4032868751
 11
6.9299533242
 21
3.4032913131
  0
LINE
  5
30E
100
AcDbEntity
  8
0
100
AcDbLine
 62
7
  6
CONTINUOUS
 10
9.4154776312
 20
2.7692805464
 11
9.4061181936
 21
2.771964322
  0
LINE
  5
30F
100
AcDbEntity
  8
0
100
AcDbLine
 62
7
  6
CONTINUOUS
 10
9.3005280861
 20
2.415498093
 11
9.3098392599
 21
2.4126513816
  0
LINE
  5
310
100
AcDbEntity
  8
0
100
AcDbLine
 62
7
  6
CONTINUOUS
 10
6.9968939532
 20
3.3825462733
 11
7.0222791858
 21
3.3742981112
  0
LINE
  5
311
100
AcDbEntity
  8
0
100
AcDbLine
 62
7
  6
CONTINUOUS
 10
8.8682191021
 20
2.5561424691
 11
8.8774252549
 21
2.5529725364
  0
LINE
  5
312
100
AcDbEntity
  8
0
100
AcDbLine
 62
7
  6
CONTINUOUS
 10
9.2877512945
 20
2.407668465
 11
9.2969007222
 21
2.4043383457
  0
LINE
  5
313
100
AcDbEntity
  8
0
100
AcDbLine
 62
7
  6
CONTINUOUS
 10
8.8633980096
 20
2.5707371831
 11
8.8724132722
 21
2.5670947806
  0
LINE
  5
314
100
AcDbEntity
  8
0
100
AcDbLine
 62
7
  6
CONTINUOUS
 10
7.1608889752
 20
3.0287962733
 11
7.0608889752
 21
3.0710462733
  0
LINE
  5
315
100
AcDbEntity
  8
0
100
AcDbLine
 62
7
  6
CONTINUOUS
 10
6.314908104
 20
3.2720646337
 11
6.339491139
 21
3.254914952
  0
LINE
  5
316
100
AcDbEntity
  8
0
100
AcDbLine
 62
7
  6
CONTINUOUS
 10
8.5571389752
 20
0.5625462733
 11
8.5671389752
 21
0.5525462733
  0
LINE
  5
317
100
AcDbEntity
  8
0
100
AcDbLine
 62
7
  6
CONTINUOUS
 10
5.0941389752
 20
2.0649260501
 11
5.0941389752
 21
1.5971664965
  0
LINE
  5
318
100
AcDbEntity
  8
0
100
AcDbLine
 62
7
  6
CONTINUOUS
 10
5.1511389752
 20
2.0435462733
 11
5.1511389752
 21
1.6185462733
  0
LINE
  5
319
100
AcDbEntity
  8
0
100
AcDbLine
 62
7
  6
CONTINUOUS
 10
3.0333889752
 20
3.3275462733
 11
3.0203889752
 21
3.3200462733
  0
LINE
  5
31A
100
AcDbEntity
  8
0
100
AcDbLine
 62
7
  6
CONTINUOUS
 10
2.3783889752
 20
3.0287962733
 11
2.4783889752
 21
3.0710462733
  0
LINE
  5
31B
100
AcDbEntity
  8
0
100
AcDbLine
 62
7
  6
CONTINUOUS
 10
2.5423839971
 20
3.3825462733
 11
2.5169987646
 21
3.3742981112
  0
LINE
  5
31C
100
AcDbEntity
  8
0
100
AcDbLine
 62
7
  6
CONTINUOUS
 10
5.0696389752
 20
4.0535462733
 11
4.4696389752
 21
4.0535462733
  0
LINE
  5
31D
100
AcDbEntity
  8
0
100
AcDbLine
 62
7
  6
CONTINUOUS
 10
5.0508889752
 20
4.0785462733
 11
5.000673201
 21
4.0785462733
  0
LINE
  5
31E
100
AcDbEntity
  8
0
100
AcDbLine
 62
7
  6
CONTINUOUS
 10
4.8198547493
 20
4.0785462733
 11
4.719423201
 21
4.0785462733
  0
LINE
  5
31F
100
AcDbEntity
  8
0
100
AcDbLine
 62
7
  6
CONTINUOUS
 10
4.5386047493
 20
4.0785462733
 11
4.4883889752
 21
4.0785462733
  0
LINE
  5
320
100
AcDbEntity
  8
0
100
AcDbLine
 62
7
  6
CONTINUOUS
 10
5.0196389752
 20
4.1285462733
 11
4.5196389752
 21
4.1285462733
  0
LINE
  5
321
100
AcDbEntity
  8
0
100
AcDbLine
 62
7
  6
CONTINUOUS
 10
8.9887498642
 20
2.8955944535
 11
8.9794386904
 21
2.898441165
  0
LINE
  5
322
100
AcDbEntity
  8
0
100
AcDbLine
 62
7
  6
CONTINUOUS
 10
9.4210588482
 20
2.7549500775
 11
9.4118526954
 21
2.7581200101
  0
LINE
  5
323
100
AcDbEntity
  8
0
100
AcDbLine
 62
7
  6
CONTINUOUS
 10
9.0015266558
 20
2.9034240815
 11
8.9923772281
 21
2.9067542009
  0
LINE
  5
324
100
AcDbEntity
  8
0
100
AcDbLine
 62
7
  6
CONTINUOUS
 10
9.4258799407
 20
2.7403553635
 11
9.4168646781
 21
2.743997766
  0
LINE
  5
325
100
AcDbEntity
  8
0
100
AcDbLine
 62
7
  6
CONTINUOUS
 10
9.2745822419
 20
2.4005182529
 11
9.2835448457
 21
2.3967138533
  0
LINE
  5
326
100
AcDbEntity
  8
0
100
AcDbLine
 62
7
  6
CONTINUOUS
 10
8.8593428322
 20
2.585580758
 11
8.8681672046
 21
2.5814658856
  0
LINE
  5
327
100
AcDbEntity
  8
0
100
AcDbLine
 62
7
  6
CONTINUOUS
 10
9.2610570238
 20
2.3940670548
 11
9.2698082378
 21
2.3897988026
  0
LINE
  5
328
100
AcDbEntity
  8
0
100
AcDbLine
 62
7
  6
CONTINUOUS
 10
6.5058889752
 20
3.3275462733
 11
6.5188889752
 21
3.3200462733
  0
LINE
  5
329
100
AcDbEntity
  8
0
100
AcDbLine
 62
7
  6
CONTINUOUS
 10
7.0203889752
 20
3.3200462733
 11
7.0342351328
 21
3.3120462733
  0
LINE
  5
32A
100
AcDbEntity
  8
0
100
AcDbLine
 62
7
  6
CONTINUOUS
 10
9.0146957084
 20
2.9105742937
 11
9.0057331047
 21
2.9143786933
  0
LINE
  5
32B
100
AcDbEntity
  8
0
100
AcDbLine
 62
7
  6
CONTINUOUS
 10
9.4299351181
 20
2.7255117885
 11
9.4211107457
 21
2.7296266609
  0
LINE
  5
32C
100
AcDbEntity
  8
0
100
AcDbLine
 62
7
  6
CONTINUOUS
 10
9.0282209265
 20
2.9170254918
 11
9.0194697125
 21
2.921293744
  0
LINE
  5
32D
100
AcDbEntity
  8
0
100
AcDbLine
 62
7
  6
CONTINUOUS
 10
8.8560721085
 20
2.6006078898
 11
8.8646690316
 21
2.5960368247
  0
LINE
  5
32E
100
AcDbEntity
  8
0
100
AcDbLine
 62
7
  6
CONTINUOUS
 10
9.247212712
 20
2.3883325531
 11
9.2557285497
 21
2.3836121472
  0
LINE
  5
32F
100
AcDbEntity
  8
0
100
AcDbLine
 62
7
  6
CONTINUOUS
 10
8.8535923265
 20
2.6157856039
 11
8.8619382368
 21
2.6107708751
  0
LINE
  5
330
100
AcDbEntity
  8
0
100
AcDbLine
 62
7
  6
CONTINUOUS
 10
9.2330904679
 20
2.3833205703
 11
9.2413362718
 21
2.3781680201
  0
LINE
  5
331
100
AcDbEntity
  8
0
100
AcDbLine
 62
7
  6
CONTINUOUS
 10
5.9829824626
 20
2.0435589328
 11
5.9829824626
 21
1.6185336138
  0
LINE
  5
332
100
AcDbEntity
  8
0
100
AcDbLine
 62
7
  6
CONTINUOUS
 10
6.0421389752
 20
2.0435589328
 11
6.0421389752
 21
1.6185336138
  0
LINE
  5
333
100
AcDbEntity
  8
0
100
AcDbLine
 62
7
  6
CONTINUOUS
 10
6.1821389752
 20
0.5525462733
 11
6.1821389752
 21
0.6075462733
  0
LINE
  5
334
100
AcDbEntity
  8
0
100
AcDbLine
 62
7
  6
CONTINUOUS
 10
3.0333889752
 20
3.0275462733
 11
2.9548889752
 21
3.0020462733
  0
LINE
  5
335
100
AcDbEntity
  8
0
100
AcDbLine
 62
7
  6
CONTINUOUS
 10
4.9609835476
 20
5.0591462733
 11
4.5782944027
 21
5.0591462733
  0
LINE
  5
336
100
AcDbEntity
  8
0
100
AcDbLine
 62
7
  6
CONTINUOUS
 10
4.9908612295
 20
5.0864399615
 11
4.5484167208
 21
5.0864399615
  0
LINE
  5
337
100
AcDbEntity
  8
0
100
AcDbLine
 62
7
  6
CONTINUOUS
 10
9.4332058418
 20
2.7104846568
 11
9.4246089187
 21
2.7150557219
  0
LINE
  5
338
100
AcDbEntity
  8
0
100
AcDbLine
 62
7
  6
CONTINUOUS
 10
9.0420652383
 20
2.9227599935
 11
9.0335494007
 21
2.9274803994
  0
LINE
  5
339
100
AcDbEntity
  8
0
100
AcDbLine
 62
7
  6
CONTINUOUS
 10
9.4356856238
 20
2.6953069427
 11
9.4273397135
 21
2.7003216715
  0
LINE
  5
33A
100
AcDbEntity
  8
0
100
AcDbLine
 62
7
  6
CONTINUOUS
 10
9.0561874824
 20
2.9277719763
 11
9.0479416785
 21
2.9329245264
  0
LINE
  5
33B
100
AcDbEntity
  8
0
100
AcDbLine
 62
7
  6
CONTINUOUS
 10
8.8519102832
 20
2.6310722991
 11
8.859982305
 21
2.6256276517
  0
LINE
  5
33C
100
AcDbEntity
  8
0
100
AcDbLine
 62
7
  6
CONTINUOUS
 10
9.2187193628
 20
2.3790745027
 11
9.226695133
 21
2.3734898083
  0
LINE
  5
33D
100
AcDbEntity
  8
0
100
AcDbLine
 62
7
  6
CONTINUOUS
 10
8.8510305889
 20
2.6464260759
 11
8.8588065974
 21
2.6405664331
  0
LINE
  5
33E
100
AcDbEntity
  8
0
100
AcDbLine
 62
7
  6
CONTINUOUS
 10
9.2041484237
 20
2.3755763297
 11
9.2118209831
 21
2.3695818694
  0
LINE
  5
33F
100
AcDbEntity
  8
0
100
AcDbLine
 62
7
  6
CONTINUOUS
 10
7.0222791858
 20
3.3742981112
 11
7.0333889752
 21
3.3631883218
  0
LINE
  5
340
100
AcDbEntity
  8
0
100
AcDbLine
 62
7
  6
CONTINUOUS
 10
6.4909813897
 20
3.2633435073
 11
6.4908889752
 21
3.2635354502
  0
LINE
  5
341
100
AcDbEntity
  8
0
100
AcDbLine
 62
7
  6
CONTINUOUS
 10
6.3091924484
 20
2.0310462733
 11
6.3091924484
 21
1.6310462733
  0
LINE
  5
342
100
AcDbEntity
  8
0
100
AcDbLine
 62
7
  6
CONTINUOUS
 10
6.314908104
 20
3.0670279129
 11
6.314908104
 21
3.2720646337
  0
LINE
  5
343
100
AcDbEntity
  8
0
100
AcDbLine
 62
7
  6
CONTINUOUS
 10
6.339491139
 20
3.0841775946
 11
6.339491139
 21
3.254914952
  0
LINE
  5
344
100
AcDbEntity
  8
0
100
AcDbLine
 62
7
  6
CONTINUOUS
 10
6.3518321036
 20
3.2595462733
 11
6.3518321036
 21
3.0795462733
  0
LINE
  5
345
100
AcDbEntity
  8
0
100
AcDbLine
 62
7
  6
CONTINUOUS
 10
6.3639170594
 20
2.0424099097
 11
6.3639170594
 21
1.6196826369
  0
LINE
  5
346
100
AcDbEntity
  8
0
100
AcDbLine
 62
7
  6
CONTINUOUS
 10
6.3653190747
 20
3.0737244911
 11
6.3653190747
 21
3.2653680555
  0
LINE
  5
347
100
AcDbEntity
  8
0
100
AcDbLine
 62
7
  6
CONTINUOUS
 10
6.4908889752
 20
3.2720462733
 11
6.4908889752
 21
3.2635354502
  0
LINE
  5
348
100
AcDbEntity
  8
0
100
AcDbLine
 62
7
  6
CONTINUOUS
 10
6.4908889752
 20
3.0755570964
 11
6.4908889752
 21
3.0670462733
  0
LINE
  5
349
100
AcDbEntity
  8
0
100
AcDbLine
 62
7
  6
CONTINUOUS
 10
6.4909813897
 20
3.0757490393
 11
6.4909813897
 21
3.2633435073
  0
LINE
  5
34A
100
AcDbEntity
  8
0
100
AcDbLine
 62
7
  6
CONTINUOUS
 10
6.5012941023
 20
3.232087526
 11
6.5012941023
 21
3.1070050206
  0
LINE
  5
34B
100
AcDbEntity
  8
0
100
AcDbLine
 62
7
  6
CONTINUOUS
 10
6.5058889752
 20
3.3631883218
 11
6.5058889752
 21
3.3275462733
  0
LINE
  5
34C
100
AcDbEntity
  8
0
100
AcDbLine
 62
7
  6
CONTINUOUS
 10
6.5083889752
 20
3.1819559469
 11
6.5083889752
 21
3.1571365996
  0
LINE
  5
34D
100
AcDbEntity
  8
0
100
AcDbLine
 62
7
  6
CONTINUOUS
 10
6.5978889752
 20
3.0020462733
 11
6.5978889752
 21
2.8225462733
  0
LINE
  5
34E
100
AcDbEntity
  8
0
100
AcDbLine
 62
7
  6
CONTINUOUS
 10
5.0196389752
 20
5.4041462733
 11
4.5196389752
 21
5.4041462733
  0
LINE
  5
34F
100
AcDbEntity
  8
0
100
AcDbLine
 62
7
  6
CONTINUOUS
 10
5.0196389752
 20
5.4641462733
 11
4.5196389752
 21
5.4641462733
  0
LINE
  5
350
100
AcDbEntity
  8
0
100
AcDbLine
 62
7
  6
CONTINUOUS
 10
9.4373676671
 20
2.6800202474
 11
9.4292956453
 21
2.6854648949
  0
LINE
  5
351
100
AcDbEntity
  8
0
100
AcDbLine
 62
7
  6
CONTINUOUS
 10
9.0705585875
 20
2.9320180439
 11
9.0625828173
 21
2.9376027383
  0
LINE
  5
352
100
AcDbEntity
  8
0
100
AcDbLine
 62
7
  6
CONTINUOUS
 10
9.4382473614
 20
2.6646664707
 11
9.4304713529
 21
2.6705261135
  0
LINE
  5
353
100
AcDbEntity
  8
0
100
AcDbLine
 62
7
  6
CONTINUOUS
 10
9.0851295266
 20
2.9355162168
 11
9.0774569672
 21
2.9415106772
  0
LINE
  5
354
100
AcDbEntity
  8
0
100
AcDbLine
 62
7
  6
CONTINUOUS
 10
8.850955472
 20
2.6617962733
 11
8.858403932
 21
2.6555462733
  0
LINE
  5
355
100
AcDbEntity
  8
0
100
AcDbLine
 62
7
  6
CONTINUOUS
 10
9.1894143734
 20
2.3728455349
 11
9.196762692
 21
2.366457739
  0
LINE
  5
356
100
AcDbEntity
  8
0
100
AcDbLine
 62
7
  6
CONTINUOUS
 10
8.8516856861
 20
2.6771664707
 11
8.8588065974
 21
2.6705261135
  0
LINE
  5
357
100
AcDbEntity
  8
0
100
AcDbLine
 62
7
  6
CONTINUOUS
 10
6.6156389752
 20
3.4040881107
 11
6.6156389752
 21
3.4045982821
  0
LINE
  5
358
100
AcDbEntity
  8
0
100
AcDbLine
 62
7
  6
CONTINUOUS
 10
6.6186234839
 20
3.4045325921
 11
6.6186234839
 21
3.4050424653
  0
LINE
  5
359
100
AcDbEntity
  8
0
100
AcDbLine
 62
7
  6
CONTINUOUS
 10
6.6352828578
 20
3.4072256853
 11
6.6352828578
 21
3.4077337589
  0
LINE
  5
35A
100
AcDbEntity
  8
0
100
AcDbLine
 62
7
  6
CONTINUOUS
 10
6.6708639194
 20
3.4132084969
 11
6.6708639194
 21
3.4136350996
  0
LINE
  5
35B
100
AcDbEntity
  8
0
100
AcDbLine
 62
7
  6
CONTINUOUS
 10
6.7077889752
 20
3.4170737884
 11
6.7077889752
 21
3.417575388
  0
LINE
  5
35C
100
AcDbEntity
  8
0
100
AcDbLine
 62
7
  6
CONTINUOUS
 10
6.7502889752
 20
3.4193046213
 11
6.7502889752
 21
3.4198047772
  0
LINE
  5
35D
100
AcDbEntity
  8
0
100
AcDbLine
 62
7
  6
CONTINUOUS
 10
6.7746389752
 20
3.4188644314
 11
6.7746389752
 21
3.4194300043
  0
LINE
  5
35E
100
AcDbEntity
  8
0
100
AcDbLine
 62
7
  6
CONTINUOUS
 10
6.7853889752
 20
3.4192185566
 11
6.7853889752
 21
3.4198859843
  0
LINE
  5
35F
100
AcDbEntity
  8
0
100
AcDbLine
 62
7
  6
CONTINUOUS
 10
6.8033889752
 20
3.4186431384
 11
6.8033889752
 21
3.4193113635
  0
LINE
  5
360
100
AcDbEntity
  8
0
100
AcDbLine
 62
7
  6
CONTINUOUS
 10
6.8183889752
 20
3.4173849377
 11
6.8183889752
 21
3.4178863354
  0
LINE
  5
361
100
AcDbEntity
  8
0
100
AcDbLine
 62
7
  6
CONTINUOUS
 10
6.8303889752
 20
3.416534175
 11
6.8303889752
 21
3.417036125
  0
LINE
  5
362
100
AcDbEntity
  8
0
100
AcDbLine
 62
7
  6
CONTINUOUS
 10
6.8432215701
 20
3.4156746641
 11
6.8432215701
 21
3.4161771734
  0
LINE
  5
363
100
AcDbEntity
  8
0
100
AcDbLine
 62
7
  6
CONTINUOUS
 10
6.8498614435
 20
3.4152740144
 11
6.8498614435
 21
3.4157767847
  0
LINE
  5
364
100
AcDbEntity
  8
0
100
AcDbLine
 62
7
  6
CONTINUOUS
 10
6.8646389752
 20
3.4130296398
 11
6.8646389752
 21
3.4135995047
  0
LINE
  5
365
100
AcDbEntity
  8
0
100
AcDbLine
 62
7
  6
CONTINUOUS
 10
6.8696389752
 20
3.4127385027
 11
6.8696389752
 21
3.4135680918
  0
LINE
  5
366
100
AcDbEntity
  8
0
100
AcDbLine
 62
7
  6
CONTINUOUS
 10
6.8877799153
 20
3.4099927546
 11
6.8877799153
 21
3.4109925952
  0
LINE
  5
367
100
AcDbEntity
  8
0
100
AcDbLine
 62
7
  6
CONTINUOUS
 10
6.8907799153
 20
3.4094098414
 11
6.8907799153
 21
3.4099164647
  0
LINE
  5
368
100
AcDbEntity
  8
0
100
AcDbLine
 62
7
  6
CONTINUOUS
 10
6.9047113692
 20
3.4070723923
 11
6.9047113692
 21
3.407580568
  0
LINE
  5
369
100
AcDbEntity
  8
0
100
AcDbLine
 62
7
  6
CONTINUOUS
 10
6.9274789781
 20
3.4031684119
 11
6.9274789781
 21
3.4036792015
  0
LINE
  5
36A
100
AcDbEntity
  8
0
100
AcDbLine
 62
7
  6
CONTINUOUS
 10
6.9299694351
 20
3.4027758211
 11
6.9299694351
 21
3.4032868751
  0
LINE
  5
36B
100
AcDbEntity
  8
0
100
AcDbLine
 62
7
  6
CONTINUOUS
 10
6.9413889752
 20
3.0020462733
 11
6.9413889752
 21
2.8225462733
  0
LINE
  5
36C
100
AcDbEntity
  8
0
100
AcDbLine
 62
7
  6
CONTINUOUS
 10
6.5610713491
 20
2.7905604792
 11
6.5074475768
 21
2.3490462733
  0
LINE
  5
36D
100
AcDbEntity
  8
0
100
AcDbLine
 62
7
  6
CONTINUOUS
 10
6.4908889752
 20
3.0755570964
 11
6.4909813897
 21
3.0757490393
  0
LINE
  5
36E
100
AcDbEntity
  8
0
100
AcDbLine
 62
7
  6
CONTINUOUS
 10
6.5169987646
 20
3.3742981112
 11
6.5058889752
 21
3.3631883218
  0
LINE
  5
36F
100
AcDbEntity
  8
0
100
AcDbLine
 62
7
  6
CONTINUOUS
 10
6.314908104
 20
3.0670279129
 11
6.339491139
 21
3.0841775946
  0
LINE
  5
370
100
AcDbEntity
  8
0
100
AcDbLine
 62
7
  6
CONTINUOUS
 10
6.5188889752
 20
3.3200462733
 11
6.5050428175
 21
3.3120462733
  0
LINE
  5
371
100
AcDbEntity
  8
0
100
AcDbLine
 62
7
  6
CONTINUOUS
 10
6.5423839971
 20
3.3825462733
 11
6.5169987646
 21
3.3742981112
  0
LINE
  5
372
100
AcDbEntity
  8
0
100
AcDbLine
 62
7
  6
CONTINUOUS
 10
4.5508889752
 20
5.6516462733
 11
4.9883889752
 21
5.6516462733
  0
LINE
  5
373
100
AcDbEntity
  8
0
100
AcDbLine
 62
7
  6
CONTINUOUS
 10
9.4383224783
 20
2.6492962733
 11
9.4308740183
 21
2.6555462733
  0
LINE
  5
374
100
AcDbEntity
  8
0
100
AcDbLine
 62
7
  6
CONTINUOUS
 10
9.0998635769
 20
2.9382470117
 11
9.0925152583
 21
2.9446348076
  0
LINE
  5
375
100
AcDbEntity
  8
0
100
AcDbLine
 62
7
  6
CONTINUOUS
 10
9.4375922642
 20
2.6339260759
 11
9.4304713529
 21
2.6405664331
  0
LINE
  5
376
100
AcDbEntity
  8
0
100
AcDbLine
 62
7
  6
CONTINUOUS
 10
9.1745575968
 20
2.3708896032
 11
9.1815615334
 21
2.3641259803
  0
LINE
  5
377
100
AcDbEntity
  8
0
100
AcDbLine
 62
7
  6
CONTINUOUS
 10
9.1147203535
 20
2.9402029434
 11
9.107716417
 21
2.9469665663
  0
LINE
  5
378
100
AcDbEntity
  8
0
100
AcDbLine
 62
7
  6
CONTINUOUS
 10
8.3978889752
 20
3.3102962733
 11
8.4078889752
 21
3.3002962733
  0
LINE
  5
379
100
AcDbEntity
  8
0
100
AcDbLine
 62
7
  6
CONTINUOUS
 10
8.8532186821
 20
2.6924688315
 11
8.859982305
 21
2.6854648949
  0
LINE
  5
37A
100
AcDbEntity
  8
0
100
AcDbLine
 62
7
  6
CONTINUOUS
 10
9.1596188153
 20
2.3697138956
 11
9.1662591726
 21
2.3625929842
  0
LINE
  5
37B
100
AcDbEntity
  8
0
100
AcDbLine
 62
7
  6
CONTINUOUS
 10
8.8555504409
 20
2.7076699901
 11
8.8619382368
 21
2.7003216715
  0
LINE
  5
37C
100
AcDbEntity
  8
0
100
AcDbLine
 62
7
  6
CONTINUOUS
 10
6.9782066012
 20
2.7905604792
 11
7.0318303736
 21
2.3490462733
  0
LINE
  5
37D
100
AcDbEntity
  8
0
100
AcDbLine
 62
7
  6
CONTINUOUS
 10
7.0308889752
 20
3.1536638931
 11
7.0308889752
 21
3.1854286535
  0
LINE
  5
37E
100
AcDbEntity
  8
0
100
AcDbLine
 62
7
  6
CONTINUOUS
 10
7.0333889752
 20
3.3631883218
 11
7.0333889752
 21
3.3275462733
  0
LINE
  5
37F
100
AcDbEntity
  8
0
100
AcDbLine
 62
7
  6
CONTINUOUS
 10
7.0483889752
 20
3.2720462733
 11
7.0483889752
 21
3.2680462733
  0
LINE
  5
380
100
AcDbEntity
  8
0
100
AcDbLine
 62
7
  6
CONTINUOUS
 10
7.0483889752
 20
3.0710462733
 11
7.0483889752
 21
3.0670462733
  0
LINE
  5
381
100
AcDbEntity
  8
0
100
AcDbLine
 62
7
  6
CONTINUOUS
 10
7.0608889752
 20
3.0710462733
 11
7.0608889752
 21
3.2680462733
  0
LINE
  5
382
100
AcDbEntity
  8
0
100
AcDbLine
 62
7
  6
CONTINUOUS
 10
7.1608889752
 20
3.0287962733
 11
7.1608889752
 21
3.3102962733
  0
LINE
  5
383
100
AcDbEntity
  8
0
100
AcDbLine
 62
7
  6
CONTINUOUS
 10
7.2133889752
 20
3.0287962733
 11
7.2133889752
 21
3.3102962733
  0
LINE
  5
384
100
AcDbEntity
  8
0
100
AcDbLine
 62
7
  6
CONTINUOUS
 10
7.3571389752
 20
0.5525462733
 11
7.3571389752
 21
0.6075462733
  0
LINE
  5
385
100
AcDbEntity
  8
0
100
AcDbLine
 62
7
  6
CONTINUOUS
 10
7.0333889752
 20
3.3275462733
 11
7.0203889752
 21
3.3200462733
  0
LINE
  5
386
100
AcDbEntity
  8
0
100
AcDbLine
 62
7
  6
CONTINUOUS
 10
7.1608889752
 20
3.3102962733
 11
7.0608889752
 21
3.2680462733
  0
LINE
  5
387
100
AcDbEntity
  8
0
100
AcDbLine
 62
7
  6
CONTINUOUS
 10
7.0333889752
 20
3.0275462733
 11
6.9548889752
 21
3.0020462733
  0
LINE
  5
388
100
AcDbEntity
  8
0
100
AcDbLine
 62
7
  6
CONTINUOUS
 10
9.4360592682
 20
2.6186237151
 11
9.4292956453
 21
2.6256276517
  0
LINE
  5
389
100
AcDbEntity
  8
0
100
AcDbLine
 62
7
  6
CONTINUOUS
 10
9.129659135
 20
2.941378651
 11
9.1230187777
 21
2.9484995623
  0
LINE
  5
38A
100
AcDbEntity
  8
0
100
AcDbLine
 62
7
  6
CONTINUOUS
 10
9.4337275094
 20
2.6034225565
 11
9.4273397135
 21
2.6107708751
  0
LINE
  5
38B
100
AcDbEntity
  8
0
100
AcDbLine
 62
7
  6
CONTINUOUS
 10
9.1446389752
 20
2.3693112301
 11
9.1508889752
 21
2.3618627702
  0
LINE
  5
38C
100
AcDbEntity
  8
0
100
AcDbLine
 62
7
  6
CONTINUOUS
 10
9.1446389752
 20
2.9417813164
 11
9.1383889752
 21
2.9492297764
  0
LINE
  5
38D
100
AcDbEntity
  8
0
100
AcDbLine
 62
7
  6
CONTINUOUS
 10
8.9632946448
 20
2.4321652595
 11
8.9628152443
 21
2.4327749941
  0
LINE
  5
38E
100
AcDbEntity
  8
0
100
AcDbLine
 62
7
  6
CONTINUOUS
 10
8.8586745712
 20
2.7227282812
 11
8.8646690316
 21
2.7150557219
  0
LINE
  5
38F
100
AcDbEntity
  8
0
100
AcDbLine
 62
7
  6
CONTINUOUS
 10
8.9633033914
 20
2.4321690914
 11
8.9628282947
 21
2.4327806773
  0
LINE
  5
390
100
AcDbEntity
  8
0
100
AcDbLine
 62
7
  6
CONTINUOUS
 10
9.129659135
 20
2.3697138956
 11
9.1355187777
 21
2.361937887
  0
LINE
  5
391
100
AcDbEntity
  8
0
100
AcDbLine
 62
7
  6
CONTINUOUS
 10
8.8625825101
 20
2.7376024312
 11
8.8681672046
 21
2.7296266609
  0
LINE
  5
392
100
AcDbEntity
  8
0
100
AcDbLine
 62
7
  6
CONTINUOUS
 10
9.4306033791
 20
2.5883642653
 11
9.4246089187
 21
2.5960368247
  0
LINE
  5
393
100
AcDbEntity
  8
0
100
AcDbLine
 62
7
  6
CONTINUOUS
 10
9.1596188153
 20
2.941378651
 11
9.1537591726
 21
2.9491546596
  0
LINE
  5
394
100
AcDbEntity
  8
0
100
AcDbLine
 62
7
  6
CONTINUOUS
 10
9.4266954402
 20
2.5734901154
 11
9.4211107457
 21
2.5814658856
  0
LINE
  5
395
100
AcDbEntity
  8
0
100
AcDbLine
 62
7
  6
CONTINUOUS
 10
9.1147203535
 20
2.3708896032
 11
9.120165001
 21
2.3628175813
  0
LINE
  5
396
100
AcDbEntity
  8
0
100
AcDbLine
 62
7
  6
CONTINUOUS
 10
9.1745575968
 20
2.9402029434
 11
9.1691129493
 21
2.9482749652
  0
LINE
  5
397
100
AcDbEntity
  8
0
100
AcDbLine
 62
7
  6
CONTINUOUS
 10
8.867260722
 20
2.7522435699
 11
8.8724132722
 21
2.743997766
  0
LINE
  5
398
100
AcDbEntity
  8
0
100
AcDbLine
 62
7
  6
CONTINUOUS
 10
9.0998635769
 20
2.3728455349
 11
9.1048783057
 21
2.3644996247
  0
LINE
  5
399
100
AcDbEntity
  8
0
100
AcDbLine
 62
7
  6
CONTINUOUS
 10
8.8727048491
 20
2.7666358478
 11
8.8774252549
 21
2.7581200101
  0
LINE
  5
39A
100
AcDbEntity
  8
0
100
AcDbLine
 62
7
  6
CONTINUOUS
 10
9.0851295266
 20
2.3755763297
 11
9.0897005917
 21
2.3669794067
  0
LINE
  5
39B
100
AcDbEntity
  8
0
100
AcDbLine
 62
7
  6
CONTINUOUS
 10
9.2969007222
 20
2.9067542009
 11
9.2877512945
 21
2.9034240815
  0
LINE
  5
39C
100
AcDbEntity
  8
0
100
AcDbLine
 62
7
  6
CONTINUOUS
 10
8.8774252549
 20
2.7581200101
 11
8.8682191021
 21
2.7549500775
  0
LINE
  5
39D
100
AcDbEntity
  8
0
100
AcDbLine
 62
7
  6
CONTINUOUS
 10
9.3098392599
 20
2.898441165
 11
9.3005280861
 21
2.8955944535
  0
LINE
  5
39E
100
AcDbEntity
  8
0
100
AcDbLine
 62
7
  6
CONTINUOUS
 10
8.8831597567
 20
2.771964322
 11
8.8738003191
 21
2.7692805464
  0
LINE
  5
39F
100
AcDbEntity
  8
0
100
AcDbLine
 62
7
  6
CONTINUOUS
 10
9.4220172283
 20
2.5588489766
 11
9.4168646781
 21
2.5670947806
  0
LINE
  5
3A0
100
AcDbEntity
  8
0
100
AcDbLine
 62
7
  6
CONTINUOUS
 10
9.1894143734
 20
2.9382470117
 11
9.1843996446
 21
2.9465929219
  0
LINE
  5
3A1
100
AcDbEntity
  8
0
100
AcDbLine
 62
7
  6
CONTINUOUS
 10
9.4165731013
 20
2.5444566988
 11
9.4118526954
 21
2.5529725364
  0
LINE
  5
3A2
100
AcDbEntity
  8
0
100
AcDbLine
 62
7
  6
CONTINUOUS
 10
9.2041484237
 20
2.9355162168
 11
9.1995773586
 21
2.9441131399
  0
LINE
  5
3A3
100
AcDbEntity
  8
0
100
AcDbLine
 62
7
  6
CONTINUOUS
 10
8.8788915044
 20
2.7807155359
 11
8.8831597567
 21
2.771964322
  0
LINE
  5
3A4
100
AcDbEntity
  8
0
100
AcDbLine
 62
7
  6
CONTINUOUS
 10
9.0705585875
 20
2.3790745027
 11
9.0746734599
 21
2.3702501304
  0
LINE
  5
3A5
100
AcDbEntity
  8
0
100
AcDbLine
 62
7
  6
CONTINUOUS
 10
8.8858065552
 20
2.7944521438
 11
8.8896109547
 21
2.78548954
  0
LINE
  5
3A6
100
AcDbEntity
  8
0
100
AcDbLine
 62
7
  6
CONTINUOUS
 10
9.0561874824
 20
2.3833205703
 11
9.059829885
 21
2.3743053077
  0
LINE
  5
3A7
100
AcDbEntity
  8
0
100
AcDbLine
 62
7
  6
CONTINUOUS
 10
8.3578889752
 20
3.0287962733
 11
8.3578889752
 21
3.3102962733
  0
LINE
  5
3A8
100
AcDbEntity
  8
0
100
AcDbLine
 62
7
  6
CONTINUOUS
 10
8.3978889752
 20
3.0287962733
 11
8.3978889752
 21
3.3102962733
  0
LINE
  5
3A9
100
AcDbEntity
  8
0
100
AcDbLine
 62
7
  6
CONTINUOUS
 10
8.4078889752
 20
3.3002963623
 11
8.4078889752
 21
3.0387961843
  0
LINE
  5
3AA
100
AcDbEntity
  8
0
100
AcDbLine
 62
7
  6
CONTINUOUS
 10
8.3978889752
 20
3.0287962733
 11
8.4078889752
 21
3.0387962733
  0
LINE
  5
3AB
100
AcDbEntity
  8
0
100
AcDbLine
 62
7
  6
CONTINUOUS
 10
9.2557285497
 20
2.9274803994
 11
9.247212712
 21
2.9227599935
  0
LINE
  5
3AC
100
AcDbEntity
  8
0
100
AcDbLine
 62
7
  6
CONTINUOUS
 10
8.8646690316
 20
2.7150557219
 11
8.8560721085
 21
2.7104846568
  0
LINE
  5
3AD
100
AcDbEntity
  8
0
100
AcDbLine
 62
7
  6
CONTINUOUS
 10
9.2698082378
 20
2.921293744
 11
9.2610570238
 21
2.9170254918
  0
LINE
  5
3AE
100
AcDbEntity
  8
0
100
AcDbLine
 62
7
  6
CONTINUOUS
 10
8.8681672046
 20
2.7296266609
 11
8.8593428322
 21
2.7255117885
  0
LINE
  5
3AF
100
AcDbEntity
  8
0
100
AcDbLine
 62
7
  6
CONTINUOUS
 10
9.2835448457
 20
2.9143786933
 11
9.2745822419
 21
2.9105742937
  0
LINE
  5
3B0
100
AcDbEntity
  8
0
100
AcDbLine
 62
7
  6
CONTINUOUS
 10
8.8724132722
 20
2.743997766
 11
8.8633980096
 21
2.7403553635
  0
LINE
  5
3B1
100
AcDbEntity
  8
0
100
AcDbLine
 62
7
  6
CONTINUOUS
 10
8.9923772281
 20
2.4043383457
 11
9.0015266558
 21
2.407668465
  0
LINE
  5
3B2
100
AcDbEntity
  8
0
100
AcDbLine
 62
7
  6
CONTINUOUS
 10
9.4118526954
 20
2.5529725364
 11
9.4210588482
 21
2.5561424691
  0
LINE
  5
3B3
100
AcDbEntity
  8
0
100
AcDbLine
 62
7
  6
CONTINUOUS
 10
8.9794386904
 20
2.4126513816
 11
8.9887498642
 21
2.415498093
  0
LINE
  5
3B4
100
AcDbEntity
  8
0
100
AcDbLine
 62
7
  6
CONTINUOUS
 10
9.4061181936
 20
2.5391282246
 11
9.4154776312
 21
2.5418120001
  0
LINE
  5
3B5
100
AcDbEntity
  8
0
100
AcDbLine
 62
7
  6
CONTINUOUS
 10
9.4103864459
 20
2.5303770107
 11
9.4061181936
 21
2.5391282246
  0
LINE
  5
3B6
100
AcDbEntity
  8
0
100
AcDbLine
 62
7
  6
CONTINUOUS
 10
9.2187193628
 20
2.9320180439
 11
9.2146044904
 21
2.9408424162
  0
LINE
  5
3B7
100
AcDbEntity
  8
0
100
AcDbLine
 62
7
  6
CONTINUOUS
 10
9.4034713951
 20
2.5166404028
 11
9.3996669956
 21
2.5256030066
  0
LINE
  5
3B8
100
AcDbEntity
  8
0
100
AcDbLine
 62
7
  6
CONTINUOUS
 10
9.2330904679
 20
2.9277719763
 11
9.2294480654
 21
2.9367872389
  0
LINE
  5
3B9
100
AcDbEntity
  8
0
100
AcDbLine
 62
7
  6
CONTINUOUS
 10
8.8934310476
 20
2.8078080203
 11
8.8967611669
 21
2.7986585926
  0
LINE
  5
3BA
100
AcDbEntity
  8
0
100
AcDbLine
 62
7
  6
CONTINUOUS
 10
9.0420652383
 20
2.3883325531
 11
9.0452351709
 21
2.3791264003
  0
LINE
  5
3BB
100
AcDbEntity
  8
0
100
AcDbLine
 62
7
  6
CONTINUOUS
 10
8.9017440834
 20
2.820746558
 11
8.9045907949
 21
2.8114353843
  0
LINE
  5
3BC
100
AcDbEntity
  8
0
100
AcDbLine
 62
7
  6
CONTINUOUS
 10
9.0282209265
 20
2.3940670548
 11
9.030904702
 21
2.3847076172
  0
LINE
  5
3BD
100
AcDbEntity
  8
0
100
AcDbLine
 62
7
  6
CONTINUOUS
 10
8.910717688
 20
2.8332254615
 11
8.9130699609
 21
2.8237910103
  0
LINE
  5
3BE
100
AcDbEntity
  8
0
100
AcDbLine
 62
7
  6
CONTINUOUS
 10
9.0146957084
 20
2.4005182529
 11
9.0168859708
 21
2.3910311841
  0
LINE
  5
3BF
100
AcDbEntity
  8
0
100
AcDbLine
 62
7
  6
CONTINUOUS
 10
8.9413989901
 20
2.8676372231
 11
8.9422475922
 21
2.8579376562
  0
LINE
  5
3C0
100
AcDbEntity
  8
0
100
AcDbLine
 62
7
  6
CONTINUOUS
 10
8.9763942381
 20
2.423977259
 11
8.9770724994
 21
2.4142776705
  0
LINE
  5
3C1
100
AcDbEntity
  8
0
100
AcDbLine
 62
7
  6
CONTINUOUS
 10
8.9527775061
 20
2.8779833187
 11
8.9531173092
 21
2.8682526324
  0
LINE
  5
3C2
100
AcDbEntity
  8
0
100
AcDbLine
 62
7
  6
CONTINUOUS
 10
8.8862313118
 20
0.9075462733
 11
8.8860480336
 21
0.9180462733
  0
LINE
  5
3C3
100
AcDbEntity
  8
0
100
AcDbLine
 62
7
  6
CONTINUOUS
 10
8.5571389752
 20
0.5625462733
 11
8.5571389752
 21
0.6050462733
  0
LINE
  5
3C4
100
AcDbEntity
  8
0
100
AcDbLine
 62
7
  6
CONTINUOUS
 10
8.8896389752
 20
1.0430462733
 11
8.8896389752
 21
0.9805462733
  0
LINE
  5
3C5
100
AcDbEntity
  8
0
100
AcDbLine
 62
7
  6
CONTINUOUS
 10
8.8946389752
 20
2.2305462733
 11
8.8946389752
 21
2.5013093058
  0
LINE
  5
3C6
100
AcDbEntity
  8
0
100
AcDbLine
 62
7
  6
CONTINUOUS
 10
8.8946389752
 20
2.5066032801
 11
8.8946389752
 21
2.5128081536
  0
LINE
  5
3C7
100
AcDbEntity
  8
0
100
AcDbLine
 62
7
  6
CONTINUOUS
 10
9.2118209831
 20
2.9415106772
 11
9.2041484237
 21
2.9355162168
  0
LINE
  5
3C8
100
AcDbEntity
  8
0
100
AcDbLine
 62
7
  6
CONTINUOUS
 10
8.8588065974
 20
2.6705261135
 11
8.8510305889
 21
2.6646664707
  0
LINE
  5
3C9
100
AcDbEntity
  8
0
100
AcDbLine
 62
7
  6
CONTINUOUS
 10
9.226695133
 20
2.9376027383
 11
9.2187193628
 21
2.9320180439
  0
LINE
  5
3CA
100
AcDbEntity
  8
0
100
AcDbLine
 62
7
  6
CONTINUOUS
 10
8.859982305
 20
2.6854648949
 11
8.8519102832
 21
2.6800202474
  0
LINE
  5
3CB
100
AcDbEntity
  8
0
100
AcDbLine
 62
7
  6
CONTINUOUS
 10
9.2413362718
 20
2.9329245264
 11
9.2330904679
 21
2.9277719763
  0
LINE
  5
3CC
100
AcDbEntity
  8
0
100
AcDbLine
 62
7
  6
CONTINUOUS
 10
8.8619382368
 20
2.7003216715
 11
8.8535923265
 21
2.6953069427
  0
LINE
  5
3CD
100
AcDbEntity
  8
0
100
AcDbLine
 62
7
  6
CONTINUOUS
 10
9.0335494007
 20
2.3836121472
 11
9.0420652383
 21
2.3883325531
  0
LINE
  5
3CE
100
AcDbEntity
  8
0
100
AcDbLine
 62
7
  6
CONTINUOUS
 10
9.4246089187
 20
2.5960368247
 11
9.4332058418
 21
2.6006078898
  0
LINE
  5
3CF
100
AcDbEntity
  8
0
100
AcDbLine
 62
7
  6
CONTINUOUS
 10
9.0194697125
 20
2.3897988026
 11
9.0282209265
 21
2.3940670548
  0
LINE
  5
3D0
100
AcDbEntity
  8
0
100
AcDbLine
 62
7
  6
CONTINUOUS
 10
9.4211107457
 20
2.5814658856
 11
9.4299351181
 21
2.585580758
  0
LINE
  5
3D1
100
AcDbEntity
  8
0
100
AcDbLine
 62
7
  6
CONTINUOUS
 10
9.0057331047
 20
2.3967138533
 11
9.0146957084
 21
2.4005182529
  0
LINE
  5
3D2
100
AcDbEntity
  8
0
100
AcDbLine
 62
7
  6
CONTINUOUS
 10
9.4168646781
 20
2.5670947806
 11
9.4258799407
 21
2.5707371831
  0
LINE
  5
3D3
100
AcDbEntity
  8
0
100
AcDbLine
 62
7
  6
CONTINUOUS
 10
9.3958469028
 20
2.5032845263
 11
9.3925167834
 21
2.512433954
  0
LINE
  5
3D4
100
AcDbEntity
  8
0
100
AcDbLine
 62
7
  6
CONTINUOUS
 10
9.247212712
 20
2.9227599935
 11
9.2440427794
 21
2.9319661463
  0
LINE
  5
3D5
100
AcDbEntity
  8
0
100
AcDbLine
 62
7
  6
CONTINUOUS
 10
9.3875338669
 20
2.4903459886
 11
9.3846871554
 21
2.4996571623
  0
LINE
  5
3D6
100
AcDbEntity
  8
0
100
AcDbLine
 62
7
  6
CONTINUOUS
 10
9.2610570238
 20
2.9170254918
 11
9.2583732483
 21
2.9263849293
  0
LINE
  5
3D7
100
AcDbEntity
  8
0
100
AcDbLine
 62
7
  6
CONTINUOUS
 10
9.3785602623
 20
2.4778670851
 11
9.3762079895
 21
2.4873015362
  0
LINE
  5
3D8
100
AcDbEntity
  8
0
100
AcDbLine
 62
7
  6
CONTINUOUS
 10
9.2745822419
 20
2.9105742937
 11
9.2723919795
 21
2.9200613624
  0
LINE
  5
3D9
100
AcDbEntity
  8
0
100
AcDbLine
 62
7
  6
CONTINUOUS
 10
8.9203428189
 20
2.8452310033
 11
8.9222006532
 21
2.8356732748
  0
LINE
  5
3DA
100
AcDbEntity
  8
0
100
AcDbLine
 62
7
  6
CONTINUOUS
 10
9.0015266558
 20
2.407668465
 11
9.0032174017
 21
2.3980797685
  0
LINE
  5
3DB
100
AcDbEntity
  8
0
100
AcDbLine
 62
7
  6
CONTINUOUS
 10
8.9305775408
 20
2.8567098008
 11
8.931932616
 21
2.8470679393
  0
LINE
  5
3DC
100
AcDbEntity
  8
0
100
AcDbLine
 62
7
  6
CONTINUOUS
 10
8.9887498642
 20
2.415498093
 11
8.9899364594
 21
2.4058340507
  0
LINE
  5
3DD
100
AcDbEntity
  8
0
100
AcDbLine
 62
7
  6
CONTINUOUS
 10
9.3478789602
 20
2.4434553235
 11
9.3470303581
 21
2.4531548904
  0
LINE
  5
3DE
100
AcDbEntity
  8
0
100
AcDbLine
 62
7
  6
CONTINUOUS
 10
9.3128837122
 20
2.8871152876
 11
9.3122054509
 21
2.8968148761
  0
LINE
  5
3DF
100
AcDbEntity
  8
0
100
AcDbLine
 62
7
  6
CONTINUOUS
 10
9.3365004442
 20
2.4331092278
 11
9.3361606412
 21
2.4428399142
  0
LINE
  5
3E0
100
AcDbEntity
  8
0
100
AcDbLine
 62
7
  6
CONTINUOUS
 10
8.9645119736
 20
2.4331079513
 11
8.964681901
 21
2.4233728166
  0
LINE
  5
3E1
100
AcDbEntity
  8
0
100
AcDbLine
 62
7
  6
CONTINUOUS
 10
8.964681901
 20
2.88771973
 11
8.9645119736
 21
2.8779845953
  0
LINE
  5
3E2
100
AcDbEntity
  8
0
100
AcDbLine
 62
7
  6
CONTINUOUS
 10
8.9531173092
 20
2.4428399142
 11
8.9527775061
 21
2.4331092278
  0
LINE
  5
3E3
100
AcDbEntity
  8
0
100
AcDbLine
 62
7
  6
CONTINUOUS
 10
8.9770724994
 20
2.8968148761
 11
8.9763942381
 21
2.8871152876
  0
LINE
  5
3E4
100
AcDbEntity
  8
0
100
AcDbLine
 62
7
  6
CONTINUOUS
 10
8.9422475922
 20
2.4531548904
 11
8.9413989901
 21
2.4434553235
  0
LINE
  5
3E5
100
AcDbEntity
  8
0
100
AcDbLine
 62
7
  6
CONTINUOUS
 10
8.9899364594
 20
2.9052584959
 11
8.9887498642
 21
2.8955944535
  0
LINE
  5
3E6
100
AcDbEntity
  8
0
100
AcDbLine
 62
7
  6
CONTINUOUS
 10
8.931932616
 20
2.4640246073
 11
8.9305775408
 21
2.4543827458
  0
LINE
  5
3E7
100
AcDbEntity
  8
0
100
AcDbLine
 62
7
  6
CONTINUOUS
 10
9.0032174017
 20
2.9130127781
 11
9.0015266558
 21
2.9034240815
  0
LINE
  5
3E8
100
AcDbEntity
  8
0
100
AcDbLine
 62
7
  6
CONTINUOUS
 10
8.9222006532
 20
2.4754192718
 11
8.9203428189
 21
2.4658615433
  0
LINE
  5
3E9
100
AcDbEntity
  8
0
100
AcDbLine
 62
7
  6
CONTINUOUS
 10
9.0168859708
 20
2.9200613624
 11
9.0146957084
 21
2.9105742937
  0
LINE
  5
3EA
100
AcDbEntity
  8
0
100
AcDbLine
 62
7
  6
CONTINUOUS
 10
8.9130699609
 20
2.4873015362
 11
8.910717688
 21
2.4778670851
  0
LINE
  5
3EB
100
AcDbEntity
  8
0
100
AcDbLine
 62
7
  6
CONTINUOUS
 10
9.030904702
 20
2.9263849293
 11
9.0282209265
 21
2.9170254918
  0
LINE
  5
3EC
100
AcDbEntity
  8
0
100
AcDbLine
 62
7
  6
CONTINUOUS
 10
8.9045907949
 20
2.4996571623
 11
8.9017440834
 21
2.4903459886
  0
LINE
  5
3ED
100
AcDbEntity
  8
0
100
AcDbLine
 62
7
  6
CONTINUOUS
 10
8.8724132722
 20
2.5670947806
 11
8.867260722
 21
2.5588489766
  0
LINE
  5
3EE
100
AcDbEntity
  8
0
100
AcDbLine
 62
7
  6
CONTINUOUS
 10
9.120165001
 20
2.9482749652
 11
9.1147203535
 21
2.9402029434
  0
LINE
  5
3EF
100
AcDbEntity
  8
0
100
AcDbLine
 62
7
  6
CONTINUOUS
 10
8.8681672046
 20
2.5814658856
 11
8.8625825101
 21
2.5734901154
  0
LINE
  5
3F0
100
AcDbEntity
  8
0
100
AcDbLine
 62
7
  6
CONTINUOUS
 10
9.1355187777
 20
2.9491546596
 11
9.129659135
 21
2.941378651
  0
LINE
  5
3F1
100
AcDbEntity
  8
0
100
AcDbLine
 62
7
  6
CONTINUOUS
 10
8.8646690316
 20
2.5960368247
 11
8.8586745712
 21
2.5883642653
  0
LINE
  5
3F2
100
AcDbEntity
  8
0
100
AcDbLine
 62
7
  6
CONTINUOUS
 10
9.1508889752
 20
2.9492297764
 11
9.1446389752
 21
2.9417813164
  0
LINE
  5
3F3
100
AcDbEntity
  8
0
100
AcDbLine
 62
7
  6
CONTINUOUS
 10
8.8619382368
 20
2.6107708751
 11
8.8555504409
 21
2.6034225565
  0
LINE
  5
3F4
100
AcDbEntity
  8
0
100
AcDbLine
 62
7
  6
CONTINUOUS
 10
9.1662591726
 20
2.9484995623
 11
9.1596188153
 21
2.941378651
  0
LINE
  5
3F5
100
AcDbEntity
  8
0
100
AcDbLine
 62
7
  6
CONTINUOUS
 10
8.859982305
 20
2.6256276517
 11
8.8532186821
 21
2.6186237151
  0
LINE
  5
3F6
100
AcDbEntity
  8
0
100
AcDbLine
 62
7
  6
CONTINUOUS
 10
9.1815615334
 20
2.9469665663
 11
9.1745575968
 21
2.9402029434
  0
LINE
  5
3F7
100
AcDbEntity
  8
0
100
AcDbLine
 62
7
  6
CONTINUOUS
 10
8.8588065974
 20
2.6405664331
 11
8.8516856861
 21
2.6339260759
  0
LINE
  5
3F8
100
AcDbEntity
  8
0
100
AcDbLine
 62
7
  6
CONTINUOUS
 10
9.196762692
 20
2.9446348076
 11
9.1894143734
 21
2.9382470117
  0
LINE
  5
3F9
100
AcDbEntity
  8
0
100
AcDbLine
 62
7
  6
CONTINUOUS
 10
8.858403932
 20
2.6555462733
 11
8.850955472
 21
2.6492962733
  0
LINE
  5
3FA
100
AcDbEntity
  8
0
100
AcDbLine
 62
7
  6
CONTINUOUS
 10
9.4308740183
 20
2.6555462733
 11
9.4383224783
 21
2.6617962733
  0
LINE
  5
3FB
100
AcDbEntity
  8
0
100
AcDbLine
 62
7
  6
CONTINUOUS
 10
9.0774569672
 20
2.3695818694
 11
9.0851295266
 21
2.3755763297
  0
LINE
  5
3FC
100
AcDbEntity
  8
0
100
AcDbLine
 62
7
  6
CONTINUOUS
 10
9.4304713529
 20
2.6405664331
 11
9.4382473614
 21
2.6464260759
  0
LINE
  5
3FD
100
AcDbEntity
  8
0
100
AcDbLine
 62
7
  6
CONTINUOUS
 10
9.0625828173
 20
2.3734898083
 11
9.0705585875
 21
2.3790745027
  0
LINE
  5
3FE
100
AcDbEntity
  8
0
100
AcDbLine
 62
7
  6
CONTINUOUS
 10
9.4292956453
 20
2.6256276517
 11
9.4373676671
 21
2.6310722991
  0
LINE
  5
3FF
100
AcDbEntity
  8
0
100
AcDbLine
 62
7
  6
CONTINUOUS
 10
9.0479416785
 20
2.3781680201
 11
9.0561874824
 21
2.3833205703
  0
LINE
  5
400
100
AcDbEntity
  8
0
100
AcDbLine
 62
7
  6
CONTINUOUS
 10
9.4273397135
 20
2.6107708751
 11
9.4356856238
 21
2.6157856039
  0
LINE
  5
401
100
AcDbEntity
  8
0
100
AcDbLine
 62
7
  6
CONTINUOUS
 10
9.3689351314
 20
2.4658615433
 11
9.3670772971
 21
2.4754192718
  0
LINE
  5
402
100
AcDbEntity
  8
0
100
AcDbLine
 62
7
  6
CONTINUOUS
 10
9.2877512945
 20
2.9034240815
 11
9.2860605486
 21
2.9130127781
  0
LINE
  5
403
100
AcDbEntity
  8
0
100
AcDbLine
 62
7
  6
CONTINUOUS
 10
9.3587004095
 20
2.4543827458
 11
9.3573453343
 21
2.4640246073
  0
LINE
  5
404
100
AcDbEntity
  8
0
100
AcDbLine
 62
7
  6
CONTINUOUS
 10
9.3005280861
 20
2.8955944535
 11
9.2993414909
 21
2.9052584959
  0
LINE
  5
405
100
AcDbEntity
  8
0
100
AcDbLine
 62
7
  6
CONTINUOUS
 10
9.3247659767
 20
2.8779845953
 11
9.3245960493
 21
2.88771973
  0
LINE
  5
406
100
AcDbEntity
  8
0
100
AcDbLine
 62
7
  6
CONTINUOUS
 10
9.3946389752
 20
2.2305462733
 11
9.3946389752
 21
2.5013093058
  0
LINE
  5
407
100
AcDbEntity
  8
0
100
AcDbLine
 62
7
  6
CONTINUOUS
 10
9.3946389752
 20
2.5066032801
 11
9.3946389752
 21
2.5128081536
  0
LINE
  5
408
100
AcDbEntity
  8
0
100
AcDbLine
 62
7
  6
CONTINUOUS
 10
9.3996389752
 20
1.0430462733
 11
9.3996389752
 21
0.9805462733
  0
LINE
  5
409
100
AcDbEntity
  8
0
100
AcDbLine
 62
7
  6
CONTINUOUS
 10
9.3245960493
 20
2.4233728166
 11
9.3247659767
 21
2.4331079513
  0
LINE
  5
40A
100
AcDbEntity
  8
0
100
AcDbLine
 62
7
  6
CONTINUOUS
 10
9.4030466385
 20
0.9075462733
 11
9.4032299167
 21
0.9180462733
  0
LINE
  5
40B
100
AcDbEntity
  8
0
100
AcDbLine
 62
7
  6
CONTINUOUS
 10
9.3361606412
 20
2.8682526324
 11
9.3365004442
 21
2.8779833187
  0
LINE
  5
40C
100
AcDbEntity
  8
0
100
AcDbLine
 62
7
  6
CONTINUOUS
 10
9.3122054509
 20
2.4142776705
 11
9.3128837122
 21
2.423977259
  0
LINE
  5
40D
100
AcDbEntity
  8
0
100
AcDbLine
 62
7
  6
CONTINUOUS
 10
9.3470303581
 20
2.8579376562
 11
9.3478789602
 21
2.8676372231
  0
LINE
  5
40E
100
AcDbEntity
  8
0
100
AcDbLine
 62
7
  6
CONTINUOUS
 10
9.2993414909
 20
2.4058340507
 11
9.3005280861
 21
2.415498093
  0
LINE
  5
40F
100
AcDbEntity
  8
0
100
AcDbLine
 62
7
  6
CONTINUOUS
 10
9.3573453343
 20
2.8470679393
 11
9.3587004095
 21
2.8567098008
  0
LINE
  5
410
100
AcDbEntity
  8
0
100
AcDbLine
 62
7
  6
CONTINUOUS
 10
9.2860605486
 20
2.3980797685
 11
9.2877512945
 21
2.407668465
  0
LINE
  5
411
100
AcDbEntity
  8
0
100
AcDbLine
 62
7
  6
CONTINUOUS
 10
9.3670772971
 20
2.8356732748
 11
9.3689351314
 21
2.8452310033
  0
LINE
  5
412
100
AcDbEntity
  8
0
100
AcDbLine
 62
7
  6
CONTINUOUS
 10
9.2723919795
 20
2.3910311841
 11
9.2745822419
 21
2.4005182529
  0
LINE
  5
413
100
AcDbEntity
  8
0
100
AcDbLine
 62
7
  6
CONTINUOUS
 10
9.3762079895
 20
2.8237910103
 11
9.3785602623
 21
2.8332254615
  0
LINE
  5
414
100
AcDbEntity
  8
0
100
AcDbLine
 62
7
  6
CONTINUOUS
 10
9.2583732483
 20
2.3847076172
 11
9.2610570238
 21
2.3940670548
  0
LINE
  5
415
100
AcDbEntity
  8
0
100
AcDbLine
 62
7
  6
CONTINUOUS
 10
9.3846871554
 20
2.8114353843
 11
9.3875338669
 21
2.820746558
  0
LINE
  5
416
100
AcDbEntity
  8
0
100
AcDbLine
 62
7
  6
CONTINUOUS
 10
9.0452351709
 20
2.9319661463
 11
9.0420652383
 21
2.9227599935
  0
LINE
  5
417
100
AcDbEntity
  8
0
100
AcDbLine
 62
7
  6
CONTINUOUS
 10
9.2440427794
 20
2.3791264003
 11
9.247212712
 21
2.3883325531
  0
LINE
  5
418
100
AcDbEntity
  8
0
100
AcDbLine
 62
7
  6
CONTINUOUS
 10
8.8967611669
 20
2.512433954
 11
8.8934310476
 21
2.5032845263
  0
LINE
  5
419
100
AcDbEntity
  8
0
100
AcDbLine
 62
7
  6
CONTINUOUS
 10
9.059829885
 20
2.9367872389
 11
9.0561874824
 21
2.9277719763
  0
LINE
  5
41A
100
AcDbEntity
  8
0
100
AcDbLine
 62
7
  6
CONTINUOUS
 10
8.8896109547
 20
2.5256030066
 11
8.8858065552
 21
2.5166404028
  0
LINE
  5
41B
100
AcDbEntity
  8
0
100
AcDbLine
 62
7
  6
CONTINUOUS
 10
9.0746734599
 20
2.9408424162
 11
9.0705585875
 21
2.9320180439
  0
LINE
  5
41C
100
AcDbEntity
  8
0
100
AcDbLine
 62
7
  6
CONTINUOUS
 10
8.8831597567
 20
2.5391282246
 11
8.8788915044
 21
2.5303770107
  0
LINE
  5
41D
100
AcDbEntity
  8
0
100
AcDbLine
 62
7
  6
CONTINUOUS
 10
9.0897005917
 20
2.9441131399
 11
9.0851295266
 21
2.9355162168
  0
LINE
  5
41E
100
AcDbEntity
  8
0
100
AcDbLine
 62
7
  6
CONTINUOUS
 10
8.8774252549
 20
2.5529725364
 11
8.8727048491
 21
2.5444566988
  0
LINE
  5
41F
100
AcDbEntity
  8
0
100
AcDbLine
 62
7
  6
CONTINUOUS
 10
9.1048783057
 20
2.9465929219
 11
9.0998635769
 21
2.9382470117
  0
LINE
  5
420
100
AcDbEntity
  8
0
100
AcDbLine
 62
7
  6
CONTINUOUS
 10
9.1843996446
 20
2.3644996247
 11
9.1894143734
 21
2.3728455349
  0
LINE
  5
421
100
AcDbEntity
  8
0
100
AcDbLine
 62
7
  6
CONTINUOUS
 10
9.4168646781
 20
2.743997766
 11
9.4220172283
 21
2.7522435699
  0
LINE
  5
422
100
AcDbEntity
  8
0
100
AcDbLine
 62
7
  6
CONTINUOUS
 10
9.1691129493
 20
2.3628175813
 11
9.1745575968
 21
2.3708896032
  0
LINE
  5
423
100
AcDbEntity
  8
0
100
AcDbLine
 62
7
  6
CONTINUOUS
 10
9.4211107457
 20
2.7296266609
 11
9.4266954402
 21
2.7376024312
  0
LINE
  5
424
100
AcDbEntity
  8
0
100
AcDbLine
 62
7
  6
CONTINUOUS
 10
9.1537591726
 20
2.361937887
 11
9.1596188153
 21
2.3697138956
  0
LINE
  5
425
100
AcDbEntity
  8
0
100
AcDbLine
 62
7
  6
CONTINUOUS
 10
9.3264479443
 20
2.4327810099
 11
9.3259716313
 21
2.4321692441
  0
LINE
  5
426
100
AcDbEntity
  8
0
100
AcDbLine
 62
7
  6
CONTINUOUS
 10
9.4246089187
 20
2.7150557219
 11
9.4306033791
 21
2.7227282812
  0
LINE
  5
427
100
AcDbEntity
  8
0
100
AcDbLine
 62
7
  6
CONTINUOUS
 10
9.3264623704
 20
2.4327746464
 11
9.3259825655
 21
2.4321644014
  0
LINE
  5
428
100
AcDbEntity
  8
0
100
AcDbLine
 62
7
  6
CONTINUOUS
 10
9.1383889752
 20
2.3618627702
 11
9.1446389752
 21
2.3693112301
  0
LINE
  5
429
100
AcDbEntity
  8
0
100
AcDbLine
 62
7
  6
CONTINUOUS
 10
9.4273397135
 20
2.7003216715
 11
9.4337275094
 21
2.7076699901
  0
LINE
  5
42A
100
AcDbEntity
  8
0
100
AcDbLine
 62
7
  6
CONTINUOUS
 10
9.1230187777
 20
2.3625929842
 11
9.129659135
 21
2.3697138956
  0
LINE
  5
42B
100
AcDbEntity
  8
0
100
AcDbLine
 62
7
  6
CONTINUOUS
 10
9.4292956453
 20
2.6854648949
 11
9.4360592682
 21
2.6924688315
  0
LINE
  5
42C
100
AcDbEntity
  8
0
100
AcDbLine
 62
7
  6
CONTINUOUS
 10
9.107716417
 20
2.3641259803
 11
9.1147203535
 21
2.3708896032
  0
LINE
  5
42D
100
AcDbEntity
  8
0
100
AcDbLine
 62
7
  6
CONTINUOUS
 10
9.4304713529
 20
2.6705261135
 11
9.4375922642
 21
2.6771664707
  0
LINE
  5
42E
100
AcDbEntity
  8
0
100
AcDbLine
 62
7
  6
CONTINUOUS
 10
9.0925152583
 20
2.366457739
 11
9.0998635769
 21
2.3728455349
  0
LINE
  5
42F
100
AcDbEntity
  8
0
100
AcDbLine
 62
7
  6
CONTINUOUS
 10
9.7321389752
 20
0.5625462733
 11
9.7321389752
 21
0.6050462733
  0
LINE
  5
430
100
AcDbEntity
  8
0
100
AcDbLine
 62
7
  6
CONTINUOUS
 10
9.3925167834
 20
2.7986585926
 11
9.3958469028
 21
2.8078080203
  0
LINE
  5
431
100
AcDbEntity
  8
0
100
AcDbLine
 62
7
  6
CONTINUOUS
 10
9.2294480654
 20
2.3743053077
 11
9.2330904679
 21
2.3833205703
  0
LINE
  5
432
100
AcDbEntity
  8
0
100
AcDbLine
 62
7
  6
CONTINUOUS
 10
9.3996669956
 20
2.78548954
 11
9.4034713951
 21
2.7944521438
  0
LINE
  5
433
100
AcDbEntity
  8
0
100
AcDbLine
 62
7
  6
CONTINUOUS
 10
9.2146044904
 20
2.3702501304
 11
9.2187193628
 21
2.3790745027
  0
LINE
  5
434
100
AcDbEntity
  8
0
100
AcDbLine
 62
7
  6
CONTINUOUS
 10
9.4061181936
 20
2.771964322
 11
9.4103864459
 21
2.7807155359
  0
LINE
  5
435
100
AcDbEntity
  8
0
100
AcDbLine
 62
7
  6
CONTINUOUS
 10
9.1995773586
 20
2.3669794067
 11
9.2041484237
 21
2.3755763297
  0
LINE
  5
436
100
AcDbEntity
  8
0
100
AcDbLine
 62
7
  6
CONTINUOUS
 10
9.4118526954
 20
2.7581200101
 11
9.4165731013
 21
2.7666358478
  0
LINE
  5
437
100
AcDbEntity
  8
0
100
AcDbLine
 62
7
  6
CONTINUOUS
 10
9.7321389752
 20
0.5625462733
 11
9.7221389752
 21
0.5525462733
  0
ARC
  5
438
100
AcDbEntity
  8
0
100
AcDbCircle
 62
7
  6
CONTINUOUS
 10
1.8711339172
 20
1.1446800859
 40
0.6610050579
100
AcDbArc
 50
340.5168569435
 51
33.0831922526
  0
ARC
  5
439
100
AcDbEntity
  8
0
100
AcDbCircle
 62
7
  6
CONTINUOUS
 10
3.3480685516
 20
1.2930462733
 40
0.358
100
AcDbArc
 50
65.39262454
 51
109.2421680269
  0
ARC
  5
43A
100
AcDbEntity
  8
0
100
AcDbCircle
 62
7
  6
CONTINUOUS
 10
2.9953124939
 20
0.726774517
 40
0.185
100
AcDbArc
 50
4.890558368
 51
77.7266696591
  0
ARC
  5
43B
100
AcDbEntity
  8
0
100
AcDbCircle
 62
7
  6
CONTINUOUS
 10
2.5439654564
 20
0.726774517
 40
0.185
100
AcDbArc
 50
102.2733303409
 51
175.109441632
  0
ARC
  5
43C
100
AcDbEntity
  8
0
100
AcDbCircle
 62
7
  6
CONTINUOUS
 10
3.3295389351
 20
0.7475462733
 40
0.125
100
AcDbArc
 50
182.292442776
 51
270.0
  0
ARC
  5
43D
100
AcDbEntity
  8
0
100
AcDbCircle
 62
7
  6
CONTINUOUS
 10
2.2097390152
 20
0.7475462733
 40
0.125
100
AcDbArc
 50
270.0
 51
357.707557224
  0
ARC
  5
43E
100
AcDbEntity
  8
0
100
AcDbCircle
 62
7
  6
CONTINUOUS
 10
3.3421389752
 20
0.6075462733
 40
0.015
100
AcDbArc
 50
0.0
 51
90.0
  0
ARC
  5
43F
100
AcDbEntity
  8
0
100
AcDbCircle
 62
7
  6
CONTINUOUS
 10
2.1971389752
 20
0.6075462733
 40
0.015
100
AcDbArc
 50
90.0
 51
180.0
  0
ARC
  5
440
100
AcDbEntity
  8
0
100
AcDbCircle
 62
7
  6
CONTINUOUS
 10
2.5060738461
 20
0.9200462733
 40
0.0125
100
AcDbArc
 50
160.5168569435
 51
266.9588015818
  0
ARC
  5
441
100
AcDbEntity
  8
0
100
AcDbCircle
 62
7
  6
CONTINUOUS
 10
3.0332041042
 20
0.9200462733
 40
0.0125
100
AcDbArc
 50
273.0411984182
 51
19.4831430565
  0
ARC
  5
442
100
AcDbEntity
  8
0
100
AcDbCircle
 62
7
  6
CONTINUOUS
 10
2.2746582444
 20
2.3773195247
 40
0.2345
100
AcDbArc
 50
322.0339977482
 51
353.0751017558
  0
ARC
  5
443
100
AcDbEntity
  8
0
100
AcDbCircle
 62
7
  6
CONTINUOUS
 10
2.203780771
 20
2.7513419271
 40
2.3408582042
100
AcDbArc
 50
345.457230208
 51
17.7684982641
  0
ARC
  5
444
100
AcDbEntity
  8
0
100
AcDbCircle
 62
7
  6
CONTINUOUS
 10
1.2701493918
 20
3.1695462733
 40
0.1867604167
100
AcDbArc
 50
137.9864211385
 51
222.0135788615
  0
ARC
  5
445
100
AcDbEntity
  8
0
100
AcDbCircle
 62
7
  6
CONTINUOUS
 10
2.6396011974
 20
1.8310462733
 40
0.5300377778
100
AcDbArc
 50
20.332576683
 51
35.1694359445
  0
ARC
  5
446
100
AcDbEntity
  8
0
100
AcDbCircle
 62
7
  6
CONTINUOUS
 10
2.8996767529
 20
1.8310462733
 40
0.5300377778
100
AcDbArc
 50
144.8305640555
 51
212.2911569963
  0
ARC
  5
447
100
AcDbEntity
  8
0
100
AcDbCircle
 62
7
  6
CONTINUOUS
 10
2.6396011974
 20
1.8310462733
 40
0.5300377778
100
AcDbArc
 50
327.7088430037
 51
339.667423317
  0
ARC
  5
448
100
AcDbEntity
  8
0
100
AcDbCircle
 62
7
  6
CONTINUOUS
 10
3.3480685516
 20
2.3690462733
 40
0.358
100
AcDbArc
 50
250.7578319731
 51
294.60737546
  0
ARC
  5
449
100
AcDbEntity
  8
0
100
AcDbCircle
 62
7
  6
CONTINUOUS
 10
3.2646197059
 20
2.3773195247
 40
0.2345
100
AcDbArc
 50
186.9248982442
 51
217.9660022518
  0
ARC
  5
44A
100
AcDbEntity
  8
0
100
AcDbCircle
 62
7
  6
CONTINUOUS
 10
3.1221389752
 20
2.0770462733
 40
0.0635
100
AcDbArc
 50
283.1757885364
 51
326.9442688491
  0
ARC
  5
44B
100
AcDbEntity
  8
0
100
AcDbCircle
 62
7
  6
CONTINUOUS
 10
3.1221389752
 20
1.5850462733
 40
0.0635
100
AcDbArc
 50
33.0557311509
 51
76.8242114636
  0
ARC
  5
44C
100
AcDbEntity
  8
0
100
AcDbCircle
 62
7
  6
CONTINUOUS
 10
2.5072687789
 20
2.1075462733
 40
0.05
100
AcDbArc
 50
90.0
 51
144.8305640554
  0
ARC
  5
44D
100
AcDbEntity
  8
0
100
AcDbCircle
 62
7
  6
CONTINUOUS
 10
3.0320091714
 20
2.1075462733
 40
0.05
100
AcDbArc
 50
35.1694359446
 51
90.0
  0
ARC
  5
44E
100
AcDbEntity
  8
0
100
AcDbCircle
 62
7
  6
CONTINUOUS
 10
2.4963889752
 20
2.2042962733
 40
0.04675
100
AcDbArc
 50
142.0339977482
 51
270.0
  0
ARC
  5
44F
100
AcDbEntity
  8
0
100
AcDbCircle
 62
7
  6
CONTINUOUS
 10
3.0428889752
 20
2.2042962733
 40
0.04675
100
AcDbArc
 50
270.0
 51
37.9660022518
  0
ARC
  5
450
100
AcDbEntity
  8
0
100
AcDbCircle
 62
7
  6
CONTINUOUS
 10
3.200505103
 20
2.0260462733
 40
0.03
100
AcDbArc
 50
9.5940682269
 51
146.9442688491
  0
ARC
  5
451
100
AcDbEntity
  8
0
100
AcDbCircle
 62
7
  6
CONTINUOUS
 10
3.200505103
 20
1.6360462733
 40
0.03
100
AcDbArc
 50
213.0557311509
 51
350.4059317731
  0
ARC
  5
452
100
AcDbEntity
  8
0
100
AcDbCircle
 62
7
  6
CONTINUOUS
 10
3.0996389752
 20
1.5150462733
 40
0.0175
100
AcDbArc
 50
326.9168077474
 51
90.0
  0
ARC
  5
453
100
AcDbEntity
  8
0
100
AcDbCircle
 62
7
  6
CONTINUOUS
 10
2.4396389752
 20
1.5150462733
 40
0.0175
100
AcDbArc
 50
90.0
 51
213.0831922526
  0
ARC
  5
454
100
AcDbEntity
  8
0
100
AcDbCircle
 62
7
  6
CONTINUOUS
 10
3.0961190518
 20
1.5425462733
 40
0.01
100
AcDbArc
 50
147.7088430037
 51
270.0
  0
ARC
  5
455
100
AcDbEntity
  8
0
100
AcDbCircle
 62
7
  6
CONTINUOUS
 10
2.4431588985
 20
1.5425462733
 40
0.01
100
AcDbArc
 50
270.0
 51
32.2911569963
  0
ARC
  5
456
100
AcDbEntity
  8
0
100
AcDbCircle
 62
7
  6
CONTINUOUS
 10
2.7696389752
 20
2.6447095773
 40
0.775336696
100
AcDbArc
 50
75.2370022574
 51
82.8689275621
  0
ARC
  5
457
100
AcDbEntity
  8
0
100
AcDbCircle
 62
7
  6
CONTINUOUS
 10
2.7696389752
 20
2.6447095773
 40
0.775336696
100
AcDbArc
 50
99.221579184
 51
104.7629977426
  0
ARC
  5
458
100
AcDbEntity
  8
0
100
AcDbCircle
 62
7
  6
CONTINUOUS
 10
2.7696389752
 20
2.6447095773
 40
0.775336696
100
AcDbArc
 50
92.9572301428
 51
94.3827253199
  0
ARC
  5
459
100
AcDbEntity
  8
0
100
AcDbCircle
 62
7
  6
CONTINUOUS
 10
2.7696389752
 20
2.6447095773
 40
0.775336696
100
AcDbArc
 50
84.2076250178
 51
87.1537590823
  0
ARC
  5
45A
100
AcDbEntity
  8
0
100
AcDbCircle
 62
7
  6
CONTINUOUS
 10
2.7696389752
 20
2.6447095773
 40
0.775336696
100
AcDbArc
 50
88.473827208
 51
91.6148836456
  0
ARC
  5
45B
100
AcDbEntity
  8
0
100
AcDbCircle
 62
7
  6
CONTINUOUS
 10
2.7696389752
 20
2.6447095773
 40
0.7753341165
100
AcDbArc
 50
96.0895835634
 51
97.5036217175
  0
ARC
  5
45C
100
AcDbEntity
  8
0
100
AcDbCircle
 62
7
  6
CONTINUOUS
 10
2.7696389752
 20
2.6447095773
 40
0.774836696
100
AcDbArc
 50
82.8687745639
 51
84.2038744154
  0
ARC
  5
45D
100
AcDbEntity
  8
0
100
AcDbCircle
 62
7
  6
CONTINUOUS
 10
2.7696389752
 20
2.6447095773
 40
0.774836696
100
AcDbArc
 50
94.3855590149
 51
95.8683847855
  0
ARC
  5
45E
100
AcDbEntity
  8
0
100
AcDbCircle
 62
7
  6
CONTINUOUS
 10
2.7696389752
 20
2.6447095773
 40
0.774836696
100
AcDbArc
 50
97.7324479721
 51
99.2216419358
  0
ARC
  5
45F
100
AcDbEntity
  8
0
100
AcDbCircle
 62
7
  6
CONTINUOUS
 10
2.7696389752
 20
2.6447095773
 40
0.774836696
100
AcDbArc
 50
91.6159260019
 51
92.3356060411
  0
ARC
  5
460
100
AcDbEntity
  8
0
100
AcDbCircle
 62
7
  6
CONTINUOUS
 10
2.7696389752
 20
2.6447095773
 40
0.774836696
100
AcDbArc
 50
87.7881534321
 51
88.4728421397
  0
ARC
  5
461
100
AcDbEntity
  8
0
100
AcDbCircle
 62
7
  6
CONTINUOUS
 10
2.7696389752
 20
2.6447095773
 40
0.7741710032
100
AcDbArc
 50
93.7772047905
 51
96.4896726718
  0
ARC
  5
462
100
AcDbEntity
  8
0
100
AcDbCircle
 62
7
  6
CONTINUOUS
 10
2.7696389752
 20
2.6447095773
 40
0.7741710032
100
AcDbArc
 50
97.1232192299
 51
99.8547367444
  0
ARC
  5
463
100
AcDbEntity
  8
0
100
AcDbCircle
 62
7
  6
CONTINUOUS
 10
2.7696389752
 20
2.6447095773
 40
0.7741710032
100
AcDbArc
 50
82.1676580455
 51
84.8865797045
  0
ARC
  5
464
100
AcDbEntity
  8
0
100
AcDbCircle
 62
7
  6
CONTINUOUS
 10
2.5858889752
 20
2.7875462733
 40
0.025
100
AcDbArc
 50
90.0
 51
173.0751017558
  0
ARC
  5
465
100
AcDbEntity
  8
0
100
AcDbCircle
 62
7
  6
CONTINUOUS
 10
2.4005729528
 20
3.0653232674
 40
0.68
100
AcDbArc
 50
17.6982774827
 51
21.2739720086
  0
ARC
  5
466
100
AcDbEntity
  8
0
100
AcDbCircle
 62
7
  6
CONTINUOUS
 10
2.4054895847
 20
3.288587181
 40
0.68
100
AcDbArc
 50
337.4255442891
 51
340.9862257999
  0
ARC
  5
467
100
AcDbEntity
  8
0
100
AcDbCircle
 62
7
  6
CONTINUOUS
 10
2.5758889752
 20
3.3799461574
 40
0.015
100
AcDbArc
 50
104.7629977426
 51
170.0159621261
  0
ARC
  5
468
100
AcDbEntity
  8
0
100
AcDbCircle
 62
7
  6
CONTINUOUS
 10
3.1101728361
 20
3.0060462733
 40
0.093
100
AcDbArc
 50
46.6958241996
 51
131.6319105028
  0
ARC
  5
469
100
AcDbEntity
  8
0
100
AcDbCircle
 62
7
  6
CONTINUOUS
 10
2.9533889752
 20
2.7875462733
 40
0.025
100
AcDbArc
 50
6.9248982442
 51
90.0
  0
ARC
  5
46A
100
AcDbEntity
  8
0
100
AcDbCircle
 62
7
  6
CONTINUOUS
 10
3.1387049975
 20
3.0653232674
 40
0.68
100
AcDbArc
 50
158.7260279914
 51
162.3017225173
  0
ARC
  5
46B
100
AcDbEntity
  8
0
100
AcDbCircle
 62
7
  6
CONTINUOUS
 10
3.1337883656
 20
3.288587181
 40
0.68
100
AcDbArc
 50
199.0137742001
 51
202.5744557109
  0
ARC
  5
46C
100
AcDbEntity
  8
0
100
AcDbCircle
 62
7
  6
CONTINUOUS
 10
3.2958889752
 20
3.1695462733
 40
0.125
100
AcDbArc
 50
235.0995
 51
124.9005
  0
ARC
  5
46D
100
AcDbEntity
  8
0
100
AcDbCircle
 62
7
  6
CONTINUOUS
 10
3.1101728361
 20
3.3330462733
 40
0.093
100
AcDbArc
 50
228.3680894972
 51
313.3041758004
  0
ARC
  5
46E
100
AcDbEntity
  8
0
100
AcDbCircle
 62
7
  6
CONTINUOUS
 10
2.9633889752
 20
3.3799461574
 40
0.015
100
AcDbArc
 50
9.9840378739
 51
75.2370022574
  0
ARC
  5
46F
100
AcDbEntity
  8
0
100
AcDbCircle
 62
7
  6
CONTINUOUS
 10
3.1952095871
 20
3.0776164195
 40
0.008
100
AcDbArc
 50
55.0995
 51
166.0407512246
  0
ARC
  5
470
100
AcDbEntity
  8
0
100
AcDbCircle
 62
7
  6
CONTINUOUS
 10
3.1794458467
 20
3.0795462733
 40
0.008
100
AcDbArc
 50
226.6958241996
 51
360.0
  0
ARC
  5
471
100
AcDbEntity
  8
0
100
AcDbCircle
 62
7
  6
CONTINUOUS
 10
3.1952095871
 20
3.261476127
 40
0.008
100
AcDbArc
 50
193.9592487754
 51
304.9005
  0
ARC
  5
472
100
AcDbEntity
  8
0
100
AcDbCircle
 62
7
  6
CONTINUOUS
 10
3.1794458467
 20
3.2595462733
 40
0.008
100
AcDbArc
 50
0.0
 51
133.3041758004
  0
ARC
  5
473
100
AcDbEntity
  8
0
100
AcDbCircle
 62
7
  6
CONTINUOUS
 10
5.5670233823
 20
-0.8348085852
 40
2.4883548585
100
AcDbArc
 50
80.3771309846
 51
99.6211250896
  0
ARC
  5
474
100
AcDbEntity
  8
0
100
AcDbCircle
 62
7
  6
CONTINUOUS
 10
3.972254568
 20
-0.8348085852
 40
2.4883548585
100
AcDbArc
 50
80.3788749104
 51
99.6228690154
  0
ARC
  5
475
100
AcDbEntity
  8
0
100
AcDbCircle
 62
7
  6
CONTINUOUS
 10
3.6681440331
 20
1.1446800859
 40
0.6610050579
100
AcDbArc
 50
146.9168077474
 51
199.4831430565
  0
ARC
  5
476
100
AcDbEntity
  8
0
100
AcDbCircle
 62
7
  6
CONTINUOUS
 10
4.6489457908
 20
1.3107610768
 40
0.0532
100
AcDbArc
 50
310.9762844863
 51
56.1516146287
  0
ARC
  5
477
100
AcDbEntity
  8
0
100
AcDbCircle
 62
7
  6
CONTINUOUS
 10
4.8903321595
 20
1.3107610768
 40
0.0532
100
AcDbArc
 50
123.8483853713
 51
229.0237155137
  0
ARC
  5
478
100
AcDbEntity
  8
0
100
AcDbCircle
 62
7
  6
CONTINUOUS
 10
4.7246389752
 20
1.1695462733
 40
0.045
100
AcDbArc
 50
180.0
 51
255.164888418
  0
ARC
  5
479
100
AcDbEntity
  8
0
100
AcDbCircle
 62
7
  6
CONTINUOUS
 10
4.8146389752
 20
1.1695462733
 40
0.045
100
AcDbArc
 50
284.835111582
 51
360.0
  0
ARC
  5
47A
100
AcDbEntity
  8
0
100
AcDbCircle
 62
7
  6
CONTINUOUS
 10
4.6591389752
 20
1.2175462733
 40
0.03
100
AcDbArc
 50
90.0
 51
180.0
  0
ARC
  5
47B
100
AcDbEntity
  8
0
100
AcDbCircle
 62
7
  6
CONTINUOUS
 10
4.8801389752
 20
1.2175462733
 40
0.03
100
AcDbArc
 50
0.0
 51
90.0
  0
ARC
  5
47C
100
AcDbEntity
  8
0
100
AcDbCircle
 62
7
  6
CONTINUOUS
 10
4.6591389752
 20
1.1995462733
 40
0.03
100
AcDbArc
 50
180.0
 51
270.0
  0
ARC
  5
47D
100
AcDbEntity
  8
0
100
AcDbCircle
 62
7
  6
CONTINUOUS
 10
4.8801389752
 20
1.1995462733
 40
0.03
100
AcDbArc
 50
270.0
 51
360.0
  0
ARC
  5
47E
100
AcDbEntity
  8
0
100
AcDbCircle
 62
7
  6
CONTINUOUS
 10
4.6903889752
 20
1.2630462733
 40
0.01
100
AcDbArc
 50
130.9762844863
 51
180.0
  0
ARC
  5
47F
100
AcDbEntity
  8
0
100
AcDbCircle
 62
7
  6
CONTINUOUS
 10
4.8488889752
 20
1.2630462733
 40
0.01
100
AcDbArc
 50
0.0
 51
49.0237155137
  0
ARC
  5
480
100
AcDbEntity
  8
0
100
AcDbCircle
 62
7
  6
CONTINUOUS
 10
4.7696389752
 20
1.8310462733
 40
0.4
100
AcDbArc
 50
215.7817598065
 51
255.3374890444
  0
ARC
  5
481
100
AcDbEntity
  8
0
100
AcDbCircle
 62
7
  6
CONTINUOUS
 10
4.7696389752
 20
1.8310462733
 40
0.4
100
AcDbArc
 50
137.0586001588
 51
144.2182401935
  0
ARC
  5
482
100
AcDbEntity
  8
0
100
AcDbCircle
 62
7
  6
CONTINUOUS
 10
4.7696389752
 20
1.8310462733
 40
0.4
100
AcDbArc
 50
35.7817598065
 51
42.9413998412
  0
ARC
  5
483
100
AcDbEntity
  8
0
100
AcDbCircle
 62
7
  6
CONTINUOUS
 10
4.7696389752
 20
1.8310462733
 40
0.4
100
AcDbArc
 50
284.6625109556
 51
324.2182401935
  0
ARC
  5
484
100
AcDbEntity
  8
0
100
AcDbCircle
 62
7
  6
CONTINUOUS
 10
5.1186389853
 20
2.0435719052
 40
0.0325
100
AcDbArc
 50
359.9548123106
 51
138.9246782455
  0
ARC
  5
485
100
AcDbEntity
  8
0
100
AcDbCircle
 62
7
  6
CONTINUOUS
 10
5.1186389853
 20
1.6185206414
 40
0.0325
100
AcDbArc
 50
221.0753217545
 51
0.0451876894
  0
ARC
  5
486
100
AcDbEntity
  8
0
100
AcDbCircle
 62
7
  6
CONTINUOUS
 10
4.420638965
 20
2.0435719052
 40
0.0325
100
AcDbArc
 50
41.0753217545
 51
180.0451876894
  0
ARC
  5
487
100
AcDbEntity
  8
0
100
AcDbCircle
 62
7
  6
CONTINUOUS
 10
4.420638965
 20
1.6185206414
 40
0.0325
100
AcDbArc
 50
179.9548123106
 51
318.9246782455
  0
ARC
  5
488
100
AcDbEntity
  8
0
100
AcDbCircle
 62
7
  6
CONTINUOUS
 10
3.5267172314
 20
2.0385462733
 40
0.03
100
AcDbArc
 50
9.618589969
 51
170.381410031
  0
ARC
  5
489
100
AcDbEntity
  8
0
100
AcDbCircle
 62
7
  6
CONTINUOUS
 10
3.5267172314
 20
1.6235462733
 40
0.03
100
AcDbArc
 50
189.618589969
 51
350.381410031
  0
ARC
  5
48A
100
AcDbEntity
  8
0
100
AcDbCircle
 62
7
  6
CONTINUOUS
 10
5.0696389752
 20
2.1335462733
 40
0.03
100
AcDbArc
 50
270.0
 51
90.0
  0
ARC
  5
48B
100
AcDbEntity
  8
0
100
AcDbCircle
 62
7
  6
CONTINUOUS
 10
4.4696389752
 20
2.1335462733
 40
0.03
100
AcDbArc
 50
90.0
 51
270.0
  0
ARC
  5
48C
100
AcDbEntity
  8
0
100
AcDbCircle
 62
7
  6
CONTINUOUS
 10
4.6913889752
 20
1.3740462733
 40
0.023
100
AcDbArc
 50
180.0
 51
236.1516146287
  0
ARC
  5
48D
100
AcDbEntity
  8
0
100
AcDbCircle
 62
7
  6
CONTINUOUS
 10
4.8478889752
 20
1.3740462733
 40
0.023
100
AcDbArc
 50
303.8483853713
 51
360.0
  0
ARC
  5
48E
100
AcDbEntity
  8
0
100
AcDbCircle
 62
7
  6
CONTINUOUS
 10
5.0896389752
 20
3.4710462733
 40
0.0175
100
AcDbArc
 50
342.2315017359
 51
90.0
  0
ARC
  5
48F
100
AcDbEntity
  8
0
100
AcDbCircle
 62
7
  6
CONTINUOUS
 10
4.4496389752
 20
3.4710462733
 40
0.0175
100
AcDbArc
 50
90.0
 51
197.7684982641
  0
ARC
  5
490
100
AcDbEntity
  8
0
100
AcDbCircle
 62
7
  6
CONTINUOUS
 10
5.0865778002
 20
3.4985462733
 40
0.01
100
AcDbArc
 50
151.9527753219
 51
269.9999999996
  0
ARC
  5
491
100
AcDbEntity
  8
0
100
AcDbCircle
 62
7
  6
CONTINUOUS
 10
4.4527001501
 20
3.4985462733
 40
0.01
100
AcDbArc
 50
270.0000000004
 51
28.0472246781
  0
ARC
  5
492
100
AcDbEntity
  8
0
100
AcDbCircle
 62
7
  6
CONTINUOUS
 10
5.5670233823
 20
4.4969011318
 40
2.4883548585
100
AcDbArc
 50
260.3788749104
 51
279.6228690154
  0
ARC
  5
493
100
AcDbEntity
  8
0
100
AcDbCircle
 62
7
  6
CONTINUOUS
 10
3.972254568
 20
4.4969011318
 40
2.4883548585
100
AcDbArc
 50
260.3771309846
 51
279.6211250896
  0
ARC
  5
494
100
AcDbEntity
  8
0
100
AcDbCircle
 62
7
  6
CONTINUOUS
 10
4.9641806418
 20
3.7710462733
 40
0.5695416667
100
AcDbArc
 50
150.263437283
 51
208.0472246731
  0
ARC
  5
495
100
AcDbEntity
  8
0
100
AcDbCircle
 62
7
  6
CONTINUOUS
 10
4.5750973085
 20
3.7710462733
 40
0.5695416667
100
AcDbArc
 50
331.9527753269
 51
29.736562717
  0
ARC
  5
496
100
AcDbEntity
  8
0
100
AcDbCircle
 62
7
  6
CONTINUOUS
 10
2.6311022089
 20
3.8166200291
 40
0.4058562985
100
AcDbArc
 50
277.2331742368
 51
277.3552656303
  0
ARC
  5
497
100
AcDbEntity
  8
0
100
AcDbCircle
 62
7
  6
CONTINUOUS
 10
2.628882636
 20
3.8136200129
 40
0.4026399361
100
AcDbArc
 50
276.2471779586
 51
276.3820289832
  0
ARC
  5
498
100
AcDbEntity
  8
0
100
AcDbCircle
 62
7
  6
CONTINUOUS
 10
2.6976029554
 20
3.8145316177
 40
0.397323195
100
AcDbArc
 50
272.8993035537
 51
273.0349070028
  0
ARC
  5
499
100
AcDbEntity
  8
0
100
AcDbCircle
 62
7
  6
CONTINUOUS
 10
4.7696389752
 20
7.9016462733
 40
0.21875
100
AcDbArc
 50
0.0
 51
180.0
  0
ARC
  5
49A
100
AcDbEntity
  8
0
100
AcDbCircle
 62
7
  6
CONTINUOUS
 10
5.0196389752
 20
4.0785462733
 40
0.05
100
AcDbArc
 50
51.3178125465
 51
90.0
  0
ARC
  5
49B
100
AcDbEntity
  8
0
100
AcDbCircle
 62
7
  6
CONTINUOUS
 10
4.5196389752
 20
4.0785462733
 40
0.05
100
AcDbArc
 50
90.0
 51
128.6821874535
  0
ARC
  5
49C
100
AcDbEntity
  8
0
100
AcDbCircle
 62
7
  6
CONTINUOUS
 10
5.0196389752
 20
5.4341462733
 40
0.03
100
AcDbArc
 50
270.0
 51
90.0
  0
ARC
  5
49D
100
AcDbEntity
  8
0
100
AcDbCircle
 62
7
  6
CONTINUOUS
 10
4.5196389752
 20
5.4341462733
 40
0.03
100
AcDbArc
 50
90.0
 51
270.0
  0
ARC
  5
49E
100
AcDbEntity
  8
0
100
AcDbCircle
 62
7
  6
CONTINUOUS
 10
4.9609835476
 20
5.0891462733
 40
0.03
100
AcDbArc
 50
270.0
 51
354.8242890856
  0
ARC
  5
49F
100
AcDbEntity
  8
0
100
AcDbCircle
 62
7
  6
CONTINUOUS
 10
4.5782944027
 20
5.0891462733
 40
0.03
100
AcDbArc
 50
185.1757109144
 51
270.0
  0
ARC
  5
4A0
100
AcDbEntity
  8
0
100
AcDbCircle
 62
7
  6
CONTINUOUS
 10
7.8916389752
 20
1.5650462733
 40
1.5265
100
AcDbArc
 50
346.7644365334
 51
13.2162850744
  0
ARC
  5
4A1
100
AcDbEntity
  8
0
100
AcDbCircle
 62
7
  6
CONTINUOUS
 10
5.8711339172
 20
1.1446800859
 40
0.6610050579
100
AcDbArc
 50
340.5168569435
 51
33.0831922526
  0
ARC
  5
4A2
100
AcDbEntity
  8
0
100
AcDbCircle
 62
7
  6
CONTINUOUS
 10
7.6681440331
 20
1.1446800859
 40
0.6610050579
100
AcDbArc
 50
146.9168077474
 51
199.4831430565
  0
ARC
  5
4A3
100
AcDbEntity
  8
0
100
AcDbCircle
 62
7
  6
CONTINUOUS
 10
6.8996767529
 20
1.8310462733
 40
0.5300377778
100
AcDbArc
 50
144.8305640555
 51
159.667423317
  0
ARC
  5
4A4
100
AcDbEntity
  8
0
100
AcDbCircle
 62
7
  6
CONTINUOUS
 10
6.6396011974
 20
1.8310462733
 40
0.5300377778
100
AcDbArc
 50
327.7088430037
 51
35.1694359445
  0
ARC
  5
4A5
100
AcDbEntity
  8
0
100
AcDbCircle
 62
7
  6
CONTINUOUS
 10
6.8996767529
 20
1.8310462733
 40
0.5300377778
100
AcDbArc
 50
200.332576683
 51
212.2911569963
  0
ARC
  5
4A6
100
AcDbEntity
  8
0
100
AcDbCircle
 62
7
  6
CONTINUOUS
 10
6.1912093987
 20
1.2930462733
 40
0.358
100
AcDbArc
 50
70.7578319731
 51
114.60737546
  0
ARC
  5
4A7
100
AcDbEntity
  8
0
100
AcDbCircle
 62
7
  6
CONTINUOUS
 10
6.9953124939
 20
0.726774517
 40
0.185
100
AcDbArc
 50
4.890558368
 51
77.7266696591
  0
ARC
  5
4A8
100
AcDbEntity
  8
0
100
AcDbCircle
 62
7
  6
CONTINUOUS
 10
6.5439654564
 20
0.726774517
 40
0.185
100
AcDbArc
 50
102.2733303409
 51
175.109441632
  0
ARC
  5
4A9
100
AcDbEntity
  8
0
100
AcDbCircle
 62
7
  6
CONTINUOUS
 10
7.3295389351
 20
0.7475462733
 40
0.125
100
AcDbArc
 50
182.292442776
 51
270.0
  0
ARC
  5
4AA
100
AcDbEntity
  8
0
100
AcDbCircle
 62
7
  6
CONTINUOUS
 10
6.2097390152
 20
0.7475462733
 40
0.125
100
AcDbArc
 50
270.0
 51
357.707557224
  0
ARC
  5
4AB
100
AcDbEntity
  8
0
100
AcDbCircle
 62
7
  6
CONTINUOUS
 10
6.4171389752
 20
1.5850462733
 40
0.0635
100
AcDbArc
 50
103.1757885364
 51
146.9442688491
  0
ARC
  5
4AC
100
AcDbEntity
  8
0
100
AcDbCircle
 62
7
  6
CONTINUOUS
 10
6.0125607189
 20
1.6235462733
 40
0.03
100
AcDbArc
 50
189.618589969
 51
350.381410031
  0
ARC
  5
4AD
100
AcDbEntity
  8
0
100
AcDbCircle
 62
7
  6
CONTINUOUS
 10
6.3387728473
 20
1.6360462733
 40
0.03
100
AcDbArc
 50
189.5940682269
 51
326.9442688491
  0
ARC
  5
4AE
100
AcDbEntity
  8
0
100
AcDbCircle
 62
7
  6
CONTINUOUS
 10
6.4396389752
 20
1.5150462733
 40
0.0175
100
AcDbArc
 50
90.0
 51
213.0831922526
  0
ARC
  5
4AF
100
AcDbEntity
  8
0
100
AcDbCircle
 62
7
  6
CONTINUOUS
 10
7.0996389752
 20
1.5150462733
 40
0.0175
100
AcDbArc
 50
326.9168077474
 51
90.0
  0
ARC
  5
4B0
100
AcDbEntity
  8
0
100
AcDbCircle
 62
7
  6
CONTINUOUS
 10
7.3421389752
 20
0.6075462733
 40
0.015
100
AcDbArc
 50
0.0
 51
90.0
  0
ARC
  5
4B1
100
AcDbEntity
  8
0
100
AcDbCircle
 62
7
  6
CONTINUOUS
 10
6.1971389752
 20
0.6075462733
 40
0.015
100
AcDbArc
 50
90.0
 51
180.0
  0
ARC
  5
4B2
100
AcDbEntity
  8
0
100
AcDbCircle
 62
7
  6
CONTINUOUS
 10
7.0332041042
 20
0.9200462733
 40
0.0125
100
AcDbArc
 50
273.0411984182
 51
19.4831430565
  0
ARC
  5
4B3
100
AcDbEntity
  8
0
100
AcDbCircle
 62
7
  6
CONTINUOUS
 10
6.5060738461
 20
0.9200462733
 40
0.0125
100
AcDbArc
 50
160.5168569435
 51
266.9588015818
  0
ARC
  5
4B4
100
AcDbEntity
  8
0
100
AcDbCircle
 62
7
  6
CONTINUOUS
 10
6.4431588985
 20
1.5425462733
 40
0.01
100
AcDbArc
 50
270.0
 51
32.2911569963
  0
ARC
  5
4B5
100
AcDbEntity
  8
0
100
AcDbCircle
 62
7
  6
CONTINUOUS
 10
7.0961190518
 20
1.5425462733
 40
0.01
100
AcDbArc
 50
147.7088430037
 51
270.0
  0
ARC
  5
4B6
100
AcDbEntity
  8
0
100
AcDbCircle
 62
7
  6
CONTINUOUS
 10
6.1912093987
 20
2.3690462733
 40
0.358
100
AcDbArc
 50
245.39262454
 51
289.2421680269
  0
ARC
  5
4B7
100
AcDbEntity
  8
0
100
AcDbCircle
 62
7
  6
CONTINUOUS
 10
6.2746582444
 20
2.3773195247
 40
0.2345
100
AcDbArc
 50
322.0339977482
 51
353.0751017558
  0
ARC
  5
4B8
100
AcDbEntity
  8
0
100
AcDbCircle
 62
7
  6
CONTINUOUS
 10
6.4171389752
 20
2.0770462733
 40
0.0635
100
AcDbArc
 50
213.0557311509
 51
256.8242114636
  0
ARC
  5
4B9
100
AcDbEntity
  8
0
100
AcDbCircle
 62
7
  6
CONTINUOUS
 10
6.5072687789
 20
2.1075462733
 40
0.05
100
AcDbArc
 50
90.0
 51
144.8305640554
  0
ARC
  5
4BA
100
AcDbEntity
  8
0
100
AcDbCircle
 62
7
  6
CONTINUOUS
 10
6.4963889752
 20
2.2042962733
 40
0.04675
100
AcDbArc
 50
142.0339977482
 51
270.0
  0
ARC
  5
4BB
100
AcDbEntity
  8
0
100
AcDbCircle
 62
7
  6
CONTINUOUS
 10
6.0125607189
 20
2.0385462733
 40
0.03
100
AcDbArc
 50
9.618589969
 51
170.381410031
  0
ARC
  5
4BC
100
AcDbEntity
  8
0
100
AcDbCircle
 62
7
  6
CONTINUOUS
 10
6.3387728473
 20
2.0260462733
 40
0.03
100
AcDbArc
 50
33.0557311509
 51
170.4059317731
  0
ARC
  5
4BD
100
AcDbEntity
  8
0
100
AcDbCircle
 62
7
  6
CONTINUOUS
 10
6.4005729528
 20
3.0653232674
 40
0.68
100
AcDbArc
 50
17.6982774827
 51
21.2739720086
  0
ARC
  5
4BE
100
AcDbEntity
  8
0
100
AcDbCircle
 62
7
  6
CONTINUOUS
 10
6.4054895847
 20
3.288587181
 40
0.68
100
AcDbArc
 50
337.4255442891
 51
340.9862257999
  0
ARC
  5
4BF
100
AcDbEntity
  8
0
100
AcDbCircle
 62
7
  6
CONTINUOUS
 10
6.2433889752
 20
3.1695462733
 40
0.125
100
AcDbArc
 50
55.0995
 51
304.9005
  0
ARC
  5
4C0
100
AcDbEntity
  8
0
100
AcDbCircle
 62
7
  6
CONTINUOUS
 10
6.4291051142
 20
3.0060462733
 40
0.093
100
AcDbArc
 50
48.3680894972
 51
133.3041758004
  0
ARC
  5
4C1
100
AcDbEntity
  8
0
100
AcDbCircle
 62
7
  6
CONTINUOUS
 10
6.4291051142
 20
3.3330462733
 40
0.093
100
AcDbArc
 50
226.6958241996
 51
311.6319105028
  0
ARC
  5
4C2
100
AcDbEntity
  8
0
100
AcDbCircle
 62
7
  6
CONTINUOUS
 10
6.5858889752
 20
2.7875462733
 40
0.025
100
AcDbArc
 50
90.0
 51
173.0751017558
  0
ARC
  5
4C3
100
AcDbEntity
  8
0
100
AcDbCircle
 62
7
  6
CONTINUOUS
 10
6.5758889752
 20
3.3799460998
 40
0.015
100
AcDbArc
 50
104.7630312681
 51
170.0157385964
  0
ARC
  5
4C4
100
AcDbEntity
  8
0
100
AcDbCircle
 62
7
  6
CONTINUOUS
 10
6.3440683632
 20
3.0776164195
 40
0.008
100
AcDbArc
 50
13.9592487754
 51
124.9005
  0
ARC
  5
4C5
100
AcDbEntity
  8
0
100
AcDbCircle
 62
7
  6
CONTINUOUS
 10
6.3598321036
 20
3.0795462733
 40
0.008
100
AcDbArc
 50
180.0
 51
313.3041758004
  0
ARC
  5
4C6
100
AcDbEntity
  8
0
100
AcDbCircle
 62
7
  6
CONTINUOUS
 10
6.3440683632
 20
3.261476127
 40
0.008
100
AcDbArc
 50
235.0995
 51
346.0407512246
  0
ARC
  5
4C7
100
AcDbEntity
  8
0
100
AcDbCircle
 62
7
  6
CONTINUOUS
 10
6.3598321036
 20
3.2595462733
 40
0.008
100
AcDbArc
 50
46.6958241996
 51
180.0
  0
ARC
  5
4C8
100
AcDbEntity
  8
0
100
AcDbCircle
 62
7
  6
CONTINUOUS
 10
6.7696389752
 20
2.6447112656
 40
0.7753350077
100
AcDbArc
 50
78.0669933483
 51
81.2354682492
  0
ARC
  5
4C9
100
AcDbEntity
  8
0
100
AcDbCircle
 62
7
  6
CONTINUOUS
 10
6.7696389752
 20
2.6447112656
 40
0.7753350077
100
AcDbArc
 50
91.4300766046
 51
94.5754586167
  0
ARC
  5
4CA
100
AcDbEntity
  8
0
100
AcDbCircle
 62
7
  6
CONTINUOUS
 10
6.7696389752
 20
2.6447112656
 40
0.7753350077
100
AcDbArc
 50
95.9223880643
 51
101.456409806
  0
ARC
  5
4CB
100
AcDbEntity
  8
0
100
AcDbCircle
 62
7
  6
CONTINUOUS
 10
6.7696389752
 20
2.6447112656
 40
0.7753350077
100
AcDbArc
 50
88.836024953
 51
90.1108472106
  0
ARC
  5
4CC
100
AcDbEntity
  8
0
100
AcDbCircle
 62
7
  6
CONTINUOUS
 10
6.7696389752
 20
2.6447112656
 40
0.7753350077
100
AcDbArc
 50
82.589547494
 51
87.505151011
  0
ARC
  5
4CD
100
AcDbEntity
  8
0
100
AcDbCircle
 62
7
  6
CONTINUOUS
 10
6.7696389752
 20
2.6447112656
 40
0.7753350077
100
AcDbArc
 50
75.2369687319
 51
76.6139015814
  0
ARC
  5
4CE
100
AcDbEntity
  8
0
100
AcDbCircle
 62
7
  6
CONTINUOUS
 10
6.7696389752
 20
2.6447112656
 40
0.7753350077
100
AcDbArc
 50
103.0445666344
 51
104.7630312681
  0
ARC
  5
4CF
100
AcDbEntity
  8
0
100
AcDbCircle
 62
7
  6
CONTINUOUS
 10
6.7696389752
 20
2.6447112656
 40
0.7748350077
100
AcDbArc
 50
101.4639028364
 51
102.158859743
  0
ARC
  5
4D0
100
AcDbEntity
  8
0
100
AcDbCircle
 62
7
  6
CONTINUOUS
 10
6.7696389752
 20
2.6447112656
 40
0.7748350077
100
AcDbArc
 50
94.5784174525
 51
95.2987914452
  0
ARC
  5
4D1
100
AcDbEntity
  8
0
100
AcDbCircle
 62
7
  6
CONTINUOUS
 10
6.7696389752
 20
2.6447112656
 40
0.7748350077
100
AcDbArc
 50
90.7468943029
 51
91.430999623
  0
ARC
  5
4D2
100
AcDbEntity
  8
0
100
AcDbCircle
 62
7
  6
CONTINUOUS
 10
6.7696389752
 20
2.6447112656
 40
0.7748350077
100
AcDbArc
 50
77.3977552377
 51
78.0591795779
  0
ARC
  5
4D3
100
AcDbEntity
  8
0
100
AcDbCircle
 62
7
  6
CONTINUOUS
 10
6.7696389752
 20
2.6447112656
 40
0.7748350077
100
AcDbArc
 50
81.2352442586
 51
82.5847386688
  0
ARC
  5
4D4
100
AcDbEntity
  8
0
100
AcDbCircle
 62
7
  6
CONTINUOUS
 10
6.7696389752
 20
2.6447112656
 40
0.7748350077
100
AcDbArc
 50
87.503540069
 51
88.835273738
  0
ARC
  5
4D5
100
AcDbEntity
  8
0
100
AcDbCircle
 62
7
  6
CONTINUOUS
 10
6.7696389752
 20
2.6447112656
 40
0.7747348735
100
AcDbArc
 50
79.9593632588
 51
81.0040654587
  0
ARC
  5
4D6
100
AcDbEntity
  8
0
100
AcDbCircle
 62
7
  6
CONTINUOUS
 10
6.7696389752
 20
2.6447112656
 40
0.7747104305
100
AcDbArc
 50
85.5024540677
 51
86.3921798126
  0
ARC
  5
4D7
100
AcDbEntity
  8
0
100
AcDbCircle
 62
7
  6
CONTINUOUS
 10
6.7696389752
 20
2.6447112656
 40
0.7742344859
100
AcDbArc
 50
79.9528066769
 51
80.9982030894
  0
ARC
  5
4D8
100
AcDbEntity
  8
0
100
AcDbCircle
 62
7
  6
CONTINUOUS
 10
6.7696389752
 20
2.6447112656
 40
0.7742100271
100
AcDbArc
 50
85.49954113
 51
86.3898448421
  0
ARC
  5
4D9
100
AcDbEntity
  8
0
100
AcDbCircle
 62
7
  6
CONTINUOUS
 10
6.7696389752
 20
2.6447112656
 40
0.7741693124
100
AcDbArc
 50
79.7882367111
 51
82.9513441199
  0
ARC
  5
4DA
100
AcDbEntity
  8
0
100
AcDbCircle
 62
7
  6
CONTINUOUS
 10
6.7696389752
 20
2.6447112656
 40
0.7741693124
100
AcDbArc
 50
84.0880697177
 51
89.6299506004
  0
ARC
  5
4DB
100
AcDbEntity
  8
0
100
AcDbCircle
 62
7
  6
CONTINUOUS
 10
7.2646197059
 20
2.3773195247
 40
0.2345
100
AcDbArc
 50
186.9248982442
 51
217.9660022518
  0
ARC
  5
4DC
100
AcDbEntity
  8
0
100
AcDbCircle
 62
7
  6
CONTINUOUS
 10
7.0320091714
 20
2.1075462733
 40
0.05
100
AcDbArc
 50
35.1694359446
 51
90.0
  0
ARC
  5
4DD
100
AcDbEntity
  8
0
100
AcDbCircle
 62
7
  6
CONTINUOUS
 10
7.0428889752
 20
2.2042962733
 40
0.04675
100
AcDbArc
 50
270.0
 51
37.9660022518
  0
ARC
  5
4DE
100
AcDbEntity
  8
0
100
AcDbCircle
 62
7
  6
CONTINUOUS
 10
7.3354971793
 20
2.7513419271
 40
2.3408582042
100
AcDbArc
 50
162.2315017359
 51
194.542769792
  0
ARC
  5
4DF
100
AcDbEntity
  8
0
100
AcDbCircle
 62
7
  6
CONTINUOUS
 10
7.1387049975
 20
3.0653232674
 40
0.68
100
AcDbArc
 50
158.7260279914
 51
162.3017225173
  0
ARC
  5
4E0
100
AcDbEntity
  8
0
100
AcDbCircle
 62
7
  6
CONTINUOUS
 10
7.1337883656
 20
3.288587181
 40
0.68
100
AcDbArc
 50
199.0137742001
 51
202.5744557109
  0
ARC
  5
4E1
100
AcDbEntity
  8
0
100
AcDbCircle
 62
7
  6
CONTINUOUS
 10
6.7501856724
 20
2.7623097888
 40
0.6561376387
100
AcDbArc
 50
96.2161845715
 51
96.9435818355
  0
ARC
  5
4E2
100
AcDbEntity
  8
0
100
AcDbCircle
 62
7
  6
CONTINUOUS
 10
6.8361638974
 20
2.803541717
 40
0.6065398727
100
AcDbArc
 50
81.2093694531
 51
81.3411507459
  0
ARC
  5
4E3
100
AcDbEntity
  8
0
100
AcDbCircle
 62
7
  6
CONTINUOUS
 10
6.7851818011
 20
2.8492861727
 40
0.5701710881
100
AcDbArc
 50
83.0535751546
 51
83.4864024216
  0
ARC
  5
4E4
100
AcDbEntity
  8
0
100
AcDbCircle
 62
7
  6
CONTINUOUS
 10
6.8340440465
 20
3.2087244438
 40
0.207655633
100
AcDbArc
 50
85.631475316
 51
87.4669374743
  0
ARC
  5
4E5
100
AcDbEntity
  8
0
100
AcDbCircle
 62
7
  6
CONTINUOUS
 10
6.8340479841
 20
3.2084360244
 40
0.2074415785
100
AcDbArc
 50
86.0357858793
 51
87.4654105971
  0
ARC
  5
4E6
100
AcDbEntity
  8
0
100
AcDbCircle
 62
7
  6
CONTINUOUS
 10
6.9533889752
 20
2.7875462733
 40
0.025
100
AcDbArc
 50
6.9248982442
 51
90.0
  0
ARC
  5
4E7
100
AcDbEntity
  8
0
100
AcDbCircle
 62
7
  6
CONTINUOUS
 10
6.8542628383
 20
3.3915917167
 40
0.0236806259
100
AcDbArc
 50
90.2996907996
 51
101.9040735363
  0
ARC
  5
4E8
100
AcDbEntity
  8
0
100
AcDbCircle
 62
7
  6
CONTINUOUS
 10
6.9633889752
 20
3.3799460998
 40
0.015
100
AcDbArc
 50
9.9842614036
 51
75.2369687319
  0
ARC
  5
4E9
100
AcDbEntity
  8
0
100
AcDbCircle
 62
7
  6
CONTINUOUS
 10
10.3976389752
 20
1.5650462733
 40
1.5265
100
AcDbArc
 50
166.7837149256
 51
193.2355634666
  0
ARC
  5
4EA
100
AcDbEntity
  8
0
100
AcDbCircle
 62
7
  6
CONTINUOUS
 10
9.5805521321
 20
1.1678091295
 40
0.2085
100
AcDbArc
 50
166.7644365334
 51
197.3749047622
  0
ARC
  5
4EB
100
AcDbEntity
  8
0
100
AcDbCircle
 62
7
  6
CONTINUOUS
 10
8.7087258182
 20
1.1678091295
 40
0.2085
100
AcDbArc
 50
342.6250952378
 51
13.2355634666
  0
ARC
  5
4EC
100
AcDbEntity
  8
0
100
AcDbCircle
 62
7
  6
CONTINUOUS
 10
9.3701045257
 20
0.726929987
 40
0.185
100
AcDbArc
 50
4.0656154981
 51
77.5021822312
  0
ARC
  5
4ED
100
AcDbEntity
  8
0
100
AcDbCircle
 62
7
  6
CONTINUOUS
 10
8.9191734246
 20
0.726929987
 40
0.185
100
AcDbArc
 50
102.4978177688
 51
175.9343845019
  0
ARC
  5
4EE
100
AcDbEntity
  8
0
100
AcDbCircle
 62
7
  6
CONTINUOUS
 10
9.7045389351
 20
0.7450462733
 40
0.125
100
AcDbArc
 50
182.292442776
 51
270.0
  0
ARC
  5
4EF
100
AcDbEntity
  8
0
100
AcDbCircle
 62
7
  6
CONTINUOUS
 10
8.5847390152
 20
0.7450462733
 40
0.125
100
AcDbArc
 50
270.0
 51
357.707557224
  0
ARC
  5
4F0
100
AcDbEntity
  8
0
100
AcDbCircle
 62
7
  6
CONTINUOUS
 10
9.3996389752
 20
1.0745462733
 40
0.0315
100
AcDbArc
 50
270.0
 51
79.7778206094
  0
ARC
  5
4F1
100
AcDbEntity
  8
0
100
AcDbCircle
 62
7
  6
CONTINUOUS
 10
9.3996389752
 20
0.9490462733
 40
0.0315
100
AcDbArc
 50
280.2221793906
 51
90.0
  0
ARC
  5
4F2
100
AcDbEntity
  8
0
100
AcDbCircle
 62
7
  6
CONTINUOUS
 10
8.8896389752
 20
1.0745462733
 40
0.0315
100
AcDbArc
 50
100.2221793906
 51
270.0
  0
ARC
  5
4F3
100
AcDbEntity
  8
0
100
AcDbCircle
 62
7
  6
CONTINUOUS
 10
8.8896389752
 20
0.9490462733
 40
0.0315
100
AcDbArc
 50
90.0
 51
259.7778206094
  0
ARC
  5
4F4
100
AcDbEntity
  8
0
100
AcDbCircle
 62
7
  6
CONTINUOUS
 10
9.7171389752
 20
0.6050462733
 40
0.015
100
AcDbArc
 50
0.0
 51
90.0
  0
ARC
  5
4F5
100
AcDbEntity
  8
0
100
AcDbCircle
 62
7
  6
CONTINUOUS
 10
8.5721389752
 20
0.6050462733
 40
0.015
100
AcDbArc
 50
90.0
 51
180.0
  0
ARC
  5
4F6
100
AcDbEntity
  8
0
100
AcDbCircle
 62
7
  6
CONTINUOUS
 10
8.4837105302
 20
2.0145280945
 40
0.4395
100
AcDbArc
 50
346.7837149256
 51
20.4446212878
  0
ARC
  5
4F7
100
AcDbEntity
  8
0
100
AcDbCircle
 62
7
  6
CONTINUOUS
 10
8.8893889752
 20
2.1992962733
 40
0.03125
100
AcDbArc
 50
90.0
 51
270.0
  0
CIRCLE
  5
4F8
100
AcDbEntity
  8
0
100
AcDbCircle
 62
7
  6
CONTINUOUS
 10
9.0326309843
 20
2.5435407799
 40
0.0103675253
  0
ARC
  5
4F9
100
AcDbEntity
  8
0
100
AcDbCircle
 62
7
  6
CONTINUOUS
 10
8.2691285585
 20
3.1695462733
 40
0.1867604167
100
AcDbArc
 50
317.9864211385
 51
42.0135788615
  0
CIRCLE
  5
4FA
100
AcDbEntity
  8
0
100
AcDbCircle
 62
7
  6
CONTINUOUS
 10
9.0326334828
 20
2.7675542631
 40
0.0103675254
  0
CIRCLE
  5
4FB
100
AcDbEntity
  8
0
100
AcDbCircle
 62
7
  6
CONTINUOUS
 10
8.9982957899
 20
2.7161655169
 40
0.0103675253
  0
CIRCLE
  5
4FC
100
AcDbEntity
  8
0
100
AcDbCircle
 62
7
  6
CONTINUOUS
 10
8.9982944383
 20
2.5949302928
 40
0.0103675253
  0
CIRCLE
  5
4FD
100
AcDbEntity
  8
0
100
AcDbCircle
 62
7
  6
CONTINUOUS
 10
8.9862336623
 20
2.6555462805
 40
0.0103635969
  0
ARC
  5
4FE
100
AcDbEntity
  8
0
100
AcDbCircle
 62
7
  6
CONTINUOUS
 10
9.8055674201
 20
2.0145280945
 40
0.4395
100
AcDbArc
 50
159.5553787122
 51
193.2162850744
  0
ARC
  5
4FF
100
AcDbEntity
  8
0
100
AcDbCircle
 62
7
  6
CONTINUOUS
 10
9.3998889752
 20
2.1992962733
 40
0.03125
100
AcDbArc
 50
270.0
 51
90.0
  0
CIRCLE
  5
500
100
AcDbEntity
  8
0
100
AcDbCircle
 62
7
  6
CONTINUOUS
 10
9.2566444677
 20
2.5435382833
 40
0.0103675255
  0
CIRCLE
  5
501
100
AcDbEntity
  8
0
100
AcDbCircle
 62
7
  6
CONTINUOUS
 10
9.084019732
 20
2.5092030891
 40
0.0103675255
  0
CIRCLE
  5
502
100
AcDbEntity
  8
0
100
AcDbCircle
 62
7
  6
CONTINUOUS
 10
9.1446372092
 20
2.4971448207
 40
0.0103675255
  0
CIRCLE
  5
503
100
AcDbEntity
  8
0
100
AcDbCircle
 62
7
  6
CONTINUOUS
 10
9.2052549552
 20
2.5092017375
 40
0.0103675255
  0
CIRCLE
  5
504
100
AcDbEntity
  8
0
100
AcDbCircle
 62
7
  6
CONTINUOUS
 10
9.2136445839
 20
2.5865406877
 40
0.0097939887
  0
CIRCLE
  5
505
100
AcDbEntity
  8
0
100
AcDbCircle
 62
7
  6
CONTINUOUS
 10
9.1446389911
 20
2.5579576228
 40
0.0097939879
  0
CIRCLE
  5
506
100
AcDbEntity
  8
0
100
AcDbCircle
 62
7
  6
CONTINUOUS
 10
9.0756333899
 20
2.5865406655
 40
0.0097939879
  0
ARC
  5
507
100
AcDbEntity
  8
0
100
AcDbCircle
 62
7
  6
CONTINUOUS
 10
9.0931639962
 20
2.6157101569
 40
0.2964684309
100
AcDbArc
 50
321.3589869836
 51
321.749029483
  0
CIRCLE
  5
508
100
AcDbEntity
  8
0
100
AcDbCircle
 62
7
  6
CONTINUOUS
 10
9.0470506312
 20
2.6555464141
 40
0.0097938172
  0
ARC
  5
509
100
AcDbEntity
  8
0
100
AcDbCircle
 62
7
  6
CONTINUOUS
 10
9.1011582444
 20
2.6090460937
 40
0.2860598843
100
AcDbArc
 50
317.5826678331
 51
319.3400966001
  0
ARC
  5
50A
100
AcDbEntity
  8
0
100
AcDbCircle
 62
7
  6
CONTINUOUS
 10
9.1446389752
 20
2.6555462733
 40
0.29375
100
AcDbArc
 50
103.2208244843
 51
103.7791755157
  0
ARC
  5
50B
100
AcDbEntity
  8
0
100
AcDbCircle
 62
7
  6
CONTINUOUS
 10
9.1446389752
 20
2.6555462733
 40
0.29375
100
AcDbArc
 50
100.2208244843
 51
100.7791755157
  0
ARC
  5
50C
100
AcDbEntity
  8
0
100
AcDbCircle
 62
7
  6
CONTINUOUS
 10
9.1446389752
 20
2.6555462733
 40
0.29375
100
AcDbArc
 50
97.2208244843
 51
97.7791755157
  0
ARC
  5
50D
100
AcDbEntity
  8
0
100
AcDbCircle
 62
7
  6
CONTINUOUS
 10
9.1446389752
 20
2.6555462733
 40
0.29375
100
AcDbArc
 50
94.2208244843
 51
94.7791755157
  0
ARC
  5
50E
100
AcDbEntity
  8
0
100
AcDbCircle
 62
7
  6
CONTINUOUS
 10
9.1446389752
 20
2.6555462733
 40
0.29375
100
AcDbArc
 50
91.219151134
 51
91.7791755157
  0
ARC
  5
50F
100
AcDbEntity
  8
0
100
AcDbCircle
 62
7
  6
CONTINUOUS
 10
9.1446389752
 20
2.6555462733
 40
0.29375
100
AcDbArc
 50
106.2208244843
 51
106.780848866
  0
ARC
  5
510
100
AcDbEntity
  8
0
100
AcDbCircle
 62
7
  6
CONTINUOUS
 10
9.1446389752
 20
2.6555462733
 40
0.29375
100
AcDbArc
 50
109.219151134
 51
109.7791755157
  0
ARC
  5
511
100
AcDbEntity
  8
0
100
AcDbCircle
 62
7
  6
CONTINUOUS
 10
9.1446389752
 20
2.6555462733
 40
0.29375
100
AcDbArc
 50
112.2208244843
 51
112.7791755157
  0
ARC
  5
512
100
AcDbEntity
  8
0
100
AcDbCircle
 62
7
  6
CONTINUOUS
 10
9.1446389752
 20
2.6555462733
 40
0.29375
100
AcDbArc
 50
115.2208244843
 51
115.7791755157
  0
ARC
  5
513
100
AcDbEntity
  8
0
100
AcDbCircle
 62
7
  6
CONTINUOUS
 10
9.1446389752
 20
2.6555462733
 40
0.29375
100
AcDbArc
 50
118.2208244843
 51
118.7791755157
  0
ARC
  5
514
100
AcDbEntity
  8
0
100
AcDbCircle
 62
7
  6
CONTINUOUS
 10
9.1446389752
 20
2.6555462733
 40
0.29375
100
AcDbArc
 50
121.2208244843
 51
121.7791755157
  0
ARC
  5
515
100
AcDbEntity
  8
0
100
AcDbCircle
 62
7
  6
CONTINUOUS
 10
9.1446389752
 20
2.6555462733
 40
0.29375
100
AcDbArc
 50
124.2208244843
 51
124.780848866
  0
ARC
  5
516
100
AcDbEntity
  8
0
100
AcDbCircle
 62
7
  6
CONTINUOUS
 10
9.1446389752
 20
2.6555462733
 40
0.29375
100
AcDbArc
 50
127.219151134
 51
127.7791755157
  0
ARC
  5
517
100
AcDbEntity
  8
0
100
AcDbCircle
 62
7
  6
CONTINUOUS
 10
9.1446389752
 20
2.6555462733
 40
0.29375
100
AcDbArc
 50
130.2208244843
 51
130.7791755157
  0
ARC
  5
518
100
AcDbEntity
  8
0
100
AcDbCircle
 62
7
  6
CONTINUOUS
 10
9.1446389752
 20
2.6555462733
 40
0.29375
100
AcDbArc
 50
133.2208244843
 51
133.7791755157
  0
ARC
  5
519
100
AcDbEntity
  8
0
100
AcDbCircle
 62
7
  6
CONTINUOUS
 10
9.1446389752
 20
2.6555462733
 40
0.29375
100
AcDbArc
 50
136.2208244843
 51
136.7791755157
  0
ARC
  5
51A
100
AcDbEntity
  8
0
100
AcDbCircle
 62
7
  6
CONTINUOUS
 10
9.1446389752
 20
2.6555462733
 40
0.29375
100
AcDbArc
 50
139.2208244843
 51
139.7791755157
  0
ARC
  5
51B
100
AcDbEntity
  8
0
100
AcDbCircle
 62
7
  6
CONTINUOUS
 10
9.1446389752
 20
2.6555462733
 40
0.29375
100
AcDbArc
 50
142.2208244843
 51
142.780848866
  0
ARC
  5
51C
100
AcDbEntity
  8
0
100
AcDbCircle
 62
7
  6
CONTINUOUS
 10
9.1446389752
 20
2.6555462733
 40
0.29375
100
AcDbArc
 50
145.219151134
 51
145.7791755157
  0
ARC
  5
51D
100
AcDbEntity
  8
0
100
AcDbCircle
 62
7
  6
CONTINUOUS
 10
9.1446389752
 20
2.6555462733
 40
0.29375
100
AcDbArc
 50
148.2208244843
 51
148.7791755157
  0
ARC
  5
51E
100
AcDbEntity
  8
0
100
AcDbCircle
 62
7
  6
CONTINUOUS
 10
9.1446389752
 20
2.6555462733
 40
0.29375
100
AcDbArc
 50
151.2208244843
 51
151.7791755157
  0
ARC
  5
51F
100
AcDbEntity
  8
0
100
AcDbCircle
 62
7
  6
CONTINUOUS
 10
9.1446389752
 20
2.6555462733
 40
0.29375
100
AcDbArc
 50
154.2208244843
 51
154.7791755157
  0
ARC
  5
520
100
AcDbEntity
  8
0
100
AcDbCircle
 62
7
  6
CONTINUOUS
 10
9.1446389752
 20
2.6555462733
 40
0.29375
100
AcDbArc
 50
157.2208244843
 51
157.7791755157
  0
ARC
  5
521
100
AcDbEntity
  8
0
100
AcDbCircle
 62
7
  6
CONTINUOUS
 10
9.1446389752
 20
2.6555462733
 40
0.29375
100
AcDbArc
 50
160.2208244843
 51
160.780848866
  0
ARC
  5
522
100
AcDbEntity
  8
0
100
AcDbCircle
 62
7
  6
CONTINUOUS
 10
9.1446389752
 20
2.6555462733
 40
0.29375
100
AcDbArc
 50
163.219151134
 51
163.7791755157
  0
ARC
  5
523
100
AcDbEntity
  8
0
100
AcDbCircle
 62
7
  6
CONTINUOUS
 10
9.1446389752
 20
2.6555462733
 40
0.29375
100
AcDbArc
 50
166.2208244843
 51
166.7791755157
  0
ARC
  5
524
100
AcDbEntity
  8
0
100
AcDbCircle
 62
7
  6
CONTINUOUS
 10
9.1446389752
 20
2.6555462733
 40
0.29375
100
AcDbArc
 50
169.2208244843
 51
169.7791755157
  0
ARC
  5
525
100
AcDbEntity
  8
0
100
AcDbCircle
 62
7
  6
CONTINUOUS
 10
9.1446389752
 20
2.6555462733
 40
0.29375
100
AcDbArc
 50
172.2208244843
 51
172.7791755157
  0
ARC
  5
526
100
AcDbEntity
  8
0
100
AcDbCircle
 62
7
  6
CONTINUOUS
 10
9.1446389752
 20
2.6555462733
 40
0.29375
100
AcDbArc
 50
175.2208244843
 51
175.7791755157
  0
ARC
  5
527
100
AcDbEntity
  8
0
100
AcDbCircle
 62
7
  6
CONTINUOUS
 10
9.1446389752
 20
2.6555462733
 40
0.29375
100
AcDbArc
 50
178.2208244843
 51
178.780848866
  0
ARC
  5
528
100
AcDbEntity
  8
0
100
AcDbCircle
 62
7
  6
CONTINUOUS
 10
9.1446389752
 20
2.6555462733
 40
0.29375
100
AcDbArc
 50
181.219151134
 51
181.7791755157
  0
ARC
  5
529
100
AcDbEntity
  8
0
100
AcDbCircle
 62
7
  6
CONTINUOUS
 10
9.1446389752
 20
2.6555462733
 40
0.29375
100
AcDbArc
 50
184.2208244843
 51
184.7791755157
  0
ARC
  5
52A
100
AcDbEntity
  8
0
100
AcDbCircle
 62
7
  6
CONTINUOUS
 10
9.1446389752
 20
2.6555462733
 40
0.29375
100
AcDbArc
 50
187.2208244843
 51
187.7791755157
  0
ARC
  5
52B
100
AcDbEntity
  8
0
100
AcDbCircle
 62
7
  6
CONTINUOUS
 10
9.1446389752
 20
2.6555462733
 40
0.29375
100
AcDbArc
 50
190.2208244843
 51
190.7791755157
  0
ARC
  5
52C
100
AcDbEntity
  8
0
100
AcDbCircle
 62
7
  6
CONTINUOUS
 10
9.1446389752
 20
2.6555462733
 40
0.29375
100
AcDbArc
 50
193.2208244843
 51
193.7791755157
  0
ARC
  5
52D
100
AcDbEntity
  8
0
100
AcDbCircle
 62
7
  6
CONTINUOUS
 10
9.1446389752
 20
2.6555462733
 40
0.29375
100
AcDbArc
 50
196.2208244843
 51
196.780848866
  0
ARC
  5
52E
100
AcDbEntity
  8
0
100
AcDbCircle
 62
7
  6
CONTINUOUS
 10
9.1446389752
 20
2.6555462733
 40
0.29375
100
AcDbArc
 50
199.219151134
 51
199.7791755157
  0
ARC
  5
52F
100
AcDbEntity
  8
0
100
AcDbCircle
 62
7
  6
CONTINUOUS
 10
9.1446389752
 20
2.6555462733
 40
0.29375
100
AcDbArc
 50
202.2208244843
 51
202.7791755157
  0
ARC
  5
530
100
AcDbEntity
  8
0
100
AcDbCircle
 62
7
  6
CONTINUOUS
 10
9.1446389752
 20
2.6555462733
 40
0.29375
100
AcDbArc
 50
205.2208244843
 51
205.7791755157
  0
ARC
  5
531
100
AcDbEntity
  8
0
100
AcDbCircle
 62
7
  6
CONTINUOUS
 10
9.1446389752
 20
2.6555462733
 40
0.29375
100
AcDbArc
 50
208.2208244843
 51
208.7791755157
  0
ARC
  5
532
100
AcDbEntity
  8
0
100
AcDbCircle
 62
7
  6
CONTINUOUS
 10
9.1446389752
 20
2.6555462733
 40
0.29375
100
AcDbArc
 50
211.2208244843
 51
211.7791755157
  0
ARC
  5
533
100
AcDbEntity
  8
0
100
AcDbCircle
 62
7
  6
CONTINUOUS
 10
9.1446389752
 20
2.6555462733
 40
0.29375
100
AcDbArc
 50
214.2208244843
 51
214.780848866
  0
ARC
  5
534
100
AcDbEntity
  8
0
100
AcDbCircle
 62
7
  6
CONTINUOUS
 10
9.1446389752
 20
2.6555462733
 40
0.29375
100
AcDbArc
 50
217.219151134
 51
217.7791755157
  0
ARC
  5
535
100
AcDbEntity
  8
0
100
AcDbCircle
 62
7
  6
CONTINUOUS
 10
9.1446389752
 20
2.6555462733
 40
0.29375
100
AcDbArc
 50
220.2208244843
 51
220.7791755157
  0
ARC
  5
536
100
AcDbEntity
  8
0
100
AcDbCircle
 62
7
  6
CONTINUOUS
 10
9.1446389752
 20
2.6555462733
 40
0.29375
100
AcDbArc
 50
223.2208244843
 51
223.7791755157
  0
ARC
  5
537
100
AcDbEntity
  8
0
100
AcDbCircle
 62
7
  6
CONTINUOUS
 10
9.1446389752
 20
2.6555462733
 40
0.29375
100
AcDbArc
 50
226.2208244843
 51
226.7791755157
  0
ARC
  5
538
100
AcDbEntity
  8
0
100
AcDbCircle
 62
7
  6
CONTINUOUS
 10
9.1446389752
 20
2.6555462733
 40
0.29375
100
AcDbArc
 50
229.2208244843
 51
229.7791755157
  0
ARC
  5
539
100
AcDbEntity
  8
0
100
AcDbCircle
 62
7
  6
CONTINUOUS
 10
9.1446389752
 20
2.6555462733
 40
0.29375
100
AcDbArc
 50
232.2208244843
 51
232.780848866
  0
ARC
  5
53A
100
AcDbEntity
  8
0
100
AcDbCircle
 62
7
  6
CONTINUOUS
 10
9.1446389752
 20
2.6555462733
 40
0.29375
100
AcDbArc
 50
235.219151134
 51
235.7791755157
  0
ARC
  5
53B
100
AcDbEntity
  8
0
100
AcDbCircle
 62
7
  6
CONTINUOUS
 10
9.1446389752
 20
2.6555462733
 40
0.29375
100
AcDbArc
 50
238.2208244843
 51
238.7791755157
  0
ARC
  5
53C
100
AcDbEntity
  8
0
100
AcDbCircle
 62
7
  6
CONTINUOUS
 10
9.1446389752
 20
2.6555462733
 40
0.29375
100
AcDbArc
 50
241.2208244843
 51
241.7791755157
  0
ARC
  5
53D
100
AcDbEntity
  8
0
100
AcDbCircle
 62
7
  6
CONTINUOUS
 10
9.1446389752
 20
2.6555462733
 40
0.29375
100
AcDbArc
 50
244.2208244843
 51
244.7791755157
  0
ARC
  5
53E
100
AcDbEntity
  8
0
100
AcDbCircle
 62
7
  6
CONTINUOUS
 10
9.1446389752
 20
2.6555462733
 40
0.29375
100
AcDbArc
 50
247.2208244843
 51
247.7791755157
  0
ARC
  5
53F
100
AcDbEntity
  8
0
100
AcDbCircle
 62
7
  6
CONTINUOUS
 10
9.1446389752
 20
2.6555462733
 40
0.29375
100
AcDbArc
 50
250.2208244843
 51
250.780848866
  0
ARC
  5
540
100
AcDbEntity
  8
0
100
AcDbCircle
 62
7
  6
CONTINUOUS
 10
9.1446389752
 20
2.6555462733
 40
0.29375
100
AcDbArc
 50
253.219151134
 51
253.7791755157
  0
ARC
  5
541
100
AcDbEntity
  8
0
100
AcDbCircle
 62
7
  6
CONTINUOUS
 10
9.1446389752
 20
2.6555462733
 40
0.29375
100
AcDbArc
 50
256.2208244843
 51
256.7791755157
  0
ARC
  5
542
100
AcDbEntity
  8
0
100
AcDbCircle
 62
7
  6
CONTINUOUS
 10
9.1446389752
 20
2.6555462733
 40
0.29375
100
AcDbArc
 50
259.2208244843
 51
259.7791755157
  0
ARC
  5
543
100
AcDbEntity
  8
0
100
AcDbCircle
 62
7
  6
CONTINUOUS
 10
9.1446389752
 20
2.6555462733
 40
0.29375
100
AcDbArc
 50
262.2208244843
 51
262.7791755157
  0
ARC
  5
544
100
AcDbEntity
  8
0
100
AcDbCircle
 62
7
  6
CONTINUOUS
 10
9.1446389752
 20
2.6555462733
 40
0.29375
100
AcDbArc
 50
265.2208244843
 51
265.7791755157
  0
ARC
  5
545
100
AcDbEntity
  8
0
100
AcDbCircle
 62
7
  6
CONTINUOUS
 10
9.1446389752
 20
2.6555462733
 40
0.29375
100
AcDbArc
 50
268.2208244843
 51
268.780848866
  0
ARC
  5
546
100
AcDbEntity
  8
0
100
AcDbCircle
 62
7
  6
CONTINUOUS
 10
9.1446389752
 20
2.6555462733
 40
0.29375
100
AcDbArc
 50
271.219151134
 51
271.7791755157
  0
ARC
  5
547
100
AcDbEntity
  8
0
100
AcDbCircle
 62
7
  6
CONTINUOUS
 10
9.1446389752
 20
2.6555462733
 40
0.29375
100
AcDbArc
 50
274.2208244843
 51
274.7791755157
  0
ARC
  5
548
100
AcDbEntity
  8
0
100
AcDbCircle
 62
7
  6
CONTINUOUS
 10
9.1446389752
 20
2.6555462733
 40
0.29375
100
AcDbArc
 50
277.2208244843
 51
277.7791755157
  0
ARC
  5
549
100
AcDbEntity
  8
0
100
AcDbCircle
 62
7
  6
CONTINUOUS
 10
9.1446389752
 20
2.6555462733
 40
0.29375
100
AcDbArc
 50
280.2208244843
 51
280.7791755157
  0
ARC
  5
54A
100
AcDbEntity
  8
0
100
AcDbCircle
 62
7
  6
CONTINUOUS
 10
9.1446389752
 20
2.6555462733
 40
0.29375
100
AcDbArc
 50
283.2208244843
 51
283.7791755157
  0
ARC
  5
54B
100
AcDbEntity
  8
0
100
AcDbCircle
 62
7
  6
CONTINUOUS
 10
9.1446389752
 20
2.6555462733
 40
0.29375
100
AcDbArc
 50
286.2208244843
 51
286.780848866
  0
ARC
  5
54C
100
AcDbEntity
  8
0
100
AcDbCircle
 62
7
  6
CONTINUOUS
 10
9.1446389752
 20
2.6555462733
 40
0.29375
100
AcDbArc
 50
289.219151134
 51
289.7791755157
  0
ARC
  5
54D
100
AcDbEntity
  8
0
100
AcDbCircle
 62
7
  6
CONTINUOUS
 10
9.1446389752
 20
2.6555462733
 40
0.29375
100
AcDbArc
 50
292.2208244843
 51
292.7791755157
  0
ARC
  5
54E
100
AcDbEntity
  8
0
100
AcDbCircle
 62
7
  6
CONTINUOUS
 10
9.1446389752
 20
2.6555462733
 40
0.29375
100
AcDbArc
 50
295.2208244843
 51
295.7791755157
  0
ARC
  5
54F
100
AcDbEntity
  8
0
100
AcDbCircle
 62
7
  6
CONTINUOUS
 10
9.1446389752
 20
2.6555462733
 40
0.29375
100
AcDbArc
 50
298.2208244843
 51
298.7791755157
  0
ARC
  5
550
100
AcDbEntity
  8
0
100
AcDbCircle
 62
7
  6
CONTINUOUS
 10
9.1446389752
 20
2.6555462733
 40
0.29375
100
AcDbArc
 50
301.2208244843
 51
301.7791755157
  0
ARC
  5
551
100
AcDbEntity
  8
0
100
AcDbCircle
 62
7
  6
CONTINUOUS
 10
9.1446389752
 20
2.6555462733
 40
0.29375
100
AcDbArc
 50
304.2208244843
 51
304.780848866
  0
ARC
  5
552
100
AcDbEntity
  8
0
100
AcDbCircle
 62
7
  6
CONTINUOUS
 10
9.1446389752
 20
2.6555462733
 40
0.29375
100
AcDbArc
 50
307.219151134
 51
307.7791755157
  0
ARC
  5
553
100
AcDbEntity
  8
0
100
AcDbCircle
 62
7
  6
CONTINUOUS
 10
9.1446389752
 20
2.6555462733
 40
0.29375
100
AcDbArc
 50
310.2208244843
 51
310.7791755157
  0
ARC
  5
554
100
AcDbEntity
  8
0
100
AcDbCircle
 62
7
  6
CONTINUOUS
 10
9.1446389752
 20
2.6555462733
 40
0.29375
100
AcDbArc
 50
313.2208244843
 51
313.7791755157
  0
ARC
  5
555
100
AcDbEntity
  8
0
100
AcDbCircle
 62
7
  6
CONTINUOUS
 10
9.1446389752
 20
2.6555462733
 40
0.29375
100
AcDbArc
 50
316.2208244843
 51
316.7791755157
  0
ARC
  5
556
100
AcDbEntity
  8
0
100
AcDbCircle
 62
7
  6
CONTINUOUS
 10
9.1446389752
 20
2.6555462733
 40
0.29375
100
AcDbArc
 50
319.2208244843
 51
319.7791755157
  0
ARC
  5
557
100
AcDbEntity
  8
0
100
AcDbCircle
 62
7
  6
CONTINUOUS
 10
9.1446389752
 20
2.6555462733
 40
0.29375
100
AcDbArc
 50
322.2208244843
 51
322.780848866
  0
ARC
  5
558
100
AcDbEntity
  8
0
100
AcDbCircle
 62
7
  6
CONTINUOUS
 10
9.1446389752
 20
2.6555462733
 40
0.29375
100
AcDbArc
 50
325.219151134
 51
325.7791755157
  0
ARC
  5
559
100
AcDbEntity
  8
0
100
AcDbCircle
 62
7
  6
CONTINUOUS
 10
9.1446389752
 20
2.6555462733
 40
0.29375
100
AcDbArc
 50
328.2208244843
 51
328.7791755157
  0
ARC
  5
55A
100
AcDbEntity
  8
0
100
AcDbCircle
 62
7
  6
CONTINUOUS
 10
9.1446389752
 20
2.6555462733
 40
0.29375
100
AcDbArc
 50
331.2208244843
 51
331.7791755157
  0
ARC
  5
55B
100
AcDbEntity
  8
0
100
AcDbCircle
 62
7
  6
CONTINUOUS
 10
9.1446389752
 20
2.6555462733
 40
0.29375
100
AcDbArc
 50
334.2208244843
 51
334.7791755157
  0
ARC
  5
55C
100
AcDbEntity
  8
0
100
AcDbCircle
 62
7
  6
CONTINUOUS
 10
9.1446389752
 20
2.6555462733
 40
0.29375
100
AcDbArc
 50
337.2208244843
 51
337.7791755157
  0
ARC
  5
55D
100
AcDbEntity
  8
0
100
AcDbCircle
 62
7
  6
CONTINUOUS
 10
9.1446389752
 20
2.6555462733
 40
0.29375
100
AcDbArc
 50
340.2208244843
 51
340.780848866
  0
ARC
  5
55E
100
AcDbEntity
  8
0
100
AcDbCircle
 62
7
  6
CONTINUOUS
 10
9.1446389752
 20
2.6555462733
 40
0.29375
100
AcDbArc
 50
343.219151134
 51
343.7791755157
  0
ARC
  5
55F
100
AcDbEntity
  8
0
100
AcDbCircle
 62
7
  6
CONTINUOUS
 10
9.1446389752
 20
2.6555462733
 40
0.29375
100
AcDbArc
 50
346.2208244843
 51
346.7791755157
  0
ARC
  5
560
100
AcDbEntity
  8
0
100
AcDbCircle
 62
7
  6
CONTINUOUS
 10
9.1446389752
 20
2.6555462733
 40
0.29375
100
AcDbArc
 50
349.2208244843
 51
349.7791755157
  0
ARC
  5
561
100
AcDbEntity
  8
0
100
AcDbCircle
 62
7
  6
CONTINUOUS
 10
9.1446389752
 20
2.6555462733
 40
0.29375
100
AcDbArc
 50
352.2208244843
 51
352.7791755157
  0
ARC
  5
562
100
AcDbEntity
  8
0
100
AcDbCircle
 62
7
  6
CONTINUOUS
 10
9.1446389752
 20
2.6555462733
 40
0.29375
100
AcDbArc
 50
355.2208244843
 51
355.7791755157
  0
ARC
  5
563
100
AcDbEntity
  8
0
100
AcDbCircle
 62
7
  6
CONTINUOUS
 10
9.1446389752
 20
2.6555462733
 40
0.29375
100
AcDbArc
 50
358.2208244843
 51
358.780848866
  0
ARC
  5
564
100
AcDbEntity
  8
0
100
AcDbCircle
 62
7
  6
CONTINUOUS
 10
9.1446389752
 20
2.6555462733
 40
0.29375
100
AcDbArc
 50
1.219151134
 51
1.7791755157
  0
ARC
  5
565
100
AcDbEntity
  8
0
100
AcDbCircle
 62
7
  6
CONTINUOUS
 10
9.1446389752
 20
2.6555462733
 40
0.29375
100
AcDbArc
 50
4.2208244843
 51
4.7791755157
  0
ARC
  5
566
100
AcDbEntity
  8
0
100
AcDbCircle
 62
7
  6
CONTINUOUS
 10
9.1446389752
 20
2.6555462733
 40
0.29375
100
AcDbArc
 50
7.2208244843
 51
7.7791755157
  0
ARC
  5
567
100
AcDbEntity
  8
0
100
AcDbCircle
 62
7
  6
CONTINUOUS
 10
9.1446389752
 20
2.6555462733
 40
0.29375
100
AcDbArc
 50
10.2208244843
 51
10.7791755157
  0
ARC
  5
568
100
AcDbEntity
  8
0
100
AcDbCircle
 62
7
  6
CONTINUOUS
 10
9.1446389752
 20
2.6555462733
 40
0.29375
100
AcDbArc
 50
13.2208244843
 51
13.7791755157
  0
ARC
  5
569
100
AcDbEntity
  8
0
100
AcDbCircle
 62
7
  6
CONTINUOUS
 10
9.1446389752
 20
2.6555462733
 40
0.29375
100
AcDbArc
 50
16.2208244843
 51
16.780848866
  0
ARC
  5
56A
100
AcDbEntity
  8
0
100
AcDbCircle
 62
7
  6
CONTINUOUS
 10
9.1446389752
 20
2.6555462733
 40
0.29375
100
AcDbArc
 50
19.219151134
 51
19.7791755157
  0
ARC
  5
56B
100
AcDbEntity
  8
0
100
AcDbCircle
 62
7
  6
CONTINUOUS
 10
9.1446389752
 20
2.6555462733
 40
0.29375
100
AcDbArc
 50
22.2208244843
 51
22.7791755157
  0
ARC
  5
56C
100
AcDbEntity
  8
0
100
AcDbCircle
 62
7
  6
CONTINUOUS
 10
9.1446389752
 20
2.6555462733
 40
0.29375
100
AcDbArc
 50
25.2208244843
 51
25.7791755157
  0
ARC
  5
56D
100
AcDbEntity
  8
0
100
AcDbCircle
 62
7
  6
CONTINUOUS
 10
9.1446389752
 20
2.6555462733
 40
0.29375
100
AcDbArc
 50
28.2208244843
 51
28.7791755157
  0
ARC
  5
56E
100
AcDbEntity
  8
0
100
AcDbCircle
 62
7
  6
CONTINUOUS
 10
9.1446389752
 20
2.6555462733
 40
0.29375
100
AcDbArc
 50
31.2208244843
 51
31.7791755157
  0
ARC
  5
56F
100
AcDbEntity
  8
0
100
AcDbCircle
 62
7
  6
CONTINUOUS
 10
9.1446389752
 20
2.6555462733
 40
0.29375
100
AcDbArc
 50
34.2208244843
 51
34.780848866
  0
ARC
  5
570
100
AcDbEntity
  8
0
100
AcDbCircle
 62
7
  6
CONTINUOUS
 10
9.1446389752
 20
2.6555462733
 40
0.29375
100
AcDbArc
 50
37.219151134
 51
37.7791755157
  0
ARC
  5
571
100
AcDbEntity
  8
0
100
AcDbCircle
 62
7
  6
CONTINUOUS
 10
9.1446389752
 20
2.6555462733
 40
0.29375
100
AcDbArc
 50
40.2208244843
 51
40.7791755157
  0
ARC
  5
572
100
AcDbEntity
  8
0
100
AcDbCircle
 62
7
  6
CONTINUOUS
 10
9.1446389752
 20
2.6555462733
 40
0.29375
100
AcDbArc
 50
43.2208244843
 51
43.7791755157
  0
ARC
  5
573
100
AcDbEntity
  8
0
100
AcDbCircle
 62
7
  6
CONTINUOUS
 10
9.1446389752
 20
2.6555462733
 40
0.29375
100
AcDbArc
 50
46.2208244843
 51
46.7791755157
  0
ARC
  5
574
100
AcDbEntity
  8
0
100
AcDbCircle
 62
7
  6
CONTINUOUS
 10
9.1446389752
 20
2.6555462733
 40
0.29375
100
AcDbArc
 50
49.2208244843
 51
49.7791755157
  0
ARC
  5
575
100
AcDbEntity
  8
0
100
AcDbCircle
 62
7
  6
CONTINUOUS
 10
9.1446389752
 20
2.6555462733
 40
0.29375
100
AcDbArc
 50
52.2208244843
 51
52.780848866
  0
ARC
  5
576
100
AcDbEntity
  8
0
100
AcDbCircle
 62
7
  6
CONTINUOUS
 10
9.1446389752
 20
2.6555462733
 40
0.29375
100
AcDbArc
 50
55.219151134
 51
55.7791755157
  0
ARC
  5
577
100
AcDbEntity
  8
0
100
AcDbCircle
 62
7
  6
CONTINUOUS
 10
9.1446389752
 20
2.6555462733
 40
0.29375
100
AcDbArc
 50
58.2208244843
 51
58.7791755157
  0
ARC
  5
578
100
AcDbEntity
  8
0
100
AcDbCircle
 62
7
  6
CONTINUOUS
 10
9.1446389752
 20
2.6555462733
 40
0.29375
100
AcDbArc
 50
61.2208244843
 51
61.7791755157
  0
ARC
  5
579
100
AcDbEntity
  8
0
100
AcDbCircle
 62
7
  6
CONTINUOUS
 10
9.1446389752
 20
2.6555462733
 40
0.29375
100
AcDbArc
 50
64.2208244843
 51
64.7791755157
  0
ARC
  5
57A
100
AcDbEntity
  8
0
100
AcDbCircle
 62
7
  6
CONTINUOUS
 10
9.1446389752
 20
2.6555462733
 40
0.29375
100
AcDbArc
 50
67.2208244843
 51
67.7791755157
  0
ARC
  5
57B
100
AcDbEntity
  8
0
100
AcDbCircle
 62
7
  6
CONTINUOUS
 10
9.1446389752
 20
2.6555462733
 40
0.29375
100
AcDbArc
 50
70.2208244843
 51
70.780848866
  0
ARC
  5
57C
100
AcDbEntity
  8
0
100
AcDbCircle
 62
7
  6
CONTINUOUS
 10
9.1446389752
 20
2.6555462733
 40
0.29375
100
AcDbArc
 50
73.219151134
 51
73.7791755157
  0
ARC
  5
57D
100
AcDbEntity
  8
0
100
AcDbCircle
 62
7
  6
CONTINUOUS
 10
9.1446389752
 20
2.6555462733
 40
0.29375
100
AcDbArc
 50
76.2208244843
 51
76.7791755157
  0
ARC
  5
57E
100
AcDbEntity
  8
0
100
AcDbCircle
 62
7
  6
CONTINUOUS
 10
9.1446389752
 20
2.6555462733
 40
0.29375
100
AcDbArc
 50
79.2208244843
 51
79.7791755157
  0
ARC
  5
57F
100
AcDbEntity
  8
0
100
AcDbCircle
 62
7
  6
CONTINUOUS
 10
9.1446389752
 20
2.6555462733
 40
0.29375
100
AcDbArc
 50
82.2208244843
 51
82.7791755157
  0
ARC
  5
580
100
AcDbEntity
  8
0
100
AcDbCircle
 62
7
  6
CONTINUOUS
 10
9.1446389752
 20
2.6555462733
 40
0.29375
100
AcDbArc
 50
85.2208244843
 51
85.7791755157
  0
ARC
  5
581
100
AcDbEntity
  8
0
100
AcDbCircle
 62
7
  6
CONTINUOUS
 10
9.1446389752
 20
2.6555462733
 40
0.29375
100
AcDbArc
 50
88.2208244843
 51
88.780848866
  0
CIRCLE
  5
582
100
AcDbEntity
  8
0
100
AcDbCircle
 62
7
  6
CONTINUOUS
 10
9.1446389752
 20
2.6555462733
 40
0.2775
  0
CIRCLE
  5
583
100
AcDbEntity
  8
0
100
AcDbCircle
 62
7
  6
CONTINUOUS
 10
9.1446389752
 20
2.6555462733
 40
0.2766395935
  0
CIRCLE
  5
584
100
AcDbEntity
  8
0
100
AcDbCircle
 62
7
  6
CONTINUOUS
 10
9.1446389752
 20
2.6555462733
 40
0.2264874498
  0
CIRCLE
  5
585
100
AcDbEntity
  8
0
100
AcDbCircle
 62
7
  6
CONTINUOUS
 10
9.1446389752
 20
2.6555462733
 40
0.2223478564
  0
CIRCLE
  5
586
100
AcDbEntity
  8
0
100
AcDbCircle
 62
7
  6
CONTINUOUS
 10
9.1446389752
 20
2.6555462733
 40
0.2067928977
  0
CIRCLE
  5
587
100
AcDbEntity
  8
0
100
AcDbCircle
 62
7
  6
CONTINUOUS
 10
9.1446389752
 20
2.6555462733
 40
0.2037155146
  0
CIRCLE
  5
588
100
AcDbEntity
  8
0
100
AcDbCircle
 62
7
  6
CONTINUOUS
 10
9.0840229952
 20
2.8018908088
 40
0.0103675254
  0
CIRCLE
  5
589
100
AcDbEntity
  8
0
100
AcDbCircle
 62
7
  6
CONTINUOUS
 10
9.1446407411
 20
2.8139477256
 40
0.0103675254
  0
CIRCLE
  5
58A
100
AcDbEntity
  8
0
100
AcDbCircle
 62
7
  6
CONTINUOUS
 10
9.1446389585
 20
2.7531349244
 40
0.0097939887
  0
CIRCLE
  5
58B
100
AcDbEntity
  8
0
100
AcDbCircle
 62
7
  6
CONTINUOUS
 10
9.0756333683
 20
2.7245518581
 40
0.0097939865
  0
ARC
  5
58C
100
AcDbEntity
  8
0
100
AcDbCircle
 62
7
  6
CONTINUOUS
 10
9.1959521452
 20
2.6155813842
 40
0.2962616872
100
AcDbArc
 50
218.2505680887
 51
218.6402989922
  0
ARC
  5
58D
100
AcDbEntity
  8
0
100
AcDbCircle
 62
7
  6
CONTINUOUS
 10
9.187437123
 20
2.6084419538
 40
0.2851484928
100
AcDbArc
 50
220.6571055519
 51
222.4197250843
  0
CIRCLE
  5
58E
100
AcDbEntity
  8
0
100
AcDbCircle
 62
7
  6
CONTINUOUS
 10
9.2909821605
 20
2.5949270293
 40
0.0103675255
  0
CIRCLE
  5
58F
100
AcDbEntity
  8
0
100
AcDbCircle
 62
7
  6
CONTINUOUS
 10
9.303044288
 20
2.655546266
 40
0.0103635969
  0
CIRCLE
  5
590
100
AcDbEntity
  8
0
100
AcDbCircle
 62
7
  6
CONTINUOUS
 10
9.2422273198
 20
2.6555461337
 40
0.0097938172
  0
CIRCLE
  5
591
100
AcDbEntity
  8
0
100
AcDbCircle
 62
7
  6
CONTINUOUS
 10
9.2566469664
 20
2.7675517667
 40
0.0103675255
  0
CIRCLE
  5
592
100
AcDbEntity
  8
0
100
AcDbCircle
 62
7
  6
CONTINUOUS
 10
9.2909835124
 20
2.7161622536
 40
0.0103675255
  0
CIRCLE
  5
593
100
AcDbEntity
  8
0
100
AcDbCircle
 62
7
  6
CONTINUOUS
 10
9.2052582181
 20
2.8018894572
 40
0.0103675254
  0
CIRCLE
  5
594
100
AcDbEntity
  8
0
100
AcDbCircle
 62
7
  6
CONTINUOUS
 10
9.2136445603
 20
2.724551882
 40
0.0097939886
  0
ARC
  5
595
100
AcDbEntity
  8
0
100
AcDbCircle
 62
7
  6
CONTINUOUS
 10
6.8861230805
 20
3.6203501404
 40
0.207863879
100
AcDbArc
 50
264.0675080748
 51
264.3347654725
  0
ARC
  5
596
100
AcDbEntity
  8
0
100
AcDbCircle
 62
7
  6
CONTINUOUS
 10
6.8853828506
 20
3.6124262063
 40
0.2004073719
100
AcDbArc
 50
264.0587557384
 51
264.3359679176
  0
SPLINE
  5
597
100
AcDbEntity
  8
0
100
AcDbSpline
 62
7
  6
CONTINUOUS
 70
0
 71
3
 72
90
 73
86
 74
0
 42
0.0000001
 43
0.0000001
 44
0.0000000001
 40
0.0
 40
0.0
 40
0.0
 40
0.0
 40
0.0625016007
 40
0.1250032042
 40
0.1875048037
 40
0.2500064069
 40
0.3125080124
 40
0.3437593587
 40
0.3750107045
 40
0.4062620508
 40
0.4375133975
 40
0.4687647439
 40
0.5000160901
 40
0.5312674366
 40
0.5625187831
 40
0.5781445245
 40
0.5937702658
 40
0.609396007
 40
0.625021748
 40
0.6406474893
 40
0.6562732312
 40
0.6640861106
 40
0.6718989894
 40
0.6797118675
 40
0.687524746
 40
0.6953376263
 40
0.7031505078
 40
0.7109633815
 40
0.7148698193
 40
0.7187762641
 40
0.722682715
 40
0.7265891344
 40
0.72854234
 40
0.7304955744
 40
0.7324488559
 40
0.7344021273
 40
0.7353787298
 40
0.7363552964
 40
0.7373318211
 40
0.7383083517
 40
0.7392849976
 40
0.7397734095
 40
0.7402618954
 40
0.7407503939
 40
0.7412388267
 40
0.7417271365
 40
0.7422153109
 40
0.7427034058
 40
0.7431915549
 40
0.7441682236
 40
0.7446566266
 40
0.7451449754
 40
0.7461215762
 40
0.7470981644
 40
0.7480747689
 40
0.7490513789
 40
0.7500279866
 40
0.7519811885
 40
0.7539343964
 40
0.755887619
 40
0.757840853
 40
0.7597940852
 40
0.7617473055
 40
0.7656536801
 40
0.7695600556
 40
0.7734664501
 40
0.7773728473
 40
0.7812792387
 40
0.789091698
 40
0.7969041589
 40
0.8047166288
 40
0.8125290957
 40
0.820341562
 40
0.8281540292
 40
0.8437764722
 40
0.8593989459
 40
0.8750212986
 40
0.8906436808
 40
0.9062662147
 40
0.9218888249
 40
0.9375110545
 40
0.9531331266
 40
0.9687554921
 40
0.9843778145
 40
1.0
 40
1.0
 40
1.0
 40
1.0
 10
7.2133889752
 20
3.0287962733
 30
0.0
 10
7.2379590277
 20
3.0299208737
 30
0.0
 10
7.28712768
 20
3.0315897198
 30
0.0
 10
7.3609175838
 20
3.0323512483
 30
0.0
 10
7.434705393
 20
3.0313707632
 30
0.0
 10
7.5084491437
 20
3.0286479954
 30
0.0
 10
7.569832467
 20
3.0249286726
 30
0.0
 10
7.618874946
 20
3.0210844146
 30
0.0
 10
7.6556207238
 20
3.0177671575
 30
0.0
 10
7.6923247193
 20
3.01401627
 30
0.0
 10
7.7289818913
 20
3.0098323398
 30
0.0
 10
7.7655871087
 20
3.0052159352
 30
0.0
 10
7.8021352763
 20
3.0001676526
 30
0.0
 10
7.838621275
 20
2.9946882708
 30
0.0
 10
7.868970358
 20
2.9897634744
 30
0.0
 10
7.8932133164
 20
2.9856088745
 30
0.0
 10
7.9113768886
 20
2.9823856355
 30
0.0
 10
7.9295211096
 20
2.9790552285
 30
0.0
 10
7.947645357
 20
2.9756177702
 30
0.0
 10
7.9657489948
 20
2.97207339
 30
0.0
 10
7.9808176775
 20
2.9690307453
 30
0.0
 10
7.99286167
 20
2.966543291
 30
0.0
 10
8.0018891238
 20
2.9646510348
 30
0.0
 10
8.0109109472
 20
2.9627321197
 30
0.0
 10
8.0199270706
 20
2.9607865948
 30
0.0
 10
8.0289374198
 20
2.9588144948
 30
0.0
 10
8.0379419339
 20
2.9568159308
 30
0.0
 10
8.0454406858
 20
2.9551280465
 30
0.0
 10
8.0514366735
 20
2.9537644516
 30
0.0
 10
8.055932191
 20
2.9527352697
 30
0.0
 10
8.0604263203
 20
2.9517000732
 30
0.0
 10
8.064169861
 20
2.9508306658
 30
0.0
 10
8.0671638347
 20
2.9501314624
 30
0.0
 10
8.0694091758
 20
2.9496063309
 30
0.0
 10
8.0716546622
 20
2.9490817083
 30
0.0
 10
8.0735255701
 20
2.9486431059
 30
0.0
 10
8.0750216224
 20
2.9482895061
 30
0.0
 10
8.0761432196
 20
2.9480226728
 30
0.0
 10
8.0772641838
 20
2.9477533151
 30
0.0
 10
8.0783850084
 20
2.9474832474
 30
0.0
 10
8.0793199097
 20
2.9472615618
 30
0.0
 10
8.0800688993
 20
2.9470883121
 30
0.0
 10
8.080631322
 20
2.9469609325
 30
0.0
 10
8.0811938133
 20
2.9468338233
 30
0.0
 10
8.081755788
 20
2.9467047457
 30
0.0
 10
8.0823166499
 20
2.9465714402
 30
0.0
 10
8.0828758099
 20
2.9464316808
 30
0.0
 10
8.0834326487
 20
2.9462831248
 30
0.0
 10
8.0841712844
 20
2.9460707789
 30
0.0
 10
8.0849059894
 20
2.9458448407
 30
0.0
 10
8.0856409534
 20
2.9456195685
 30
0.0
 10
8.086377525
 20
2.945399668
 30
0.0
 10
8.0873006628
 20
2.9451332485
 30
0.0
 10
8.0884101576
 20
2.9448197346
 30
0.0
 10
8.0895203768
 20
2.9445087774
 30
0.0
 10
8.0906316945
 20
2.9442017361
 30
0.0
 10
8.0921150045
 20
2.9437980277
 30
0.0
 10
8.0939725817
 20
2.9433061095
 30
0.0
 10
8.0962072294
 20
2.9427371963
 30
0.0
 10
8.0984470412
 20
2.9421889195
 30
0.0
 10
8.1006917384
 20
2.9416609668
 30
0.0
 10
8.1029410048
 20
2.9411528334
 30
0.0
 10
8.1059458032
 20
2.9405016274
 30
0.0
 10
8.1097124065
 20
2.9397374113
 30
0.0
 10
8.1142479961
 20
2.9389014326
 30
0.0
 10
8.1187978516
 20
2.9381468844
 30
0.0
 10
8.1233604701
 20
2.9374736755
 30
0.0
 10
8.1294588021
 20
2.9366847534
 30
0.0
 10
8.1371067181
 20
2.935902768
 30
0.0
 10
8.1463115803
 20
2.9352928205
 30
0.0
 10
8.1555324209
 20
2.9350118745
 30
0.0
 10
8.164757367
 20
2.935060379
 30
0.0
 10
8.1739748251
 20
2.9354381511
 30
0.0
 10
8.1862373817
 20
2.9363800436
 30
0.0
 10
8.2014913156
 20
2.9383780637
 30
0.0
 10
8.219575787
 20
2.9420755919
 30
0.0
 10
8.2373510993
 20
2.947053206
 30
0.0
 10
8.2547251739
 20
2.9532882022
 30
0.0
 10
8.2716109951
 20
2.9607452058
 30
0.0
 10
8.2879213377
 20
2.9693886337
 30
0.0
 10
8.3035729878
 20
2.9791743308
 30
0.0
 10
8.3184827288
 20
2.9900566759
 30
0.0
 10
8.3325806187
 20
3.0019721482
 30
0.0
 10
8.3457958176
 20
3.0148583818
 30
0.0
 10
8.3539726473
 20
3.0240574619
 30
0.0
 10
8.3578889752
 20
3.0287962733
 30
0.0
  0
SPLINE
  5
598
100
AcDbEntity
  8
0
100
AcDbSpline
 62
7
  6
CONTINUOUS
 70
0
 71
3
 72
90
 73
86
 74
0
 42
0.0000001
 43
0.0000001
 44
0.0000000001
 40
0.0
 40
0.0
 40
0.0
 40
0.0
 40
0.0625016007
 40
0.1250032042
 40
0.1875048037
 40
0.2500064069
 40
0.3125080124
 40
0.3437593587
 40
0.3750107045
 40
0.4062620508
 40
0.4375133975
 40
0.4687647439
 40
0.5000160901
 40
0.5312674366
 40
0.5625187831
 40
0.5781445245
 40
0.5937702658
 40
0.609396007
 40
0.625021748
 40
0.6406474893
 40
0.6562732312
 40
0.6640861106
 40
0.6718989894
 40
0.6797118675
 40
0.687524746
 40
0.6953376263
 40
0.7031505078
 40
0.7109633815
 40
0.7148698193
 40
0.7187762641
 40
0.722682715
 40
0.7265891344
 40
0.72854234
 40
0.7304955744
 40
0.7324488559
 40
0.7344021273
 40
0.7353787298
 40
0.7363552964
 40
0.7373318211
 40
0.7383083517
 40
0.7392849976
 40
0.7397734095
 40
0.7402618954
 40
0.7407503939
 40
0.7412388267
 40
0.7417271365
 40
0.7422153109
 40
0.7427034058
 40
0.7431915549
 40
0.7441682236
 40
0.7446566266
 40
0.7451449754
 40
0.7461215762
 40
0.7470981644
 40
0.7480747689
 40
0.7490513789
 40
0.7500279866
 40
0.7519811885
 40
0.7539343964
 40
0.755887619
 40
0.757840853
 40
0.7597940852
 40
0.7617473055
 40
0.7656536801
 40
0.7695600556
 40
0.7734664501
 40
0.7773728473
 40
0.7812792387
 40
0.789091698
 40
0.7969041589
 40
0.8047166288
 40
0.8125290957
 40
0.820341562
 40
0.8281540292
 40
0.8437764722
 40
0.8593989459
 40
0.8750212986
 40
0.8906436808
 40
0.9062662147
 40
0.9218888249
 40
0.9375110545
 40
0.9531331266
 40
0.9687554921
 40
0.9843778145
 40
1.0
 40
1.0
 40
1.0
 40
1.0
 10
7.2133889752
 20
3.3102962733
 30
0.0
 10
7.2379590277
 20
3.3091716729
 30
0.0
 10
7.28712768
 20
3.3075028268
 30
0.0
 10
7.3609175838
 20
3.3067412982
 30
0.0
 10
7.434705393
 20
3.3077217834
 30
0.0
 10
7.5084491437
 20
3.3104445512
 30
0.0
 10
7.569832467
 20
3.3141638739
 30
0.0
 10
7.618874946
 20
3.3180081319
 30
0.0
 10
7.6556207238
 20
3.3213253891
 30
0.0
 10
7.6923247193
 20
3.3250762766
 30
0.0
 10
7.7289818913
 20
3.3292602068
 30
0.0
 10
7.7655871087
 20
3.3338766114
 30
0.0
 10
7.8021352763
 20
3.338924894
 30
0.0
 10
7.838621275
 20
3.3444042758
 30
0.0
 10
7.868970358
 20
3.3493290722
 30
0.0
 10
7.8932133164
 20
3.353483672
 30
0.0
 10
7.9113768886
 20
3.3567069111
 30
0.0
 10
7.9295211096
 20
3.3600373181
 30
0.0
 10
7.947645357
 20
3.3634747764
 30
0.0
 10
7.9657489948
 20
3.3670191565
 30
0.0
 10
7.9808176775
 20
3.3700618013
 30
0.0
 10
7.99286167
 20
3.3725492556
 30
0.0
 10
8.0018891238
 20
3.3744415118
 30
0.0
 10
8.0109109472
 20
3.3763604269
 30
0.0
 10
8.0199270706
 20
3.3783059517
 30
0.0
 10
8.0289374198
 20
3.3802780518
 30
0.0
 10
8.0379419339
 20
3.3822766158
 30
0.0
 10
8.0454406858
 20
3.3839645001
 30
0.0
 10
8.0514366735
 20
3.385328095
 30
0.0
 10
8.055932191
 20
3.3863572769
 30
0.0
 10
8.0604263203
 20
3.3873924734
 30
0.0
 10
8.064169861
 20
3.3882618808
 30
0.0
 10
8.0671638347
 20
3.3889610842
 30
0.0
 10
8.0694091758
 20
3.3894862157
 30
0.0
 10
8.0716546622
 20
3.3900108383
 30
0.0
 10
8.0735255701
 20
3.3904494407
 30
0.0
 10
8.0750216224
 20
3.3908030405
 30
0.0
 10
8.0761432196
 20
3.3910698737
 30
0.0
 10
8.0772641838
 20
3.3913392315
 30
0.0
 10
8.0783850084
 20
3.3916092991
 30
0.0
 10
8.0793199097
 20
3.3918309848
 30
0.0
 10
8.0800688993
 20
3.3920042345
 30
0.0
 10
8.080631322
 20
3.3921316141
 30
0.0
 10
8.0811938133
 20
3.3922587233
 30
0.0
 10
8.081755788
 20
3.3923878009
 30
0.0
 10
8.0823166499
 20
3.3925211064
 30
0.0
 10
8.0828758099
 20
3.3926608658
 30
0.0
 10
8.0834326487
 20
3.3928094218
 30
0.0
 10
8.0841712844
 20
3.3930217677
 30
0.0
 10
8.0849059894
 20
3.3932477059
 30
0.0
 10
8.0856409534
 20
3.3934729781
 30
0.0
 10
8.086377525
 20
3.3936928786
 30
0.0
 10
8.0873006628
 20
3.393959298
 30
0.0
 10
8.0884101576
 20
3.394272812
 30
0.0
 10
8.0895203768
 20
3.3945837692
 30
0.0
 10
8.0906316945
 20
3.3948908105
 30
0.0
 10
8.0921150045
 20
3.3952945189
 30
0.0
 10
8.0939725817
 20
3.3957864371
 30
0.0
 10
8.0962072294
 20
3.3963553503
 30
0.0
 10
8.0984470412
 20
3.3969036271
 30
0.0
 10
8.1006917384
 20
3.3974315798
 30
0.0
 10
8.1029410048
 20
3.3979397132
 30
0.0
 10
8.1059458032
 20
3.3985909192
 30
0.0
 10
8.1097124065
 20
3.3993551353
 30
0.0
 10
8.1142479961
 20
3.4001911139
 30
0.0
 10
8.1187978516
 20
3.4009456622
 30
0.0
 10
8.1233604701
 20
3.4016188711
 30
0.0
 10
8.1294588021
 20
3.4024077932
 30
0.0
 10
8.1371067181
 20
3.4031897786
 30
0.0
 10
8.1463115803
 20
3.4037997261
 30
0.0
 10
8.1555324209
 20
3.4040806721
 30
0.0
 10
8.164757367
 20
3.4040321676
 30
0.0
 10
8.1739748251
 20
3.4036543955
 30
0.0
 10
8.1862373817
 20
3.402712503
 30
0.0
 10
8.2014913156
 20
3.4007144829
 30
0.0
 10
8.219575787
 20
3.3970169546
 30
0.0
 10
8.2373510993
 20
3.3920393406
 30
0.0
 10
8.2547251739
 20
3.3858043444
 30
0.0
 10
8.2716109951
 20
3.3783473408
 30
0.0
 10
8.2879213377
 20
3.3697039129
 30
0.0
 10
8.3035729878
 20
3.3599182158
 30
0.0
 10
8.3184827288
 20
3.3490358707
 30
0.0
 10
8.3325806187
 20
3.3371203984
 30
0.0
 10
8.3457958176
 20
3.3242341648
 30
0.0
 10
8.3539726473
 20
3.3150350847
 30
0.0
 10
8.3578889752
 20
3.3102962733
 30
0.0
  0
SPLINE
  5
599
100
AcDbEntity
  8
0
100
AcDbSpline
 62
7
  6
CONTINUOUS
 70
0
 71
3
 72
90
 73
86
 74
0
 42
0.0000001
 43
0.0000001
 44
0.0000000001
 40
0.0
 40
0.0
 40
0.0
 40
0.0
 40
0.0625016007
 40
0.1250032042
 40
0.1875048037
 40
0.2500064069
 40
0.3125080124
 40
0.3437593587
 40
0.3750107045
 40
0.4062620508
 40
0.4375133975
 40
0.4687647439
 40
0.5000160901
 40
0.5312674366
 40
0.5625187831
 40
0.5781445245
 40
0.5937702658
 40
0.609396007
 40
0.625021748
 40
0.6406474893
 40
0.6562732312
 40
0.6640861106
 40
0.6718989894
 40
0.6797118675
 40
0.687524746
 40
0.6953376263
 40
0.7031505078
 40
0.7109633815
 40
0.7148698193
 40
0.7187762641
 40
0.722682715
 40
0.7265891344
 40
0.72854234
 40
0.7304955744
 40
0.7324488559
 40
0.7344021273
 40
0.7353787298
 40
0.7363552964
 40
0.7373318211
 40
0.7383083517
 40
0.7392849976
 40
0.7397734095
 40
0.7402618954
 40
0.7407503939
 40
0.7412388267
 40
0.7417271365
 40
0.7422153109
 40
0.7427034058
 40
0.7431915549
 40
0.7441682236
 40
0.7446566266
 40
0.7451449754
 40
0.7461215762
 40
0.7470981644
 40
0.7480747689
 40
0.7490513789
 40
0.7500279866
 40
0.7519811885
 40
0.7539343964
 40
0.755887619
 40
0.757840853
 40
0.7597940852
 40
0.7617473055
 40
0.7656536801
 40
0.7695600556
 40
0.7734664501
 40
0.7773728473
 40
0.7812792387
 40
0.789091698
 40
0.7969041589
 40
0.8047166288
 40
0.8125290957
 40
0.820341562
 40
0.8281540292
 40
0.8437764722
 40
0.8593989459
 40
0.8750212986
 40
0.8906436808
 40
0.9062662147
 40
0.9218888249
 40
0.9375110545
 40
0.9531331266
 40
0.9687554921
 40
0.9843778145
 40
1.0
 40
1.0
 40
1.0
 40
1.0
 10
2.3258889752
 20
3.0287962733
 30
0.0
 10
2.3013189226
 20
3.0299208737
 30
0.0
 10
2.2521502703
 20
3.0315897198
 30
0.0
 10
2.1783603665
 20
3.0323512483
 30
0.0
 10
2.1045725573
 20
3.0313707632
 30
0.0
 10
2.0308288067
 20
3.0286479954
 30
0.0
 10
1.9694454833
 20
3.0249286726
 30
0.0
 10
1.9204030043
 20
3.0210844146
 30
0.0
 10
1.8836572265
 20
3.0177671575
 30
0.0
 10
1.8469532311
 20
3.01401627
 30
0.0
 10
1.810296059
 20
3.0098323398
 30
0.0
 10
1.7736908416
 20
3.0052159352
 30
0.0
 10
1.737142674
 20
3.0001676526
 30
0.0
 10
1.7006566753
 20
2.9946882708
 30
0.0
 10
1.6703075923
 20
2.9897634744
 30
0.0
 10
1.6460646339
 20
2.9856088745
 30
0.0
 10
1.6279010617
 20
2.9823856355
 30
0.0
 10
1.6097568407
 20
2.9790552285
 30
0.0
 10
1.5916325933
 20
2.9756177702
 30
0.0
 10
1.5735289555
 20
2.97207339
 30
0.0
 10
1.5584602728
 20
2.9690307453
 30
0.0
 10
1.5464162803
 20
2.966543291
 30
0.0
 10
1.5373888265
 20
2.9646510348
 30
0.0
 10
1.5283670031
 20
2.9627321197
 30
0.0
 10
1.5193508797
 20
2.9607865948
 30
0.0
 10
1.5103405305
 20
2.9588144948
 30
0.0
 10
1.5013360164
 20
2.9568159308
 30
0.0
 10
1.4938372645
 20
2.9551280465
 30
0.0
 10
1.4878412768
 20
2.9537644516
 30
0.0
 10
1.4833457593
 20
2.9527352697
 30
0.0
 10
1.47885163
 20
2.9517000732
 30
0.0
 10
1.4751080894
 20
2.9508306658
 30
0.0
 10
1.4721141156
 20
2.9501314624
 30
0.0
 10
1.4698687745
 20
2.9496063309
 30
0.0
 10
1.4676232882
 20
2.9490817083
 30
0.0
 10
1.4657523802
 20
2.9486431059
 30
0.0
 10
1.4642563279
 20
2.9482895061
 30
0.0
 10
1.4631347307
 20
2.9480226728
 30
0.0
 10
1.4620137665
 20
2.9477533151
 30
0.0
 10
1.4608929419
 20
2.9474832474
 30
0.0
 10
1.4599580406
 20
2.9472615618
 30
0.0
 10
1.459209051
 20
2.9470883121
 30
0.0
 10
1.4586466283
 20
2.9469609325
 30
0.0
 10
1.458084137
 20
2.9468338233
 30
0.0
 10
1.4575221623
 20
2.9467047457
 30
0.0
 10
1.4569613004
 20
2.9465714402
 30
0.0
 10
1.4564021404
 20
2.9464316808
 30
0.0
 10
1.4558453016
 20
2.9462831248
 30
0.0
 10
1.4551066659
 20
2.9460707789
 30
0.0
 10
1.4543719609
 20
2.9458448407
 30
0.0
 10
1.4536369969
 20
2.9456195685
 30
0.0
 10
1.4529004253
 20
2.945399668
 30
0.0
 10
1.4519772876
 20
2.9451332485
 30
0.0
 10
1.4508677927
 20
2.9448197346
 30
0.0
 10
1.4497575735
 20
2.9445087774
 30
0.0
 10
1.4486462559
 20
2.9442017361
 30
0.0
 10
1.4471629458
 20
2.9437980277
 30
0.0
 10
1.4453053686
 20
2.9433061095
 30
0.0
 10
1.443070721
 20
2.9427371963
 30
0.0
 10
1.4408309091
 20
2.9421889195
 30
0.0
 10
1.4385862119
 20
2.9416609668
 30
0.0
 10
1.4363369455
 20
2.9411528334
 30
0.0
 10
1.4333321472
 20
2.9405016274
 30
0.0
 10
1.4295655438
 20
2.9397374113
 30
0.0
 10
1.4250299542
 20
2.9389014326
 30
0.0
 10
1.4204800987
 20
2.9381468844
 30
0.0
 10
1.4159174802
 20
2.9374736755
 30
0.0
 10
1.4098191483
 20
2.9366847534
 30
0.0
 10
1.4021712322
 20
2.935902768
 30
0.0
 10
1.3929663701
 20
2.9352928205
 30
0.0
 10
1.3837455294
 20
2.9350118745
 30
0.0
 10
1.3745205833
 20
2.935060379
 30
0.0
 10
1.3653031252
 20
2.9354381511
 30
0.0
 10
1.3530405686
 20
2.9363800436
 30
0.0
 10
1.3377866347
 20
2.9383780637
 30
0.0
 10
1.3197021633
 20
2.9420755919
 30
0.0
 10
1.301926851
 20
2.947053206
 30
0.0
 10
1.2845527764
 20
2.9532882022
 30
0.0
 10
1.2676669552
 20
2.9607452058
 30
0.0
 10
1.2513566126
 20
2.9693886337
 30
0.0
 10
1.2357049625
 20
2.9791743308
 30
0.0
 10
1.2207952215
 20
2.9900566759
 30
0.0
 10
1.2066973316
 20
3.0019721482
 30
0.0
 10
1.1934821327
 20
3.0148583818
 30
0.0
 10
1.185305303
 20
3.0240574619
 30
0.0
 10
1.1813889752
 20
3.0287962733
 30
0.0
  0
SPLINE
  5
59A
100
AcDbEntity
  8
0
100
AcDbSpline
 62
7
  6
CONTINUOUS
 70
0
 71
3
 72
90
 73
86
 74
0
 42
0.0000001
 43
0.0000001
 44
0.0000000001
 40
0.0
 40
0.0
 40
0.0
 40
0.0
 40
0.0625016007
 40
0.1250032042
 40
0.1875048037
 40
0.2500064069
 40
0.3125080124
 40
0.3437593587
 40
0.3750107045
 40
0.4062620508
 40
0.4375133975
 40
0.4687647439
 40
0.5000160901
 40
0.5312674366
 40
0.5625187831
 40
0.5781445245
 40
0.5937702658
 40
0.609396007
 40
0.625021748
 40
0.6406474893
 40
0.6562732312
 40
0.6640861106
 40
0.6718989894
 40
0.6797118675
 40
0.687524746
 40
0.6953376263
 40
0.7031505078
 40
0.7109633815
 40
0.7148698193
 40
0.7187762641
 40
0.722682715
 40
0.7265891344
 40
0.72854234
 40
0.7304955744
 40
0.7324488559
 40
0.7344021273
 40
0.7353787298
 40
0.7363552964
 40
0.7373318211
 40
0.7383083517
 40
0.7392849976
 40
0.7397734095
 40
0.7402618954
 40
0.7407503939
 40
0.7412388267
 40
0.7417271365
 40
0.7422153109
 40
0.7427034058
 40
0.7431915549
 40
0.7441682236
 40
0.7446566266
 40
0.7451449754
 40
0.7461215762
 40
0.7470981644
 40
0.7480747689
 40
0.7490513789
 40
0.7500279866
 40
0.7519811885
 40
0.7539343964
 40
0.755887619
 40
0.757840853
 40
0.7597940852
 40
0.7617473055
 40
0.7656536801
 40
0.7695600556
 40
0.7734664501
 40
0.7773728473
 40
0.7812792387
 40
0.789091698
 40
0.7969041589
 40
0.8047166288
 40
0.8125290957
 40
0.820341562
 40
0.8281540292
 40
0.8437764722
 40
0.8593989459
 40
0.8750212986
 40
0.8906436808
 40
0.9062662147
 40
0.9218888249
 40
0.9375110545
 40
0.9531331266
 40
0.9687554921
 40
0.9843778145
 40
1.0
 40
1.0
 40
1.0
 40
1.0
 10
2.3258889752
 20
3.3102962733
 30
0.0
 10
2.3013189226
 20
3.3091716729
 30
0.0
 10
2.2521502703
 20
3.3075028268
 30
0.0
 10
2.1783603665
 20
3.3067412982
 30
0.0
 10
2.1045725573
 20
3.3077217834
 30
0.0
 10
2.0308288067
 20
3.3104445512
 30
0.0
 10
1.9694454833
 20
3.3141638739
 30
0.0
 10
1.9204030043
 20
3.3180081319
 30
0.0
 10
1.8836572265
 20
3.3213253891
 30
0.0
 10
1.8469532311
 20
3.3250762766
 30
0.0
 10
1.810296059
 20
3.3292602068
 30
0.0
 10
1.7736908416
 20
3.3338766114
 30
0.0
 10
1.737142674
 20
3.338924894
 30
0.0
 10
1.7006566753
 20
3.3444042758
 30
0.0
 10
1.6703075923
 20
3.3493290722
 30
0.0
 10
1.6460646339
 20
3.353483672
 30
0.0
 10
1.6279010617
 20
3.3567069111
 30
0.0
 10
1.6097568407
 20
3.3600373181
 30
0.0
 10
1.5916325933
 20
3.3634747764
 30
0.0
 10
1.5735289555
 20
3.3670191565
 30
0.0
 10
1.5584602728
 20
3.3700618013
 30
0.0
 10
1.5464162803
 20
3.3725492556
 30
0.0
 10
1.5373888265
 20
3.3744415118
 30
0.0
 10
1.5283670031
 20
3.3763604269
 30
0.0
 10
1.5193508797
 20
3.3783059517
 30
0.0
 10
1.5103405305
 20
3.3802780518
 30
0.0
 10
1.5013360164
 20
3.3822766158
 30
0.0
 10
1.4938372645
 20
3.3839645001
 30
0.0
 10
1.4878412768
 20
3.385328095
 30
0.0
 10
1.4833457593
 20
3.3863572769
 30
0.0
 10
1.47885163
 20
3.3873924734
 30
0.0
 10
1.4751080894
 20
3.3882618808
 30
0.0
 10
1.4721141156
 20
3.3889610842
 30
0.0
 10
1.4698687745
 20
3.3894862157
 30
0.0
 10
1.4676232882
 20
3.3900108383
 30
0.0
 10
1.4657523802
 20
3.3904494407
 30
0.0
 10
1.4642563279
 20
3.3908030405
 30
0.0
 10
1.4631347307
 20
3.3910698737
 30
0.0
 10
1.4620137665
 20
3.3913392315
 30
0.0
 10
1.4608929419
 20
3.3916092991
 30
0.0
 10
1.4599580406
 20
3.3918309848
 30
0.0
 10
1.459209051
 20
3.3920042345
 30
0.0
 10
1.4586466283
 20
3.3921316141
 30
0.0
 10
1.458084137
 20
3.3922587233
 30
0.0
 10
1.4575221623
 20
3.3923878009
 30
0.0
 10
1.4569613004
 20
3.3925211064
 30
0.0
 10
1.4564021404
 20
3.3926608658
 30
0.0
 10
1.4558453016
 20
3.3928094218
 30
0.0
 10
1.4551066659
 20
3.3930217677
 30
0.0
 10
1.4543719609
 20
3.3932477059
 30
0.0
 10
1.4536369969
 20
3.3934729781
 30
0.0
 10
1.4529004253
 20
3.3936928786
 30
0.0
 10
1.4519772876
 20
3.393959298
 30
0.0
 10
1.4508677927
 20
3.394272812
 30
0.0
 10
1.4497575735
 20
3.3945837692
 30
0.0
 10
1.4486462559
 20
3.3948908105
 30
0.0
 10
1.4471629458
 20
3.3952945189
 30
0.0
 10
1.4453053686
 20
3.3957864371
 30
0.0
 10
1.443070721
 20
3.3963553503
 30
0.0
 10
1.4408309091
 20
3.3969036271
 30
0.0
 10
1.4385862119
 20
3.3974315798
 30
0.0
 10
1.4363369455
 20
3.3979397132
 30
0.0
 10
1.4333321472
 20
3.3985909192
 30
0.0
 10
1.4295655438
 20
3.3993551353
 30
0.0
 10
1.4250299542
 20
3.4001911139
 30
0.0
 10
1.4204800987
 20
3.4009456622
 30
0.0
 10
1.4159174802
 20
3.4016188711
 30
0.0
 10
1.4098191483
 20
3.4024077932
 30
0.0
 10
1.4021712322
 20
3.4031897786
 30
0.0
 10
1.3929663701
 20
3.4037997261
 30
0.0
 10
1.3837455294
 20
3.4040806721
 30
0.0
 10
1.3745205833
 20
3.4040321676
 30
0.0
 10
1.3653031252
 20
3.4036543955
 30
0.0
 10
1.3530405686
 20
3.402712503
 30
0.0
 10
1.3377866347
 20
3.4007144829
 30
0.0
 10
1.3197021633
 20
3.3970169546
 30
0.0
 10
1.301926851
 20
3.3920393406
 30
0.0
 10
1.2845527764
 20
3.3858043444
 30
0.0
 10
1.2676669552
 20
3.3783473408
 30
0.0
 10
1.2513566126
 20
3.3697039129
 30
0.0
 10
1.2357049625
 20
3.3599182158
 30
0.0
 10
1.2207952215
 20
3.3490358707
 30
0.0
 10
1.2066973316
 20
3.3371203984
 30
0.0
 10
1.1934821327
 20
3.3242341648
 30
0.0
 10
1.185305303
 20
3.3150350847
 30
0.0
 10
1.1813889752
 20
3.3102962733
 30
0.0
  0
LINE
  5
59B
100
AcDbEntity
  8
0
100
AcDbLine
 62
7
  6
CONTINUOUS
 10
2.807088223
 20
3.4190673497
 11
2.7912297074
 21
3.4189291499
  0
LINE
  5
59C
100
AcDbEntity
  8
0
100
AcDbLine
 62
7
  6
CONTINUOUS
 10
2.7912297074
 20
3.4189291499
 11
2.7902402144
 21
3.4189267635
  0
LINE
  5
59D
100
AcDbEntity
  8
0
100
AcDbLine
 62
7
  6
CONTINUOUS
 10
2.7902402144
 20
3.4189267635
 11
2.7473736748
 21
3.4188789791
  0
LINE
  5
59E
100
AcDbEntity
  8
0
100
AcDbLine
 62
7
  6
CONTINUOUS
 10
2.7473736748
 20
3.4188789791
 11
2.7306980407
 21
3.4189909153
  0
LINE
  5
59F
100
AcDbEntity
  8
0
100
AcDbLine
 62
7
  6
CONTINUOUS
 10
2.6903889752
 20
3.4159692156
 11
2.6899011748
 21
3.4159278241
  0
LINE
  5
5A0
100
AcDbEntity
  8
0
100
AcDbLine
 62
7
  6
CONTINUOUS
 10
2.6899011748
 20
3.4159278241
 11
2.6873889752
 21
3.4156686746
  0
LINE
  5
5A1
100
AcDbEntity
  8
0
100
AcDbLine
 62
7
  6
CONTINUOUS
 10
2.6683889752
 20
3.4134042043
 11
2.6653889752
 21
3.4129894284
  0
LINE
  5
5A2
100
AcDbEntity
  8
0
100
AcDbLine
 62
7
  6
CONTINUOUS
 10
6.7670813249
 20
3.4199676878
 11
6.7511053329
 21
3.4190045894
  0
LINE
  5
5A3
100
AcDbEntity
  8
0
100
AcDbLine
 62
7
  6
CONTINUOUS
 10
6.7511053329
 20
3.4190045894
 11
6.7500973551
 21
3.4189501172
  0
LINE
  5
5A4
100
AcDbEntity
  8
0
100
AcDbLine
 62
7
  6
CONTINUOUS
 10
6.7077175417
 20
3.4167098985
 11
6.7067161079
 21
3.4166581663
  0
LINE
  5
5A5
100
AcDbEntity
  8
0
100
AcDbLine
 62
7
  6
CONTINUOUS
 10
6.7067161079
 20
3.4166581663
 11
6.6907210868
 21
3.4159407016
  0
LINE
  5
5A6
100
AcDbEntity
  8
0
100
AcDbLine
 62
7
  6
CONTINUOUS
 10
6.6791389752
 20
3.414589612
 11
6.6064503124
 21
3.4021207747
  0
SPLINE
  5
5A7
100
AcDbEntity
  8
0
100
AcDbSpline
 62
7
  6
CONTINUOUS
 70
0
 71
3
 72
46
 73
42
 74
0
 42
0.0000001
 43
0.0000001
 44
0.0000000001
 40
0.0
 40
0.0
 40
0.0
 40
0.0
 40
0.0000190087
 40
0.0000427696
 40
0.0000760349
 40
0.0001710786
 40
0.0003041396
 40
0.0004752182
 40
0.0006843142
 40
0.0009314263
 40
0.0012165379
 40
0.0019006543
 40
0.002736452
 40
0.0037237193
 40
0.0048622446
 40
0.0061518166
 40
0.0075922196
 40
0.0109241775
 40
0.0148549277
 40
0.0193811658
 40
0.0244992963
 40
0.030204751
 40
0.036492765
 40
0.043358444
 40
0.0587996293
 40
0.0764797574
 40
0.0963447928
 40
0.1183368434
 40
0.1423940262
 40
0.1684517363
 40
0.1964432066
 40
0.2262998074
 40
0.2913286173
 40
0.3629728638
 40
0.4406599554
 40
0.5238110879
 40
0.6118365142
 40
0.7041268829
 40
0.8000435447
 40
0.8989072749
 40
1.0
 40
1.0
 40
1.0
 40
1.0
 10
7.048388966
 20
3.2680462639
 30
0.0
 10
7.0483885898
 20
3.268045881
 30
0.0
 10
7.0483884991
 20
3.2680445476
 30
0.0
 10
7.0483876228
 20
3.2680426233
 30
0.0
 10
7.0483862845
 20
3.2680385163
 30
0.0
 10
7.0483837579
 20
3.2680315987
 30
0.0
 10
7.0483800366
 20
3.2680209478
 30
0.0
 10
7.0483751967
 20
3.2680072883
 30
0.0
 10
7.0483693017
 20
3.2679905806
 30
0.0
 10
7.0483623279
 20
3.2679708401
 30
0.0
 10
7.0483508897
 20
3.2679384481
 30
0.0
 10
7.0483339191
 20
3.267890378
 30
0.0
 10
7.0483103608
 20
3.2678236036
 30
0.0
 10
7.0482825509
 20
3.2677447205
 30
0.0
 10
7.0482505033
 20
3.2676537427
 30
0.0
 10
7.0482142319
 20
3.2675506844
 30
0.0
 10
7.0481574394
 20
3.2673891765
 30
0.0
 10
7.0480760204
 20
3.2671572583
 30
0.0
 10
7.047966
 20
3.266843016
 30
0.0
 10
7.047839657
 20
3.2664810408
 30
0.0
 10
7.0476972274
 20
3.2660715938
 30
0.0
 10
7.0475390171
 20
3.2656149557
 30
0.0
 10
7.0473653405
 20
3.2651114438
 30
0.0
 10
7.0471031285
 20
3.2643476157
 30
0.0
 10
7.0467391923
 20
3.2632785418
 30
0.0
 10
7.0462623222
 20
3.261860103
 30
0.0
 10
7.0457334696
 20
3.2602639688
 30
0.0
 10
7.0451566386
 20
3.2584940221
 30
0.0
 10
7.0445362095
 20
3.2565543648
 30
0.0
 10
7.043876824
 20
3.2544493138
 30
0.0
 10
7.0431833573
 20
3.2521833505
 30
0.0
 10
7.0421915366
 20
3.248857765
 30
0.0
 10
7.0409009451
 20
3.2443349065
 30
0.0
 10
7.039342689
 20
3.2384845253
 30
0.0
 10
7.0377793978
 20
3.2321070345
 30
0.0
 10
7.0362577258
 20
3.2252446323
 30
0.0
 10
7.0348243631
 20
3.2179422936
 30
0.0
 10
7.0335249476
 20
3.2102488709
 30
0.0
 10
7.0324026776
 20
3.2022182198
 30
0.0
 10
7.0314965514
 20
3.1939101194
 30
0.0
 10
7.0310622264
 20
3.1882784704
 30
0.0
 10
7.0308889752
 20
3.1854286535
 30
0.0
  0
SPLINE
  5
5A8
100
AcDbEntity
  8
0
100
AcDbSpline
 62
7
  6
CONTINUOUS
 70
0
 71
3
 72
21
 73
17
 74
0
 42
0.0000001
 43
0.0000001
 44
0.0000000001
 40
0.0
 40
0.0
 40
0.0
 40
0.0
 40
0.1155171546
 40
0.2335866917
 40
0.2936712242
 40
0.3544827524
 40
0.4160416557
 40
0.4783597998
 40
0.5414366369
 40
0.6052553533
 40
0.6697794941
 40
0.7349488221
 40
0.800677956
 40
0.8668556466
 40
0.933346697
 40
1.0
 40
1.0
 40
1.0
 40
1.0
 10
9.3091669571
 20
2.4126737591
 30
0.0
 10
9.3042457042
 20
2.4074646746
 30
0.0
 10
9.2938848457
 20
2.3973097544
 30
0.0
 10
9.2798562558
 20
2.3856503326
 30
0.0
 10
9.2678533514
 20
2.3769429777
 30
0.0
 10
9.2583928731
 20
2.3707214948
 30
0.0
 10
9.2485272115
 20
2.3648872733
 30
0.0
 10
9.2382602826
 20
2.3594825545
 30
0.0
 10
9.2276020614
 20
2.3545524219
 30
0.0
 10
9.2165690906
 20
2.3501455797
 30
0.0
 10
9.2051879485
 20
2.3463078336
 30
0.0
 10
9.1934929746
 20
2.3430894851
 30
0.0
 10
9.1815307375
 20
2.3405318152
 30
0.0
 10
9.1693564119
 20
2.3386750052
 30
0.0
 10
9.1570355963
 20
2.3375496182
 30
0.0
 10
9.1487738211
 20
2.3372963706
 30
0.0
 10
9.1446389752
 20
2.3372962733
 30
0.0
  0
LINE
  5
5A9
100
AcDbEntity
  8
0
100
AcDbLine
 62
7
  6
CONTINUOUS
 10
2.7103889752
 20
3.4175430535
 11
2.7176998806
 21
3.4177170075
  0
LINE
  5
5AA
100
AcDbEntity
  8
0
100
AcDbLine
 62
7
  6
CONTINUOUS
 10
2.6821389752
 20
3.4144890861
 11
2.6903889752
 21
3.4157488642
  0
SPLINE
  5
5AB
100
AcDbEntity
  8
0
100
AcDbSpline
 62
7
  6
CONTINUOUS
 70
0
 71
3
 72
46
 73
42
 74
0
 42
0.0000001
 43
0.0000001
 44
0.0000000001
 40
0.0
 40
0.0
 40
0.0
 40
0.0
 40
0.0000190087
 40
0.0000427697
 40
0.0000760349
 40
0.0001710786
 40
0.0003041397
 40
0.0004752182
 40
0.0006843142
 40
0.0009314262
 40
0.0012165379
 40
0.0019006543
 40
0.0027364519
 40
0.0037237192
 40
0.0048622446
 40
0.0061518165
 40
0.0075922196
 40
0.0109241775
 40
0.0148549276
 40
0.0193811657
 40
0.0244992962
 40
0.0302047508
 40
0.0364927648
 40
0.0433584437
 40
0.0587996291
 40
0.0764797572
 40
0.0963447925
 40
0.1183368432
 40
0.142394026
 40
0.1684517361
 40
0.1964432065
 40
0.2262998072
 40
0.2913286167
 40
0.3629728633
 40
0.440659955
 40
0.5238110877
 40
0.6118365141
 40
0.7041268828
 40
0.8000435446
 40
0.8989072749
 40
1.0
 40
1.0
 40
1.0
 40
1.0
 10
2.4908889843
 20
3.0710462827
 30
0.0
 10
2.4908893585
 20
3.0710466676
 30
0.0
 10
2.4908894524
 20
3.0710479979
 30
0.0
 10
2.490890327
 20
3.0710499237
 30
0.0
 10
2.4908916663
 20
3.0710540298
 30
0.0
 10
2.4908941922
 20
3.0710609481
 30
0.0
 10
2.4908979138
 20
3.0710715987
 30
0.0
 10
2.4909027536
 20
3.0710852584
 30
0.0
 10
2.4909086486
 20
3.071101966
 30
0.0
 10
2.4909156224
 20
3.0711217064
 30
0.0
 10
2.4909270606
 20
3.0711540985
 30
0.0
 10
2.4909440312
 20
3.0712021685
 30
0.0
 10
2.4909675895
 20
3.071268943
 30
0.0
 10
2.4909953994
 20
3.0713478261
 30
0.0
 10
2.491027447
 20
3.0714388039
 30
0.0
 10
2.4910637184
 20
3.0715418622
 30
0.0
 10
2.4911205109
 20
3.0717033701
 30
0.0
 10
2.4912019299
 20
3.0719352883
 30
0.0
 10
2.4913119503
 20
3.0722495306
 30
0.0
 10
2.4914382933
 20
3.0726115058
 30
0.0
 10
2.4915807229
 20
3.0730209528
 30
0.0
 10
2.4917389332
 20
3.0734775909
 30
0.0
 10
2.4919126098
 20
3.0739811028
 30
0.0
 10
2.4921748219
 20
3.0747449308
 30
0.0
 10
2.492538758
 20
3.0758140047
 30
0.0
 10
2.4930156281
 20
3.0772324436
 30
0.0
 10
2.4935444807
 20
3.0788285778
 30
0.0
 10
2.4941213117
 20
3.0805985244
 30
0.0
 10
2.4947417408
 20
3.0825381817
 30
0.0
 10
2.4954011263
 20
3.0846432328
 30
0.0
 10
2.496094593
 20
3.086909196
 30
0.0
 10
2.4970864137
 20
3.0902347816
 30
0.0
 10
2.4983770052
 20
3.0947576401
 30
0.0
 10
2.4999352613
 20
3.1006080213
 30
0.0
 10
2.5014985525
 20
3.106985512
 30
0.0
 10
2.5030202245
 20
3.1138479142
 30
0.0
 10
2.5044535872
 20
3.121150253
 30
0.0
 10
2.5057530027
 20
3.1288436757
 30
0.0
 10
2.5068752727
 20
3.1368743268
 30
0.0
 10
2.5077813989
 20
3.1451824272
 30
0.0
 10
2.508215724
 20
3.1508140762
 30
0.0
 10
2.5083889752
 20
3.1536638931
 30
0.0
  0
LINE
  5
5AC
100
AcDbEntity
  8
0
100
AcDbLine
 62
7
  6
CONTINUOUS
 10
2.6653889752
 20
3.4127682222
 11
2.6726970737
 21
3.4133710739
  0
LINE
  5
5AD
100
AcDbEntity
  8
0
100
AcDbLine
 62
7
  6
CONTINUOUS
 10
2.6371389752
 20
3.4080315881
 11
2.6453889752
 21
3.4097874047
  0
LINE
  5
5AE
100
AcDbEntity
  8
0
100
AcDbLine
 62
7
  6
CONTINUOUS
 10
2.8658889752
 20
3.4139070689
 11
2.8751389752
 21
3.4122292788
  0
LINE
  5
5AF
100
AcDbEntity
  8
0
100
AcDbLine
 62
7
  6
CONTINUOUS
 10
2.8386389752
 20
3.4163673655
 11
2.8397324193
 21
3.4162946221
  0
LINE
  5
5B0
100
AcDbEntity
  8
0
100
AcDbLine
 62
7
  6
CONTINUOUS
 10
2.8397324193
 20
3.4162946221
 11
2.8478889752
 21
3.4159461046
  0
LINE
  5
5B1
100
AcDbEntity
  8
0
100
AcDbLine
 62
7
  6
CONTINUOUS
 10
6.9288578872
 20
3.4029567998
 11
6.9298997683
 21
3.4027903831
  0
SPLINE
  5
5B2
100
AcDbEntity
  8
0
100
AcDbSpline
 62
7
  6
CONTINUOUS
 70
0
 71
3
 72
9
 73
5
 74
0
 42
0.0000001
 43
0.0000001
 44
0.0000000001
 40
0.0
 40
0.0
 40
0.0
 40
0.0
 40
0.3151789492
 40
1.0
 40
1.0
 40
1.0
 40
1.0
 10
6.9298997683
 20
3.4027903831
 30
0.0
 10
6.9299054053
 20
3.4027893783
 30
0.0
 10
6.9299232823
 20
3.402786148
 30
0.0
 10
6.9299411482
 20
3.4027828335
 30
0.0
 10
6.9299533202
 20
3.4027802595
 30
0.0
  0
LINE
  5
5B3
100
AcDbEntity
  8
0
100
AcDbLine
 62
7
  6
CONTINUOUS
 10
6.8877799153
 20
3.4104989923
 11
6.8907799153
 21
3.4099164647
  0
LINE
  5
5B4
100
AcDbEntity
  8
0
100
AcDbLine
 62
7
  6
CONTINUOUS
 10
6.9047113692
 20
3.407580568
 11
6.9063852963
 21
3.4072846259
  0
LINE
  5
5B5
100
AcDbEntity
  8
0
100
AcDbLine
 62
7
  6
CONTINUOUS
 10
6.9063852963
 20
3.4072846259
 11
6.9072197968
 21
3.4071374212
  0
LINE
  5
5B6
100
AcDbEntity
  8
0
100
AcDbLine
 62
7
  6
CONTINUOUS
 10
6.9072197968
 20
3.4071374212
 11
6.9274789781
 21
3.4036792015
  0
SPLINE
  5
5B7
100
AcDbEntity
  8
0
100
AcDbSpline
 62
7
  6
CONTINUOUS
 70
0
 71
3
 72
19
 73
15
 74
0
 42
0.0000001
 43
0.0000001
 44
0.0000000001
 40
0.0
 40
0.0
 40
0.0
 40
0.0
 40
0.038831012
 40
0.1480862428
 40
0.2237839653
 40
0.3098410999
 40
0.4030762434
 40
0.4999998658
 40
0.596923485
 40
0.6901585475
 40
0.7762156666
 40
0.8519134588
 40
0.961168989
 40
1.0
 40
1.0
 40
1.0
 40
1.0
 10
6.4026648204
 20
2.0152178911
 30
0.0
 10
6.4032225298
 20
2.0104716179
 30
0.0
 10
6.4052751317
 20
1.9923621207
 30
0.0
 10
6.4079402992
 20
1.9649468742
 30
0.0
 10
6.4104709428
 20
1.9316879264
 30
0.0
 10
6.4122595343
 20
1.9003547033
 30
0.0
 10
6.4134635156
 20
1.8663788197
 30
0.0
 10
6.4138882848
 20
1.8310463233
 30
0.0
 10
6.4134635175
 20
1.7957138367
 30
0.0
 10
6.4122595403
 20
1.7617379653
 30
0.0
 10
6.4104709511
 20
1.7304047454
 30
0.0
 10
6.4079403067
 20
1.697145754
 30
0.0
 10
6.4052751358
 20
1.6697304622
 30
0.0
 10
6.4032225298
 20
1.6516209285
 30
0.0
 10
6.4026648204
 20
1.6468746555
 30
0.0
  0
LINE
  5
5B8
100
AcDbEntity
  8
0
100
AcDbLine
 62
7
  6
CONTINUOUS
 10
6.9299533202
 20
3.4032913105
 11
6.929690871
 21
3.4033364931
  0
LINE
  5
5B9
100
AcDbEntity
  8
0
100
AcDbLine
 62
7
  6
CONTINUOUS
 10
6.929690871
 20
3.4033364931
 11
6.9274789781
 21
3.4036792015
  0
LINE
  5
5BA
100
AcDbEntity
  8
0
100
AcDbLine
 62
7
  6
CONTINUOUS
 10
6.6352828578
 20
3.4072256853
 11
6.6186234839
 21
3.4045325921
  0
LINE
  5
5BB
100
AcDbEntity
  8
0
100
AcDbLine
 62
7
  6
CONTINUOUS
 10
6.8907799153
 20
3.4094098414
 11
6.8877799153
 21
3.4099927546
  0
LINE
  5
5BC
100
AcDbEntity
  8
0
100
AcDbLine
 62
7
  6
CONTINUOUS
 10
6.9274789781
 20
3.4031684119
 11
6.9072198286
 21
3.4066289443
  0
LINE
  5
5BD
100
AcDbEntity
  8
0
100
AcDbLine
 62
7
  6
CONTINUOUS
 10
6.9072198286
 20
3.4066289443
 11
6.9063853178
 21
3.406776249
  0
LINE
  5
5BE
100
AcDbEntity
  8
0
100
AcDbLine
 62
7
  6
CONTINUOUS
 10
6.9063853178
 20
3.406776249
 11
6.9047113692
 21
3.4070723923
  0
LINE
  5
5BF
100
AcDbEntity
  8
0
100
AcDbLine
 62
7
  6
CONTINUOUS
 10
6.8696389752
 20
3.4127385027
 11
6.8691576643
 21
3.4127106978
  0
LINE
  5
5C0
100
AcDbEntity
  8
0
100
AcDbLine
 62
7
  6
CONTINUOUS
 10
6.8691576643
 20
3.4127106978
 11
6.8656036299
 21
3.4129972787
  0
SPLINE
  5
5C1
100
AcDbEntity
  8
0
100
AcDbSpline
 62
7
  6
CONTINUOUS
 70
0
 71
3
 72
28
 73
24
 74
0
 42
0.0000001
 43
0.0000001
 44
0.0000000001
 40
0.0
 40
0.0
 40
0.0
 40
0.0
 40
0.1945829325
 40
0.2895385826
 40
0.3817256958
 40
0.4702572589
 40
0.5542862809
 40
0.6330054743
 40
0.7056570401
 40
0.7715417428
 40
0.8300245662
 40
0.8805416182
 40
0.9026578766
 40
0.9226062513
 40
0.9403391845
 40
0.9558141807
 40
0.9689948799
 40
0.9798516105
 40
0.9883620786
 40
0.9945160646
 40
0.9983276001
 40
0.9993921435
 40
1.0
 40
1.0
 40
1.0
 40
1.0
 10
6.8183889752
 20
3.4173849377
 30
0.0
 10
6.817413847
 20
3.417446461
 30
0.0
 10
6.8159630405
 20
3.4175409023
 30
0.0
 10
6.8140507156
 20
3.4176714469
 30
0.0
 10
6.8126698852
 20
3.4177687685
 30
0.0
 10
6.8113440095
 20
3.4178653617
 30
0.0
 10
6.8100858231
 20
3.4179602953
 30
0.0
 10
6.8089074124
 20
3.4180526508
 30
0.0
 10
6.8078201232
 20
3.4181415306
 30
0.0
 10
6.8068344377
 20
3.4182260583
 30
0.0
 10
6.8059598709
 20
3.4183054042
 30
0.0
 10
6.8053045672
 20
3.4183690363
 30
0.0
 10
6.8048421793
 20
3.4184171681
 30
0.0
 10
6.8045437023
 20
3.4184498864
 30
0.0
 10
6.8042785732
 20
3.4184807627
 30
0.0
 10
6.8040474492
 20
3.4185097066
 30
0.0
 10
6.803850852
 20
3.4185366386
 30
0.0
 10
6.8036893589
 20
3.4185614114
 30
0.0
 10
6.8035630288
 20
3.4185839849
 30
0.0
 10
6.8034727472
 20
3.4186038484
 30
0.0
 10
6.8034190372
 20
3.4186202443
 30
0.0
 10
6.8033949604
 20
3.4186326817
 30
0.0
 10
6.8033889752
 20
3.4186400862
 30
0.0
 10
6.8033889752
 20
3.4186431384
 30
0.0
  0
LINE
  5
5C2
100
AcDbEntity
  8
0
100
AcDbLine
 62
7
  6
CONTINUOUS
 10
6.8432215701
 20
3.4156746641
 11
6.8303889752
 21
3.416534175
  0
LINE
  5
5C3
100
AcDbEntity
  8
0
100
AcDbLine
 62
7
  6
CONTINUOUS
 10
6.7853889752
 20
3.4192185566
 11
6.7851062254
 21
3.4191585164
  0
LINE
  5
5C4
100
AcDbEntity
  8
0
100
AcDbLine
 62
7
  6
CONTINUOUS
 10
6.7851062254
 20
3.4191585164
 11
6.7757440469
 21
3.4189363161
  0
LINE
  5
5C5
100
AcDbEntity
  8
0
100
AcDbLine
 62
7
  6
CONTINUOUS
 10
6.7757440469
 20
3.4189363161
 11
6.7746389752
 21
3.4189296063
  0
LINE
  5
5C6
100
AcDbEntity
  8
0
100
AcDbLine
 62
7
  6
CONTINUOUS
 10
6.7502889752
 20
3.4193046213
 11
6.749242574
 21
3.4191916964
  0
SPLINE
  5
5C7
100
AcDbEntity
  8
0
100
AcDbSpline
 62
7
  6
CONTINUOUS
 70
0
 71
3
 72
23
 73
19
 74
0
 42
0.0000001
 43
0.0000001
 44
0.0000000001
 40
0.0
 40
0.0
 40
0.0
 40
0.0
 40
0.024031682
 40
0.0589515587
 40
0.1062178055
 40
0.1659447447
 40
0.2362356361
 40
0.3149264406
 40
0.4001701149
 40
0.4896932708
 40
0.5800384818
 40
0.6673470458
 40
0.7489338847
 40
0.8227353473
 40
0.8864477277
 40
0.937327609
 40
0.9746742651
 40
1.0
 40
1.0
 40
1.0
 40
1.0
 10
6.749242574
 20
3.4191916964
 30
0.0
 10
6.7489205252
 20
3.4191609924
 30
0.0
 10
6.7481300223
 20
3.4190908495
 30
0.0
 10
6.746704656
 20
3.4189771522
 30
0.0
 10
6.7447992331
 20
3.4188391158
 30
0.0
 10
6.7424179674
 20
3.4186801444
 30
0.0
 10
6.7396140091
 20
3.4185023131
 30
0.0
 10
6.7364667733
 20
3.4183102214
 30
0.0
 10
6.7330606195
 20
3.4181106836
 30
0.0
 10
6.7294972432
 20
3.4179124334
 30
0.0
 10
6.7259053333
 20
3.417727155
 30
0.0
 10
6.7224195452
 20
3.4175589589
 30
0.0
 10
6.7191558177
 20
3.4174098012
 30
0.0
 10
6.7162090829
 20
3.4172824046
 30
0.0
 10
6.7136750062
 20
3.4171806039
 30
0.0
 10
6.7116308252
 20
3.4171103607
 30
0.0
 10
6.710102697
 20
3.4170709956
 30
0.0
 10
6.7092590743
 20
3.4170587102
 30
0.0
 10
6.7089181501
 20
3.4170568376
 30
0.0
  0
LINE
  5
5C8
100
AcDbEntity
  8
0
100
AcDbLine
 62
7
  6
CONTINUOUS
 10
6.7089181501
 20
3.4170568376
 11
6.7077889752
 21
3.4170737884
  0
SPLINE
  5
5C9
100
AcDbEntity
  8
0
100
AcDbSpline
 62
7
  6
CONTINUOUS
 70
0
 71
3
 72
19
 73
15
 74
0
 42
0.0000001
 43
0.0000001
 44
0.0000000001
 40
0.0
 40
0.0
 40
0.0
 40
0.0
 40
0.0388309525
 40
0.148086393
 40
0.2237842801
 40
0.3098413376
 40
0.4030763533
 40
0.4999998998
 40
0.5969234564
 40
0.6901585748
 40
0.7762156838
 40
0.8519135598
 40
0.9611690399
 40
1.0
 40
1.0
 40
1.0
 40
1.0
 10
3.1366131299
 20
1.6468746555
 30
0.0
 10
3.1360554227
 20
1.6516209215
 30
0.0
 10
3.1340028207
 20
1.6697304373
 30
0.0
 10
3.1313376433
 20
1.6971457219
 30
0.0
 10
3.1288070085
 20
1.730404707
 30
0.0
 10
3.1270184004
 20
1.7617379242
 30
0.0
 10
3.125814438
 20
1.7957137739
 30
0.0
 10
3.1253896637
 20
1.8310462375
 30
0.0
 10
3.1258144367
 20
1.8663787138
 30
0.0
 10
3.1270183982
 20
1.9003545838
 30
0.0
 10
3.1288070071
 20
1.9316878186
 30
0.0
 10
3.1313376423
 20
1.9649468135
 30
0.0
 10
3.13400282
 20
1.9923621025
 30
0.0
 10
3.1360554226
 20
2.0104716241
 30
0.0
 10
3.1366131299
 20
2.0152178911
 30
0.0
  0
LINE
  5
5CA
100
AcDbEntity
  8
0
100
AcDbLine
 62
7
  6
CONTINUOUS
 10
6.8503190793
 20
3.415221542
 11
6.8513921441
 21
3.4150970342
  0
LINE
  5
5CB
100
AcDbEntity
  8
0
100
AcDbLine
 62
7
  6
CONTINUOUS
 10
6.7077889752
 20
3.417575388
 11
6.7083260782
 21
3.4175593437
  0
SPLINE
  5
5CC
100
AcDbEntity
  8
0
100
AcDbSpline
 62
7
  6
CONTINUOUS
 70
0
 71
3
 72
23
 73
19
 74
0
 42
0.0000001
 43
0.0000001
 44
0.0000000001
 40
0.0
 40
0.0
 40
0.0
 40
0.0
 40
0.0208733735
 40
0.0571322401
 40
0.1125485808
 40
0.1872461931
 40
0.276721439
 40
0.376842056
 40
0.4834713514
 40
0.5903316404
 40
0.6909731177
 40
0.78130621
 40
0.8577973646
 40
0.9165833502
 40
0.9571846261
 40
0.9822791379
 40
0.9954536298
 40
1.0
 40
1.0
 40
1.0
 40
1.0
 10
6.7083260782
 20
3.4175593437
 30
0.0
 10
6.7086184603
 20
3.4175562707
 30
0.0
 10
6.7094188393
 20
3.4175600538
 30
0.0
 10
6.7109951413
 20
3.4175924528
 30
0.0
 10
6.713324548
 20
3.4176679107
 30
0.0
 10
6.7163981384
 20
3.4177911211
 30
0.0
 10
6.7200968915
 20
3.4179526931
 30
0.0
 10
6.7242419696
 20
3.4181460602
 30
0.0
 10
6.728629584
 20
3.4183660937
 30
0.0
 10
6.7330233256
 20
3.4186085359
 30
0.0
 10
6.7371882501
 20
3.4188537267
 30
0.0
 10
6.7409278352
 20
3.4190847937
 30
0.0
 10
6.7440815978
 20
3.4192895106
 30
0.0
 10
6.7465391852
 20
3.4194639086
 30
0.0
 10
6.7482774261
 20
3.4196028435
 30
0.0
 10
6.7493777627
 20
3.4197028788
 30
0.0
 10
6.7499742158
 20
3.4197658723
 30
0.0
 10
6.7502207306
 20
3.4197952699
 30
0.0
 10
6.7502838091
 20
3.4198040484
 30
0.0
  0
LINE
  5
5CD
100
AcDbEntity
  8
0
100
AcDbLine
 62
7
  6
CONTINUOUS
 10
6.8656035982
 20
3.4135015412
 11
6.8696389752
 21
3.4132429318
  0
SPLINE
  5
5CE
100
AcDbEntity
  8
0
100
AcDbSpline
 62
7
  6
CONTINUOUS
 70
0
 71
3
 72
28
 73
24
 74
0
 42
0.0000001
 43
0.0000001
 44
0.0000000001
 40
0.0
 40
0.0
 40
0.0
 40
0.0
 40
0.0006075717
 40
0.0016719573
 40
0.0054833097
 40
0.0116372474
 40
0.0201476754
 40
0.0310044481
 40
0.0441851122
 40
0.0596601295
 40
0.0773930192
 40
0.0973413936
 40
0.1194574986
 40
0.1699739216
 40
0.2284554643
 40
0.2943388381
 40
0.3669895663
 40
0.4457080803
 40
0.5297376029
 40
0.6182700728
 40
0.7104583321
 40
0.8054149523
 40
1.0
 40
1.0
 40
1.0
 40
1.0
 10
6.8033889752
 20
3.4191437215
 30
0.0
 10
6.8033889752
 20
3.4191406707
 30
0.0
 10
6.8033949626
 20
3.4191332702
 30
0.0
 10
6.803419039
 20
3.4191208422
 30
0.0
 10
6.8034727504
 20
3.4191044557
 30
0.0
 10
6.8035630325
 20
3.4190846057
 30
0.0
 10
6.8036893644
 20
3.4190620463
 30
0.0
 10
6.8038508588
 20
3.4190372897
 30
0.0
 10
6.8040474574
 20
3.4190103748
 30
0.0
 10
6.8042785822
 20
3.4189814497
 30
0.0
 10
6.804543712
 20
3.4189505933
 30
0.0
 10
6.8048421888
 20
3.4189178963
 30
0.0
 10
6.8053045735
 20
3.418869796
 30
0.0
 10
6.8059598673
 20
3.4188062061
 30
0.0
 10
6.8068344178
 20
3.4187269128
 30
0.0
 10
6.8078200854
 20
3.4186424413
 30
0.0
 10
6.8089073592
 20
3.4185536202
 30
0.0
 10
6.8100857632
 20
3.4184613248
 30
0.0
 10
6.811343951
 20
3.4183664524
 30
0.0
 10
6.8126698368
 20
3.4182699208
 30
0.0
 10
6.8140506794
 20
3.4181726614
 30
0.0
 10
6.815963021
 20
3.4180422002
 30
0.0
 10
6.8174138391
 20
3.4179478193
 30
0.0
 10
6.8183889752
 20
3.4178863354
 30
0.0
  0
LINE
  5
5CF
100
AcDbEntity
  8
0
100
AcDbLine
 62
7
  6
CONTINUOUS
 10
6.8303889752
 20
3.417036125
 11
6.8432215701
 21
3.4161771734
  0
SPLINE
  5
5D0
100
AcDbEntity
  8
0
100
AcDbSpline
 62
7
  6
CONTINUOUS
 70
0
 71
3
 72
30
 73
26
 74
0
 42
0.0000001
 43
0.0000001
 44
0.0000000001
 40
0.0
 40
0.0
 40
0.0
 40
0.0
 40
0.2084412372
 40
0.3071654877
 40
0.4013787601
 40
0.4904725878
 40
0.5738731735
 40
0.6510457575
 40
0.7214948123
 40
0.7847697882
 40
0.8404652112
 40
0.8882252777
 40
0.9090339369
 40
0.927748941
 40
0.9443421874
 40
0.9587892499
 40
0.9710674586
 40
0.9811621126
 40
0.9890644005
 40
0.9921930782
 40
0.9947759528
 40
0.9968187563
 40
0.9983340902
 40
0.9993553671
 40
1.0
 40
1.0
 40
1.0
 40
1.0
 10
6.7746389752
 20
3.4194300043
 30
0.0
 10
6.7753869122
 20
3.4194338766
 30
0.0
 10
6.7764890875
 20
3.4194415017
 30
0.0
 10
6.7779292783
 20
3.4194559346
 30
0.0
 10
6.7789412129
 20
3.4194683292
 30
0.0
 10
6.7798981343
 20
3.4194824042
 30
0.0
 10
6.7807938756
 20
3.4194980651
 30
0.0
 10
6.7816226742
 20
3.4195152044
 30
0.0
 10
6.7823792078
 20
3.4195337031
 30
0.0
 10
6.7830586162
 20
3.4195534236
 30
0.0
 10
6.7836565348
 20
3.4195742261
 30
0.0
 10
6.7841020391
 20
3.4195930676
 30
0.0
 10
6.7844148394
 20
3.4196089034
 30
0.0
 10
6.7846158756
 20
3.4196204119
 30
0.0
 10
6.7847940333
 20
3.4196320757
 30
0.0
 10
6.7849490278
 20
3.4196438673
 30
0.0
 10
6.785080621
 20
3.4196557429
 30
0.0
 10
6.785188606
 20
3.4196676726
 30
0.0
 10
6.7852637003
 20
3.4196782119
 30
0.0
 10
6.7853117573
 20
3.4196870284
 30
0.0
 10
6.7853389138
 20
3.4196931326
 30
0.0
 10
6.7853601401
 20
3.4196991061
 30
0.0
 10
6.7853754561
 20
3.4197052235
 30
0.0
 10
6.7853853871
 20
3.4197108576
 30
0.0
 10
6.7853889752
 20
3.4197164549
 30
0.0
 10
6.7853889752
 20
3.419718768
 30
0.0
  0
LINE
  5
5D1
100
AcDbEntity
  8
0
100
AcDbLine
 62
7
  6
CONTINUOUS
 10
6.6186234839
 20
3.4050424653
 11
6.6352828578
 21
3.4077337589
  0
SPLINE
  5
5D2
100
AcDbEntity
  8
0
100
AcDbSpline
 62
7
  6
CONTINUOUS
 70
0
 71
3
 72
47
 73
43
 74
0
 42
0.0000001
 43
0.0000001
 44
0.0000000001
 40
0.0
 40
0.0
 40
0.0
 40
0.0
 40
0.1010926672
 40
0.1999563414
 40
0.2958729493
 40
0.3881632684
 40
0.4761886443
 40
0.5593397306
 40
0.6370267787
 40
0.7086709845
 40
0.742048168
 40
0.7737003145
 40
0.8035569002
 40
0.831548356
 40
0.8576060518
 40
0.8816632215
 40
0.9036552604
 40
0.9235202845
 40
0.9412004024
 40
0.9566415796
 40
0.963507255
 40
0.9697952657
 40
0.9755007172
 40
0.9806188449
 40
0.9851450805
 40
0.9890758285
 40
0.9924077846
 40
0.9938481869
 40
0.9951377581
 40
0.9962762829
 40
0.9972635496
 40
0.9980993467
 40
0.9987834628
 40
0.9990685742
 40
0.9993156862
 40
0.9995247821
 40
0.9996958606
 40
0.9998289216
 40
0.9999239652
 40
0.9999572304
 40
0.9999809913
 40
1.0
 40
1.0
 40
1.0
 40
1.0
 10
7.0308889752
 20
3.1536638931
 30
0.0
 10
7.0310622264
 20
3.1508140762
 30
0.0
 10
7.0314965514
 20
3.1451824274
 30
0.0
 10
7.0324026776
 20
3.136874327
 30
0.0
 10
7.0335249475
 20
3.128843676
 30
0.0
 10
7.0348243631
 20
3.1211502531
 30
0.0
 10
7.0362577255
 20
3.1138479151
 30
0.0
 10
7.0377793986
 20
3.1069855102
 30
0.0
 10
7.039342686
 20
3.1006080288
 30
0.0
 10
7.0406708667
 20
3.0956214665
 30
0.0
 10
7.0417148447
 20
3.0919053277
 30
0.0
 10
7.0424609414
 20
3.0893314677
 30
0.0
 10
7.0431833573
 20
3.0869091953
 30
0.0
 10
7.0438768239
 20
3.0846432332
 30
0.0
 10
7.0445362095
 20
3.0825381818
 30
0.0
 10
7.0451566386
 20
3.0805985245
 30
0.0
 10
7.0457334696
 20
3.0788285779
 30
0.0
 10
7.0462623222
 20
3.0772324437
 30
0.0
 10
7.0467391922
 20
3.0758140048
 30
0.0
 10
7.0471031284
 20
3.0747449309
 30
0.0
 10
7.0473653405
 20
3.0739811029
 30
0.0
 10
7.0475390171
 20
3.0734775909
 30
0.0
 10
7.0476972274
 20
3.0730209528
 30
0.0
 10
7.047839657
 20
3.0726115058
 30
0.0
 10
7.047966
 20
3.0722495306
 30
0.0
 10
7.0480760204
 20
3.0719352883
 30
0.0
 10
7.0481574394
 20
3.0717033701
 30
0.0
 10
7.0482142319
 20
3.0715418622
 30
0.0
 10
7.0482505033
 20
3.0714388039
 30
0.0
 10
7.0482825509
 20
3.071347826
 30
0.0
 10
7.0483103607
 20
3.0712689431
 30
0.0
 10
7.0483339196
 20
3.0712021681
 30
0.0
 10
7.0483508886
 20
3.0711540996
 30
0.0
 10
7.0483623294
 20
3.0711217049
 30
0.0
 10
7.0483692972
 20
3.0711019706
 30
0.0
 10
7.0483752098
 20
3.0710852449
 30
0.0
 10
7.0483800008
 20
3.0710716354
 30
0.0
 10
7.0483838476
 20
3.0710608561
 30
0.0
 10
7.0483861142
 20
3.0710542046
 30
0.0
 10
7.0483878018
 20
3.07104974
 30
0.0
 10
7.0483880656
 20
3.0710484426
 30
0.0
 10
7.0483893402
 20
3.0710458977
 30
0.0
 10
7.048388966
 20
3.0710462827
 30
0.0
  0
SPLINE
  5
5D3
100
AcDbEntity
  8
0
100
AcDbSpline
 62
7
  6
CONTINUOUS
 70
0
 71
3
 72
11
 73
7
 74
0
 42
0.0000001
 43
0.0000001
 44
0.0000000001
 40
0.0
 40
0.0
 40
0.0
 40
0.0
 40
0.2254579266
 40
0.4702667856
 40
0.730048624
 40
1.0
 40
1.0
 40
1.0
 40
1.0
 10
6.5012941023
 20
3.1070050206
 30
0.0
 10
6.5021588929
 20
3.1107155655
 30
0.0
 10
6.5038188172
 20
3.1184895242
 30
0.0
 10
6.5059005204
 20
3.1306535398
 30
0.0
 10
6.507514385
 20
3.1436474292
 30
0.0
 10
6.5081725248
 20
3.1525798601
 30
0.0
 10
6.5083889752
 20
3.1571365996
 30
0.0
  0
SPLINE
  5
5D4
100
AcDbEntity
  8
0
100
AcDbSpline
 62
7
  6
CONTINUOUS
 70
0
 71
3
 72
14
 73
10
 74
0
 42
0.0000001
 43
0.0000001
 44
0.0000000001
 40
0.0
 40
0.0
 40
0.0
 40
0.0
 40
0.0849831377
 40
0.1672503988
 40
0.2779322276
 40
0.4175791406
 40
0.5856908987
 40
0.7806773977
 40
1.0
 40
1.0
 40
1.0
 40
1.0
 10
6.4909813897
 20
3.0757490393
 30
0.0
 10
6.4913865512
 20
3.0765905691
 30
0.0
 10
6.492150129
 20
3.0782631
 30
0.0
 10
6.4933361419
 20
3.0810782922
 30
0.0
 10
6.4946610977
 20
3.0844856055
 30
0.0
 10
6.4961997806
 20
3.0888200639
 30
0.0
 10
6.497885837
 20
3.0940828082
 30
0.0
 10
6.4996423821
 20
3.1002391437
 30
0.0
 10
6.5007469881
 20
3.1046575254
 30
0.0
 10
6.5012941023
 20
3.1070050206
 30
0.0
  0
SPLINE
  5
5D5
100
AcDbEntity
  8
0
100
AcDbSpline
 62
7
  6
CONTINUOUS
 70
0
 71
3
 72
14
 73
10
 74
0
 42
0.0000001
 43
0.0000001
 44
0.0000000001
 40
0.0
 40
0.0
 40
0.0
 40
0.0
 40
0.2193226269
 40
0.414309103
 40
0.5824208573
 40
0.7220677775
 40
0.8327495926
 40
0.915016847
 40
1.0
 40
1.0
 40
1.0
 40
1.0
 10
6.5012941023
 20
3.232087526
 30
0.0
 10
6.500746988
 20
3.2344350215
 30
0.0
 10
6.499642382
 20
3.2388534032
 30
0.0
 10
6.497885837
 20
3.2450097386
 30
0.0
 10
6.4961997806
 20
3.2502724827
 30
0.0
 10
6.4946610977
 20
3.254606941
 30
0.0
 10
6.493336142
 20
3.2580142542
 30
0.0
 10
6.4921501291
 20
3.2608294463
 30
0.0
 10
6.4913865512
 20
3.2625019773
 30
0.0
 10
6.4909813897
 20
3.2633435073
 30
0.0
  0
SPLINE
  5
5D6
100
AcDbEntity
  8
0
100
AcDbSpline
 62
7
  6
CONTINUOUS
 70
0
 71
3
 72
11
 73
7
 74
0
 42
0.0000001
 43
0.0000001
 44
0.0000000001
 40
0.0
 40
0.0
 40
0.0
 40
0.0
 40
0.2699513714
 40
0.5297332149
 40
0.7745420741
 40
1.0
 40
1.0
 40
1.0
 40
1.0
 10
6.5083889752
 20
3.1819559469
 30
0.0
 10
6.5081725248
 20
3.1865126864
 30
0.0
 10
6.507514385
 20
3.1954451173
 30
0.0
 10
6.5059005205
 20
3.2084390067
 30
0.0
 10
6.5038188172
 20
3.2206030224
 30
0.0
 10
6.5021588929
 20
3.2283769811
 30
0.0
 10
6.5012941023
 20
3.232087526
 30
0.0
  0
SPLINE
  5
5D7
100
AcDbEntity
  8
0
100
AcDbSpline
 62
7
  6
CONTINUOUS
 70
0
 71
3
 72
63
 73
59
 74
0
 42
0.0000001
 43
0.0000001
 44
0.0000000001
 40
0.0
 40
0.0
 40
0.0
 40
0.0
 40
0.0087529852
 40
0.0174820265
 40
0.0261649399
 40
0.0347864769
 40
0.0433362995
 40
0.0518097457
 40
0.0685197735
 40
0.1011118743
 40
0.117119389
 40
0.1329716397
 40
0.1486985778
 40
0.1643246186
 40
0.1798689265
 40
0.1953461765
 40
0.2107690725
 40
0.2261466383
 40
0.2414872997
 40
0.2567967585
 40
0.2720807384
 40
0.2873431327
 40
0.317815455
 40
0.3482372142
 40
0.363434798
 40
0.3786248869
 40
0.4089870585
 40
0.4393329779
 40
0.4696689069
 40
0.5000000989
 40
0.5303312886
 40
0.5606672356
 40
0.5910131331
 40
0.6213752916
 40
0.6365653508
 40
0.6517629168
 40
0.6821846472
 40
0.712656951
 40
0.7279193319
 40
0.7432033114
 40
0.758512763
 40
0.7738534121
 40
0.7892309692
 40
0.8046538533
 40
0.8201310945
 40
0.8356753906
 40
0.8513014218
 40
0.8670283508
 40
0.8828805883
 40
0.8988881037
 40
0.9314802037
 40
0.9481902299
 40
0.9566636825
 40
0.965213508
 40
0.973835045
 40
0.9825179586
 40
0.9912470078
 40
1.0
 40
1.0
 40
1.0
 40
1.0
 10
4.8198547493
 20
4.0785462733
 30
0.0
 10
4.8198547493
 20
4.0791684646
 30
0.0
 10
4.8199126524
 20
4.0804119125
 30
0.0
 10
4.8201701453
 20
4.0822563652
 30
0.0
 10
4.8205894957
 20
4.0840612507
 30
0.0
 10
4.8211576048
 20
4.0858112649
 30
0.0
 10
4.8218592113
 20
4.0874957938
 30
0.0
 10
4.8229460819
 20
4.0896354268
 30
0.0
 10
4.8251831478
 20
4.0930932242
 30
0.0
 10
4.8283733697
 20
4.0965171341
 30
0.0
 10
4.8319009093
 20
4.0994436366
 30
0.0
 10
4.8346573281
 20
4.1014096791
 30
0.0
 10
4.8375082081
 20
4.1031827899
 30
0.0
 10
4.8404330455
 20
4.1047854281
 30
0.0
 10
4.8434160774
 20
4.1062359612
 30
0.0
 10
4.8464452819
 20
4.1075510169
 30
0.0
 10
4.8495118906
 20
4.1087434974
 30
0.0
 10
4.8526086027
 20
4.1098259858
 30
0.0
 10
4.855730158
 20
4.1108077078
 30
0.0
 10
4.8588719052
 20
4.1116983533
 30
0.0
 10
4.8620305491
 20
4.1125046732
 30
0.0
 10
4.8662580323
 20
4.113476525
 30
0.0
 10
4.8715730095
 20
4.1145132503
 30
0.0
 10
4.8769186183
 20
4.115345605
 30
0.0
 10
4.8812053583
 20
4.1159019807
 30
0.0
 10
4.8854961615
 20
4.1163899336
 30
0.0
 10
4.8908699882
 20
4.1168777115
 30
0.0
 10
4.8973296091
 20
4.1172850174
 30
0.0
 10
4.9037953736
 20
4.1175245962
 30
0.0
 10
4.9102639959
 20
4.1176041493
 30
0.0
 10
4.9167326189
 20
4.1175245847
 30
0.0
 10
4.9231983844
 20
4.1172850342
 30
0.0
 10
4.929658001
 20
4.1168776825
 30
0.0
 10
4.9350318267
 20
4.1163899445
 30
0.0
 10
4.9393226234
 20
4.115901971
 30
0.0
 10
4.9436093576
 20
4.1153455945
 30
0.0
 10
4.9489549626
 20
4.1145132456
 30
0.0
 10
4.9542699368
 20
4.113476526
 30
0.0
 10
4.9584974157
 20
4.1125046657
 30
0.0
 10
4.9616560591
 20
4.1116983507
 30
0.0
 10
4.964797805
 20
4.110807705
 30
0.0
 10
4.967919357
 20
4.1098259797
 30
0.0
 10
4.9710160683
 20
4.1087434961
 30
0.0
 10
4.9740826737
 20
4.1075510129
 30
0.0
 10
4.9771118769
 20
4.10623596
 30
0.0
 10
4.9800949063
 20
4.1047854265
 30
0.0
 10
4.983019742
 20
4.10318279
 30
0.0
 10
4.9858706203
 20
4.1014096805
 30
0.0
 10
4.9886270374
 20
4.0994436383
 30
0.0
 10
4.9921545774
 20
4.0965171378
 30
0.0
 10
4.9953447993
 20
4.0930932279
 30
0.0
 10
4.997581866
 20
4.0896354308
 30
0.0
 10
4.9986687373
 20
4.0874957975
 30
0.0
 10
4.9993703445
 20
4.0858112682
 30
0.0
 10
4.9999384536
 20
4.0840612538
 30
0.0
 10
5.0003578045
 20
4.0822563678
 30
0.0
 10
5.0006152977
 20
4.0804119141
 30
0.0
 10
5.000673201
 20
4.0791684651
 30
0.0
 10
5.000673201
 20
4.0785462733
 30
0.0
  0
SPLINE
  5
5D8
100
AcDbEntity
  8
0
100
AcDbSpline
 62
7
  6
CONTINUOUS
 70
0
 71
3
 72
63
 73
59
 74
0
 42
0.0000001
 43
0.0000001
 44
0.0000000001
 40
0.0
 40
0.0
 40
0.0
 40
0.0
 40
0.0087529855
 40
0.0174820271
 40
0.0261649406
 40
0.0347864777
 40
0.0433363004
 40
0.0518097468
 40
0.0685197747
 40
0.1011118758
 40
0.1171193907
 40
0.1329716412
 40
0.1486985792
 40
0.16432462
 40
0.1798689276
 40
0.1953461776
 40
0.2107690733
 40
0.2261466389
 40
0.2414873
 40
0.2567967587
 40
0.2720807385
 40
0.2873431327
 40
0.3178154541
 40
0.3482372124
 40
0.3634347958
 40
0.378624884
 40
0.4089870555
 40
0.4393329746
 40
0.469668904
 40
0.5000000961
 40
0.5303312858
 40
0.5606672327
 40
0.5910131306
 40
0.6213752892
 40
0.6365653488
 40
0.6517629149
 40
0.6821846456
 40
0.7126569495
 40
0.7279193305
 40
0.74320331
 40
0.7585127616
 40
0.7738534106
 40
0.7892309677
 40
0.8046538517
 40
0.8201310928
 40
0.8356753887
 40
0.8513014201
 40
0.867028349
 40
0.8828805865
 40
0.8988881022
 40
0.9314802026
 40
0.9481902289
 40
0.9566636816
 40
0.9652135073
 40
0.9738350444
 40
0.9825179581
 40
0.9912470076
 40
1.0
 40
1.0
 40
1.0
 40
1.0
 10
4.5386047493
 20
4.0785462733
 30
0.0
 10
4.5386047493
 20
4.0791684646
 30
0.0
 10
4.5386626524
 20
4.0804119126
 30
0.0
 10
4.5389201454
 20
4.0822563653
 30
0.0
 10
4.5393394958
 20
4.0840612508
 30
0.0
 10
4.5399076048
 20
4.0858112651
 30
0.0
 10
4.5406092114
 20
4.087495794
 30
0.0
 10
4.541696082
 20
4.089635427
 30
0.0
 10
4.5439331479
 20
4.0930932244
 30
0.0
 10
4.5471233699
 20
4.0965171344
 30
0.0
 10
4.5506509096
 20
4.0994436367
 30
0.0
 10
4.5534073284
 20
4.1014096793
 30
0.0
 10
4.5562582084
 20
4.1031827901
 30
0.0
 10
4.5591830457
 20
4.1047854282
 30
0.0
 10
4.5621660776
 20
4.1062359614
 30
0.0
 10
4.5651952821
 20
4.107551017
 30
0.0
 10
4.5682618908
 20
4.1087434975
 30
0.0
 10
4.5713586029
 20
4.1098259858
 30
0.0
 10
4.574480158
 20
4.1108077078
 30
0.0
 10
4.5776219053
 20
4.1116983533
 30
0.0
 10
4.5807805491
 20
4.1125046732
 30
0.0
 10
4.5850080322
 20
4.1134765249
 30
0.0
 10
4.5903230093
 20
4.1145132504
 30
0.0
 10
4.595668618
 20
4.1153456048
 30
0.0
 10
4.5999553578
 20
4.1159019806
 30
0.0
 10
4.6042461609
 20
4.1163899338
 30
0.0
 10
4.6096199876
 20
4.1168777111
 30
0.0
 10
4.6160796085
 20
4.1172850178
 30
0.0
 10
4.622545373
 20
4.117524596
 30
0.0
 10
4.6290139953
 20
4.1176041493
 30
0.0
 10
4.6354826183
 20
4.1175245848
 30
0.0
 10
4.6419483838
 20
4.1172850341
 30
0.0
 10
4.6484080005
 20
4.1168776829
 30
0.0
 10
4.6537818262
 20
4.1163899443
 30
0.0
 10
4.6580726229
 20
4.1159019711
 30
0.0
 10
4.6623593572
 20
4.1153455946
 30
0.0
 10
4.6677049623
 20
4.1145132457
 30
0.0
 10
4.6730199364
 20
4.113476526
 30
0.0
 10
4.6772474154
 20
4.1125046659
 30
0.0
 10
4.6804060588
 20
4.1116983507
 30
0.0
 10
4.6835478047
 20
4.1108077051
 30
0.0
 10
4.6866693567
 20
4.1098259798
 30
0.0
 10
4.689766068
 20
4.1087434962
 30
0.0
 10
4.6928326734
 20
4.1075510131
 30
0.0
 10
4.6958618766
 20
4.1062359601
 30
0.0
 10
4.698844906
 20
4.1047854266
 30
0.0
 10
4.7017697417
 20
4.1031827902
 30
0.0
 10
4.7046206199
 20
4.1014096806
 30
0.0
 10
4.7073770371
 20
4.0994436385
 30
0.0
 10
4.7109045771
 20
4.096517138
 30
0.0
 10
4.7140947992
 20
4.0930932282
 30
0.0
 10
4.7163318659
 20
4.089635431
 30
0.0
 10
4.7174187372
 20
4.0874957977
 30
0.0
 10
4.7181203444
 20
4.0858112683
 30
0.0
 10
4.7186884536
 20
4.0840612539
 30
0.0
 10
4.7191078044
 20
4.0822563679
 30
0.0
 10
4.7193652976
 20
4.0804119141
 30
0.0
 10
4.719423201
 20
4.0791684651
 30
0.0
 10
4.719423201
 20
4.0785462733
 30
0.0
  0
SPLINE
  5
5D9
100
AcDbEntity
  8
0
100
AcDbSpline
 62
7
  6
CONTINUOUS
 70
0
 71
3
 72
52
 73
48
 74
0
 42
0.0000001
 43
0.0000001
 44
0.0000000001
 40
0.0
 40
0.0
 40
0.0
 40
0.0
 40
0.0624972439
 40
0.0937470372
 40
0.1249966567
 40
0.1562459483
 40
0.1874955362
 40
0.2499929472
 40
0.3124897924
 40
0.3749853488
 40
0.4062357403
 40
0.4374860637
 40
0.4687361482
 40
0.4999863576
 40
0.5312361694
 40
0.5468625232
 40
0.5624893743
 40
0.5781159384
 40
0.5937429303
 40
0.6093698072
 40
0.6249964611
 40
0.6406233327
 40
0.6562496337
 40
0.6718751171
 40
0.6796897128
 40
0.6875044373
 40
0.7031271761
 40
0.7187478178
 40
0.7343661549
 40
0.7421806759
 40
0.7499951104
 40
0.7578096035
 40
0.7656240254
 40
0.7734385237
 40
0.7812531342
 40
0.7968727923
 40
0.8124946364
 40
0.8203093264
 40
0.8281239957
 40
0.8437491859
 40
0.8593753137
 40
0.875001716
 40
0.8906284755
 40
0.9062556727
 40
0.9375017876
 40
0.968750612
 40
1.0
 40
1.0
 40
1.0
 40
1.0
 10
6.7696389752
 20
2.1640284201
 30
0.0
 10
6.7733545031
 20
2.1640284201
 30
0.0
 10
6.7789281476
 20
2.1640894898
 30
0.0
 10
6.7863565102
 20
2.1642984605
 30
0.0
 10
6.7919256771
 20
2.1645208261
 30
0.0
 10
6.7974916029
 20
2.1648135289
 30
0.0
 10
6.8049068059
 20
2.1653027986
 30
0.0
 10
6.8141617443
 20
2.1661152655
 30
0.0
 10
6.8252275546
 20
2.1674742543
 30
0.0
 10
6.8343940487
 20
2.1690022449
 30
0.0
 10
6.8416683971
 20
2.170525618
 30
0.0
 10
6.8470858149
 20
2.1718403113
 30
0.0
 10
6.8524520176
 20
2.1733518631
 30
0.0
 10
6.8577494221
 20
2.1750904246
 30
0.0
 10
6.8620866099
 20
2.176759775
 30
0.0
 10
6.8654907351
 20
2.1782510143
 30
0.0
 10
6.8680053267
 20
2.1794542508
 30
0.0
 10
6.8704734446
 20
2.1807504881
 30
0.0
 10
6.8728858835
 20
2.1821479893
 30
0.0
 10
6.8752305676
 20
2.1836568806
 30
0.0
 10
6.8774924426
 20
2.1852878165
 30
0.0
 10
6.879652256
 20
2.1870524162
 30
0.0
 10
6.8816848685
 20
2.1889627809
 30
0.0
 10
6.883246503
 20
2.1906862752
 30
0.0
 10
6.8843953491
 20
2.1921475781
 30
0.0
 10
6.8854691275
 20
2.1936646127
 30
0.0
 10
6.8866553352
 20
2.195667363
 30
0.0
 10
6.8877687916
 20
2.1982297398
 30
0.0
 10
6.888387412
 20
2.2004773825
 30
0.0
 10
6.8886705223
 20
2.2023150091
 30
0.0
 10
6.8887735934
 20
2.2037064636
 30
0.0
 10
6.8887649416
 20
2.205101657
 30
0.0
 10
6.8886447706
 20
2.2064916717
 30
0.0
 10
6.8884156018
 20
2.2078679139
 30
0.0
 10
6.8879708047
 20
2.209673234
 30
0.0
 10
6.8871674183
 20
2.2118606058
 30
0.0
 10
6.8860839864
 20
2.2139211173
 30
0.0
 10
6.8850803201
 20
2.2154855077
 30
0.0
 10
6.8839942558
 20
2.2169941415
 30
0.0
 10
6.882498373
 20
2.218775552
 30
0.0
 10
6.8805286127
 20
2.2207510378
 30
0.0
 10
6.8784191558
 20
2.2225758508
 30
0.0
 10
6.8761977972
 20
2.2242618967
 30
0.0
 10
6.8731157985
 20
2.2263401569
 30
0.0
 10
6.8690789593
 20
2.22865038
 30
0.0
 10
6.8640383839
 20
2.2310374261
 30
0.0
 10
6.8605846309
 20
2.2324140114
 30
0.0
 10
6.8588414848
 20
2.2330565826
 30
0.0
  0
SPLINE
  5
5DA
100
AcDbEntity
  8
0
100
AcDbSpline
 62
7
  6
CONTINUOUS
 70
0
 71
3
 72
49
 73
45
 74
0
 42
0.0000001
 43
0.0000001
 44
0.0000000001
 40
0.0
 40
0.0
 40
0.0
 40
0.0
 40
0.0154433986
 40
0.0314209293
 40
0.0480512832
 40
0.0654844255
 40
0.0839018945
 40
0.1035177828
 40
0.1245634972
 40
0.1472330571
 40
0.1715521717
 40
0.1971625229
 40
0.223205887
 40
0.2486101804
 40
0.2726105831
 40
0.2949430475
 40
0.3156829223
 40
0.3350391824
 40
0.3532423001
 40
0.3705004256
 40
0.3869884526
 40
0.4028491723
 40
0.4331165329
 40
0.4620026272
 40
0.5172340332
 40
0.5441226558
 40
0.5707177947
 40
0.5971143477
 40
0.6233782768
 40
0.6364763646
 40
0.6495576881
 40
0.6756843973
 40
0.7278791627
 40
0.7540004484
 40
0.7801687347
 40
0.8064167352
 40
0.8195847839
 40
0.8327907911
 40
0.8593498653
 40
0.8861853983
 40
0.9134274845
 40
0.9412664314
 40
0.9699835918
 40
1.0
 40
1.0
 40
1.0
 40
1.0
 10
6.9822472652
 20
2.2330565826
 30
0.0
 10
6.9815755727
 20
2.2325613742
 30
0.0
 10
6.9802385314
 20
2.2315129099
 30
0.0
 10
6.9782998342
 20
2.2297829366
 30
0.0
 10
6.9764090972
 20
2.2278465764
 30
0.0
 10
6.974582266
 20
2.2256738093
 30
0.0
 10
6.9728421838
 20
2.2232291421
 30
0.0
 10
6.9712223006
 20
2.2204731525
 30
0.0
 10
6.9697718914
 20
2.2173674496
 30
0.0
 10
6.9685619521
 20
2.2138886082
 30
0.0
 10
6.9676857002
 20
2.2100560325
 30
0.0
 10
6.9672413289
 20
2.2059649884
 30
0.0
 10
6.9672921089
 20
2.2017910842
 30
0.0
 10
6.96783028
 20
2.1977401436
 30
0.0
 10
6.9687818732
 20
2.193973918
 30
0.0
 10
6.970047062
 20
2.1905704941
 30
0.0
 10
6.9715365106
 20
2.1875378434
 30
0.0
 10
6.9731839482
 20
2.1848477555
 30
0.0
 10
6.9749437643
 20
2.1824608704
 30
0.0
 10
6.9767849873
 20
2.180338347
 30
0.0
 10
6.9786865428
 20
2.1784457758
 30
0.0
 10
6.981242157
 20
2.1762251628
 30
0.0
 10
6.9845425629
 20
2.1738542402
 30
0.0
 10
6.9899266136
 20
2.1708010023
 30
0.0
 10
6.9955221642
 20
2.1685592506
 30
0.0
 10
7.00116933
 20
2.1669346485
 30
0.0
 10
7.0053814247
 20
2.1659800796
 30
0.0
 10
7.0096016643
 20
2.1652430732
 30
0.0
 10
7.0131265548
 20
2.1647853997
 30
0.0
 10
7.0159465351
 20
2.1645040236
 30
0.0
 10
7.0187639266
 20
2.1642758987
 30
0.0
 10
7.0236967983
 20
2.1640119747
 30
0.0
 10
7.0293455841
 20
2.1639975493
 30
0.0
 10
7.0349858956
 20
2.1642689496
 30
0.0
 10
7.0392157978
 20
2.1646253043
 30
0.0
 10
7.0427341936
 20
2.1650589588
 30
0.0
 10
7.0455437849
 20
2.1654982889
 30
0.0
 10
7.0483591943
 20
2.1660043333
 30
0.0
 10
7.0518771107
 20
2.1667715545
 30
0.0
 10
7.0560782569
 20
2.1679374253
 30
0.0
 10
7.060260857
 20
2.1693973852
 30
0.0
 10
7.0644151943
 20
2.1712119855
 30
0.0
 10
7.0685246406
 20
2.1734611859
 30
0.0
 10
7.0711413636
 20
2.1752715023
 30
0.0
 10
7.072418135
 20
2.1762718418
 30
0.0
  0
SPLINE
  5
5DB
100
AcDbEntity
  8
0
100
AcDbSpline
 62
7
  6
CONTINUOUS
 70
0
 71
3
 72
29
 73
25
 74
0
 42
0.0000001
 43
0.0000001
 44
0.0000000001
 40
0.0
 40
0.0
 40
0.0
 40
0.0
 40
0.0673310682
 40
0.1334071801
 40
0.1980450036
 40
0.2611226307
 40
0.3226215809
 40
0.3528232528
 40
0.3826964224
 40
0.4122877148
 40
0.4416552698
 40
0.4708674805
 40
0.5000000083
 40
0.5291325389
 40
0.5583447562
 40
0.587712317
 40
0.6173036084
 40
0.6471767726
 40
0.6773784338
 40
0.7388773663
 40
0.8019549844
 40
0.8665928037
 40
0.9326689208
 40
1.0
 40
1.0
 40
1.0
 40
1.0
 10
6.9822472652
 20
2.2330565826
 30
0.0
 10
6.9840231775
 20
2.2343658822
 30
0.0
 10
6.987582836
 20
2.2369054671
 30
0.0
 10
6.9930171632
 20
2.2404570533
 30
0.0
 10
6.9985091446
 20
2.2436526245
 30
0.0
 10
7.0040634751
 20
2.2464197084
 30
0.0
 10
7.0087749053
 20
2.2483170951
 30
0.0
 10
7.0125682412
 20
2.249539106
 30
0.0
 10
7.0154084929
 20
2.2502971262
 30
0.0
 10
7.0182588838
 20
2.2508951207
 30
0.0
 10
7.0211174153
 20
2.2513266333
 30
0.0
 10
7.0239815214
 20
2.2515876604
 30
0.0
 10
7.026848521
 20
2.2516747707
 30
0.0
 10
7.0297155209
 20
2.2515876606
 30
0.0
 10
7.0325796273
 20
2.2513266322
 30
0.0
 10
7.0354381594
 20
2.2508951208
 30
0.0
 10
7.03828855
 20
2.2502971253
 30
0.0
 10
7.0411288013
 20
2.2495391057
 30
0.0
 10
7.0449221361
 20
2.2483170948
 30
0.0
 10
7.0496335651
 20
2.2464197085
 30
0.0
 10
7.0551878946
 20
2.2436526249
 30
0.0
 10
7.0606798758
 20
2.2404570537
 30
0.0
 10
7.0661142038
 20
2.2369054682
 30
0.0
 10
7.0696738624
 20
2.2343658824
 30
0.0
 10
7.0714497749
 20
2.2330565826
 30
0.0
  0
SPLINE
  5
5DC
100
AcDbEntity
  8
0
100
AcDbSpline
 62
7
  6
CONTINUOUS
 70
0
 71
3
 72
14
 73
10
 74
0
 42
0.0000001
 43
0.0000001
 44
0.0000000001
 40
0.0
 40
0.0
 40
0.0
 40
0.0
 40
0.1250024086
 40
0.2500047003
 40
0.3750091608
 40
0.5000149506
 40
0.7499823927
 40
0.8749915771
 40
1.0
 40
1.0
 40
1.0
 40
1.0
 10
6.7696389752
 20
2.2516458192
 30
0.0
 10
6.7734558046
 20
2.2516458192
 30
0.0
 10
6.7810914568
 20
2.2514130936
 30
0.0
 10
6.7925015343
 20
2.2503806477
 30
0.0
 10
6.8038349818
 20
2.2487064627
 30
0.0
 10
6.8188080664
 20
2.2457008381
 30
0.0
 10
6.8335546944
 20
2.2416783942
 30
0.0
 10
6.8480682161
 20
2.2369405403
 30
0.0
 10
6.8552600565
 20
2.234376795
 30
0.0
 10
6.8588414848
 20
2.2330565826
 30
0.0
  0
SPLINE
  5
5DD
100
AcDbEntity
  8
0
100
AcDbSpline
 62
7
  6
CONTINUOUS
 70
0
 71
3
 72
49
 73
45
 74
0
 42
0.0000001
 43
0.0000001
 44
0.0000000001
 40
0.0
 40
0.0
 40
0.0
 40
0.0
 40
0.0154433987
 40
0.0314209294
 40
0.0480512833
 40
0.0654844257
 40
0.0839018948
 40
0.1035177832
 40
0.1245634978
 40
0.147233058
 40
0.1715521729
 40
0.1971625244
 40
0.2232058884
 40
0.2486101816
 40
0.2726105838
 40
0.2949430477
 40
0.315682922
 40
0.3350391817
 40
0.353242299
 40
0.3705004242
 40
0.3869884509
 40
0.4028491704
 40
0.4331165306
 40
0.4620026245
 40
0.5172340302
 40
0.5441226527
 40
0.5707177916
 40
0.5971143445
 40
0.6233782735
 40
0.6364763613
 40
0.6495576849
 40
0.675684394
 40
0.7278791594
 40
0.7540004451
 40
0.7801687315
 40
0.8064167321
 40
0.8195847808
 40
0.832790788
 40
0.8593498624
 40
0.8861853956
 40
0.9134274822
 40
0.9412664296
 40
0.9699835907
 40
1.0
 40
1.0
 40
1.0
 40
1.0
 10
6.4678281754
 20
2.2330565826
 30
0.0
 10
6.4671564828
 20
2.2325613742
 30
0.0
 10
6.4658194415
 20
2.2315129099
 30
0.0
 10
6.4638807443
 20
2.2297829365
 30
0.0
 10
6.4619900072
 20
2.2278465762
 30
0.0
 10
6.460163176
 20
2.2256738091
 30
0.0
 10
6.4584230938
 20
2.2232291418
 30
0.0
 10
6.4568032105
 20
2.2204731521
 30
0.0
 10
6.4553528014
 20
2.2173674491
 30
0.0
 10
6.454142862
 20
2.2138886075
 30
0.0
 10
6.4532666102
 20
2.2100560317
 30
0.0
 10
6.452822239
 20
2.2059649874
 30
0.0
 10
6.4528730191
 20
2.2017910831
 30
0.0
 10
6.4534111904
 20
2.1977401425
 30
0.0
 10
6.4543627837
 20
2.193973917
 30
0.0
 10
6.4556279726
 20
2.1905704931
 30
0.0
 10
6.4571174213
 20
2.1875378425
 30
0.0
 10
6.458764859
 20
2.1848477546
 30
0.0
 10
6.4605246751
 20
2.1824608695
 30
0.0
 10
6.4623658982
 20
2.1803383462
 30
0.0
 10
6.4642674538
 20
2.178445775
 30
0.0
 10
6.4668230681
 20
2.1762251621
 30
0.0
 10
6.4701234741
 20
2.1738542396
 30
0.0
 10
6.4755075249
 20
2.1708010018
 30
0.0
 10
6.4811030756
 20
2.1685592501
 30
0.0
 10
6.4867502416
 20
2.1669346481
 30
0.0
 10
6.4909623364
 20
2.1659800793
 30
0.0
 10
6.495182576
 20
2.165243073
 30
0.0
 10
6.4987074666
 20
2.1647853995
 30
0.0
 10
6.501527447
 20
2.1645040234
 30
0.0
 10
6.5043448386
 20
2.1642758986
 30
0.0
 10
6.5092777104
 20
2.1640119746
 30
0.0
 10
6.5149264963
 20
2.1639975493
 30
0.0
 10
6.520566808
 20
2.1642689497
 30
0.0
 10
6.5247967102
 20
2.1646253045
 30
0.0
 10
6.5283151061
 20
2.1650589592
 30
0.0
 10
6.5311246975
 20
2.1654982893
 30
0.0
 10
6.533940107
 20
2.1660043338
 30
0.0
 10
6.5374580234
 20
2.1667715551
 30
0.0
 10
6.5416591697
 20
2.1679374261
 30
0.0
 10
6.5458417699
 20
2.1693973862
 30
0.0
 10
6.5499961072
 20
2.1712119869
 30
0.0
 10
6.5541055536
 20
2.1734611876
 30
0.0
 10
6.5567222766
 20
2.1752715044
 30
0.0
 10
6.557999048
 20
2.176271844
 30
0.0
  0
SPLINE
  5
5DE
100
AcDbEntity
  8
0
100
AcDbSpline
 62
7
  6
CONTINUOUS
 70
0
 71
3
 72
52
 73
48
 74
0
 42
0.0000001
 43
0.0000001
 44
0.0000000001
 40
0.0
 40
0.0
 40
0.0
 40
0.0
 40
0.0312493844
 40
0.0624982032
 40
0.0937443145
 40
0.1093715076
 40
0.1249982668
 40
0.1406246673
 40
0.1562507931
 40
0.1718759863
 40
0.1796906571
 40
0.1875053459
 40
0.2031271946
 40
0.2187468533
 40
0.226561463
 40
0.2343759625
 40
0.2421903851
 40
0.250004877
 40
0.2578193112
 40
0.2656338328
 40
0.2812521715
 40
0.2968728155
 40
0.3124955565
 40
0.3203102818
 40
0.3281248785
 40
0.3437503639
 40
0.3593766669
 40
0.3750035404
 40
0.3906301948
 40
0.4062570738
 40
0.4218840657
 40
0.4375106318
 40
0.4531374828
 40
0.4687638387
 40
0.5000136527
 40
0.5312638628
 40
0.5625139486
 40
0.5937642766
 40
0.6250146687
 40
0.6875102304
 40
0.7500070804
 40
0.8125044944
 40
0.8437540869
 40
0.8750033745
 40
0.9062529833
 40
0.9375027671
 40
1.0
 40
1.0
 40
1.0
 40
1.0
 10
6.6804364655
 20
2.2330565826
 30
0.0
 10
6.6786933196
 20
2.2324140114
 30
0.0
 10
6.6752395671
 20
2.2310374264
 30
0.0
 10
6.6701989925
 20
2.2286503805
 30
0.0
 10
6.6661621537
 20
2.2263401582
 30
0.0
 10
6.6630801556
 20
2.2242618981
 30
0.0
 10
6.6608587968
 20
2.2225758531
 30
0.0
 10
6.6587493401
 20
2.22075104
 30
0.0
 10
6.6567795797
 20
2.2187755545
 30
0.0
 10
6.6552836966
 20
2.216994144
 30
0.0
 10
6.6541976319
 20
2.2154855103
 30
0.0
 10
6.6531939653
 20
2.2139211197
 30
0.0
 10
6.6521105329
 20
2.2118606082
 30
0.0
 10
6.6513071464
 20
2.2096732362
 30
0.0
 10
6.6508623488
 20
2.2078679161
 30
0.0
 10
6.65063318
 20
2.2064916739
 30
0.0
 10
6.6505130089
 20
2.2051016591
 30
0.0
 10
6.6505043567
 20
2.2037064658
 30
0.0
 10
6.6506074278
 20
2.2023150113
 30
0.0
 10
6.6508905378
 20
2.2004773845
 30
0.0
 10
6.6515091581
 20
2.1982297416
 30
0.0
 10
6.6526226145
 20
2.1956673643
 30
0.0
 10
6.6538088222
 20
2.1936646136
 30
0.0
 10
6.6548826006
 20
2.1921475789
 30
0.0
 10
6.6560314468
 20
2.1906862758
 30
0.0
 10
6.6575930815
 20
2.1889627812
 30
0.0
 10
6.6596256942
 20
2.1870524162
 30
0.0
 10
6.661785508
 20
2.1852878165
 30
0.0
 10
6.6640473829
 20
2.1836568801
 30
0.0
 10
6.6663920675
 20
2.1821479892
 30
0.0
 10
6.6688045063
 20
2.1807504874
 30
0.0
 10
6.6712726245
 20
2.1794542506
 30
0.0
 10
6.6737872162
 20
2.1782510135
 30
0.0
 10
6.6771913419
 20
2.1767597747
 30
0.0
 10
6.68152853
 20
2.1750904242
 30
0.0
 10
6.6868259347
 20
2.1733518626
 30
0.0
 10
6.6921921375
 20
2.1718403098
 30
0.0
 10
6.6976095561
 20
2.1705256181
 30
0.0
 10
6.7048839048
 20
2.1690022432
 30
0.0
 10
6.7140503998
 20
2.167474254
 30
0.0
 10
6.7251162108
 20
2.1661152659
 30
0.0
 10
6.7343711495
 20
2.1653027925
 30
0.0
 10
6.7417863533
 20
2.1648135326
 30
0.0
 10
6.7473522783
 20
2.1645208257
 30
0.0
 10
6.7529214438
 20
2.164298458
 30
0.0
 10
6.7603498047
 20
2.1640894953
 30
0.0
 10
6.7659234479
 20
2.1640284201
 30
0.0
 10
6.7696389752
 20
2.1640284201
 30
0.0
  0
SPLINE
  5
5DF
100
AcDbEntity
  8
0
100
AcDbSpline
 62
7
  6
CONTINUOUS
 70
0
 71
3
 72
14
 73
10
 74
0
 42
0.0000001
 43
0.0000001
 44
0.0000000001
 40
0.0
 40
0.0
 40
0.0
 40
0.0
 40
0.1250084229
 40
0.2500176073
 40
0.4999850493
 40
0.624990839
 40
0.7499952995
 40
0.8749975913
 40
1.0
 40
1.0
 40
1.0
 40
1.0
 10
6.6804364655
 20
2.2330565826
 30
0.0
 10
6.6840178938
 20
2.234376795
 30
0.0
 10
6.6912097342
 20
2.2369405403
 30
0.0
 10
6.7057232559
 20
2.2416783942
 30
0.0
 10
6.7204698839
 20
2.2457008381
 30
0.0
 10
6.7354429685
 20
2.2487064627
 30
0.0
 10
6.746776416
 20
2.2503806477
 30
0.0
 10
6.7581864935
 20
2.2514130936
 30
0.0
 10
6.7658221457
 20
2.2516458192
 30
0.0
 10
6.7696389752
 20
2.2516458192
 30
0.0
  0
SPLINE
  5
5E0
100
AcDbEntity
  8
0
100
AcDbSpline
 62
7
  6
CONTINUOUS
 70
0
 71
3
 72
29
 73
25
 74
0
 42
0.0000001
 43
0.0000001
 44
0.0000000001
 40
0.0
 40
0.0
 40
0.0
 40
0.0
 40
0.0673310801
 40
0.1334071981
 40
0.1980450178
 40
0.2611226361
 40
0.3226215684
 40
0.3528232295
 40
0.3826963933
 40
0.4122876843
 40
0.4416552447
 40
0.4708674616
 40
0.4999999917
 40
0.5291325189
 40
0.5583447291
 40
0.5877122837
 40
0.6173035758
 40
0.647176745
 40
0.6773784168
 40
0.7388773669
 40
0.8019549943
 40
0.8665928182
 40
0.932668931
 40
1.0
 40
1.0
 40
1.0
 40
1.0
 10
6.4678281754
 20
2.2330565826
 30
0.0
 10
6.469604088
 20
2.2343658824
 30
0.0
 10
6.4731637465
 20
2.2369054683
 30
0.0
 10
6.4785980747
 20
2.2404570538
 30
0.0
 10
6.4840900559
 20
2.243652625
 30
0.0
 10
6.4896443854
 20
2.2464197086
 30
0.0
 10
6.4943558144
 20
2.248317095
 30
0.0
 10
6.4981491493
 20
2.2495391057
 30
0.0
 10
6.5009894005
 20
2.2502971253
 30
0.0
 10
6.5038397911
 20
2.2508951208
 30
0.0
 10
6.5066983231
 20
2.2513266323
 30
0.0
 10
6.5095624295
 20
2.2515876606
 30
0.0
 10
6.5124294293
 20
2.2516747707
 30
0.0
 10
6.5152964289
 20
2.2515876604
 30
0.0
 10
6.5181605349
 20
2.2513266333
 30
0.0
 10
6.5210190663
 20
2.2508951207
 30
0.0
 10
6.5238694572
 20
2.2502971263
 30
0.0
 10
6.5267097089
 20
2.2495391061
 30
0.0
 10
6.5305030448
 20
2.2483170953
 30
0.0
 10
6.535214475
 20
2.2464197085
 30
0.0
 10
6.5407688055
 20
2.2436526246
 30
0.0
 10
6.546260787
 20
2.2404570534
 30
0.0
 10
6.5516951143
 20
2.2369054672
 30
0.0
 10
6.5552547728
 20
2.2343658822
 30
0.0
 10
6.5570306851
 20
2.2330565826
 30
0.0
  0
LINE
  5
5E1
100
AcDbEntity
  8
0
100
AcDbLine
 62
7
  6
CONTINUOUS
 10
2.8751389752
 20
3.4117241831
 11
2.8745844655
 21
3.4118129657
  0
LINE
  5
5E2
100
AcDbEntity
  8
0
100
AcDbLine
 62
7
  6
CONTINUOUS
 10
2.8745844655
 20
3.4118129657
 11
2.874047465
 21
3.4118994348
  0
LINE
  5
5E3
100
AcDbEntity
  8
0
100
AcDbLine
 62
7
  6
CONTINUOUS
 10
2.874047465
 20
3.4118994348
 11
2.8658889752
 21
3.4134030756
  0
SPLINE
  5
5E4
100
AcDbEntity
  8
0
100
AcDbSpline
 62
7
  6
CONTINUOUS
 70
0
 71
3
 72
52
 73
48
 74
0
 42
0.0000001
 43
0.0000001
 44
0.0000000001
 40
0.0
 40
0.0
 40
0.0
 40
0.0
 40
0.0624972439
 40
0.0937470372
 40
0.1249966567
 40
0.1562459483
 40
0.1874955362
 40
0.2499929472
 40
0.3124897924
 40
0.3749853488
 40
0.4062357403
 40
0.4374860637
 40
0.4687361482
 40
0.4999863576
 40
0.5312361694
 40
0.5468625232
 40
0.5624893743
 40
0.5781159384
 40
0.5937429303
 40
0.6093698072
 40
0.6249964611
 40
0.6406233327
 40
0.6562496337
 40
0.6718751171
 40
0.6796897128
 40
0.6875044373
 40
0.7031271761
 40
0.7187478178
 40
0.7343661549
 40
0.7421806759
 40
0.7499951104
 40
0.7578096035
 40
0.7656240254
 40
0.7734385237
 40
0.7812531342
 40
0.7968727923
 40
0.8124946364
 40
0.8203093264
 40
0.8281239957
 40
0.8437491859
 40
0.8593753137
 40
0.875001716
 40
0.8906284755
 40
0.9062556727
 40
0.9375017876
 40
0.968750612
 40
1.0
 40
1.0
 40
1.0
 40
1.0
 10
2.7696389752
 20
2.1640284201
 30
0.0
 10
2.7733545031
 20
2.1640284201
 30
0.0
 10
2.7789281476
 20
2.1640894898
 30
0.0
 10
2.7863565102
 20
2.1642984605
 30
0.0
 10
2.7919256771
 20
2.1645208261
 30
0.0
 10
2.7974916029
 20
2.1648135289
 30
0.0
 10
2.8049068059
 20
2.1653027986
 30
0.0
 10
2.8141617443
 20
2.1661152655
 30
0.0
 10
2.8252275546
 20
2.1674742543
 30
0.0
 10
2.8343940487
 20
2.1690022449
 30
0.0
 10
2.8416683971
 20
2.170525618
 30
0.0
 10
2.8470858149
 20
2.1718403113
 30
0.0
 10
2.8524520176
 20
2.1733518631
 30
0.0
 10
2.8577494221
 20
2.1750904246
 30
0.0
 10
2.8620866099
 20
2.176759775
 30
0.0
 10
2.8654907351
 20
2.1782510143
 30
0.0
 10
2.8680053267
 20
2.1794542508
 30
0.0
 10
2.8704734446
 20
2.1807504881
 30
0.0
 10
2.8728858835
 20
2.1821479893
 30
0.0
 10
2.8752305676
 20
2.1836568806
 30
0.0
 10
2.8774924426
 20
2.1852878165
 30
0.0
 10
2.879652256
 20
2.1870524162
 30
0.0
 10
2.8816848685
 20
2.1889627809
 30
0.0
 10
2.883246503
 20
2.1906862752
 30
0.0
 10
2.8843953491
 20
2.1921475781
 30
0.0
 10
2.8854691275
 20
2.1936646127
 30
0.0
 10
2.8866553352
 20
2.195667363
 30
0.0
 10
2.8877687916
 20
2.1982297398
 30
0.0
 10
2.888387412
 20
2.2004773825
 30
0.0
 10
2.8886705223
 20
2.2023150091
 30
0.0
 10
2.8887735934
 20
2.2037064636
 30
0.0
 10
2.8887649416
 20
2.205101657
 30
0.0
 10
2.8886447706
 20
2.2064916717
 30
0.0
 10
2.8884156018
 20
2.2078679139
 30
0.0
 10
2.8879708047
 20
2.209673234
 30
0.0
 10
2.8871674183
 20
2.2118606058
 30
0.0
 10
2.8860839864
 20
2.2139211173
 30
0.0
 10
2.8850803201
 20
2.2154855077
 30
0.0
 10
2.8839942558
 20
2.2169941415
 30
0.0
 10
2.882498373
 20
2.218775552
 30
0.0
 10
2.8805286127
 20
2.2207510378
 30
0.0
 10
2.8784191558
 20
2.2225758508
 30
0.0
 10
2.8761977972
 20
2.2242618967
 30
0.0
 10
2.8731157985
 20
2.2263401569
 30
0.0
 10
2.8690789593
 20
2.22865038
 30
0.0
 10
2.8640383839
 20
2.2310374261
 30
0.0
 10
2.8605846309
 20
2.2324140114
 30
0.0
 10
2.8588414848
 20
2.2330565826
 30
0.0
  0
SPLINE
  5
5E5
100
AcDbEntity
  8
0
100
AcDbSpline
 62
7
  6
CONTINUOUS
 70
0
 71
3
 72
49
 73
45
 74
0
 42
0.0000001
 43
0.0000001
 44
0.0000000001
 40
0.0
 40
0.0
 40
0.0
 40
0.0
 40
0.0154433986
 40
0.0314209293
 40
0.0480512832
 40
0.0654844255
 40
0.0839018945
 40
0.1035177828
 40
0.1245634972
 40
0.1472330571
 40
0.1715521717
 40
0.1971625229
 40
0.223205887
 40
0.2486101804
 40
0.2726105831
 40
0.2949430475
 40
0.3156829223
 40
0.3350391824
 40
0.3532423001
 40
0.3705004256
 40
0.3869884526
 40
0.4028491723
 40
0.4331165329
 40
0.4620026272
 40
0.5172340332
 40
0.5441226558
 40
0.5707177947
 40
0.5971143477
 40
0.6233782768
 40
0.6364763646
 40
0.6495576881
 40
0.6756843973
 40
0.7278791627
 40
0.7540004484
 40
0.7801687347
 40
0.8064167352
 40
0.8195847839
 40
0.8327907911
 40
0.8593498653
 40
0.8861853983
 40
0.9134274845
 40
0.9412664314
 40
0.9699835918
 40
1.0
 40
1.0
 40
1.0
 40
1.0
 10
2.9822472652
 20
2.2330565826
 30
0.0
 10
2.9815755727
 20
2.2325613742
 30
0.0
 10
2.9802385314
 20
2.2315129099
 30
0.0
 10
2.9782998342
 20
2.2297829366
 30
0.0
 10
2.9764090972
 20
2.2278465764
 30
0.0
 10
2.974582266
 20
2.2256738093
 30
0.0
 10
2.9728421838
 20
2.2232291421
 30
0.0
 10
2.9712223006
 20
2.2204731525
 30
0.0
 10
2.9697718914
 20
2.2173674496
 30
0.0
 10
2.9685619521
 20
2.2138886082
 30
0.0
 10
2.9676857002
 20
2.2100560325
 30
0.0
 10
2.9672413289
 20
2.2059649884
 30
0.0
 10
2.9672921089
 20
2.2017910842
 30
0.0
 10
2.96783028
 20
2.1977401436
 30
0.0
 10
2.9687818732
 20
2.193973918
 30
0.0
 10
2.970047062
 20
2.1905704941
 30
0.0
 10
2.9715365106
 20
2.1875378434
 30
0.0
 10
2.9731839482
 20
2.1848477555
 30
0.0
 10
2.9749437643
 20
2.1824608704
 30
0.0
 10
2.9767849873
 20
2.180338347
 30
0.0
 10
2.9786865428
 20
2.1784457758
 30
0.0
 10
2.981242157
 20
2.1762251628
 30
0.0
 10
2.9845425629
 20
2.1738542402
 30
0.0
 10
2.9899266136
 20
2.1708010023
 30
0.0
 10
2.9955221642
 20
2.1685592506
 30
0.0
 10
3.00116933
 20
2.1669346485
 30
0.0
 10
3.0053814247
 20
2.1659800796
 30
0.0
 10
3.0096016643
 20
2.1652430732
 30
0.0
 10
3.0131265548
 20
2.1647853997
 30
0.0
 10
3.0159465351
 20
2.1645040236
 30
0.0
 10
3.0187639266
 20
2.1642758987
 30
0.0
 10
3.0236967983
 20
2.1640119747
 30
0.0
 10
3.0293455841
 20
2.1639975493
 30
0.0
 10
3.0349858956
 20
2.1642689496
 30
0.0
 10
3.0392157978
 20
2.1646253043
 30
0.0
 10
3.0427341936
 20
2.1650589588
 30
0.0
 10
3.0455437849
 20
2.1654982889
 30
0.0
 10
3.0483591943
 20
2.1660043333
 30
0.0
 10
3.0518771107
 20
2.1667715545
 30
0.0
 10
3.0560782569
 20
2.1679374253
 30
0.0
 10
3.060260857
 20
2.1693973852
 30
0.0
 10
3.0644151943
 20
2.1712119855
 30
0.0
 10
3.0685246406
 20
2.1734611859
 30
0.0
 10
3.0711413636
 20
2.1752715023
 30
0.0
 10
3.072418135
 20
2.1762718418
 30
0.0
  0
LINE
  5
5E6
100
AcDbEntity
  8
0
100
AcDbLine
 62
7
  6
CONTINUOUS
 10
2.8478889752
 20
3.4154434447
 11
2.8473385481
 21
3.4154018223
  0
LINE
  5
5E7
100
AcDbEntity
  8
0
100
AcDbLine
 62
7
  6
CONTINUOUS
 10
2.8473385481
 20
3.4154018223
 11
2.8397324222
 21
3.4157921892
  0
LINE
  5
5E8
100
AcDbEntity
  8
0
100
AcDbLine
 62
7
  6
CONTINUOUS
 10
2.8397324222
 20
3.4157921892
 11
2.8386389752
 21
3.4158649802
  0
SPLINE
  5
5E9
100
AcDbEntity
  8
0
100
AcDbSpline
 62
7
  6
CONTINUOUS
 70
0
 71
3
 72
29
 73
25
 74
0
 42
0.0000001
 43
0.0000001
 44
0.0000000001
 40
0.0
 40
0.0
 40
0.0
 40
0.0
 40
0.0673310682
 40
0.1334071801
 40
0.1980450036
 40
0.2611226307
 40
0.3226215809
 40
0.3528232528
 40
0.3826964224
 40
0.4122877148
 40
0.4416552698
 40
0.4708674805
 40
0.5000000083
 40
0.5291325389
 40
0.5583447562
 40
0.587712317
 40
0.6173036084
 40
0.6471767726
 40
0.6773784338
 40
0.7388773663
 40
0.8019549844
 40
0.8665928037
 40
0.9326689208
 40
1.0
 40
1.0
 40
1.0
 40
1.0
 10
2.9822472652
 20
2.2330565826
 30
0.0
 10
2.9840231775
 20
2.2343658822
 30
0.0
 10
2.987582836
 20
2.2369054671
 30
0.0
 10
2.9930171632
 20
2.2404570533
 30
0.0
 10
2.9985091446
 20
2.2436526245
 30
0.0
 10
3.0040634751
 20
2.2464197084
 30
0.0
 10
3.0087749053
 20
2.2483170951
 30
0.0
 10
3.0125682412
 20
2.249539106
 30
0.0
 10
3.0154084929
 20
2.2502971262
 30
0.0
 10
3.0182588838
 20
2.2508951207
 30
0.0
 10
3.0211174153
 20
2.2513266333
 30
0.0
 10
3.0239815214
 20
2.2515876604
 30
0.0
 10
3.026848521
 20
2.2516747707
 30
0.0
 10
3.0297155209
 20
2.2515876606
 30
0.0
 10
3.0325796273
 20
2.2513266322
 30
0.0
 10
3.0354381594
 20
2.2508951208
 30
0.0
 10
3.03828855
 20
2.2502971253
 30
0.0
 10
3.0411288013
 20
2.2495391057
 30
0.0
 10
3.0449221361
 20
2.2483170948
 30
0.0
 10
3.0496335651
 20
2.2464197085
 30
0.0
 10
3.0551878946
 20
2.2436526249
 30
0.0
 10
3.0606798758
 20
2.2404570537
 30
0.0
 10
3.0661142038
 20
2.2369054682
 30
0.0
 10
3.0696738624
 20
2.2343658824
 30
0.0
 10
3.0714497749
 20
2.2330565826
 30
0.0
  0
SPLINE
  5
5EA
100
AcDbEntity
  8
0
100
AcDbSpline
 62
7
  6
CONTINUOUS
 70
0
 71
3
 72
14
 73
10
 74
0
 42
0.0000001
 43
0.0000001
 44
0.0000000001
 40
0.0
 40
0.0
 40
0.0
 40
0.0
 40
0.1250024086
 40
0.2500047003
 40
0.3750091608
 40
0.5000149506
 40
0.7499823927
 40
0.8749915771
 40
1.0
 40
1.0
 40
1.0
 40
1.0
 10
2.7696389752
 20
2.2516458192
 30
0.0
 10
2.7734558046
 20
2.2516458192
 30
0.0
 10
2.7810914568
 20
2.2514130936
 30
0.0
 10
2.7925015343
 20
2.2503806477
 30
0.0
 10
2.8038349818
 20
2.2487064627
 30
0.0
 10
2.8188080664
 20
2.2457008381
 30
0.0
 10
2.8335546944
 20
2.2416783942
 30
0.0
 10
2.8480682161
 20
2.2369405403
 30
0.0
 10
2.8552600565
 20
2.234376795
 30
0.0
 10
2.8588414848
 20
2.2330565826
 30
0.0
  0
LINE
  5
5EB
100
AcDbEntity
  8
0
100
AcDbLine
 62
7
  6
CONTINUOUS
 10
2.7186389752
 20
3.4172642067
 11
2.7181658268
 21
3.41723939
  0
LINE
  5
5EC
100
AcDbEntity
  8
0
100
AcDbLine
 62
7
  6
CONTINUOUS
 10
2.7181658268
 20
3.41723939
 11
2.7177001181
 21
3.4172155119
  0
LINE
  5
5ED
100
AcDbEntity
  8
0
100
AcDbLine
 62
7
  6
CONTINUOUS
 10
2.7177001181
 20
3.4172155119
 11
2.7103889752
 21
3.417041433
  0
SPLINE
  5
5EE
100
AcDbEntity
  8
0
100
AcDbSpline
 62
7
  6
CONTINUOUS
 70
0
 71
3
 72
49
 73
45
 74
0
 42
0.0000001
 43
0.0000001
 44
0.0000000001
 40
0.0
 40
0.0
 40
0.0
 40
0.0
 40
0.0154433987
 40
0.0314209294
 40
0.0480512833
 40
0.0654844257
 40
0.0839018948
 40
0.1035177832
 40
0.1245634978
 40
0.147233058
 40
0.1715521729
 40
0.1971625244
 40
0.2232058884
 40
0.2486101816
 40
0.2726105838
 40
0.2949430477
 40
0.315682922
 40
0.3350391817
 40
0.353242299
 40
0.3705004242
 40
0.3869884509
 40
0.4028491704
 40
0.4331165306
 40
0.4620026245
 40
0.5172340302
 40
0.5441226527
 40
0.5707177916
 40
0.5971143445
 40
0.6233782735
 40
0.6364763613
 40
0.6495576849
 40
0.675684394
 40
0.7278791594
 40
0.7540004451
 40
0.7801687315
 40
0.8064167321
 40
0.8195847808
 40
0.832790788
 40
0.8593498624
 40
0.8861853956
 40
0.9134274822
 40
0.9412664296
 40
0.9699835907
 40
1.0
 40
1.0
 40
1.0
 40
1.0
 10
2.4678281754
 20
2.2330565826
 30
0.0
 10
2.4671564828
 20
2.2325613742
 30
0.0
 10
2.4658194415
 20
2.2315129099
 30
0.0
 10
2.4638807443
 20
2.2297829365
 30
0.0
 10
2.4619900072
 20
2.2278465762
 30
0.0
 10
2.460163176
 20
2.2256738091
 30
0.0
 10
2.4584230938
 20
2.2232291418
 30
0.0
 10
2.4568032105
 20
2.2204731521
 30
0.0
 10
2.4553528014
 20
2.2173674491
 30
0.0
 10
2.454142862
 20
2.2138886075
 30
0.0
 10
2.4532666102
 20
2.2100560317
 30
0.0
 10
2.452822239
 20
2.2059649874
 30
0.0
 10
2.4528730191
 20
2.2017910831
 30
0.0
 10
2.4534111904
 20
2.1977401425
 30
0.0
 10
2.4543627837
 20
2.193973917
 30
0.0
 10
2.4556279726
 20
2.1905704931
 30
0.0
 10
2.4571174213
 20
2.1875378425
 30
0.0
 10
2.458764859
 20
2.1848477546
 30
0.0
 10
2.4605246751
 20
2.1824608695
 30
0.0
 10
2.4623658982
 20
2.1803383462
 30
0.0
 10
2.4642674538
 20
2.178445775
 30
0.0
 10
2.4668230681
 20
2.1762251621
 30
0.0
 10
2.4701234741
 20
2.1738542396
 30
0.0
 10
2.4755075249
 20
2.1708010018
 30
0.0
 10
2.4811030756
 20
2.1685592501
 30
0.0
 10
2.4867502416
 20
2.1669346481
 30
0.0
 10
2.4909623364
 20
2.1659800793
 30
0.0
 10
2.495182576
 20
2.165243073
 30
0.0
 10
2.4987074666
 20
2.1647853995
 30
0.0
 10
2.501527447
 20
2.1645040234
 30
0.0
 10
2.5043448386
 20
2.1642758986
 30
0.0
 10
2.5092777104
 20
2.1640119746
 30
0.0
 10
2.5149264963
 20
2.1639975493
 30
0.0
 10
2.520566808
 20
2.1642689497
 30
0.0
 10
2.5247967102
 20
2.1646253045
 30
0.0
 10
2.5283151061
 20
2.1650589592
 30
0.0
 10
2.5311246975
 20
2.1654982893
 30
0.0
 10
2.533940107
 20
2.1660043338
 30
0.0
 10
2.5374580234
 20
2.1667715551
 30
0.0
 10
2.5416591697
 20
2.1679374261
 30
0.0
 10
2.5458417699
 20
2.1693973862
 30
0.0
 10
2.5499961072
 20
2.1712119869
 30
0.0
 10
2.5541055536
 20
2.1734611876
 30
0.0
 10
2.5567222766
 20
2.1752715044
 30
0.0
 10
2.557999048
 20
2.176271844
 30
0.0
  0
SPLINE
  5
5EF
100
AcDbEntity
  8
0
100
AcDbSpline
 62
7
  6
CONTINUOUS
 70
0
 71
3
 72
52
 73
48
 74
0
 42
0.0000001
 43
0.0000001
 44
0.0000000001
 40
0.0
 40
0.0
 40
0.0
 40
0.0
 40
0.0312493844
 40
0.0624982032
 40
0.0937443145
 40
0.1093715076
 40
0.1249982668
 40
0.1406246673
 40
0.1562507931
 40
0.1718759863
 40
0.1796906571
 40
0.1875053459
 40
0.2031271946
 40
0.2187468533
 40
0.226561463
 40
0.2343759625
 40
0.2421903851
 40
0.250004877
 40
0.2578193112
 40
0.2656338328
 40
0.2812521715
 40
0.2968728155
 40
0.3124955565
 40
0.3203102818
 40
0.3281248785
 40
0.3437503639
 40
0.3593766669
 40
0.3750035404
 40
0.3906301948
 40
0.4062570738
 40
0.4218840657
 40
0.4375106318
 40
0.4531374828
 40
0.4687638387
 40
0.5000136527
 40
0.5312638628
 40
0.5625139486
 40
0.5937642766
 40
0.6250146687
 40
0.6875102304
 40
0.7500070804
 40
0.8125044944
 40
0.8437540869
 40
0.8750033745
 40
0.9062529833
 40
0.9375027671
 40
1.0
 40
1.0
 40
1.0
 40
1.0
 10
2.6804364655
 20
2.2330565826
 30
0.0
 10
2.6786933196
 20
2.2324140114
 30
0.0
 10
2.6752395671
 20
2.2310374264
 30
0.0
 10
2.6701989925
 20
2.2286503805
 30
0.0
 10
2.6661621537
 20
2.2263401582
 30
0.0
 10
2.6630801556
 20
2.2242618981
 30
0.0
 10
2.6608587968
 20
2.2225758531
 30
0.0
 10
2.6587493401
 20
2.22075104
 30
0.0
 10
2.6567795797
 20
2.2187755545
 30
0.0
 10
2.6552836966
 20
2.216994144
 30
0.0
 10
2.6541976319
 20
2.2154855103
 30
0.0
 10
2.6531939653
 20
2.2139211197
 30
0.0
 10
2.6521105329
 20
2.2118606082
 30
0.0
 10
2.6513071464
 20
2.2096732362
 30
0.0
 10
2.6508623488
 20
2.2078679161
 30
0.0
 10
2.65063318
 20
2.2064916739
 30
0.0
 10
2.6505130089
 20
2.2051016591
 30
0.0
 10
2.6505043567
 20
2.2037064658
 30
0.0
 10
2.6506074278
 20
2.2023150113
 30
0.0
 10
2.6508905378
 20
2.2004773845
 30
0.0
 10
2.6515091581
 20
2.1982297416
 30
0.0
 10
2.6526226145
 20
2.1956673643
 30
0.0
 10
2.6538088222
 20
2.1936646136
 30
0.0
 10
2.6548826006
 20
2.1921475789
 30
0.0
 10
2.6560314468
 20
2.1906862758
 30
0.0
 10
2.6575930815
 20
2.1889627812
 30
0.0
 10
2.6596256942
 20
2.1870524162
 30
0.0
 10
2.661785508
 20
2.1852878165
 30
0.0
 10
2.6640473829
 20
2.1836568801
 30
0.0
 10
2.6663920675
 20
2.1821479892
 30
0.0
 10
2.6688045063
 20
2.1807504874
 30
0.0
 10
2.6712726245
 20
2.1794542506
 30
0.0
 10
2.6737872162
 20
2.1782510135
 30
0.0
 10
2.6771913419
 20
2.1767597747
 30
0.0
 10
2.68152853
 20
2.1750904242
 30
0.0
 10
2.6868259347
 20
2.1733518626
 30
0.0
 10
2.6921921375
 20
2.1718403098
 30
0.0
 10
2.6976095561
 20
2.1705256181
 30
0.0
 10
2.7048839048
 20
2.1690022432
 30
0.0
 10
2.7140503998
 20
2.167474254
 30
0.0
 10
2.7251162108
 20
2.1661152659
 30
0.0
 10
2.7343711495
 20
2.1653027925
 30
0.0
 10
2.7417863533
 20
2.1648135326
 30
0.0
 10
2.7473522783
 20
2.1645208257
 30
0.0
 10
2.7529214438
 20
2.164298458
 30
0.0
 10
2.7603498047
 20
2.1640894953
 30
0.0
 10
2.7659234479
 20
2.1640284201
 30
0.0
 10
2.7696389752
 20
2.1640284201
 30
0.0
  0
LINE
  5
5F0
100
AcDbEntity
  8
0
100
AcDbLine
 62
7
  6
CONTINUOUS
 10
2.6903889752
 20
3.4152460756
 11
2.6902576113
 21
3.4151866216
  0
LINE
  5
5F1
100
AcDbEntity
  8
0
100
AcDbLine
 62
7
  6
CONTINUOUS
 10
2.6902576113
 20
3.4151866216
 11
2.6830604591
 21
3.4141033521
  0
SPLINE
  5
5F2
100
AcDbEntity
  8
0
100
AcDbSpline
 62
7
  6
CONTINUOUS
 70
0
 71
3
 72
14
 73
10
 74
0
 42
0.0000001
 43
0.0000001
 44
0.0000000001
 40
0.0
 40
0.0
 40
0.0
 40
0.0
 40
0.1250084229
 40
0.2500176073
 40
0.4999850493
 40
0.624990839
 40
0.7499952995
 40
0.8749975913
 40
1.0
 40
1.0
 40
1.0
 40
1.0
 10
2.6804364655
 20
2.2330565826
 30
0.0
 10
2.6840178938
 20
2.234376795
 30
0.0
 10
2.6912097342
 20
2.2369405403
 30
0.0
 10
2.7057232559
 20
2.2416783942
 30
0.0
 10
2.7204698839
 20
2.2457008381
 30
0.0
 10
2.7354429685
 20
2.2487064627
 30
0.0
 10
2.746776416
 20
2.2503806477
 30
0.0
 10
2.7581864935
 20
2.2514130936
 30
0.0
 10
2.7658221457
 20
2.2516458192
 30
0.0
 10
2.7696389752
 20
2.2516458192
 30
0.0
  0
SPLINE
  5
5F3
100
AcDbEntity
  8
0
100
AcDbSpline
 62
7
  6
CONTINUOUS
 70
0
 71
3
 72
29
 73
25
 74
0
 42
0.0000001
 43
0.0000001
 44
0.0000000001
 40
0.0
 40
0.0
 40
0.0
 40
0.0
 40
0.0673310801
 40
0.1334071981
 40
0.1980450178
 40
0.2611226361
 40
0.3226215684
 40
0.3528232295
 40
0.3826963933
 40
0.4122876843
 40
0.4416552447
 40
0.4708674616
 40
0.4999999917
 40
0.5291325189
 40
0.5583447291
 40
0.5877122837
 40
0.6173035758
 40
0.647176745
 40
0.6773784168
 40
0.7388773669
 40
0.8019549943
 40
0.8665928182
 40
0.932668931
 40
1.0
 40
1.0
 40
1.0
 40
1.0
 10
2.4678281754
 20
2.2330565826
 30
0.0
 10
2.469604088
 20
2.2343658824
 30
0.0
 10
2.4731637465
 20
2.2369054683
 30
0.0
 10
2.4785980747
 20
2.2404570538
 30
0.0
 10
2.4840900559
 20
2.243652625
 30
0.0
 10
2.4896443854
 20
2.2464197086
 30
0.0
 10
2.4943558144
 20
2.248317095
 30
0.0
 10
2.4981491493
 20
2.2495391057
 30
0.0
 10
2.5009894005
 20
2.2502971253
 30
0.0
 10
2.5038397911
 20
2.2508951208
 30
0.0
 10
2.5066983231
 20
2.2513266323
 30
0.0
 10
2.5095624295
 20
2.2515876606
 30
0.0
 10
2.5124294293
 20
2.2516747707
 30
0.0
 10
2.5152964289
 20
2.2515876604
 30
0.0
 10
2.5181605349
 20
2.2513266333
 30
0.0
 10
2.5210190663
 20
2.2508951207
 30
0.0
 10
2.5238694572
 20
2.2502971263
 30
0.0
 10
2.5267097089
 20
2.2495391061
 30
0.0
 10
2.5305030448
 20
2.2483170953
 30
0.0
 10
2.535214475
 20
2.2464197085
 30
0.0
 10
2.5407688055
 20
2.2436526246
 30
0.0
 10
2.546260787
 20
2.2404570534
 30
0.0
 10
2.5516951143
 20
2.2369054672
 30
0.0
 10
2.5552547728
 20
2.2343658822
 30
0.0
 10
2.5570306851
 20
2.2330565826
 30
0.0
  0
LINE
  5
5F4
100
AcDbEntity
  8
0
100
AcDbLine
 62
7
  6
CONTINUOUS
 10
2.6736389752
 20
3.4129710272
 11
2.673164212
 21
3.4129181775
  0
LINE
  5
5F5
100
AcDbEntity
  8
0
100
AcDbLine
 62
7
  6
CONTINUOUS
 10
2.673164212
 20
3.4129181775
 11
2.6726970872
 21
3.4128667304
  0
LINE
  5
5F6
100
AcDbEntity
  8
0
100
AcDbLine
 62
7
  6
CONTINUOUS
 10
2.6726970872
 20
3.4128667304
 11
2.6653889752
 21
3.4122634811
  0
SPLINE
  5
5F7
100
AcDbEntity
  8
0
100
AcDbSpline
 62
7
  6
CONTINUOUS
 70
0
 71
3
 72
11
 73
7
 74
0
 42
0.0000001
 43
0.0000001
 44
0.0000000001
 40
0.0
 40
0.0
 40
0.0
 40
0.0
 40
0.1142488779
 40
0.3109776338
 40
0.6049545027
 40
1.0
 40
1.0
 40
1.0
 40
1.0
 10
2.6453889752
 20
3.4092806958
 30
0.0
 10
2.6453889752
 20
3.4092772354
 30
0.0
 10
2.6453828318
 20
3.4092687506
 30
0.0
 10
2.6453678857
 20
3.4092587258
 30
0.0
 10
2.6453439033
 20
3.4092462133
 30
0.0
 10
2.6453246973
 20
3.4092381535
 30
0.0
 10
2.6453135883
 20
3.4092337089
 30
0.0
  0
LINE
  5
5F8
100
AcDbEntity
  8
0
100
AcDbLine
 62
7
  6
CONTINUOUS
 10
2.6453135883
 20
3.4092337089
 11
2.6380431376
 21
3.407693663
  0
LINE
  5
5F9
100
AcDbEntity
  8
0
100
AcDbLine
 62
7
  6
CONTINUOUS
 10
2.6380431376
 20
3.407693663
 11
2.6372316217
 21
3.4075410344
  0
SPLINE
  5
5FA
100
AcDbEntity
  8
0
100
AcDbSpline
 62
7
  6
CONTINUOUS
 70
0
 71
3
 72
8
 73
4
 74
0
 42
0.0000001
 43
0.0000001
 44
0.0000000001
 40
0.0
 40
0.0
 40
0.0
 40
0.0
 40
1.0
 40
1.0
 40
1.0
 40
1.0
 10
2.6372316217
 20
3.4075410344
 30
0.0
 10
2.6372007401
 20
3.4075352573
 30
0.0
 10
2.637169858
 20
3.4075294834
 30
0.0
 10
2.6371389752
 20
3.4075237129
 30
0.0
  0
LINE
  5
5FB
100
AcDbEntity
  8
0
100
AcDbLine
 62
7
  6
CONTINUOUS
 10
2.7902889752
 20
3.4192710551
 11
2.7891715465
 21
3.4192091016
  0
SPLINE
  5
5FC
100
AcDbEntity
  8
0
100
AcDbSpline
 62
7
  6
CONTINUOUS
 70
0
 71
3
 72
27
 73
23
 74
0
 42
0.0000001
 43
0.0000001
 44
0.0000000001
 40
0.0
 40
0.0
 40
0.0
 40
0.0
 40
0.0307936473
 40
0.0779705512
 40
0.1432368722
 40
0.224590676
 40
0.3182129791
 40
0.4207946747
 40
0.5278025289
 40
0.6325879619
 40
0.7297934412
 40
0.8157001136
 40
0.8860988565
 40
0.9372557368
 40
0.9558219454
 40
0.9702847022
 40
0.9811841527
 40
0.9890666741
 40
0.994442127
 40
0.9977818026
 40
0.9995056916
 40
1.0
 40
1.0
 40
1.0
 40
1.0
 10
2.7891715465
 20
3.4192091016
 30
0.0
 10
2.7887470869
 20
3.4191909782
 30
0.0
 10
2.7876719753
 20
3.4191537599
 30
0.0
 10
2.7856963726
 20
3.4191052606
 30
0.0
 10
2.7830229933
 20
3.4190606361
 30
0.0
 10
2.7797087084
 20
3.4190208589
 30
0.0
 10
2.7758795225
 20
3.4189857133
 30
0.0
 10
2.771696314
 20
3.4189598598
 30
0.0
 10
2.7673590133
 20
3.4189511823
 30
0.0
 10
2.7630958978
 20
3.4189626807
 30
0.0
 10
2.7591239652
 20
3.4189858842
 30
0.0
 10
2.7556265149
 20
3.4190165108
 30
0.0
 10
2.7527644765
 20
3.4190535395
 30
0.0
 10
2.7508316734
 20
3.4190948587
 30
0.0
 10
2.7496707735
 20
3.4191317078
 30
0.0
 10
2.7490651751
 20
3.4191555439
 30
0.0
 10
2.7486070356
 20
3.4191776108
 30
0.0
 10
2.7482743117
 20
3.4191970997
 30
0.0
 10
2.7480458793
 20
3.4192132283
 30
0.0
 10
2.7479023878
 20
3.4192255877
 30
0.0
 10
2.7478260874
 20
3.4192333149
 30
0.0
 10
2.7477957333
 20
3.4192372144
 30
0.0
 10
2.7477889752
 20
3.4192381326
 30
0.0
  0
LINE
  5
5FD
100
AcDbEntity
  8
0
100
AcDbLine
 62
7
  6
CONTINUOUS
 10
2.7477889752
 20
3.4197383314
 11
2.7482957271
 21
3.4196965125
  0
SPLINE
  5
5FE
100
AcDbEntity
  8
0
100
AcDbSpline
 62
7
  6
CONTINUOUS
 70
0
 71
3
 72
23
 73
19
 74
0
 42
0.0000001
 43
0.0000001
 44
0.0000000001
 40
0.0
 40
0.0
 40
0.0
 40
0.0
 40
0.0202614989
 40
0.0556778213
 40
0.1101047798
 40
0.1839505499
 40
0.2728317977
 40
0.3725673274
 40
0.4790699721
 40
0.5861505349
 40
0.6872228402
 40
0.7780969314
 40
0.855255892
 40
0.9147880928
 40
0.9560398728
 40
0.9816383103
 40
0.9951834294
 40
1.0
 40
1.0
 40
1.0
 40
1.0
 10
2.7482957271
 20
3.4196965125
 30
0.0
 10
2.7485787738
 20
3.4196785974
 30
0.0
 10
2.7493573081
 20
3.4196413333
 30
0.0
 10
2.7508977681
 20
3.4195923211
 30
0.0
 10
2.7531886243
 20
3.419546906
 30
0.0
 10
2.7562280637
 20
3.4195107629
 30
0.0
 10
2.7599018018
 20
3.4194806967
 30
0.0
 10
2.7640327261
 20
3.4194591664
 30
0.0
 10
2.7684184561
 20
3.4194513707
 30
0.0
 10
2.772822883
 20
3.4194657359
 30
0.0
 10
2.777008457
 20
3.4194952163
 30
0.0
 10
2.7807751129
 20
3.419532869
 30
0.0
 10
2.7839602237
 20
3.4195745365
 30
0.0
 10
2.7864505827
 20
3.4196218471
 30
0.0
 10
2.7882189714
 20
3.4196711435
 30
0.0
 10
2.7893435135
 20
3.4197147844
 30
0.0
 10
2.7899579843
 20
3.4197475437
 30
0.0
 10
2.7902144519
 20
3.4197647653
 30
0.0
 10
2.7902816213
 20
3.4197705796
 30
0.0
  0
SPLINE
  5
5FF
100
AcDbEntity
  8
0
100
AcDbSpline
 62
7
  6
CONTINUOUS
 70
0
 71
3
 72
14
 73
10
 74
0
 42
0.0000001
 43
0.0000001
 44
0.0000000001
 40
0.0
 40
0.0
 40
0.0
 40
0.0
 40
0.0849831361
 40
0.1672503973
 40
0.2779322279
 40
0.4175791442
 40
0.5856909044
 40
0.7806773979
 40
1.0
 40
1.0
 40
1.0
 40
1.0
 10
3.0482965606
 20
3.2633435073
 30
0.0
 10
3.0478913992
 20
3.2625019775
 30
0.0
 10
3.0471278214
 20
3.2608294466
 30
0.0
 10
3.0459418084
 20
3.2580142544
 30
0.0
 10
3.0446168526
 20
3.254606941
 30
0.0
 10
3.0430781696
 20
3.2502724826
 30
0.0
 10
3.0413921132
 20
3.2450097383
 30
0.0
 10
3.0396355682
 20
3.2388534028
 30
0.0
 10
3.0385309622
 20
3.2344350212
 30
0.0
 10
3.037983848
 20
3.232087526
 30
0.0
  0
SPLINE
  5
600
100
AcDbEntity
  8
0
100
AcDbSpline
 62
7
  6
CONTINUOUS
 70
0
 71
3
 72
11
 73
7
 74
0
 42
0.0000001
 43
0.0000001
 44
0.0000000001
 40
0.0
 40
0.0
 40
0.0
 40
0.0
 40
0.2254579266
 40
0.4702667855
 40
0.7300486238
 40
1.0
 40
1.0
 40
1.0
 40
1.0
 10
3.037983848
 20
3.232087526
 30
0.0
 10
3.0371190574
 20
3.2283769811
 30
0.0
 10
3.0354591331
 20
3.2206030224
 30
0.0
 10
3.0333774299
 20
3.2084390068
 30
0.0
 10
3.0317635653
 20
3.1954451174
 30
0.0
 10
3.0311054255
 20
3.1865126865
 30
0.0
 10
3.0308889752
 20
3.1819559469
 30
0.0
  0
SPLINE
  5
601
100
AcDbEntity
  8
0
100
AcDbSpline
 62
7
  6
CONTINUOUS
 70
0
 71
3
 72
11
 73
7
 74
0
 42
0.0000001
 43
0.0000001
 44
0.0000000001
 40
0.0
 40
0.0
 40
0.0
 40
0.0
 40
0.2699513712
 40
0.5297332148
 40
0.7745420741
 40
1.0
 40
1.0
 40
1.0
 40
1.0
 10
3.0308889752
 20
3.1571365996
 30
0.0
 10
3.0311054255
 20
3.1525798602
 30
0.0
 10
3.0317635653
 20
3.1436474293
 30
0.0
 10
3.0333774299
 20
3.1306535399
 30
0.0
 10
3.0354591331
 20
3.1184895242
 30
0.0
 10
3.0371190574
 20
3.1107155655
 30
0.0
 10
3.037983848
 20
3.1070050206
 30
0.0
  0
SPLINE
  5
602
100
AcDbEntity
  8
0
100
AcDbSpline
 62
7
  6
CONTINUOUS
 70
0
 71
3
 72
14
 73
10
 74
0
 42
0.0000001
 43
0.0000001
 44
0.0000000001
 40
0.0
 40
0.0
 40
0.0
 40
0.0
 40
0.2193226253
 40
0.4143090947
 40
0.5824208505
 40
0.7220677729
 40
0.83274959
 40
0.9150168456
 40
1.0
 40
1.0
 40
1.0
 40
1.0
 10
3.037983848
 20
3.1070050206
 30
0.0
 10
3.0385309623
 20
3.1046575251
 30
0.0
 10
3.0396355683
 20
3.1002391435
 30
0.0
 10
3.0413921133
 20
3.0940828081
 30
0.0
 10
3.0430781696
 20
3.0888200641
 30
0.0
 10
3.0446168526
 20
3.0844856057
 30
0.0
 10
3.0459418083
 20
3.0810782925
 30
0.0
 10
3.0471278212
 20
3.0782631003
 30
0.0
 10
3.0478913991
 20
3.0765905693
 30
0.0
 10
3.0482965606
 20
3.0757490393
 30
0.0
  0
SPLINE
  5
603
100
AcDbEntity
  8
0
100
AcDbSpline
 62
7
  6
CONTINUOUS
 70
0
 71
3
 72
47
 73
43
 74
0
 42
0.0000001
 43
0.0000001
 44
0.0000000001
 40
0.0
 40
0.0
 40
0.0
 40
0.0
 40
0.1010926673
 40
0.1999563415
 40
0.2958729494
 40
0.3881632684
 40
0.4761886443
 40
0.5593397307
 40
0.6370267789
 40
0.7086709848
 40
0.7420481681
 40
0.7737003143
 40
0.8035569
 40
0.8315483558
 40
0.8576060516
 40
0.8816632214
 40
0.9036552604
 40
0.9235202845
 40
0.9412004023
 40
0.9566415795
 40
0.963507255
 40
0.9697952656
 40
0.9755007172
 40
0.9806188449
 40
0.9851450805
 40
0.9890758285
 40
0.9924077846
 40
0.9938481869
 40
0.9951377581
 40
0.9962762828
 40
0.9972635496
 40
0.9980993467
 40
0.9987834628
 40
0.9990685742
 40
0.9993156862
 40
0.9995247821
 40
0.9996958606
 40
0.9998289216
 40
0.9999239652
 40
0.9999572304
 40
0.9999809913
 40
1.0
 40
1.0
 40
1.0
 40
1.0
 10
2.5083889752
 20
3.1854286535
 30
0.0
 10
2.508215724
 20
3.1882784704
 30
0.0
 10
2.5077813989
 20
3.1939101192
 30
0.0
 10
2.5068752727
 20
3.2022182196
 30
0.0
 10
2.5057530028
 20
3.2102488706
 30
0.0
 10
2.5044535872
 20
3.2179422935
 30
0.0
 10
2.5030202248
 20
3.2252446315
 30
0.0
 10
2.5014985517
 20
3.2321070364
 30
0.0
 10
2.4999352643
 20
3.2384845178
 30
0.0
 10
2.4986070836
 20
3.2434710801
 30
0.0
 10
2.4975631056
 20
3.2471872189
 30
0.0
 10
2.4968170089
 20
3.2497610789
 30
0.0
 10
2.496094593
 20
3.2521833512
 30
0.0
 10
2.4954011264
 20
3.2544493134
 30
0.0
 10
2.4947417408
 20
3.2565543648
 30
0.0
 10
2.4941213117
 20
3.258494022
 30
0.0
 10
2.4935444808
 20
3.2602639687
 30
0.0
 10
2.4930156281
 20
3.2618601029
 30
0.0
 10
2.4925387581
 20
3.2632785418
 30
0.0
 10
2.4921748219
 20
3.2643476157
 30
0.0
 10
2.4919126099
 20
3.2651114437
 30
0.0
 10
2.4917389333
 20
3.2656149557
 30
0.0
 10
2.4915807229
 20
3.2660715937
 30
0.0
 10
2.4914382933
 20
3.2664810408
 30
0.0
 10
2.4913119503
 20
3.266843016
 30
0.0
 10
2.4912019299
 20
3.2671572583
 30
0.0
 10
2.4911205109
 20
3.2673891765
 30
0.0
 10
2.4910637184
 20
3.2675506844
 30
0.0
 10
2.491027447
 20
3.2676537427
 30
0.0
 10
2.4909953994
 20
3.2677447206
 30
0.0
 10
2.4909675896
 20
3.2678236035
 30
0.0
 10
2.4909440307
 20
3.2678903785
 30
0.0
 10
2.4909270617
 20
3.267938447
 30
0.0
 10
2.4909156209
 20
3.2679708417
 30
0.0
 10
2.4909086532
 20
3.267990576
 30
0.0
 10
2.4909027404
 20
3.2680073017
 30
0.0
 10
2.4908979496
 20
3.2680209112
 30
0.0
 10
2.4908941025
 20
3.2680316902
 30
0.0
 10
2.4908918366
 20
3.2680383425
 30
0.0
 10
2.490890148
 20
3.2680428061
 30
0.0
 10
2.4908898859
 20
3.2680441052
 30
0.0
 10
2.490888608
 20
3.2680466469
 30
0.0
 10
2.4908889843
 20
3.2680462639
 30
0.0
  0
SPLINE
  5
604
100
AcDbEntity
  8
0
100
AcDbSpline
 62
7
  6
CONTINUOUS
 70
0
 71
3
 72
18
 73
14
 74
0
 42
0.0000001
 43
0.0000001
 44
0.0000000001
 40
0.0
 40
0.0
 40
0.0
 40
0.0
 40
0.0666708413
 40
0.133178799
 40
0.1993722806
 40
0.265115547
 40
0.3302973552
 40
0.3948318663
 40
0.5216979166
 40
0.645545809
 40
0.7664139594
 40
0.8844842706
 40
1.0
 40
1.0
 40
1.0
 40
1.0
 10
9.1446389752
 20
2.3372962733
 30
0.0
 10
9.1404969182
 20
2.3372963321
 30
0.0
 10
9.1322207598
 20
2.3375503358
 30
0.0
 10
9.119878741
 20
2.3386796033
 30
0.0
 10
9.1076839995
 20
2.3405429724
 30
0.0
 10
9.0957023069
 20
2.343108731
 30
0.0
 10
9.0839892963
 20
2.3463389083
 30
0.0
 10
9.068879815
 20
2.3514409694
 30
0.0
 10
9.0508624194
 20
2.3592232523
 30
0.0
 10
9.030689385
 20
2.3705222364
 30
0.0
 10
9.0121375313
 20
2.3833784363
 30
0.0
 10
8.995196345
 20
2.3974868718
 30
0.0
 10
8.9848300875
 20
2.4076677932
 30
0.0
 10
8.9799071355
 20
2.4128897398
 30
0.0
  0
SPLINE
  5
605
100
AcDbEntity
  8
0
100
AcDbSpline
 62
7
  6
CONTINUOUS
 70
0
 71
3
 72
23
 73
19
 74
0
 42
0.0000001
 43
0.0000001
 44
0.0000000001
 40
0.0
 40
0.0
 40
0.0
 40
0.0
 40
0.0491005987
 40
0.1006648462
 40
0.1554253516
 40
0.2143201956
 40
0.2784677091
 40
0.3489048
 40
0.4257111014
 40
0.5064607019
 40
0.5861825325
 40
0.6606481785
 40
0.7285671323
 40
0.7905508166
 40
0.8477264194
 40
0.9011543576
 40
0.9516924562
 40
1.0
 40
1.0
 40
1.0
 40
1.0
 10
7.072418135
 20
2.1762718418
 30
0.0
 10
7.0732693133
 20
2.1769387327
 30
0.0
 10
7.074961298
 20
2.1783755322
 30
0.0
 10
7.0773741416
 20
2.1808095756
 30
0.0
 10
7.079683605
 20
2.1836290418
 30
0.0
 10
7.0818385209
 20
2.1869078411
 30
0.0
 10
7.0837556199
 20
2.1907248914
 30
0.0
 10
7.0853005051
 20
2.1951313161
 30
0.0
 10
7.0862856257
 20
2.2000730497
 30
0.0
 10
7.0865317615
 20
2.2053133733
 30
0.0
 10
7.0859848932
 20
2.2104783481
 30
0.0
 10
7.084759753
 20
2.2152308019
 30
0.0
 10
7.0830515701
 20
2.2194083463
 30
0.0
 10
7.0810299649
 20
2.2230089869
 30
0.0
 10
7.0788077265
 20
2.2261011622
 30
0.0
 10
7.0764535624
 20
2.2287639049
 30
0.0
 10
7.0740099572
 20
2.2310663849
 30
0.0
 10
7.0723060669
 20
2.2324252774
 30
0.0
 10
7.0714497749
 20
2.2330565826
 30
0.0
  0
SPLINE
  5
606
100
AcDbEntity
  8
0
100
AcDbSpline
 62
7
  6
CONTINUOUS
 70
0
 71
3
 72
23
 73
19
 74
0
 42
0.0000001
 43
0.0000001
 44
0.0000000001
 40
0.0
 40
0.0
 40
0.0
 40
0.0
 40
0.0491006003
 40
0.1006648498
 40
0.1554253578
 40
0.2143202049
 40
0.2784677222
 40
0.3489048168
 40
0.4257111208
 40
0.5064607211
 40
0.5861825484
 40
0.6606481903
 40
0.7285671405
 40
0.790550822
 40
0.8477264229
 40
0.9011543596
 40
0.9516924571
 40
1.0
 40
1.0
 40
1.0
 40
1.0
 10
6.557999048
 20
2.176271844
 30
0.0
 10
6.5588502262
 20
2.1769387349
 30
0.0
 10
6.5605422108
 20
2.1783755346
 30
0.0
 10
6.5629550541
 20
2.1808095782
 30
0.0
 10
6.5652645172
 20
2.1836290446
 30
0.0
 10
6.5674194328
 20
2.1869078441
 30
0.0
 10
6.5693365314
 20
2.1907248945
 30
0.0
 10
6.5708814161
 20
2.1951313194
 30
0.0
 10
6.5718665362
 20
2.200073053
 30
0.0
 10
6.5721126715
 20
2.2053133763
 30
0.0
 10
6.5715658029
 20
2.2104783506
 30
0.0
 10
6.5703406625
 20
2.2152308038
 30
0.0
 10
6.5686324795
 20
2.2194083477
 30
0.0
 10
6.5666108744
 20
2.2230089879
 30
0.0
 10
6.5643886362
 20
2.2261011629
 30
0.0
 10
6.5620344722
 20
2.2287639052
 30
0.0
 10
6.5595908672
 20
2.231066385
 30
0.0
 10
6.557886977
 20
2.2324252774
 30
0.0
 10
6.5570306851
 20
2.2330565826
 30
0.0
  0
SPLINE
  5
607
100
AcDbEntity
  8
0
100
AcDbSpline
 62
7
  6
CONTINUOUS
 70
0
 71
3
 72
23
 73
19
 74
0
 42
0.0000001
 43
0.0000001
 44
0.0000000001
 40
0.0
 40
0.0
 40
0.0
 40
0.0
 40
0.0491005987
 40
0.1006648462
 40
0.1554253516
 40
0.2143201956
 40
0.2784677091
 40
0.3489048
 40
0.4257111014
 40
0.5064607019
 40
0.5861825325
 40
0.6606481785
 40
0.7285671323
 40
0.7905508166
 40
0.8477264194
 40
0.9011543576
 40
0.9516924562
 40
1.0
 40
1.0
 40
1.0
 40
1.0
 10
3.072418135
 20
2.1762718418
 30
0.0
 10
3.0732693133
 20
2.1769387327
 30
0.0
 10
3.074961298
 20
2.1783755322
 30
0.0
 10
3.0773741416
 20
2.1808095756
 30
0.0
 10
3.079683605
 20
2.1836290418
 30
0.0
 10
3.0818385209
 20
2.1869078411
 30
0.0
 10
3.0837556199
 20
2.1907248914
 30
0.0
 10
3.0853005051
 20
2.1951313161
 30
0.0
 10
3.0862856257
 20
2.2000730497
 30
0.0
 10
3.0865317615
 20
2.2053133733
 30
0.0
 10
3.0859848932
 20
2.2104783481
 30
0.0
 10
3.084759753
 20
2.2152308019
 30
0.0
 10
3.0830515701
 20
2.2194083463
 30
0.0
 10
3.0810299649
 20
2.2230089869
 30
0.0
 10
3.0788077265
 20
2.2261011622
 30
0.0
 10
3.0764535624
 20
2.2287639049
 30
0.0
 10
3.0740099572
 20
2.2310663849
 30
0.0
 10
3.0723060669
 20
2.2324252774
 30
0.0
 10
3.0714497749
 20
2.2330565826
 30
0.0
  0
SPLINE
  5
608
100
AcDbEntity
  8
0
100
AcDbSpline
 62
7
  6
CONTINUOUS
 70
0
 71
3
 72
23
 73
19
 74
0
 42
0.0000001
 43
0.0000001
 44
0.0000000001
 40
0.0
 40
0.0
 40
0.0
 40
0.0
 40
0.0491006003
 40
0.1006648498
 40
0.1554253578
 40
0.2143202049
 40
0.2784677222
 40
0.3489048168
 40
0.4257111208
 40
0.5064607211
 40
0.5861825484
 40
0.6606481903
 40
0.7285671405
 40
0.790550822
 40
0.8477264229
 40
0.9011543596
 40
0.9516924571
 40
1.0
 40
1.0
 40
1.0
 40
1.0
 10
2.557999048
 20
2.176271844
 30
0.0
 10
2.5588502262
 20
2.1769387349
 30
0.0
 10
2.5605422108
 20
2.1783755346
 30
0.0
 10
2.5629550541
 20
2.1808095782
 30
0.0
 10
2.5652645172
 20
2.1836290446
 30
0.0
 10
2.5674194328
 20
2.1869078441
 30
0.0
 10
2.5693365314
 20
2.1907248945
 30
0.0
 10
2.5708814161
 20
2.1951313194
 30
0.0
 10
2.5718665362
 20
2.200073053
 30
0.0
 10
2.5721126715
 20
2.2053133763
 30
0.0
 10
2.5715658029
 20
2.2104783506
 30
0.0
 10
2.5703406625
 20
2.2152308038
 30
0.0
 10
2.5686324795
 20
2.2194083477
 30
0.0
 10
2.5666108744
 20
2.2230089879
 30
0.0
 10
2.5643886362
 20
2.2261011629
 30
0.0
 10
2.5620344722
 20
2.2287639052
 30
0.0
 10
2.5595908672
 20
2.231066385
 30
0.0
 10
2.557886977
 20
2.2324252774
 30
0.0
 10
2.5570306851
 20
2.2330565826
 30
0.0
  0
ENDSEC
  0
SECTION
  2
OBJECTS
  0
DICTIONARY
  5
C
100
AcDbDictionary
280
0
281
1
  3
ACAD_GROUP
350
D
  3
ACAD_MLINESTYLE
350
17
  3
ACAD_LAYOUT
350
1A
  3
ACAD_PLOTSETTINGS
350
19
  3
ACAD_PLOTSTYLENAME
350
E
  0
DICTIONARY
  5
D
102
{ACAD_REACTORS
330
C
102
}
100
AcDbDictionary
280
0
281
1
  0
ACDBDICTIONARYWDFLT
  5
E
102
{ACAD_REACTORS
330
C
102
}
100
AcDbDictionary
281
1
  3
Normal
350
F
100
AcDbDictionaryWithDefault
340
F
  0
DICTIONARY
  5
17
102
{ACAD_REACTORS
330
C
102
}
100
AcDbDictionary
280
0
281
1
  3
Standard
350
18
  0
DICTIONARY
  5
19
102
{ACAD_REACTORS
330
C
102
}
100
AcDbDictionary
281
1
  0
DICTIONARY
  5
1A
102
{ACAD_REACTORS
330
C
102
}
100
AcDbDictionary
281
1
  3
Model
350
609
  3
Layout1
350
60A
  0
ACDBPLACEHOLDER
  5
F
102
{ACAD_REACTORS
330
E
102
}
  0
MLINESTYLE
  5
18
102
{ACAD_REACTORS
330
17
102
}
100
AcDbMlineStyle
  2
STANDARD
 70
0
  3

 62
256
 51
90.0
 52
90.0
 71
2
 49
0.5
 62
256
  6
BYLAYER
 49
-0.5
 62
256
  6
BYLAYER
  0
LAYOUT
  5
609
102
{ACAD_REACTORS
330
1A
102
}
100
AcDbPlotSettings
  1

  2
none_device
  4
ANSI_A_(11.00_x_8.50_Inches)
  6

 40
0.0
 41
0.0
 42
0.0
 43
0.0
 44
279.4
 45
215.9
 46
0.0
 47
0.0
 48
0.0
 49
0.0
140
0.0
141
0.0
142
1.0
143
1.0
 70
1024
 72
0
 73
0
 74
0
  7

 75
0
147
1.0
148
0.0
149
0.0
100
AcDbLayout
  1
Model
 70
0
 71
0
 10
0.0
 20
0.0
 11
11.0
 21
8.5
 12
0.0
 22
0.0
 32
0.0
 14
0.0
 24
0.0
 34
0.0
 15
0.0
 25
0.0
 35
0.0
146
0.0
 13
0.0
 23
0.0
 33
0.0
 16
1.0
 26
0.0
 36
0.0
 17
0.0
 27
1.0
 37
0.0
 76
0
330
202
345
0
346
0
  0
LAYOUT
  5
60A
102
{ACAD_REACTORS
330
1A
102
}
100
AcDbPlotSettings
  1

  2
none_device
  4
ANSI_A_(11.00_x_8.50_Inches)
  6

 40
0.0
 41
0.0
 42
0.0
 43
0.0
 44
279.4
 45
215.9
 46
0.0
 47
0.0
 48
0.0
 49
0.0
140
0.0
141
0.0
142
1.0
143
1.0
 70
0
 72
0
 73
0
 74
0
  7

 75
0
147
1.0
148
0.0
149
0.0
100
AcDbLayout
  1
Layout1
 70
0
 71
1
 10
0.0
 20
0.0
 11
11.0
 21
8.5
 12
0.0
 22
0.0
 32
0.0
 14
0.0
 24
0.0
 34
0.0
 15
0.0
 25
0.0
 35
0.0
146
0.0
 13
0.0
 23
0.0
 33
0.0
 16
1.0
 26
0.0
 36
0.0
 17
0.0
 27
1.0
 37
0.0
 76
0
330
203
345
0
346
0
  0
ENDSEC
  0
EOF
